999
unknown String-ID: 20550
0
SECTION
2
HEADER
9
$ACADVER
1
AC1009
9
$DWGCODEPAGE
3
unknown String-ID: 20561
0
ENDSEC
0
SECTION
2
TABLES
0
TABLE
2
LAYER
70
1
0
LAYER
2
0
70
0
62
7
6
CONTINUOUS
0
ENDTAB
0
ENDSEC
0
SECTION
2
ENTITIES
0
LINE
8
0
6
CONTINUOUS
10
0.022034
20
0.005648
30
0.0
11
0.022034
21
0.013632
31
0.0
0
LINE
8
0
6
CONTINUOUS
10
-0.022034
20
0.013632
30
0.0
11
-0.022034
21
0.005648
31
0.0
0
LINE
8
0
6
CONTINUOUS
10
0.004581
20
-0.027632
30
0.0
11
0.011251
21
-0.027632
31
0.0
0
LINE
8
0
6
CONTINUOUS
10
-0.015141
20
-0.027632
30
0.0
11
-0.011250
21
-0.027632
31
0.0
0
LINE
8
0
6
CONTINUOUS
10
0.016867
20
-0.027632
30
0.0
11
0.018011
21
-0.027632
31
0.0
0
LINE
8
0
6
CONTINUOUS
10
0.020605
20
-0.027632
30
0.0
11
0.021084
21
-0.027632
31
0.0
0
LINE
8
0
6
CONTINUOUS
10
-0.018011
20
-0.027632
30
0.0
11
-0.016867
21
-0.027632
31
0.0
0
LINE
8
0
6
CONTINUOUS
10
-0.016867
20
-0.027632
30
0.0
11
-0.015141
21
-0.027632
31
0.0
0
LINE
8
0
6
CONTINUOUS
10
0.011251
20
-0.027632
30
0.0
11
0.015141
21
-0.027632
31
0.0
0
LINE
8
0
6
CONTINUOUS
10
-0.021810
20
-0.027547
30
0.0
11
-0.021612
21
-0.027632
31
0.0
0
LINE
8
0
6
CONTINUOUS
10
-0.021612
20
-0.027632
30
0.0
11
-0.021494
21
-0.027632
31
0.0
0
LINE
8
0
6
CONTINUOUS
10
-0.018985
20
-0.027632
30
0.0
11
-0.018011
21
-0.027632
31
0.0
0
LINE
8
0
6
CONTINUOUS
10
0.015141
20
-0.027632
30
0.0
11
0.016867
21
-0.027632
31
0.0
0
LINE
8
0
6
CONTINUOUS
10
-0.021084
20
-0.027632
30
0.0
11
-0.020605
21
-0.027632
31
0.0
0
LINE
8
0
6
CONTINUOUS
10
0.020777
20
-0.027547
30
0.0
11
0.021233
21
-0.027547
31
0.0
0
LINE
8
0
6
CONTINUOUS
10
-0.016991
20
-0.027547
30
0.0
11
-0.015260
21
-0.027547
31
0.0
0
LINE
8
0
6
CONTINUOUS
10
0.021895
20
-0.027348
30
0.0
11
0.021895
21
-0.027170
31
0.0
0
LINE
8
0
6
CONTINUOUS
10
0.015261
20
-0.027547
30
0.0
11
0.016991
21
-0.027547
31
0.0
0
LINE
8
0
6
CONTINUOUS
10
0.020260
20
-0.027632
30
0.0
11
0.020605
21
-0.027632
31
0.0
0
LINE
8
0
6
CONTINUOUS
10
0.004620
20
-0.027547
30
0.0
11
0.000000
21
-0.027547
31
0.0
0
LINE
8
0
6
CONTINUOUS
10
0.000000
20
-0.027632
30
0.0
11
0.004581
21
-0.027632
31
0.0
0
LINE
8
0
6
CONTINUOUS
10
-0.018164
20
-0.027547
30
0.0
11
-0.016991
21
-0.027547
31
0.0
0
LINE
8
0
6
CONTINUOUS
10
-0.019126
20
-0.027547
30
0.0
11
-0.018164
21
-0.027547
31
0.0
0
LINE
8
0
6
CONTINUOUS
10
-0.021091
20
0.007249
30
0.0
11
-0.021473
21
0.007249
31
0.0
0
LINE
8
0
6
CONTINUOUS
10
0.018011
20
-0.027632
30
0.0
11
0.018985
21
-0.027632
31
0.0
0
LINE
8
0
6
CONTINUOUS
10
0.016991
20
-0.027547
30
0.0
11
0.018164
21
-0.027547
31
0.0
0
LINE
8
0
6
CONTINUOUS
10
-0.022525
20
0.006866
30
0.0
11
-0.021895
21
-0.027170
31
0.0
0
LINE
8
0
6
CONTINUOUS
10
0.020419
20
-0.027547
30
0.0
11
0.019879
21
-0.027547
31
0.0
0
LINE
8
0
6
CONTINUOUS
10
0.019733
20
-0.027632
30
0.0
11
0.020260
21
-0.027632
31
0.0
0
LINE
8
0
6
CONTINUOUS
10
-0.021494
20
-0.027632
30
0.0
11
-0.021084
21
-0.027632
31
0.0
0
LINE
8
0
6
CONTINUOUS
10
-0.021233
20
-0.027547
30
0.0
11
-0.021676
21
-0.027547
31
0.0
0
LINE
8
0
6
CONTINUOUS
10
-0.015260
20
-0.027547
30
0.0
11
-0.011307
21
-0.027547
31
0.0
0
LINE
8
0
6
CONTINUOUS
10
-0.020260
20
-0.027632
30
0.0
11
-0.019733
21
-0.027632
31
0.0
0
LINE
8
0
6
CONTINUOUS
10
-0.019879
20
-0.027547
30
0.0
11
-0.020419
21
-0.027547
31
0.0
0
LINE
8
0
6
CONTINUOUS
10
0.011308
20
-0.027547
30
0.0
11
0.015261
21
-0.027547
31
0.0
0
LINE
8
0
6
CONTINUOUS
10
-0.004580
20
-0.027632
30
0.0
11
0.000000
21
-0.027632
31
0.0
0
LINE
8
0
6
CONTINUOUS
10
-0.020605
20
-0.027632
30
0.0
11
-0.020260
21
-0.027632
31
0.0
0
LINE
8
0
6
CONTINUOUS
10
-0.020419
20
-0.027547
30
0.0
11
-0.020777
21
-0.027547
31
0.0
0
LINE
8
0
6
CONTINUOUS
10
-0.019126
20
-0.027547
30
0.0
11
-0.019879
21
-0.027547
31
0.0
0
LINE
8
0
6
CONTINUOUS
10
-0.019733
20
-0.027632
30
0.0
11
-0.018985
21
-0.027632
31
0.0
0
LINE
8
0
6
CONTINUOUS
10
-0.004620
20
-0.027547
30
0.0
11
0.000000
21
-0.027547
31
0.0
0
LINE
8
0
6
CONTINUOUS
10
0.018164
20
-0.027547
30
0.0
11
0.019127
21
-0.027547
31
0.0
0
LINE
8
0
6
CONTINUOUS
10
-0.021233
20
-0.027547
30
0.0
11
-0.020777
21
-0.027547
31
0.0
0
LINE
8
0
6
CONTINUOUS
10
0.020419
20
-0.027547
30
0.0
11
0.020777
21
-0.027547
31
0.0
0
LINE
8
0
6
CONTINUOUS
10
0.004620
20
-0.027547
30
0.0
11
0.011308
21
-0.027547
31
0.0
0
LINE
8
0
6
CONTINUOUS
10
0.021811
20
-0.027547
30
0.0
11
0.021895
21
-0.027348
31
0.0
0
LINE
8
0
6
CONTINUOUS
10
0.021084
20
-0.027632
30
0.0
11
0.021495
21
-0.027632
31
0.0
0
LINE
8
0
6
CONTINUOUS
10
0.021676
20
-0.027547
30
0.0
11
0.021233
21
-0.027547
31
0.0
0
LINE
8
0
6
CONTINUOUS
10
0.021811
20
-0.027547
30
0.0
11
0.021676
21
-0.027547
31
0.0
0
LINE
8
0
6
CONTINUOUS
10
0.021612
20
-0.027632
30
0.0
11
0.021811
21
-0.027547
31
0.0
0
LINE
8
0
6
CONTINUOUS
10
0.021495
20
-0.027632
30
0.0
11
0.021612
21
-0.027632
31
0.0
0
LINE
8
0
6
CONTINUOUS
10
-0.004620
20
-0.027547
30
0.0
11
-0.011307
21
-0.027547
31
0.0
0
LINE
8
0
6
CONTINUOUS
10
-0.011250
20
-0.027632
30
0.0
11
-0.004580
21
-0.027632
31
0.0
0
LINE
8
0
6
CONTINUOUS
10
0.019879
20
-0.027547
30
0.0
11
0.019127
21
-0.027547
31
0.0
0
LINE
8
0
6
CONTINUOUS
10
0.018985
20
-0.027632
30
0.0
11
0.019733
21
-0.027632
31
0.0
0
LINE
8
0
6
CONTINUOUS
10
-0.021895
20
-0.027348
30
0.0
11
-0.021810
21
-0.027547
31
0.0
0
LINE
8
0
6
CONTINUOUS
10
-0.021810
20
-0.027547
30
0.0
11
-0.021676
21
-0.027547
31
0.0
0
LINE
8
0
6
CONTINUOUS
10
0.011695
20
0.007249
30
0.0
11
0.004771
21
0.007249
31
0.0
0
LINE
8
0
6
CONTINUOUS
10
-0.021956
20
0.007249
30
0.0
11
-0.022404
21
0.007249
31
0.0
0
LINE
8
0
6
CONTINUOUS
10
0.021895
20
-0.027170
30
0.0
11
0.022525
21
0.006866
31
0.0
0
LINE
8
0
6
CONTINUOUS
10
-0.020521
20
0.007249
30
0.0
11
-0.021091
21
0.007249
31
0.0
0
LINE
8
0
6
CONTINUOUS
10
-0.021895
20
-0.027170
30
0.0
11
-0.021895
21
-0.027348
31
0.0
0
LINE
8
0
6
CONTINUOUS
10
0.004771
20
0.007249
30
0.0
11
0.000000
21
0.007249
31
0.0
0
LINE
8
0
6
CONTINUOUS
10
0.019755
20
0.007249
30
0.0
11
0.018756
21
0.007249
31
0.0
0
LINE
8
0
6
CONTINUOUS
10
0.018756
20
0.007249
30
0.0
11
0.017553
21
0.007249
31
0.0
0
LINE
8
0
6
CONTINUOUS
10
0.015753
20
0.007249
30
0.0
11
0.011695
21
0.007249
31
0.0
0
LINE
8
0
6
CONTINUOUS
10
0.017553
20
0.007249
30
0.0
11
0.015753
21
0.007249
31
0.0
0
LINE
8
0
6
CONTINUOUS
10
-0.021473
20
0.007249
30
0.0
11
-0.021956
21
0.007249
31
0.0
0
LINE
8
0
6
CONTINUOUS
10
-0.019755
20
0.007249
30
0.0
11
-0.020521
21
0.007249
31
0.0
0
LINE
8
0
6
CONTINUOUS
10
0.022404
20
0.007249
30
0.0
11
0.021957
21
0.007249
31
0.0
0
LINE
8
0
6
CONTINUOUS
10
-0.022532
20
0.007249
30
0.0
11
-0.022525
21
0.006866
31
0.0
0
LINE
8
0
6
CONTINUOUS
10
-0.022404
20
0.007249
30
0.0
11
-0.022532
21
0.007249
31
0.0
0
LINE
8
0
6
CONTINUOUS
10
-0.011695
20
0.007249
30
0.0
11
-0.015753
21
0.007249
31
0.0
0
LINE
8
0
6
CONTINUOUS
10
-0.004770
20
0.007249
30
0.0
11
-0.011695
21
0.007249
31
0.0
0
LINE
8
0
6
CONTINUOUS
10
0.021957
20
0.007249
30
0.0
11
0.021473
21
0.007249
31
0.0
0
LINE
8
0
6
CONTINUOUS
10
-0.015753
20
0.007249
30
0.0
11
-0.017553
21
0.007249
31
0.0
0
LINE
8
0
6
CONTINUOUS
10
0.022525
20
0.006866
30
0.0
11
0.022532
21
0.007249
31
0.0
0
LINE
8
0
6
CONTINUOUS
10
0.022532
20
0.007249
30
0.0
11
0.022404
21
0.007249
31
0.0
0
LINE
8
0
6
CONTINUOUS
10
0.000000
20
0.007249
30
0.0
11
-0.004770
21
0.007249
31
0.0
0
LINE
8
0
6
CONTINUOUS
10
0.021091
20
0.007249
30
0.0
11
0.020521
21
0.007249
31
0.0
0
LINE
8
0
6
CONTINUOUS
10
-0.017553
20
0.007249
30
0.0
11
-0.018756
21
0.007249
31
0.0
0
LINE
8
0
6
CONTINUOUS
10
-0.018756
20
0.007249
30
0.0
11
-0.019755
21
0.007249
31
0.0
0
LINE
8
0
6
CONTINUOUS
10
0.020521
20
0.007249
30
0.0
11
0.019755
21
0.007249
31
0.0
0
LINE
8
0
6
CONTINUOUS
10
0.021473
20
0.007249
30
0.0
11
0.021091
21
0.007249
31
0.0
0
LINE
8
0
6
CONTINUOUS
10
0.016213
20
0.013632
30
0.0
11
0.028654
21
0.013632
31
0.0
0
LINE
8
0
6
CONTINUOUS
10
0.028654
20
0.013632
30
0.0
11
0.039822
21
0.013632
31
0.0
0
LINE
8
0
6
CONTINUOUS
10
0.039822
20
0.013632
30
0.0
11
0.047467
21
0.013632
31
0.0
0
LINE
8
0
6
CONTINUOUS
10
0.055563
20
0.013632
30
0.0
11
0.059452
21
0.013632
31
0.0
0
LINE
8
0
6
CONTINUOUS
10
0.074407
20
0.013632
30
0.0
11
0.075279
21
0.013632
31
0.0
0
LINE
8
0
6
CONTINUOUS
10
0.066330
20
0.013632
30
0.0
11
0.068941
21
0.013632
31
0.0
0
LINE
8
0
6
CONTINUOUS
10
0.074923
20
0.013932
30
0.0
11
0.075806
21
0.013932
31
0.0
0
LINE
8
0
6
CONTINUOUS
10
0.059452
20
0.013632
30
0.0
11
0.063070
21
0.013632
31
0.0
0
LINE
8
0
6
CONTINUOUS
10
0.076500
20
0.013632
30
0.0
11
0.077200
21
0.013932
31
0.0
0
LINE
8
0
6
CONTINUOUS
10
0.076291
20
0.013632
30
0.0
11
0.076500
21
0.013632
31
0.0
0
LINE
8
0
6
CONTINUOUS
10
0.016353
20
0.013932
30
0.0
11
0.000000
21
0.013932
31
0.0
0
LINE
8
0
6
CONTINUOUS
10
0.000000
20
0.013632
30
0.0
11
0.016213
21
0.013632
31
0.0
0
LINE
8
0
6
CONTINUOUS
10
0.016353
20
0.013932
30
0.0
11
0.028962
21
0.013932
31
0.0
0
LINE
8
0
6
CONTINUOUS
10
0.028962
20
0.013932
30
0.0
11
0.040025
21
0.013932
31
0.0
0
LINE
8
0
6
CONTINUOUS
10
0.055946
20
0.013932
30
0.0
11
0.059870
21
0.013932
31
0.0
0
LINE
8
0
6
CONTINUOUS
10
0.077200
20
0.013932
30
0.0
11
0.077500
21
0.014632
31
0.0
0
LINE
8
0
6
CONTINUOUS
10
0.076935
20
0.013932
30
0.0
11
0.077200
21
0.013932
31
0.0
0
LINE
8
0
6
CONTINUOUS
10
0.051888
20
0.013932
30
0.0
11
0.047743
21
0.013932
31
0.0
0
LINE
8
0
6
CONTINUOUS
10
0.047467
20
0.013632
30
0.0
11
0.051544
21
0.013632
31
0.0
0
LINE
8
0
6
CONTINUOUS
10
0.055946
20
0.013932
30
0.0
11
0.051888
21
0.013932
31
0.0
0
LINE
8
0
6
CONTINUOUS
10
0.051544
20
0.013632
30
0.0
11
0.055563
21
0.013632
31
0.0
0
LINE
8
0
6
CONTINUOUS
10
0.066776
20
0.013932
30
0.0
11
0.063551
21
0.013932
31
0.0
0
LINE
8
0
6
CONTINUOUS
10
0.063070
20
0.013632
30
0.0
11
0.066330
21
0.013632
31
0.0
0
LINE
8
0
6
CONTINUOUS
10
0.075949
20
0.013632
30
0.0
11
0.076291
21
0.013632
31
0.0
0
LINE
8
0
6
CONTINUOUS
10
0.075279
20
0.013632
30
0.0
11
0.075949
21
0.013632
31
0.0
0
LINE
8
0
6
CONTINUOUS
10
0.076565
20
0.013932
30
0.0
11
0.075806
21
0.013932
31
0.0
0
LINE
8
0
6
CONTINUOUS
10
0.073518
20
0.013632
30
0.0
11
0.074407
21
0.013632
31
0.0
0
LINE
8
0
6
CONTINUOUS
10
0.074923
20
0.013932
30
0.0
11
0.074143
21
0.013932
31
0.0
0
LINE
8
0
6
CONTINUOUS
10
0.072434
20
0.013632
30
0.0
11
0.073518
21
0.013632
31
0.0
0
LINE
8
0
6
CONTINUOUS
10
0.074143
20
0.013932
30
0.0
11
0.073009
21
0.013932
31
0.0
0
LINE
8
0
6
CONTINUOUS
10
0.070952
20
0.013632
30
0.0
11
0.072434
21
0.013632
31
0.0
0
LINE
8
0
6
CONTINUOUS
10
0.077500
20
0.015009
30
0.0
11
0.077500
21
0.027256
31
0.0
0
LINE
8
0
6
CONTINUOUS
10
0.076565
20
0.013932
30
0.0
11
0.076935
21
0.013932
31
0.0
0
LINE
8
0
6
CONTINUOUS
10
0.071521
20
0.013932
30
0.0
11
0.073009
21
0.013932
31
0.0
0
LINE
8
0
6
CONTINUOUS
10
0.068941
20
0.013632
30
0.0
11
0.070952
21
0.013632
31
0.0
0
LINE
8
0
6
CONTINUOUS
10
0.071521
20
0.013932
30
0.0
11
0.069428
21
0.013932
31
0.0
0
LINE
8
0
6
CONTINUOUS
10
0.066776
20
0.013932
30
0.0
11
0.069428
21
0.013932
31
0.0
0
LINE
8
0
6
CONTINUOUS
10
0.059870
20
0.013932
30
0.0
11
0.063551
21
0.013932
31
0.0
0
LINE
8
0
6
CONTINUOUS
10
0.016409
20
0.027632
30
0.0
11
0.000000
21
0.027632
31
0.0
0
LINE
8
0
6
CONTINUOUS
10
0.069697
20
0.027632
30
0.0
11
0.067038
21
0.027632
31
0.0
0
LINE
8
0
6
CONTINUOUS
10
0.060091
20
0.027632
30
0.0
11
0.056144
21
0.027632
31
0.0
0
LINE
8
0
6
CONTINUOUS
10
0.029102
20
0.027632
30
0.0
11
0.016409
21
0.027632
31
0.0
0
LINE
8
0
6
CONTINUOUS
10
0.076171
20
0.027632
30
0.0
11
0.075247
21
0.027632
31
0.0
0
LINE
8
0
6
CONTINUOUS
10
0.075247
20
0.027632
30
0.0
11
0.074454
21
0.027632
31
0.0
0
LINE
8
0
6
CONTINUOUS
10
0.052068
20
0.027632
30
0.0
11
0.047903
21
0.027632
31
0.0
0
LINE
8
0
6
CONTINUOUS
10
0.077500
20
0.014632
30
0.0
11
0.077500
21
0.015009
31
0.0
0
LINE
8
0
6
CONTINUOUS
10
0.047903
20
0.027632
30
0.0
11
0.040227
21
0.027632
31
0.0
0
LINE
8
0
6
CONTINUOUS
10
0.067038
20
0.027632
30
0.0
11
0.063759
21
0.027632
31
0.0
0
LINE
8
0
6
CONTINUOUS
10
0.063759
20
0.027632
30
0.0
11
0.060091
21
0.027632
31
0.0
0
LINE
8
0
6
CONTINUOUS
10
0.040227
20
0.027632
30
0.0
11
0.029102
21
0.027632
31
0.0
0
LINE
8
0
6
CONTINUOUS
10
0.073306
20
0.027632
30
0.0
11
0.071798
21
0.027632
31
0.0
0
LINE
8
0
6
CONTINUOUS
10
0.077500
20
0.027632
30
0.0
11
0.077270
21
0.027632
31
0.0
0
LINE
8
0
6
CONTINUOUS
10
0.077500
20
0.027256
30
0.0
11
0.077500
21
0.027632
31
0.0
0
LINE
8
0
6
CONTINUOUS
10
0.077270
20
0.027632
30
0.0
11
0.076873
21
0.027632
31
0.0
0
LINE
8
0
6
CONTINUOUS
10
0.071798
20
0.027632
30
0.0
11
0.069697
21
0.027632
31
0.0
0
LINE
8
0
6
CONTINUOUS
10
0.074454
20
0.027632
30
0.0
11
0.073306
21
0.027632
31
0.0
0
LINE
8
0
6
CONTINUOUS
10
0.076873
20
0.027632
30
0.0
11
0.076171
21
0.027632
31
0.0
0
LINE
8
0
6
CONTINUOUS
10
0.056144
20
0.027632
30
0.0
11
0.052068
21
0.027632
31
0.0
0
LINE
8
0
6
CONTINUOUS
10
-0.028654
20
0.013632
30
0.0
11
-0.016213
21
0.013632
31
0.0
0
LINE
8
0
6
CONTINUOUS
10
-0.039822
20
0.013632
30
0.0
11
-0.028654
21
0.013632
31
0.0
0
LINE
8
0
6
CONTINUOUS
10
-0.047467
20
0.013632
30
0.0
11
-0.039822
21
0.013632
31
0.0
0
LINE
8
0
6
CONTINUOUS
10
-0.059452
20
0.013632
30
0.0
11
-0.055563
21
0.013632
31
0.0
0
LINE
8
0
6
CONTINUOUS
10
-0.075279
20
0.013632
30
0.0
11
-0.074407
21
0.013632
31
0.0
0
LINE
8
0
6
CONTINUOUS
10
-0.068941
20
0.013632
30
0.0
11
-0.066330
21
0.013632
31
0.0
0
LINE
8
0
6
CONTINUOUS
10
-0.075806
20
0.013932
30
0.0
11
-0.074923
21
0.013932
31
0.0
0
LINE
8
0
6
CONTINUOUS
10
-0.063070
20
0.013632
30
0.0
11
-0.059452
21
0.013632
31
0.0
0
LINE
8
0
6
CONTINUOUS
10
-0.076500
20
0.013632
30
0.0
11
-0.076291
21
0.013632
31
0.0
0
LINE
8
0
6
CONTINUOUS
10
-0.077200
20
0.013932
30
0.0
11
-0.076500
21
0.013632
31
0.0
0
LINE
8
0
6
CONTINUOUS
10
-0.016213
20
0.013632
30
0.0
11
0.000000
21
0.013632
31
0.0
0
LINE
8
0
6
CONTINUOUS
10
0.000000
20
0.013932
30
0.0
11
-0.016353
21
0.013932
31
0.0
0
LINE
8
0
6
CONTINUOUS
10
-0.028962
20
0.013932
30
0.0
11
-0.016353
21
0.013932
31
0.0
0
LINE
8
0
6
CONTINUOUS
10
-0.040025
20
0.013932
30
0.0
11
-0.028962
21
0.013932
31
0.0
0
LINE
8
0
6
CONTINUOUS
10
-0.059870
20
0.013932
30
0.0
11
-0.055946
21
0.013932
31
0.0
0
LINE
8
0
6
CONTINUOUS
10
-0.077200
20
0.013932
30
0.0
11
-0.076935
21
0.013932
31
0.0
0
LINE
8
0
6
CONTINUOUS
10
-0.077500
20
0.014632
30
0.0
11
-0.077200
21
0.013932
31
0.0
0
LINE
8
0
6
CONTINUOUS
10
-0.051544
20
0.013632
30
0.0
11
-0.047467
21
0.013632
31
0.0
0
LINE
8
0
6
CONTINUOUS
10
-0.047743
20
0.013932
30
0.0
11
-0.051888
21
0.013932
31
0.0
0
LINE
8
0
6
CONTINUOUS
10
-0.055563
20
0.013632
30
0.0
11
-0.051544
21
0.013632
31
0.0
0
LINE
8
0
6
CONTINUOUS
10
-0.051888
20
0.013932
30
0.0
11
-0.055946
21
0.013932
31
0.0
0
LINE
8
0
6
CONTINUOUS
10
-0.066330
20
0.013632
30
0.0
11
-0.063070
21
0.013632
31
0.0
0
LINE
8
0
6
CONTINUOUS
10
-0.063551
20
0.013932
30
0.0
11
-0.066776
21
0.013932
31
0.0
0
LINE
8
0
6
CONTINUOUS
10
-0.076291
20
0.013632
30
0.0
11
-0.075949
21
0.013632
31
0.0
0
LINE
8
0
6
CONTINUOUS
10
-0.075806
20
0.013932
30
0.0
11
-0.076565
21
0.013932
31
0.0
0
LINE
8
0
6
CONTINUOUS
10
-0.075949
20
0.013632
30
0.0
11
-0.075279
21
0.013632
31
0.0
0
LINE
8
0
6
CONTINUOUS
10
-0.074143
20
0.013932
30
0.0
11
-0.074923
21
0.013932
31
0.0
0
LINE
8
0
6
CONTINUOUS
10
-0.074407
20
0.013632
30
0.0
11
-0.073518
21
0.013632
31
0.0
0
LINE
8
0
6
CONTINUOUS
10
-0.073009
20
0.013932
30
0.0
11
-0.074143
21
0.013932
31
0.0
0
LINE
8
0
6
CONTINUOUS
10
-0.073518
20
0.013632
30
0.0
11
-0.072434
21
0.013632
31
0.0
0
LINE
8
0
6
CONTINUOUS
10
-0.072434
20
0.013632
30
0.0
11
-0.070952
21
0.013632
31
0.0
0
LINE
8
0
6
CONTINUOUS
10
-0.077500
20
0.027256
30
0.0
11
-0.077500
21
0.015009
31
0.0
0
LINE
8
0
6
CONTINUOUS
10
-0.076935
20
0.013932
30
0.0
11
-0.076565
21
0.013932
31
0.0
0
LINE
8
0
6
CONTINUOUS
10
-0.073009
20
0.013932
30
0.0
11
-0.071521
21
0.013932
31
0.0
0
LINE
8
0
6
CONTINUOUS
10
-0.069428
20
0.013932
30
0.0
11
-0.071521
21
0.013932
31
0.0
0
LINE
8
0
6
CONTINUOUS
10
-0.070952
20
0.013632
30
0.0
11
-0.068941
21
0.013632
31
0.0
0
LINE
8
0
6
CONTINUOUS
10
-0.069428
20
0.013932
30
0.0
11
-0.066776
21
0.013932
31
0.0
0
LINE
8
0
6
CONTINUOUS
10
-0.063551
20
0.013932
30
0.0
11
-0.059870
21
0.013932
31
0.0
0
LINE
8
0
6
CONTINUOUS
10
0.000000
20
0.027632
30
0.0
11
-0.016409
21
0.027632
31
0.0
0
LINE
8
0
6
CONTINUOUS
10
-0.067038
20
0.027632
30
0.0
11
-0.069697
21
0.027632
31
0.0
0
LINE
8
0
6
CONTINUOUS
10
-0.056144
20
0.027632
30
0.0
11
-0.060091
21
0.027632
31
0.0
0
LINE
8
0
6
CONTINUOUS
10
-0.016409
20
0.027632
30
0.0
11
-0.029102
21
0.027632
31
0.0
0
LINE
8
0
6
CONTINUOUS
10
-0.075247
20
0.027632
30
0.0
11
-0.076171
21
0.027632
31
0.0
0
LINE
8
0
6
CONTINUOUS
10
-0.074454
20
0.027632
30
0.0
11
-0.075247
21
0.027632
31
0.0
0
LINE
8
0
6
CONTINUOUS
10
-0.047903
20
0.027632
30
0.0
11
-0.052068
21
0.027632
31
0.0
0
LINE
8
0
6
CONTINUOUS
10
-0.077500
20
0.015009
30
0.0
11
-0.077500
21
0.014632
31
0.0
0
LINE
8
0
6
CONTINUOUS
10
-0.040227
20
0.027632
30
0.0
11
-0.047903
21
0.027632
31
0.0
0
LINE
8
0
6
CONTINUOUS
10
-0.063759
20
0.027632
30
0.0
11
-0.067038
21
0.027632
31
0.0
0
LINE
8
0
6
CONTINUOUS
10
-0.060091
20
0.027632
30
0.0
11
-0.063759
21
0.027632
31
0.0
0
LINE
8
0
6
CONTINUOUS
10
-0.029102
20
0.027632
30
0.0
11
-0.040227
21
0.027632
31
0.0
0
LINE
8
0
6
CONTINUOUS
10
-0.071798
20
0.027632
30
0.0
11
-0.073306
21
0.027632
31
0.0
0
LINE
8
0
6
CONTINUOUS
10
-0.077500
20
0.027632
30
0.0
11
-0.077500
21
0.027256
31
0.0
0
LINE
8
0
6
CONTINUOUS
10
-0.077270
20
0.027632
30
0.0
11
-0.077500
21
0.027632
31
0.0
0
LINE
8
0
6
CONTINUOUS
10
-0.076873
20
0.027632
30
0.0
11
-0.077270
21
0.027632
31
0.0
0
LINE
8
0
6
CONTINUOUS
10
-0.069697
20
0.027632
30
0.0
11
-0.071798
21
0.027632
31
0.0
0
LINE
8
0
6
CONTINUOUS
10
-0.073306
20
0.027632
30
0.0
11
-0.074454
21
0.027632
31
0.0
0
LINE
8
0
6
CONTINUOUS
10
-0.076171
20
0.027632
30
0.0
11
-0.076873
21
0.027632
31
0.0
0
LINE
8
0
6
CONTINUOUS
10
-0.052068
20
0.027632
30
0.0
11
-0.056144
21
0.027632
31
0.0
0
ENDSEC
0
EOF
