999
unknown String-ID: 20550
0
SECTION
2
HEADER
9
$ACADVER
1
AC1009
9
$DWGCODEPAGE
3
unknown String-ID: 20561
0
ENDSEC
0
SECTION
2
TABLES
0
TABLE
2
LAYER
70
1
0
LAYER
2
0
70
0
62
7
6
CONTINUOUS
0
ENDTAB
0
ENDSEC
0
SECTION
2
ENTITIES
0
LINE
8
0
6
CONTINUOUS
10
-0.013632
20
-0.022034
30
0.0
11
-0.005648
21
-0.022034
31
0.0
0
LINE
8
0
6
CONTINUOUS
10
-0.005648
20
0.022034
30
0.0
11
-0.013632
21
0.022034
31
0.0
0
LINE
8
0
6
CONTINUOUS
10
0.003843
20
-0.026383
30
0.0
11
0.005643
21
-0.026383
31
0.0
0
LINE
8
0
6
CONTINUOUS
10
0.013063
20
-0.025802
30
0.0
11
0.013063
21
-0.022156
31
0.0
0
LINE
8
0
6
CONTINUOUS
10
0.003063
20
-0.025802
30
0.0
11
0.003063
21
-0.026008
31
0.0
0
LINE
8
0
6
CONTINUOUS
10
0.012283
20
-0.026383
30
0.0
11
0.012943
21
-0.026383
31
0.0
0
LINE
8
0
6
CONTINUOUS
10
0.012943
20
-0.026383
30
0.0
11
0.013063
21
-0.026008
31
0.0
0
LINE
8
0
6
CONTINUOUS
10
0.005643
20
-0.026383
30
0.0
11
0.008063
21
-0.026383
31
0.0
0
LINE
8
0
6
CONTINUOUS
10
0.003183
20
-0.026383
30
0.0
11
0.003843
21
-0.026383
31
0.0
0
LINE
8
0
6
CONTINUOUS
10
0.003063
20
-0.026008
30
0.0
11
0.003183
21
-0.026383
31
0.0
0
LINE
8
0
6
CONTINUOUS
10
0.010483
20
-0.026383
30
0.0
11
0.012283
21
-0.026383
31
0.0
0
LINE
8
0
6
CONTINUOUS
10
0.008063
20
-0.026383
30
0.0
11
0.010483
21
-0.026383
31
0.0
0
LINE
8
0
6
CONTINUOUS
10
0.027632
20
-0.015141
30
0.0
11
0.027632
21
-0.011250
31
0.0
0
LINE
8
0
6
CONTINUOUS
10
0.027632
20
0.020605
30
0.0
11
0.027632
21
0.021084
31
0.0
0
LINE
8
0
6
CONTINUOUS
10
0.027632
20
-0.016867
30
0.0
11
0.027632
21
-0.015141
31
0.0
0
LINE
8
0
6
CONTINUOUS
10
0.027632
20
-0.021084
30
0.0
11
0.027632
21
-0.020605
31
0.0
0
LINE
8
0
6
CONTINUOUS
10
0.027632
20
-0.020260
30
0.0
11
0.027632
21
-0.019733
31
0.0
0
LINE
8
0
6
CONTINUOUS
10
0.027632
20
-0.018011
30
0.0
11
0.027632
21
-0.016867
31
0.0
0
LINE
8
0
6
CONTINUOUS
10
0.027632
20
-0.011250
30
0.0
11
0.027632
21
-0.004580
31
0.0
0
LINE
8
0
6
CONTINUOUS
10
0.027632
20
-0.021494
30
0.0
11
0.027632
21
-0.021084
31
0.0
0
LINE
8
0
6
CONTINUOUS
10
0.027632
20
0.019733
30
0.0
11
0.027632
21
0.020260
31
0.0
0
LINE
8
0
6
CONTINUOUS
10
0.027632
20
0.020260
30
0.0
11
0.027632
21
0.020605
31
0.0
0
LINE
8
0
6
CONTINUOUS
10
0.027632
20
0.000000
30
0.0
11
0.027632
21
0.004581
31
0.0
0
LINE
8
0
6
CONTINUOUS
10
0.027632
20
0.018985
30
0.0
11
0.027632
21
0.019733
31
0.0
0
LINE
8
0
6
CONTINUOUS
10
0.027632
20
-0.018985
30
0.0
11
0.027632
21
-0.018011
31
0.0
0
LINE
8
0
6
CONTINUOUS
10
0.027632
20
0.011251
30
0.0
11
0.027632
21
0.015141
31
0.0
0
LINE
8
0
6
CONTINUOUS
10
0.027348
20
0.021895
30
0.0
11
0.027170
21
0.021895
31
0.0
0
LINE
8
0
6
CONTINUOUS
10
0.027547
20
0.020419
30
0.0
11
0.027547
21
0.020777
31
0.0
0
LINE
8
0
6
CONTINUOUS
10
0.027547
20
-0.015261
30
0.0
11
0.027547
21
-0.011307
31
0.0
0
LINE
8
0
6
CONTINUOUS
10
0.027547
20
-0.016991
30
0.0
11
0.027547
21
-0.015261
31
0.0
0
LINE
8
0
6
CONTINUOUS
10
0.027632
20
-0.021612
30
0.0
11
0.027632
21
-0.021494
31
0.0
0
LINE
8
0
6
CONTINUOUS
10
0.027547
20
-0.021810
30
0.0
11
0.027632
21
-0.021612
31
0.0
0
LINE
8
0
6
CONTINUOUS
10
0.027170
20
-0.021895
30
0.0
11
0.027348
21
-0.021895
31
0.0
0
LINE
8
0
6
CONTINUOUS
10
0.027547
20
0.019879
30
0.0
11
0.027547
21
0.020419
31
0.0
0
LINE
8
0
6
CONTINUOUS
10
0.027547
20
0.019127
30
0.0
11
0.027547
21
0.019879
31
0.0
0
LINE
8
0
6
CONTINUOUS
10
-0.007249
20
0.017553
30
0.0
11
-0.007249
21
0.015753
31
0.0
0
LINE
8
0
6
CONTINUOUS
10
0.027547
20
-0.021676
30
0.0
11
0.027547
21
-0.021233
31
0.0
0
LINE
8
0
6
CONTINUOUS
10
0.027632
20
0.004581
30
0.0
11
0.027632
21
0.011251
31
0.0
0
LINE
8
0
6
CONTINUOUS
10
0.027547
20
0.011308
30
0.0
11
0.027547
21
0.004620
31
0.0
0
LINE
8
0
6
CONTINUOUS
10
0.027547
20
0.020777
30
0.0
11
0.027547
21
0.021233
31
0.0
0
LINE
8
0
6
CONTINUOUS
10
0.027632
20
-0.004580
30
0.0
11
0.027632
21
0.000000
31
0.0
0
LINE
8
0
6
CONTINUOUS
10
0.027632
20
0.016867
30
0.0
11
0.027632
21
0.018011
31
0.0
0
LINE
8
0
6
CONTINUOUS
10
0.027547
20
0.018164
30
0.0
11
0.027547
21
0.016991
31
0.0
0
LINE
8
0
6
CONTINUOUS
10
0.027632
20
0.021612
30
0.0
11
0.027547
21
0.021811
31
0.0
0
LINE
8
0
6
CONTINUOUS
10
0.027632
20
0.021495
30
0.0
11
0.027632
21
0.021612
31
0.0
0
LINE
8
0
6
CONTINUOUS
10
0.027632
20
0.015141
30
0.0
11
0.027632
21
0.016867
31
0.0
0
LINE
8
0
6
CONTINUOUS
10
0.027547
20
0.016991
30
0.0
11
0.027547
21
0.015261
31
0.0
0
LINE
8
0
6
CONTINUOUS
10
0.027547
20
-0.021810
30
0.0
11
0.027547
21
-0.021676
31
0.0
0
LINE
8
0
6
CONTINUOUS
10
0.027348
20
-0.021895
30
0.0
11
0.027547
21
-0.021810
31
0.0
0
LINE
8
0
6
CONTINUOUS
10
0.027547
20
0.019127
30
0.0
11
0.027547
21
0.018164
31
0.0
0
LINE
8
0
6
CONTINUOUS
10
0.027632
20
0.018011
30
0.0
11
0.027632
21
0.018985
31
0.0
0
LINE
8
0
6
CONTINUOUS
10
0.027547
20
0.021811
30
0.0
11
0.027348
21
0.021895
31
0.0
0
LINE
8
0
6
CONTINUOUS
10
0.027547
20
0.021676
30
0.0
11
0.027547
21
0.021811
31
0.0
0
LINE
8
0
6
CONTINUOUS
10
0.027547
20
-0.021233
30
0.0
11
0.027547
21
-0.020777
31
0.0
0
LINE
8
0
6
CONTINUOUS
10
0.027547
20
0.011308
30
0.0
11
0.027547
21
0.015261
31
0.0
0
LINE
8
0
6
CONTINUOUS
10
0.027547
20
-0.018164
30
0.0
11
0.027547
21
-0.016991
31
0.0
0
LINE
8
0
6
CONTINUOUS
10
0.027547
20
-0.019126
30
0.0
11
0.027547
21
-0.019879
31
0.0
0
LINE
8
0
6
CONTINUOUS
10
0.027632
20
-0.019733
30
0.0
11
0.027632
21
-0.018985
31
0.0
0
LINE
8
0
6
CONTINUOUS
10
0.027632
20
-0.020605
30
0.0
11
0.027632
21
-0.020260
31
0.0
0
LINE
8
0
6
CONTINUOUS
10
0.027547
20
-0.020419
30
0.0
11
0.027547
21
-0.020777
31
0.0
0
LINE
8
0
6
CONTINUOUS
10
0.027547
20
-0.004620
30
0.0
11
0.027547
21
0.000000
31
0.0
0
LINE
8
0
6
CONTINUOUS
10
0.027547
20
-0.011307
30
0.0
11
0.027547
21
-0.004620
31
0.0
0
LINE
8
0
6
CONTINUOUS
10
0.027547
20
-0.020419
30
0.0
11
0.027547
21
-0.019879
31
0.0
0
LINE
8
0
6
CONTINUOUS
10
0.027547
20
-0.019126
30
0.0
11
0.027547
21
-0.018164
31
0.0
0
LINE
8
0
6
CONTINUOUS
10
0.027547
20
0.021676
30
0.0
11
0.027547
21
0.021233
31
0.0
0
LINE
8
0
6
CONTINUOUS
10
0.027632
20
0.021084
30
0.0
11
0.027632
21
0.021495
31
0.0
0
LINE
8
0
6
CONTINUOUS
10
0.027547
20
0.000000
30
0.0
11
0.027547
21
0.004620
31
0.0
0
LINE
8
0
6
CONTINUOUS
10
-0.007249
20
0.011695
30
0.0
11
-0.007249
21
0.004771
31
0.0
0
LINE
8
0
6
CONTINUOUS
10
-0.007249
20
0.018756
30
0.0
11
-0.007249
21
0.017553
31
0.0
0
LINE
8
0
6
CONTINUOUS
10
-0.007249
20
-0.021091
30
0.0
11
-0.007249
21
-0.021473
31
0.0
0
LINE
8
0
6
CONTINUOUS
10
-0.007249
20
-0.020521
30
0.0
11
-0.007249
21
-0.021091
31
0.0
0
LINE
8
0
6
CONTINUOUS
10
0.027170
20
0.021895
30
0.0
11
-0.006866
21
0.022525
31
0.0
0
LINE
8
0
6
CONTINUOUS
10
-0.007249
20
-0.022532
30
0.0
11
-0.006866
21
-0.022525
31
0.0
0
LINE
8
0
6
CONTINUOUS
10
-0.007249
20
-0.022404
30
0.0
11
-0.007249
21
-0.022532
31
0.0
0
LINE
8
0
6
CONTINUOUS
10
-0.007249
20
-0.021956
30
0.0
11
-0.007249
21
-0.022404
31
0.0
0
LINE
8
0
6
CONTINUOUS
10
-0.007249
20
-0.021473
30
0.0
11
-0.007249
21
-0.021956
31
0.0
0
LINE
8
0
6
CONTINUOUS
10
-0.007249
20
0.015753
30
0.0
11
-0.007249
21
0.011695
31
0.0
0
LINE
8
0
6
CONTINUOUS
10
-0.007249
20
0.019755
30
0.0
11
-0.007249
21
0.018756
31
0.0
0
LINE
8
0
6
CONTINUOUS
10
-0.007249
20
-0.019755
30
0.0
11
-0.007249
21
-0.020521
31
0.0
0
LINE
8
0
6
CONTINUOUS
10
0.027632
20
0.000000
30
0.0
11
0.027632
21
-0.004570
31
0.0
0
LINE
8
0
6
CONTINUOUS
10
0.027632
20
-0.004570
30
0.0
11
0.027632
21
0.000000
31
0.0
0
LINE
8
0
6
CONTINUOUS
10
0.027632
20
0.004571
30
0.0
11
0.027632
21
0.000000
31
0.0
0
LINE
8
0
6
CONTINUOUS
10
0.027632
20
0.000000
30
0.0
11
0.027632
21
0.004571
31
0.0
0
LINE
8
0
6
CONTINUOUS
10
-0.007249
20
0.004771
30
0.0
11
-0.007249
21
0.000000
31
0.0
0
LINE
8
0
6
CONTINUOUS
10
-0.007249
20
-0.018756
30
0.0
11
-0.007249
21
-0.019755
31
0.0
0
LINE
8
0
6
CONTINUOUS
10
-0.007249
20
0.021957
30
0.0
11
-0.007249
21
0.021473
31
0.0
0
LINE
8
0
6
CONTINUOUS
10
-0.007249
20
0.022404
30
0.0
11
-0.007249
21
0.021957
31
0.0
0
LINE
8
0
6
CONTINUOUS
10
-0.007249
20
-0.015753
30
0.0
11
-0.007249
21
-0.017553
31
0.0
0
LINE
8
0
6
CONTINUOUS
10
-0.007249
20
0.021473
30
0.0
11
-0.007249
21
0.021091
31
0.0
0
LINE
8
0
6
CONTINUOUS
10
-0.007249
20
0.000000
30
0.0
11
-0.007249
21
-0.004770
31
0.0
0
LINE
8
0
6
CONTINUOUS
10
-0.007249
20
-0.004770
30
0.0
11
-0.007249
21
-0.011695
31
0.0
0
LINE
8
0
6
CONTINUOUS
10
-0.007249
20
-0.017553
30
0.0
11
-0.007249
21
-0.018756
31
0.0
0
LINE
8
0
6
CONTINUOUS
10
-0.006866
20
0.022525
30
0.0
11
-0.007249
21
0.022532
31
0.0
0
LINE
8
0
6
CONTINUOUS
10
-0.007249
20
0.022532
30
0.0
11
-0.007249
21
0.022404
31
0.0
0
LINE
8
0
6
CONTINUOUS
10
-0.007249
20
0.021091
30
0.0
11
-0.007249
21
0.020521
31
0.0
0
LINE
8
0
6
CONTINUOUS
10
-0.007249
20
-0.011695
30
0.0
11
-0.007249
21
-0.015753
31
0.0
0
LINE
8
0
6
CONTINUOUS
10
-0.007249
20
0.020521
30
0.0
11
-0.007249
21
0.019755
31
0.0
0
LINE
8
0
6
CONTINUOUS
10
-0.006866
20
-0.022525
30
0.0
11
0.003063
21
-0.022341
31
0.0
0
LINE
8
0
6
CONTINUOUS
10
0.013063
20
-0.022156
30
0.0
11
0.027170
21
-0.021895
31
0.0
0
LINE
8
0
6
CONTINUOUS
10
0.013063
20
-0.026008
30
0.0
11
0.013063
21
-0.025802
31
0.0
0
LINE
8
0
6
CONTINUOUS
10
0.003063
20
-0.022341
30
0.0
11
0.003063
21
-0.025802
31
0.0
0
LINE
8
0
6
CONTINUOUS
10
0.027632
20
-0.020043
30
0.0
11
0.027632
21
-0.017893
31
0.0
0
LINE
8
0
6
CONTINUOUS
10
0.027632
20
0.017894
30
0.0
11
0.027632
21
0.020043
31
0.0
0
LINE
8
0
6
CONTINUOUS
10
0.027632
20
0.004571
30
0.0
11
0.027632
21
0.000000
31
0.0
0
LINE
8
0
6
CONTINUOUS
10
0.027632
20
0.000000
30
0.0
11
0.027632
21
0.004571
31
0.0
0
LINE
8
0
6
CONTINUOUS
10
0.027632
20
-0.004570
30
0.0
11
0.027632
21
0.000000
31
0.0
0
LINE
8
0
6
CONTINUOUS
10
0.027632
20
0.000000
30
0.0
11
0.027632
21
-0.004570
31
0.0
0
LINE
8
0
6
CONTINUOUS
10
-0.014632
20
-0.077500
30
0.0
11
-0.013932
21
-0.077200
31
0.0
0
LINE
8
0
6
CONTINUOUS
10
-0.013632
20
-0.076323
30
0.0
11
-0.013632
21
-0.075940
31
0.0
0
LINE
8
0
6
CONTINUOUS
10
-0.013632
20
-0.075940
30
0.0
11
-0.013632
21
-0.075298
31
0.0
0
LINE
8
0
6
CONTINUOUS
10
-0.013632
20
-0.075298
30
0.0
11
-0.013632
21
-0.074400
31
0.0
0
LINE
8
0
6
CONTINUOUS
10
-0.013632
20
-0.072470
30
0.0
11
-0.013632
21
-0.070976
31
0.0
0
LINE
8
0
6
CONTINUOUS
10
-0.013632
20
-0.047467
30
0.0
11
-0.013632
21
-0.039822
31
0.0
0
LINE
8
0
6
CONTINUOUS
10
-0.013632
20
-0.066334
30
0.0
11
-0.013632
21
-0.063094
31
0.0
0
LINE
8
0
6
CONTINUOUS
10
-0.013932
20
-0.047743
30
0.0
11
-0.013932
21
-0.040025
31
0.0
0
LINE
8
0
6
CONTINUOUS
10
-0.013632
20
-0.070976
30
0.0
11
-0.013632
21
-0.068923
31
0.0
0
LINE
8
0
6
CONTINUOUS
10
-0.013632
20
-0.016213
30
0.0
11
-0.013632
21
0.000000
31
0.0
0
LINE
8
0
6
CONTINUOUS
10
-0.013932
20
-0.076967
30
0.0
11
-0.013932
21
-0.077200
31
0.0
0
LINE
8
0
6
CONTINUOUS
10
-0.013632
20
-0.076500
30
0.0
11
-0.013632
21
-0.076323
31
0.0
0
LINE
8
0
6
CONTINUOUS
10
-0.013932
20
-0.077200
30
0.0
11
-0.013632
21
-0.076500
31
0.0
0
LINE
8
0
6
CONTINUOUS
10
-0.013932
20
-0.076967
30
0.0
11
-0.013932
21
-0.076555
31
0.0
0
LINE
8
0
6
CONTINUOUS
10
-0.013932
20
-0.076555
30
0.0
11
-0.013932
21
-0.075824
31
0.0
0
LINE
8
0
6
CONTINUOUS
10
-0.013932
20
-0.073062
30
0.0
11
-0.013932
21
-0.071534
31
0.0
0
LINE
8
0
6
CONTINUOUS
10
-0.013932
20
-0.016353
30
0.0
11
-0.013932
21
0.000000
31
0.0
0
LINE
8
0
6
CONTINUOUS
10
-0.013932
20
-0.074168
30
0.0
11
-0.013932
21
-0.074916
31
0.0
0
LINE
8
0
6
CONTINUOUS
10
-0.013632
20
-0.074400
30
0.0
11
-0.013632
21
-0.073552
31
0.0
0
LINE
8
0
6
CONTINUOUS
10
-0.013932
20
-0.073062
30
0.0
11
-0.013932
21
-0.074168
31
0.0
0
LINE
8
0
6
CONTINUOUS
10
-0.013632
20
-0.073552
30
0.0
11
-0.013632
21
-0.072470
31
0.0
0
LINE
8
0
6
CONTINUOUS
10
-0.013932
20
-0.066794
30
0.0
11
-0.013932
21
-0.069494
31
0.0
0
LINE
8
0
6
CONTINUOUS
10
-0.013632
20
-0.068923
30
0.0
11
-0.013632
21
-0.066334
31
0.0
0
LINE
8
0
6
CONTINUOUS
10
-0.013632
20
-0.028654
30
0.0
11
-0.013632
21
-0.016213
31
0.0
0
LINE
8
0
6
CONTINUOUS
10
-0.013632
20
-0.039822
30
0.0
11
-0.013632
21
-0.028654
31
0.0
0
LINE
8
0
6
CONTINUOUS
10
-0.013932
20
-0.028962
30
0.0
11
-0.013932
21
-0.040025
31
0.0
0
LINE
8
0
6
CONTINUOUS
10
-0.013632
20
-0.051535
30
0.0
11
-0.013632
21
-0.047467
31
0.0
0
LINE
8
0
6
CONTINUOUS
10
-0.013932
20
-0.047743
30
0.0
11
-0.013932
21
-0.051880
31
0.0
0
LINE
8
0
6
CONTINUOUS
10
-0.013632
20
-0.055554
30
0.0
11
-0.013632
21
-0.051535
31
0.0
0
LINE
8
0
6
CONTINUOUS
10
-0.013932
20
-0.051880
30
0.0
11
-0.013932
21
-0.055933
31
0.0
0
LINE
8
0
6
CONTINUOUS
10
-0.013632
20
-0.059445
30
0.0
11
-0.013632
21
-0.055554
31
0.0
0
LINE
8
0
6
CONTINUOUS
10
-0.013932
20
-0.028962
30
0.0
11
-0.013932
21
-0.016353
31
0.0
0
LINE
8
0
6
CONTINUOUS
10
-0.013932
20
-0.059870
30
0.0
11
-0.013932
21
-0.055933
31
0.0
0
LINE
8
0
6
CONTINUOUS
10
-0.013632
20
-0.063094
30
0.0
11
-0.013632
21
-0.059445
31
0.0
0
LINE
8
0
6
CONTINUOUS
10
-0.013932
20
-0.059870
30
0.0
11
-0.013932
21
-0.063525
31
0.0
0
LINE
8
0
6
CONTINUOUS
10
-0.013932
20
-0.066794
30
0.0
11
-0.013932
21
-0.063525
31
0.0
0
LINE
8
0
6
CONTINUOUS
10
-0.013932
20
-0.071534
30
0.0
11
-0.013932
21
-0.069494
31
0.0
0
LINE
8
0
6
CONTINUOUS
10
-0.027256
20
-0.077500
30
0.0
11
-0.015009
21
-0.077500
31
0.0
0
LINE
8
0
6
CONTINUOUS
10
-0.015009
20
-0.077500
30
0.0
11
-0.014632
21
-0.077500
31
0.0
0
LINE
8
0
6
CONTINUOUS
10
-0.027632
20
-0.077500
30
0.0
11
-0.027256
21
-0.077500
31
0.0
0
LINE
8
0
6
CONTINUOUS
10
-0.027632
20
-0.077302
30
0.0
11
-0.027632
21
-0.077500
31
0.0
0
LINE
8
0
6
CONTINUOUS
10
-0.027632
20
-0.063759
30
0.0
11
-0.027632
21
-0.067050
31
0.0
0
LINE
8
0
6
CONTINUOUS
10
-0.027632
20
-0.071823
30
0.0
11
-0.027632
21
-0.073359
31
0.0
0
LINE
8
0
6
CONTINUOUS
10
-0.027632
20
-0.076863
30
0.0
11
-0.027632
21
-0.077302
31
0.0
0
LINE
8
0
6
CONTINUOUS
10
-0.027632
20
-0.040227
30
0.0
11
-0.027632
21
-0.047903
31
0.0
0
LINE
8
0
6
CONTINUOUS
10
-0.027632
20
-0.047903
30
0.0
11
-0.027632
21
-0.052060
31
0.0
0
LINE
8
0
6
CONTINUOUS
10
-0.027632
20
-0.074481
30
0.0
11
-0.027632
21
-0.075240
31
0.0
0
LINE
8
0
6
CONTINUOUS
10
-0.027632
20
-0.075240
30
0.0
11
-0.027632
21
-0.076189
31
0.0
0
LINE
8
0
6
CONTINUOUS
10
-0.027632
20
-0.067050
30
0.0
11
-0.027632
21
-0.069723
31
0.0
0
LINE
8
0
6
CONTINUOUS
10
-0.027632
20
-0.069723
30
0.0
11
-0.027632
21
-0.071823
31
0.0
0
LINE
8
0
6
CONTINUOUS
10
-0.027632
20
-0.076189
30
0.0
11
-0.027632
21
-0.076863
31
0.0
0
LINE
8
0
6
CONTINUOUS
10
-0.027632
20
-0.056131
30
0.0
11
-0.027632
21
-0.060084
31
0.0
0
LINE
8
0
6
CONTINUOUS
10
-0.027632
20
0.000000
30
0.0
11
-0.027632
21
-0.016409
31
0.0
0
LINE
8
0
6
CONTINUOUS
10
-0.027632
20
-0.016409
30
0.0
11
-0.027632
21
-0.029102
31
0.0
0
LINE
8
0
6
CONTINUOUS
10
-0.027632
20
-0.060084
30
0.0
11
-0.027632
21
-0.063759
31
0.0
0
LINE
8
0
6
CONTINUOUS
10
-0.027632
20
-0.052060
30
0.0
11
-0.027632
21
-0.056131
31
0.0
0
LINE
8
0
6
CONTINUOUS
10
-0.027632
20
-0.029102
30
0.0
11
-0.027632
21
-0.040227
31
0.0
0
LINE
8
0
6
CONTINUOUS
10
-0.027632
20
-0.073359
30
0.0
11
-0.027632
21
-0.074481
31
0.0
0
LINE
8
0
6
CONTINUOUS
10
-0.013932
20
0.077200
30
0.0
11
-0.014632
21
0.077500
31
0.0
0
LINE
8
0
6
CONTINUOUS
10
-0.013632
20
0.075940
30
0.0
11
-0.013632
21
0.076323
31
0.0
0
LINE
8
0
6
CONTINUOUS
10
-0.013632
20
0.075298
30
0.0
11
-0.013632
21
0.075940
31
0.0
0
LINE
8
0
6
CONTINUOUS
10
-0.013632
20
0.074400
30
0.0
11
-0.013632
21
0.075298
31
0.0
0
LINE
8
0
6
CONTINUOUS
10
-0.013632
20
0.070976
30
0.0
11
-0.013632
21
0.072470
31
0.0
0
LINE
8
0
6
CONTINUOUS
10
-0.013632
20
0.039822
30
0.0
11
-0.013632
21
0.047467
31
0.0
0
LINE
8
0
6
CONTINUOUS
10
-0.013632
20
0.063094
30
0.0
11
-0.013632
21
0.066334
31
0.0
0
LINE
8
0
6
CONTINUOUS
10
-0.013932
20
0.040025
30
0.0
11
-0.013932
21
0.047743
31
0.0
0
LINE
8
0
6
CONTINUOUS
10
-0.013632
20
0.068923
30
0.0
11
-0.013632
21
0.070976
31
0.0
0
LINE
8
0
6
CONTINUOUS
10
-0.013632
20
0.000000
30
0.0
11
-0.013632
21
0.016213
31
0.0
0
LINE
8
0
6
CONTINUOUS
10
-0.013632
20
0.076500
30
0.0
11
-0.013932
21
0.077200
31
0.0
0
LINE
8
0
6
CONTINUOUS
10
-0.013632
20
0.076323
30
0.0
11
-0.013632
21
0.076500
31
0.0
0
LINE
8
0
6
CONTINUOUS
10
-0.013932
20
0.077200
30
0.0
11
-0.013932
21
0.076967
31
0.0
0
LINE
8
0
6
CONTINUOUS
10
-0.013932
20
0.076555
30
0.0
11
-0.013932
21
0.076967
31
0.0
0
LINE
8
0
6
CONTINUOUS
10
-0.013932
20
0.075824
30
0.0
11
-0.013932
21
0.076555
31
0.0
0
LINE
8
0
6
CONTINUOUS
10
-0.013932
20
0.071534
30
0.0
11
-0.013932
21
0.073062
31
0.0
0
LINE
8
0
6
CONTINUOUS
10
-0.013932
20
0.000000
30
0.0
11
-0.013932
21
0.016353
31
0.0
0
LINE
8
0
6
CONTINUOUS
10
-0.013632
20
0.073552
30
0.0
11
-0.013632
21
0.074400
31
0.0
0
LINE
8
0
6
CONTINUOUS
10
-0.013932
20
0.074916
30
0.0
11
-0.013932
21
0.074168
31
0.0
0
LINE
8
0
6
CONTINUOUS
10
-0.013632
20
0.072470
30
0.0
11
-0.013632
21
0.073552
31
0.0
0
LINE
8
0
6
CONTINUOUS
10
-0.013932
20
0.074168
30
0.0
11
-0.013932
21
0.073062
31
0.0
0
LINE
8
0
6
CONTINUOUS
10
-0.013632
20
0.066334
30
0.0
11
-0.013632
21
0.068923
31
0.0
0
LINE
8
0
6
CONTINUOUS
10
-0.013932
20
0.069494
30
0.0
11
-0.013932
21
0.066794
31
0.0
0
LINE
8
0
6
CONTINUOUS
10
-0.013632
20
0.016213
30
0.0
11
-0.013632
21
0.028654
31
0.0
0
LINE
8
0
6
CONTINUOUS
10
-0.013932
20
0.040025
30
0.0
11
-0.013932
21
0.028962
31
0.0
0
LINE
8
0
6
CONTINUOUS
10
-0.013632
20
0.028654
30
0.0
11
-0.013632
21
0.039822
31
0.0
0
LINE
8
0
6
CONTINUOUS
10
-0.013932
20
0.051880
30
0.0
11
-0.013932
21
0.047743
31
0.0
0
LINE
8
0
6
CONTINUOUS
10
-0.013632
20
0.047467
30
0.0
11
-0.013632
21
0.051535
31
0.0
0
LINE
8
0
6
CONTINUOUS
10
-0.013932
20
0.055933
30
0.0
11
-0.013932
21
0.051880
31
0.0
0
LINE
8
0
6
CONTINUOUS
10
-0.013632
20
0.051535
30
0.0
11
-0.013632
21
0.055554
31
0.0
0
LINE
8
0
6
CONTINUOUS
10
-0.013632
20
0.055554
30
0.0
11
-0.013632
21
0.059445
31
0.0
0
LINE
8
0
6
CONTINUOUS
10
-0.013932
20
0.016353
30
0.0
11
-0.013932
21
0.028962
31
0.0
0
LINE
8
0
6
CONTINUOUS
10
-0.013932
20
0.055933
30
0.0
11
-0.013932
21
0.059870
31
0.0
0
LINE
8
0
6
CONTINUOUS
10
-0.013932
20
0.063525
30
0.0
11
-0.013932
21
0.059870
31
0.0
0
LINE
8
0
6
CONTINUOUS
10
-0.013632
20
0.059445
30
0.0
11
-0.013632
21
0.063094
31
0.0
0
LINE
8
0
6
CONTINUOUS
10
-0.013932
20
0.063525
30
0.0
11
-0.013932
21
0.066794
31
0.0
0
LINE
8
0
6
CONTINUOUS
10
-0.013932
20
0.069494
30
0.0
11
-0.013932
21
0.071534
31
0.0
0
LINE
8
0
6
CONTINUOUS
10
-0.015009
20
0.077500
30
0.0
11
-0.027256
21
0.077500
31
0.0
0
LINE
8
0
6
CONTINUOUS
10
-0.014632
20
0.077500
30
0.0
11
-0.015009
21
0.077500
31
0.0
0
LINE
8
0
6
CONTINUOUS
10
-0.027632
20
0.077500
30
0.0
11
-0.027632
21
0.077302
31
0.0
0
LINE
8
0
6
CONTINUOUS
10
-0.027256
20
0.077500
30
0.0
11
-0.027632
21
0.077500
31
0.0
0
LINE
8
0
6
CONTINUOUS
10
-0.027632
20
0.067050
30
0.0
11
-0.027632
21
0.063759
31
0.0
0
LINE
8
0
6
CONTINUOUS
10
-0.027632
20
0.073359
30
0.0
11
-0.027632
21
0.071823
31
0.0
0
LINE
8
0
6
CONTINUOUS
10
-0.027632
20
0.077302
30
0.0
11
-0.027632
21
0.076863
31
0.0
0
LINE
8
0
6
CONTINUOUS
10
-0.027632
20
0.047903
30
0.0
11
-0.027632
21
0.040227
31
0.0
0
LINE
8
0
6
CONTINUOUS
10
-0.027632
20
0.052060
30
0.0
11
-0.027632
21
0.047903
31
0.0
0
LINE
8
0
6
CONTINUOUS
10
-0.027632
20
0.075240
30
0.0
11
-0.027632
21
0.074481
31
0.0
0
LINE
8
0
6
CONTINUOUS
10
-0.027632
20
0.076189
30
0.0
11
-0.027632
21
0.075240
31
0.0
0
LINE
8
0
6
CONTINUOUS
10
-0.027632
20
0.069723
30
0.0
11
-0.027632
21
0.067050
31
0.0
0
LINE
8
0
6
CONTINUOUS
10
-0.027632
20
0.071823
30
0.0
11
-0.027632
21
0.069723
31
0.0
0
LINE
8
0
6
CONTINUOUS
10
-0.027632
20
0.076863
30
0.0
11
-0.027632
21
0.076189
31
0.0
0
LINE
8
0
6
CONTINUOUS
10
-0.027632
20
0.060084
30
0.0
11
-0.027632
21
0.056131
31
0.0
0
LINE
8
0
6
CONTINUOUS
10
-0.027632
20
0.016409
30
0.0
11
-0.027632
21
0.000000
31
0.0
0
LINE
8
0
6
CONTINUOUS
10
-0.027632
20
0.029102
30
0.0
11
-0.027632
21
0.016409
31
0.0
0
LINE
8
0
6
CONTINUOUS
10
-0.027632
20
0.063759
30
0.0
11
-0.027632
21
0.060084
31
0.0
0
LINE
8
0
6
CONTINUOUS
10
-0.027632
20
0.056131
30
0.0
11
-0.027632
21
0.052060
31
0.0
0
LINE
8
0
6
CONTINUOUS
10
-0.027632
20
0.040227
30
0.0
11
-0.027632
21
0.029102
31
0.0
0
LINE
8
0
6
CONTINUOUS
10
-0.027632
20
0.074481
30
0.0
11
-0.027632
21
0.073359
31
0.0
0
LINE
8
0
6
CONTINUOUS
10
-0.013632
20
-0.029297
30
0.0
11
-0.013632
21
-0.024915
31
0.0
0
LINE
8
0
6
CONTINUOUS
10
-0.013632
20
0.019576
30
0.0
11
-0.013632
21
0.024915
31
0.0
0
LINE
8
0
6
CONTINUOUS
10
-0.013632
20
-0.024915
30
0.0
11
-0.013632
21
-0.019576
31
0.0
0
LINE
8
0
6
CONTINUOUS
10
-0.013632
20
0.024915
30
0.0
11
-0.013632
21
0.029297
31
0.0
0
LINE
8
0
6
CONTINUOUS
10
0.003723
20
-0.022262
30
0.0
11
0.003063
21
-0.022341
31
0.0
0
ENDSEC
0
EOF
