999
unknown String-ID: 20550
0
SECTION
2
HEADER
9
$ACADVER
1
AC1009
9
$DWGCODEPAGE
3
unknown String-ID: 20561
0
ENDSEC
0
SECTION
2
TABLES
0
TABLE
2
LAYER
70
1
0
LAYER
2
0
70
0
62
7
6
CONTINUOUS
0
ENDTAB
0
ENDSEC
0
SECTION
2
ENTITIES
0
LINE
8
0
6
CONTINUOUS
10
0.004880
20
-0.026383
30
0.0
11
0.005000
21
-0.026008
31
0.0
0
LINE
8
0
6
CONTINUOUS
10
0.004220
20
-0.026383
30
0.0
11
0.004880
21
-0.026383
31
0.0
0
LINE
8
0
6
CONTINUOUS
10
-0.005000
20
-0.022389
30
0.0
11
-0.005000
21
-0.025802
31
0.0
0
LINE
8
0
6
CONTINUOUS
10
0.005000
20
-0.026008
30
0.0
11
0.005000
21
-0.025802
31
0.0
0
LINE
8
0
6
CONTINUOUS
10
-0.002420
20
-0.026383
30
0.0
11
0.000000
21
-0.026383
31
0.0
0
LINE
8
0
6
CONTINUOUS
10
-0.004220
20
-0.026383
30
0.0
11
-0.002420
21
-0.026383
31
0.0
0
LINE
8
0
6
CONTINUOUS
10
-0.005000
20
-0.026008
30
0.0
11
-0.004880
21
-0.026383
31
0.0
0
LINE
8
0
6
CONTINUOUS
10
-0.004880
20
-0.026383
30
0.0
11
-0.004220
21
-0.026383
31
0.0
0
LINE
8
0
6
CONTINUOUS
10
0.000000
20
-0.026383
30
0.0
11
0.002420
21
-0.026383
31
0.0
0
LINE
8
0
6
CONTINUOUS
10
0.002420
20
-0.026383
30
0.0
11
0.004220
21
-0.026383
31
0.0
0
LINE
8
0
6
CONTINUOUS
10
-0.019197
20
0.019197
30
0.0
11
-0.019941
21
0.018225
31
0.0
0
LINE
8
0
6
CONTINUOUS
10
0.019197
20
-0.019197
30
0.0
11
0.019941
21
-0.018225
31
0.0
0
LINE
8
0
6
CONTINUOUS
10
0.019941
20
-0.018225
30
0.0
11
0.020495
21
-0.017057
31
0.0
0
LINE
8
0
6
CONTINUOUS
10
-0.019197
20
-0.019197
30
0.0
11
-0.018225
21
-0.019941
31
0.0
0
LINE
8
0
6
CONTINUOUS
10
0.020495
20
0.017057
30
0.0
11
0.019941
21
0.018225
31
0.0
0
LINE
8
0
6
CONTINUOUS
10
-0.004636
20
0.021771
30
0.0
11
-0.011365
21
0.021336
31
0.0
0
LINE
8
0
6
CONTINUOUS
10
0.004636
20
0.021771
30
0.0
11
0.000000
21
0.021895
31
0.0
0
LINE
8
0
6
CONTINUOUS
10
0.021771
20
0.004636
30
0.0
11
0.021336
21
0.011365
31
0.0
0
LINE
8
0
6
CONTINUOUS
10
0.018225
20
-0.019941
30
0.0
11
0.019197
21
-0.019197
31
0.0
0
LINE
8
0
6
CONTINUOUS
10
0.015261
20
-0.020777
30
0.0
11
0.011308
21
-0.021233
31
0.0
0
LINE
8
0
6
CONTINUOUS
10
0.011365
20
-0.021336
30
0.0
11
0.015308
21
-0.020866
31
0.0
0
LINE
8
0
6
CONTINUOUS
10
-0.021336
20
0.011365
30
0.0
11
-0.021771
21
0.004636
31
0.0
0
LINE
8
0
6
CONTINUOUS
10
0.020777
20
0.015261
30
0.0
11
0.021233
21
0.011308
31
0.0
0
LINE
8
0
6
CONTINUOUS
10
0.021336
20
0.011365
30
0.0
11
0.020866
21
0.015308
31
0.0
0
LINE
8
0
6
CONTINUOUS
10
-0.016991
20
0.020419
30
0.0
11
-0.015260
21
0.020777
31
0.0
0
LINE
8
0
6
CONTINUOUS
10
-0.015307
20
0.020866
30
0.0
11
-0.017057
21
0.020495
31
0.0
0
LINE
8
0
6
CONTINUOUS
10
0.017057
20
0.020495
30
0.0
11
0.015308
21
0.020866
31
0.0
0
LINE
8
0
6
CONTINUOUS
10
0.015261
20
0.020777
30
0.0
11
0.016991
21
0.020419
31
0.0
0
LINE
8
0
6
CONTINUOUS
10
-0.021336
20
-0.011365
30
0.0
11
-0.020866
21
-0.015307
31
0.0
0
LINE
8
0
6
CONTINUOUS
10
-0.020777
20
-0.015261
30
0.0
11
-0.021233
21
-0.011307
31
0.0
0
LINE
8
0
6
CONTINUOUS
10
-0.020494
20
0.017057
30
0.0
11
-0.020866
21
0.015308
31
0.0
0
LINE
8
0
6
CONTINUOUS
10
-0.020419
20
-0.016991
30
0.0
11
-0.020777
21
-0.015261
31
0.0
0
LINE
8
0
6
CONTINUOUS
10
-0.020866
20
-0.015307
30
0.0
11
-0.020494
21
-0.017057
31
0.0
0
LINE
8
0
6
CONTINUOUS
10
0.018164
20
-0.019879
30
0.0
11
0.016991
21
-0.020419
31
0.0
0
LINE
8
0
6
CONTINUOUS
10
0.017057
20
-0.020494
30
0.0
11
0.018225
21
-0.019941
31
0.0
0
LINE
8
0
6
CONTINUOUS
10
0.016991
20
-0.020419
30
0.0
11
0.015261
21
-0.020777
31
0.0
0
LINE
8
0
6
CONTINUOUS
10
0.015308
20
-0.020866
30
0.0
11
0.017057
21
-0.020494
31
0.0
0
LINE
8
0
6
CONTINUOUS
10
0.004620
20
0.021676
30
0.0
11
0.000000
21
0.021811
31
0.0
0
LINE
8
0
6
CONTINUOUS
10
-0.017057
20
-0.020494
30
0.0
11
-0.015307
21
-0.020866
31
0.0
0
LINE
8
0
6
CONTINUOUS
10
-0.018164
20
0.019879
30
0.0
11
-0.016991
21
0.020419
31
0.0
0
LINE
8
0
6
CONTINUOUS
10
-0.017057
20
0.020495
30
0.0
11
-0.018225
21
0.019941
31
0.0
0
LINE
8
0
6
CONTINUOUS
10
-0.019126
20
0.019127
30
0.0
11
-0.018164
21
0.019879
31
0.0
0
LINE
8
0
6
CONTINUOUS
10
-0.018225
20
0.019941
30
0.0
11
-0.019197
21
0.019197
31
0.0
0
LINE
8
0
6
CONTINUOUS
10
-0.021091
20
0.017553
30
0.0
11
-0.021473
21
0.015753
31
0.0
0
LINE
8
0
6
CONTINUOUS
10
0.021811
20
0.000000
30
0.0
11
0.021676
21
-0.004620
31
0.0
0
LINE
8
0
6
CONTINUOUS
10
0.021771
20
-0.004636
30
0.0
11
0.021895
21
0.000000
31
0.0
0
LINE
8
0
6
CONTINUOUS
10
0.016991
20
0.020419
30
0.0
11
0.018164
21
0.019879
31
0.0
0
LINE
8
0
6
CONTINUOUS
10
0.018225
20
0.019941
30
0.0
11
0.017057
21
0.020495
31
0.0
0
LINE
8
0
6
CONTINUOUS
10
0.019879
20
-0.018164
30
0.0
11
0.020419
21
-0.016991
31
0.0
0
LINE
8
0
6
CONTINUOUS
10
-0.004620
20
-0.021676
30
0.0
11
-0.011307
21
-0.021233
31
0.0
0
LINE
8
0
6
CONTINUOUS
10
-0.011365
20
-0.021336
30
0.0
11
-0.004636
21
-0.021771
31
0.0
0
LINE
8
0
6
CONTINUOUS
10
0.019941
20
0.018225
30
0.0
11
0.019197
21
0.019197
31
0.0
0
LINE
8
0
6
CONTINUOUS
10
0.020419
20
0.016991
30
0.0
11
0.019879
21
0.018164
31
0.0
0
LINE
8
0
6
CONTINUOUS
10
-0.021233
20
0.011308
30
0.0
11
-0.021676
21
0.004620
31
0.0
0
LINE
8
0
6
CONTINUOUS
10
-0.019941
20
0.018225
30
0.0
11
-0.020494
21
0.017057
31
0.0
0
LINE
8
0
6
CONTINUOUS
10
0.020777
20
-0.015261
30
0.0
11
0.020419
21
-0.016991
31
0.0
0
LINE
8
0
6
CONTINUOUS
10
0.020495
20
-0.017057
30
0.0
11
0.020866
21
-0.015307
31
0.0
0
LINE
8
0
6
CONTINUOUS
10
-0.011365
20
0.021336
30
0.0
11
-0.015307
21
0.020866
31
0.0
0
LINE
8
0
6
CONTINUOUS
10
-0.015260
20
0.020777
30
0.0
11
-0.011307
21
0.021233
31
0.0
0
LINE
8
0
6
CONTINUOUS
10
-0.019879
20
0.018164
30
0.0
11
-0.020419
21
0.016991
31
0.0
0
LINE
8
0
6
CONTINUOUS
10
0.011308
20
0.021233
30
0.0
11
0.015261
21
0.020777
31
0.0
0
LINE
8
0
6
CONTINUOUS
10
0.015308
20
0.020866
30
0.0
11
0.011365
21
0.021336
31
0.0
0
LINE
8
0
6
CONTINUOUS
10
-0.020419
20
0.016991
30
0.0
11
-0.020777
21
0.015261
31
0.0
0
LINE
8
0
6
CONTINUOUS
10
0.018164
20
-0.019879
30
0.0
11
0.019127
21
-0.019126
31
0.0
0
LINE
8
0
6
CONTINUOUS
10
0.000000
20
-0.021810
30
0.0
11
-0.004620
21
-0.021676
31
0.0
0
LINE
8
0
6
CONTINUOUS
10
-0.004636
20
-0.021771
30
0.0
11
0.000000
21
-0.021895
31
0.0
0
LINE
8
0
6
CONTINUOUS
10
-0.019126
20
0.019127
30
0.0
11
-0.019879
21
0.018164
31
0.0
0
LINE
8
0
6
CONTINUOUS
10
0.021233
20
-0.011307
30
0.0
11
0.020777
21
-0.015261
31
0.0
0
LINE
8
0
6
CONTINUOUS
10
0.020866
20
-0.015307
30
0.0
11
0.021336
21
-0.011365
31
0.0
0
LINE
8
0
6
CONTINUOUS
10
-0.004620
20
0.021676
30
0.0
11
0.000000
21
0.021811
31
0.0
0
LINE
8
0
6
CONTINUOUS
10
0.000000
20
0.021895
30
0.0
11
-0.004636
21
0.021771
31
0.0
0
LINE
8
0
6
CONTINUOUS
10
0.018164
20
0.019879
30
0.0
11
0.019127
21
0.019127
31
0.0
0
LINE
8
0
6
CONTINUOUS
10
0.019197
20
0.019197
30
0.0
11
0.018225
21
0.019941
31
0.0
0
LINE
8
0
6
CONTINUOUS
10
-0.015307
20
-0.020866
30
0.0
11
-0.011365
21
-0.021336
31
0.0
0
LINE
8
0
6
CONTINUOUS
10
-0.011307
20
-0.021233
30
0.0
11
-0.015260
21
-0.020777
31
0.0
0
LINE
8
0
6
CONTINUOUS
10
-0.021233
20
0.011308
30
0.0
11
-0.020777
21
0.015261
31
0.0
0
LINE
8
0
6
CONTINUOUS
10
-0.020866
20
0.015308
30
0.0
11
-0.021336
21
0.011365
31
0.0
0
LINE
8
0
6
CONTINUOUS
10
-0.020494
20
-0.017057
30
0.0
11
-0.019941
21
-0.018225
31
0.0
0
LINE
8
0
6
CONTINUOUS
10
-0.019879
20
-0.018164
30
0.0
11
-0.020419
21
-0.016991
31
0.0
0
LINE
8
0
6
CONTINUOUS
10
0.020419
20
0.016991
30
0.0
11
0.020777
21
0.015261
31
0.0
0
LINE
8
0
6
CONTINUOUS
10
0.020866
20
0.015308
30
0.0
11
0.020495
21
0.017057
31
0.0
0
LINE
8
0
6
CONTINUOUS
10
0.004620
20
0.021676
30
0.0
11
0.011308
21
0.021233
31
0.0
0
LINE
8
0
6
CONTINUOUS
10
0.011365
20
0.021336
30
0.0
11
0.004636
21
0.021771
31
0.0
0
LINE
8
0
6
CONTINUOUS
10
0.021336
20
-0.011365
30
0.0
11
0.021771
21
-0.004636
31
0.0
0
LINE
8
0
6
CONTINUOUS
10
0.021895
20
0.000000
30
0.0
11
0.021771
21
0.004636
31
0.0
0
LINE
8
0
6
CONTINUOUS
10
-0.019126
20
-0.019126
30
0.0
11
-0.018164
21
-0.019879
31
0.0
0
LINE
8
0
6
CONTINUOUS
10
-0.016991
20
-0.020419
30
0.0
11
-0.015260
21
-0.020777
31
0.0
0
LINE
8
0
6
CONTINUOUS
10
0.019127
20
-0.019126
30
0.0
11
0.019879
21
-0.018164
31
0.0
0
LINE
8
0
6
CONTINUOUS
10
0.021233
20
-0.011307
30
0.0
11
0.021676
21
-0.004620
31
0.0
0
LINE
8
0
6
CONTINUOUS
10
-0.021676
20
-0.004620
30
0.0
11
-0.021810
21
0.000000
31
0.0
0
LINE
8
0
6
CONTINUOUS
10
-0.021895
20
0.000000
30
0.0
11
-0.021771
21
-0.004636
31
0.0
0
LINE
8
0
6
CONTINUOUS
10
0.021676
20
0.004620
30
0.0
11
0.021233
21
0.011308
31
0.0
0
LINE
8
0
6
CONTINUOUS
10
-0.021771
20
-0.004636
30
0.0
11
-0.021336
21
-0.011365
31
0.0
0
LINE
8
0
6
CONTINUOUS
10
-0.021233
20
-0.011307
30
0.0
11
-0.021676
21
-0.004620
31
0.0
0
LINE
8
0
6
CONTINUOUS
10
0.021811
20
0.000000
30
0.0
11
0.021676
21
0.004620
31
0.0
0
LINE
8
0
6
CONTINUOUS
10
-0.016991
20
-0.020419
30
0.0
11
-0.018164
21
-0.019879
31
0.0
0
LINE
8
0
6
CONTINUOUS
10
-0.018225
20
-0.019941
30
0.0
11
-0.017057
21
-0.020494
31
0.0
0
LINE
8
0
6
CONTINUOUS
10
-0.019941
20
-0.018225
30
0.0
11
-0.019197
21
-0.019197
31
0.0
0
LINE
8
0
6
CONTINUOUS
10
-0.019126
20
-0.019126
30
0.0
11
-0.019879
21
-0.018164
31
0.0
0
LINE
8
0
6
CONTINUOUS
10
-0.004620
20
0.021676
30
0.0
11
-0.011307
21
0.021233
31
0.0
0
LINE
8
0
6
CONTINUOUS
10
0.019879
20
0.018164
30
0.0
11
0.019127
21
0.019127
31
0.0
0
LINE
8
0
6
CONTINUOUS
10
0.011308
20
-0.021233
30
0.0
11
0.004620
21
-0.021676
31
0.0
0
LINE
8
0
6
CONTINUOUS
10
0.004636
20
-0.021771
30
0.0
11
0.011365
21
-0.021336
31
0.0
0
LINE
8
0
6
CONTINUOUS
10
-0.021771
20
0.004636
30
0.0
11
-0.021895
21
0.000000
31
0.0
0
LINE
8
0
6
CONTINUOUS
10
-0.021810
20
0.000000
30
0.0
11
-0.021676
21
0.004620
31
0.0
0
LINE
8
0
6
CONTINUOUS
10
0.000000
20
-0.021895
30
0.0
11
0.004636
21
-0.021771
31
0.0
0
LINE
8
0
6
CONTINUOUS
10
0.004620
20
-0.021676
30
0.0
11
0.000000
21
-0.021810
31
0.0
0
LINE
8
0
6
CONTINUOUS
10
0.011695
20
0.021957
30
0.0
11
0.004771
21
0.022404
31
0.0
0
LINE
8
0
6
CONTINUOUS
10
0.019755
20
-0.019755
30
0.0
11
0.020521
21
-0.018756
31
0.0
0
LINE
8
0
6
CONTINUOUS
10
0.021091
20
-0.017553
30
0.0
11
0.021473
21
-0.015753
31
0.0
0
LINE
8
0
6
CONTINUOUS
10
0.022404
20
-0.004770
30
0.0
11
0.022532
21
0.000000
31
0.0
0
LINE
8
0
6
CONTINUOUS
10
-0.021956
20
0.011695
30
0.0
11
-0.022404
21
0.004771
31
0.0
0
LINE
8
0
6
CONTINUOUS
10
-0.020521
20
0.018756
30
0.0
11
-0.021091
21
0.017553
31
0.0
0
LINE
8
0
6
CONTINUOUS
10
-0.017553
20
-0.021091
30
0.0
11
-0.015753
21
-0.021473
31
0.0
0
LINE
8
0
6
CONTINUOUS
10
-0.018756
20
-0.020521
30
0.0
11
-0.017553
21
-0.021091
31
0.0
0
LINE
8
0
6
CONTINUOUS
10
0.004771
20
0.022404
30
0.0
11
0.000000
21
0.022532
31
0.0
0
LINE
8
0
6
CONTINUOUS
10
0.020521
20
-0.018756
30
0.0
11
0.021091
21
-0.017553
31
0.0
0
LINE
8
0
6
CONTINUOUS
10
0.021473
20
-0.015753
30
0.0
11
0.021957
21
-0.011695
31
0.0
0
LINE
8
0
6
CONTINUOUS
10
0.019755
20
0.019755
30
0.0
11
0.018756
21
0.020521
31
0.0
0
LINE
8
0
6
CONTINUOUS
10
0.018756
20
0.020521
30
0.0
11
0.017553
21
0.021091
31
0.0
0
LINE
8
0
6
CONTINUOUS
10
0.015753
20
0.021473
30
0.0
11
0.011695
21
0.021957
31
0.0
0
LINE
8
0
6
CONTINUOUS
10
0.017553
20
0.021091
30
0.0
11
0.015753
21
0.021473
31
0.0
0
LINE
8
0
6
CONTINUOUS
10
-0.011695
20
-0.021956
30
0.0
11
-0.005000
21
-0.022389
31
0.0
0
LINE
8
0
6
CONTINUOUS
10
-0.015753
20
-0.021473
30
0.0
11
-0.011695
21
-0.021956
31
0.0
0
LINE
8
0
6
CONTINUOUS
10
0.021957
20
-0.011695
30
0.0
11
0.022404
21
-0.004770
31
0.0
0
LINE
8
0
6
CONTINUOUS
10
-0.021473
20
0.015753
30
0.0
11
-0.021956
21
0.011695
31
0.0
0
LINE
8
0
6
CONTINUOUS
10
-0.019755
20
0.019755
30
0.0
11
-0.020521
21
0.018756
31
0.0
0
LINE
8
0
6
CONTINUOUS
10
-0.019755
20
-0.019755
30
0.0
11
-0.018756
21
-0.020521
31
0.0
0
LINE
8
0
6
CONTINUOUS
10
0.022404
20
0.004771
30
0.0
11
0.021957
21
0.011695
31
0.0
0
LINE
8
0
6
CONTINUOUS
10
-0.022404
20
0.004771
30
0.0
11
-0.022532
21
0.000000
31
0.0
0
LINE
8
0
6
CONTINUOUS
10
-0.020521
20
-0.018756
30
0.0
11
-0.019755
21
-0.019755
31
0.0
0
LINE
8
0
6
CONTINUOUS
10
-0.011695
20
0.021957
30
0.0
11
-0.015753
21
0.021473
31
0.0
0
LINE
8
0
6
CONTINUOUS
10
-0.004770
20
0.022404
30
0.0
11
-0.011695
21
0.021957
31
0.0
0
LINE
8
0
6
CONTINUOUS
10
-0.021473
20
-0.015753
30
0.0
11
-0.021091
21
-0.017553
31
0.0
0
LINE
8
0
6
CONTINUOUS
10
0.021957
20
0.011695
30
0.0
11
0.021473
21
0.015753
31
0.0
0
LINE
8
0
6
CONTINUOUS
10
-0.015753
20
0.021473
30
0.0
11
-0.017553
21
0.021091
31
0.0
0
LINE
8
0
6
CONTINUOUS
10
-0.022532
20
0.000000
30
0.0
11
-0.022404
21
-0.004770
31
0.0
0
LINE
8
0
6
CONTINUOUS
10
0.022532
20
0.000000
30
0.0
11
0.022404
21
0.004771
31
0.0
0
LINE
8
0
6
CONTINUOUS
10
-0.022404
20
-0.004770
30
0.0
11
-0.021956
21
-0.011695
31
0.0
0
LINE
8
0
6
CONTINUOUS
10
-0.021091
20
-0.017553
30
0.0
11
-0.020521
21
-0.018756
31
0.0
0
LINE
8
0
6
CONTINUOUS
10
0.000000
20
0.022532
30
0.0
11
-0.004770
21
0.022404
31
0.0
0
LINE
8
0
6
CONTINUOUS
10
0.018756
20
-0.020521
30
0.0
11
0.019755
21
-0.019755
31
0.0
0
LINE
8
0
6
CONTINUOUS
10
0.021091
20
0.017553
30
0.0
11
0.020521
21
0.018756
31
0.0
0
LINE
8
0
6
CONTINUOUS
10
0.017553
20
-0.021091
30
0.0
11
0.018756
21
-0.020521
31
0.0
0
LINE
8
0
6
CONTINUOUS
10
-0.017553
20
0.021091
30
0.0
11
-0.018756
21
0.020521
31
0.0
0
LINE
8
0
6
CONTINUOUS
10
0.015753
20
-0.021473
30
0.0
11
0.017553
21
-0.021091
31
0.0
0
LINE
8
0
6
CONTINUOUS
10
-0.021956
20
-0.011695
30
0.0
11
-0.021473
21
-0.015753
31
0.0
0
LINE
8
0
6
CONTINUOUS
10
-0.018756
20
0.020521
30
0.0
11
-0.019755
21
0.019755
31
0.0
0
LINE
8
0
6
CONTINUOUS
10
0.005000
20
-0.022389
30
0.0
11
0.011695
21
-0.021956
31
0.0
0
LINE
8
0
6
CONTINUOUS
10
0.020521
20
0.018756
30
0.0
11
0.019755
21
0.019755
31
0.0
0
LINE
8
0
6
CONTINUOUS
10
0.021473
20
0.015753
30
0.0
11
0.021091
21
0.017553
31
0.0
0
LINE
8
0
6
CONTINUOUS
10
0.011695
20
-0.021956
30
0.0
11
0.015753
21
-0.021473
31
0.0
0
LINE
8
0
6
CONTINUOUS
10
-0.005000
20
-0.025802
30
0.0
11
-0.005000
21
-0.026008
31
0.0
0
LINE
8
0
6
CONTINUOUS
10
0.005000
20
-0.025802
30
0.0
11
0.005000
21
-0.022389
31
0.0
0
LINE
8
0
6
CONTINUOUS
10
0.000000
20
-0.077500
30
0.0
11
0.016409
21
-0.077302
31
0.0
0
LINE
8
0
6
CONTINUOUS
10
0.040227
20
-0.076189
30
0.0
11
0.047903
21
-0.075240
31
0.0
0
LINE
8
0
6
CONTINUOUS
10
0.047903
20
-0.075240
30
0.0
11
0.052068
21
-0.074481
31
0.0
0
LINE
8
0
6
CONTINUOUS
10
0.076171
20
-0.040227
30
0.0
11
0.076873
21
-0.029102
31
0.0
0
LINE
8
0
6
CONTINUOUS
10
0.075247
20
-0.047903
30
0.0
11
0.076171
21
-0.040227
31
0.0
0
LINE
8
0
6
CONTINUOUS
10
0.075806
20
-0.040025
30
0.0
11
0.074923
21
-0.047743
31
0.0
0
LINE
8
0
6
CONTINUOUS
10
0.074454
20
-0.052060
30
0.0
11
0.075247
21
-0.047903
31
0.0
0
LINE
8
0
6
CONTINUOUS
10
0.073306
20
-0.056131
30
0.0
11
0.074454
21
-0.052060
31
0.0
0
LINE
8
0
6
CONTINUOUS
10
0.000000
20
-0.077200
30
0.0
11
0.016353
21
-0.076967
31
0.0
0
LINE
8
0
6
CONTINUOUS
10
0.028962
20
-0.076555
30
0.0
11
0.016353
21
-0.076967
31
0.0
0
LINE
8
0
6
CONTINUOUS
10
0.016409
20
-0.077302
30
0.0
11
0.029102
21
-0.076863
31
0.0
0
LINE
8
0
6
CONTINUOUS
10
0.040025
20
-0.075824
30
0.0
11
0.028962
21
-0.076555
31
0.0
0
LINE
8
0
6
CONTINUOUS
10
0.029102
20
-0.076863
30
0.0
11
0.040227
21
-0.076189
31
0.0
0
LINE
8
0
6
CONTINUOUS
10
0.052068
20
-0.074481
30
0.0
11
0.056144
21
-0.073359
31
0.0
0
LINE
8
0
6
CONTINUOUS
10
0.059870
20
-0.071534
30
0.0
11
0.055946
21
-0.073062
31
0.0
0
LINE
8
0
6
CONTINUOUS
10
0.056144
20
-0.073359
30
0.0
11
0.060091
21
-0.071823
31
0.0
0
LINE
8
0
6
CONTINUOUS
10
0.063759
20
-0.069723
30
0.0
11
0.067038
21
-0.067050
31
0.0
0
LINE
8
0
6
CONTINUOUS
10
0.077200
20
0.000000
30
0.0
11
0.076935
21
-0.016353
31
0.0
0
LINE
8
0
6
CONTINUOUS
10
0.077270
20
-0.016409
30
0.0
11
0.077500
21
0.000000
31
0.0
0
LINE
8
0
6
CONTINUOUS
10
0.047743
20
-0.074916
30
0.0
11
0.051888
21
-0.074168
31
0.0
0
LINE
8
0
6
CONTINUOUS
10
0.051888
20
-0.074168
30
0.0
11
0.055946
21
-0.073062
31
0.0
0
LINE
8
0
6
CONTINUOUS
10
0.069697
20
-0.063759
30
0.0
11
0.071798
21
-0.060084
31
0.0
0
LINE
8
0
6
CONTINUOUS
10
0.063551
20
-0.069494
30
0.0
11
0.066776
21
-0.066794
31
0.0
0
LINE
8
0
6
CONTINUOUS
10
0.075806
20
-0.040025
30
0.0
11
0.076565
21
-0.028962
31
0.0
0
LINE
8
0
6
CONTINUOUS
10
0.074143
20
-0.051880
30
0.0
11
0.074923
21
-0.047743
31
0.0
0
LINE
8
0
6
CONTINUOUS
10
0.073009
20
-0.055933
30
0.0
11
0.074143
21
-0.051880
31
0.0
0
LINE
8
0
6
CONTINUOUS
10
0.076873
20
-0.029102
30
0.0
11
0.077270
21
-0.016409
31
0.0
0
LINE
8
0
6
CONTINUOUS
10
0.076935
20
-0.016353
30
0.0
11
0.076565
21
-0.028962
31
0.0
0
LINE
8
0
6
CONTINUOUS
10
0.071798
20
-0.060084
30
0.0
11
0.073306
21
-0.056131
31
0.0
0
LINE
8
0
6
CONTINUOUS
10
0.073009
20
-0.055933
30
0.0
11
0.071521
21
-0.059870
31
0.0
0
LINE
8
0
6
CONTINUOUS
10
0.069428
20
-0.063525
30
0.0
11
0.071521
21
-0.059870
31
0.0
0
LINE
8
0
6
CONTINUOUS
10
0.067038
20
-0.067050
30
0.0
11
0.069697
21
-0.063759
31
0.0
0
LINE
8
0
6
CONTINUOUS
10
0.069428
20
-0.063525
30
0.0
11
0.066776
21
-0.066794
31
0.0
0
LINE
8
0
6
CONTINUOUS
10
0.063551
20
-0.069494
30
0.0
11
0.059870
21
-0.071534
31
0.0
0
LINE
8
0
6
CONTINUOUS
10
0.060091
20
-0.071823
30
0.0
11
0.063759
21
-0.069723
31
0.0
0
LINE
8
0
6
CONTINUOUS
10
0.006968
20
-0.035028
30
0.0
11
0.000000
21
-0.035714
31
0.0
0
LINE
8
0
6
CONTINUOUS
10
0.013667
20
-0.032996
30
0.0
11
0.006968
21
-0.035028
31
0.0
0
LINE
8
0
6
CONTINUOUS
10
0.019842
20
-0.029695
30
0.0
11
0.013667
21
-0.032996
31
0.0
0
LINE
8
0
6
CONTINUOUS
10
0.025254
20
-0.025254
30
0.0
11
0.019842
21
-0.029695
31
0.0
0
LINE
8
0
6
CONTINUOUS
10
0.029695
20
-0.019842
30
0.0
11
0.025254
21
-0.025254
31
0.0
0
LINE
8
0
6
CONTINUOUS
10
0.032996
20
-0.013667
30
0.0
11
0.029695
21
-0.019842
31
0.0
0
LINE
8
0
6
CONTINUOUS
10
0.035028
20
-0.006968
30
0.0
11
0.032996
21
-0.013667
31
0.0
0
LINE
8
0
6
CONTINUOUS
10
0.035714
20
0.000000
30
0.0
11
0.035028
21
-0.006968
31
0.0
0
LINE
8
0
6
CONTINUOUS
10
-0.016409
20
-0.077302
30
0.0
11
0.000000
21
-0.077500
31
0.0
0
LINE
8
0
6
CONTINUOUS
10
-0.047903
20
-0.075240
30
0.0
11
-0.040227
21
-0.076189
31
0.0
0
LINE
8
0
6
CONTINUOUS
10
-0.052068
20
-0.074481
30
0.0
11
-0.047903
21
-0.075240
31
0.0
0
LINE
8
0
6
CONTINUOUS
10
-0.076873
20
-0.029102
30
0.0
11
-0.076171
21
-0.040227
31
0.0
0
LINE
8
0
6
CONTINUOUS
10
-0.074923
20
-0.047743
30
0.0
11
-0.075806
21
-0.040025
31
0.0
0
LINE
8
0
6
CONTINUOUS
10
-0.076171
20
-0.040227
30
0.0
11
-0.075247
21
-0.047903
31
0.0
0
LINE
8
0
6
CONTINUOUS
10
-0.075247
20
-0.047903
30
0.0
11
-0.074454
21
-0.052060
31
0.0
0
LINE
8
0
6
CONTINUOUS
10
-0.074454
20
-0.052060
30
0.0
11
-0.073306
21
-0.056131
31
0.0
0
LINE
8
0
6
CONTINUOUS
10
-0.016353
20
-0.076967
30
0.0
11
0.000000
21
-0.077200
31
0.0
0
LINE
8
0
6
CONTINUOUS
10
-0.029102
20
-0.076863
30
0.0
11
-0.016409
21
-0.077302
31
0.0
0
LINE
8
0
6
CONTINUOUS
10
-0.016353
20
-0.076967
30
0.0
11
-0.028962
21
-0.076555
31
0.0
0
LINE
8
0
6
CONTINUOUS
10
-0.040227
20
-0.076189
30
0.0
11
-0.029102
21
-0.076863
31
0.0
0
LINE
8
0
6
CONTINUOUS
10
-0.028962
20
-0.076555
30
0.0
11
-0.040025
21
-0.075824
31
0.0
0
LINE
8
0
6
CONTINUOUS
10
-0.056144
20
-0.073359
30
0.0
11
-0.052068
21
-0.074481
31
0.0
0
LINE
8
0
6
CONTINUOUS
10
-0.060091
20
-0.071823
30
0.0
11
-0.056144
21
-0.073359
31
0.0
0
LINE
8
0
6
CONTINUOUS
10
-0.055946
20
-0.073062
30
0.0
11
-0.059870
21
-0.071534
31
0.0
0
LINE
8
0
6
CONTINUOUS
10
-0.067038
20
-0.067050
30
0.0
11
-0.063759
21
-0.069723
31
0.0
0
LINE
8
0
6
CONTINUOUS
10
-0.077500
20
0.000000
30
0.0
11
-0.077270
21
-0.016409
31
0.0
0
LINE
8
0
6
CONTINUOUS
10
-0.076935
20
-0.016353
30
0.0
11
-0.077200
21
0.000000
31
0.0
0
LINE
8
0
6
CONTINUOUS
10
-0.051888
20
-0.074168
30
0.0
11
-0.047743
21
-0.074916
31
0.0
0
LINE
8
0
6
CONTINUOUS
10
-0.055946
20
-0.073062
30
0.0
11
-0.051888
21
-0.074168
31
0.0
0
LINE
8
0
6
CONTINUOUS
10
-0.071798
20
-0.060084
30
0.0
11
-0.069697
21
-0.063759
31
0.0
0
LINE
8
0
6
CONTINUOUS
10
-0.066776
20
-0.066794
30
0.0
11
-0.063551
21
-0.069494
31
0.0
0
LINE
8
0
6
CONTINUOUS
10
-0.076565
20
-0.028962
30
0.0
11
-0.075806
21
-0.040025
31
0.0
0
LINE
8
0
6
CONTINUOUS
10
-0.074923
20
-0.047743
30
0.0
11
-0.074143
21
-0.051880
31
0.0
0
LINE
8
0
6
CONTINUOUS
10
-0.074143
20
-0.051880
30
0.0
11
-0.073009
21
-0.055933
31
0.0
0
LINE
8
0
6
CONTINUOUS
10
-0.076565
20
-0.028962
30
0.0
11
-0.076935
21
-0.016353
31
0.0
0
LINE
8
0
6
CONTINUOUS
10
-0.077270
20
-0.016409
30
0.0
11
-0.076873
21
-0.029102
31
0.0
0
LINE
8
0
6
CONTINUOUS
10
-0.071521
20
-0.059870
30
0.0
11
-0.073009
21
-0.055933
31
0.0
0
LINE
8
0
6
CONTINUOUS
10
-0.073306
20
-0.056131
30
0.0
11
-0.071798
21
-0.060084
31
0.0
0
LINE
8
0
6
CONTINUOUS
10
-0.071521
20
-0.059870
30
0.0
11
-0.069428
21
-0.063525
31
0.0
0
LINE
8
0
6
CONTINUOUS
10
-0.066776
20
-0.066794
30
0.0
11
-0.069428
21
-0.063525
31
0.0
0
LINE
8
0
6
CONTINUOUS
10
-0.069697
20
-0.063759
30
0.0
11
-0.067038
21
-0.067050
31
0.0
0
LINE
8
0
6
CONTINUOUS
10
-0.063759
20
-0.069723
30
0.0
11
-0.060091
21
-0.071823
31
0.0
0
LINE
8
0
6
CONTINUOUS
10
-0.059870
20
-0.071534
30
0.0
11
-0.063551
21
-0.069494
31
0.0
0
LINE
8
0
6
CONTINUOUS
10
0.000000
20
-0.035714
30
0.0
11
-0.006968
21
-0.035028
31
0.0
0
LINE
8
0
6
CONTINUOUS
10
-0.006968
20
-0.035028
30
0.0
11
-0.013667
21
-0.032996
31
0.0
0
LINE
8
0
6
CONTINUOUS
10
-0.013667
20
-0.032996
30
0.0
11
-0.019842
21
-0.029695
31
0.0
0
LINE
8
0
6
CONTINUOUS
10
-0.019842
20
-0.029695
30
0.0
11
-0.025254
21
-0.025254
31
0.0
0
LINE
8
0
6
CONTINUOUS
10
-0.025254
20
-0.025254
30
0.0
11
-0.029695
21
-0.019842
31
0.0
0
LINE
8
0
6
CONTINUOUS
10
-0.029695
20
-0.019842
30
0.0
11
-0.032996
21
-0.013667
31
0.0
0
LINE
8
0
6
CONTINUOUS
10
-0.032996
20
-0.013667
30
0.0
11
-0.035028
21
-0.006968
31
0.0
0
LINE
8
0
6
CONTINUOUS
10
-0.035028
20
-0.006968
30
0.0
11
-0.035714
21
0.000000
31
0.0
0
LINE
8
0
6
CONTINUOUS
10
0.016409
20
0.077302
30
0.0
11
0.000000
21
0.077500
31
0.0
0
LINE
8
0
6
CONTINUOUS
10
0.047903
20
0.075240
30
0.0
11
0.040227
21
0.076189
31
0.0
0
LINE
8
0
6
CONTINUOUS
10
0.052068
20
0.074481
30
0.0
11
0.047903
21
0.075240
31
0.0
0
LINE
8
0
6
CONTINUOUS
10
0.076873
20
0.029102
30
0.0
11
0.076171
21
0.040227
31
0.0
0
LINE
8
0
6
CONTINUOUS
10
0.074923
20
0.047743
30
0.0
11
0.075806
21
0.040025
31
0.0
0
LINE
8
0
6
CONTINUOUS
10
0.076171
20
0.040227
30
0.0
11
0.075247
21
0.047903
31
0.0
0
LINE
8
0
6
CONTINUOUS
10
0.075247
20
0.047903
30
0.0
11
0.074454
21
0.052060
31
0.0
0
LINE
8
0
6
CONTINUOUS
10
0.074454
20
0.052060
30
0.0
11
0.073306
21
0.056131
31
0.0
0
LINE
8
0
6
CONTINUOUS
10
0.016353
20
0.076967
30
0.0
11
0.000000
21
0.077200
31
0.0
0
LINE
8
0
6
CONTINUOUS
10
0.029102
20
0.076863
30
0.0
11
0.016409
21
0.077302
31
0.0
0
LINE
8
0
6
CONTINUOUS
10
0.016353
20
0.076967
30
0.0
11
0.028962
21
0.076555
31
0.0
0
LINE
8
0
6
CONTINUOUS
10
0.040227
20
0.076189
30
0.0
11
0.029102
21
0.076863
31
0.0
0
LINE
8
0
6
CONTINUOUS
10
0.028962
20
0.076555
30
0.0
11
0.040025
21
0.075824
31
0.0
0
LINE
8
0
6
CONTINUOUS
10
0.056144
20
0.073359
30
0.0
11
0.052068
21
0.074481
31
0.0
0
LINE
8
0
6
CONTINUOUS
10
0.060091
20
0.071823
30
0.0
11
0.056144
21
0.073359
31
0.0
0
LINE
8
0
6
CONTINUOUS
10
0.055946
20
0.073062
30
0.0
11
0.059870
21
0.071534
31
0.0
0
LINE
8
0
6
CONTINUOUS
10
0.067038
20
0.067050
30
0.0
11
0.063759
21
0.069723
31
0.0
0
LINE
8
0
6
CONTINUOUS
10
0.077500
20
0.000000
30
0.0
11
0.077270
21
0.016409
31
0.0
0
LINE
8
0
6
CONTINUOUS
10
0.076935
20
0.016353
30
0.0
11
0.077200
21
0.000000
31
0.0
0
LINE
8
0
6
CONTINUOUS
10
0.051888
20
0.074168
30
0.0
11
0.047743
21
0.074916
31
0.0
0
LINE
8
0
6
CONTINUOUS
10
0.055946
20
0.073062
30
0.0
11
0.051888
21
0.074168
31
0.0
0
LINE
8
0
6
CONTINUOUS
10
0.071798
20
0.060084
30
0.0
11
0.069697
21
0.063759
31
0.0
0
LINE
8
0
6
CONTINUOUS
10
0.066776
20
0.066794
30
0.0
11
0.063551
21
0.069494
31
0.0
0
LINE
8
0
6
CONTINUOUS
10
0.076565
20
0.028962
30
0.0
11
0.075806
21
0.040025
31
0.0
0
LINE
8
0
6
CONTINUOUS
10
0.074923
20
0.047743
30
0.0
11
0.074143
21
0.051880
31
0.0
0
LINE
8
0
6
CONTINUOUS
10
0.074143
20
0.051880
30
0.0
11
0.073009
21
0.055933
31
0.0
0
LINE
8
0
6
CONTINUOUS
10
0.076565
20
0.028962
30
0.0
11
0.076935
21
0.016353
31
0.0
0
LINE
8
0
6
CONTINUOUS
10
0.077270
20
0.016409
30
0.0
11
0.076873
21
0.029102
31
0.0
0
LINE
8
0
6
CONTINUOUS
10
0.071521
20
0.059870
30
0.0
11
0.073009
21
0.055933
31
0.0
0
LINE
8
0
6
CONTINUOUS
10
0.073306
20
0.056131
30
0.0
11
0.071798
21
0.060084
31
0.0
0
LINE
8
0
6
CONTINUOUS
10
0.071521
20
0.059870
30
0.0
11
0.069428
21
0.063525
31
0.0
0
LINE
8
0
6
CONTINUOUS
10
0.066776
20
0.066794
30
0.0
11
0.069428
21
0.063525
31
0.0
0
LINE
8
0
6
CONTINUOUS
10
0.069697
20
0.063759
30
0.0
11
0.067038
21
0.067050
31
0.0
0
LINE
8
0
6
CONTINUOUS
10
0.063759
20
0.069723
30
0.0
11
0.060091
21
0.071823
31
0.0
0
LINE
8
0
6
CONTINUOUS
10
0.059870
20
0.071534
30
0.0
11
0.063551
21
0.069494
31
0.0
0
LINE
8
0
6
CONTINUOUS
10
0.000000
20
0.035714
30
0.0
11
0.006968
21
0.035028
31
0.0
0
LINE
8
0
6
CONTINUOUS
10
0.006968
20
0.035028
30
0.0
11
0.013667
21
0.032996
31
0.0
0
LINE
8
0
6
CONTINUOUS
10
0.013667
20
0.032996
30
0.0
11
0.019842
21
0.029695
31
0.0
0
LINE
8
0
6
CONTINUOUS
10
0.019842
20
0.029695
30
0.0
11
0.025254
21
0.025254
31
0.0
0
LINE
8
0
6
CONTINUOUS
10
0.025254
20
0.025254
30
0.0
11
0.029695
21
0.019842
31
0.0
0
LINE
8
0
6
CONTINUOUS
10
0.029695
20
0.019842
30
0.0
11
0.032996
21
0.013667
31
0.0
0
LINE
8
0
6
CONTINUOUS
10
0.032996
20
0.013667
30
0.0
11
0.035028
21
0.006968
31
0.0
0
LINE
8
0
6
CONTINUOUS
10
0.035028
20
0.006968
30
0.0
11
0.035714
21
0.000000
31
0.0
0
LINE
8
0
6
CONTINUOUS
10
0.000000
20
0.077500
30
0.0
11
-0.016409
21
0.077302
31
0.0
0
LINE
8
0
6
CONTINUOUS
10
-0.040227
20
0.076189
30
0.0
11
-0.047903
21
0.075240
31
0.0
0
LINE
8
0
6
CONTINUOUS
10
-0.047903
20
0.075240
30
0.0
11
-0.052068
21
0.074481
31
0.0
0
LINE
8
0
6
CONTINUOUS
10
-0.076171
20
0.040227
30
0.0
11
-0.076873
21
0.029102
31
0.0
0
LINE
8
0
6
CONTINUOUS
10
-0.075247
20
0.047903
30
0.0
11
-0.076171
21
0.040227
31
0.0
0
LINE
8
0
6
CONTINUOUS
10
-0.075806
20
0.040025
30
0.0
11
-0.074923
21
0.047743
31
0.0
0
LINE
8
0
6
CONTINUOUS
10
-0.074454
20
0.052060
30
0.0
11
-0.075247
21
0.047903
31
0.0
0
LINE
8
0
6
CONTINUOUS
10
-0.073306
20
0.056131
30
0.0
11
-0.074454
21
0.052060
31
0.0
0
LINE
8
0
6
CONTINUOUS
10
0.000000
20
0.077200
30
0.0
11
-0.016353
21
0.076967
31
0.0
0
LINE
8
0
6
CONTINUOUS
10
-0.028962
20
0.076555
30
0.0
11
-0.016353
21
0.076967
31
0.0
0
LINE
8
0
6
CONTINUOUS
10
-0.016409
20
0.077302
30
0.0
11
-0.029102
21
0.076863
31
0.0
0
LINE
8
0
6
CONTINUOUS
10
-0.040025
20
0.075824
30
0.0
11
-0.028962
21
0.076555
31
0.0
0
LINE
8
0
6
CONTINUOUS
10
-0.029102
20
0.076863
30
0.0
11
-0.040227
21
0.076189
31
0.0
0
LINE
8
0
6
CONTINUOUS
10
-0.052068
20
0.074481
30
0.0
11
-0.056144
21
0.073359
31
0.0
0
LINE
8
0
6
CONTINUOUS
10
-0.059870
20
0.071534
30
0.0
11
-0.055946
21
0.073062
31
0.0
0
LINE
8
0
6
CONTINUOUS
10
-0.056144
20
0.073359
30
0.0
11
-0.060091
21
0.071823
31
0.0
0
LINE
8
0
6
CONTINUOUS
10
-0.063759
20
0.069723
30
0.0
11
-0.067038
21
0.067050
31
0.0
0
LINE
8
0
6
CONTINUOUS
10
-0.077200
20
0.000000
30
0.0
11
-0.076935
21
0.016353
31
0.0
0
LINE
8
0
6
CONTINUOUS
10
-0.077270
20
0.016409
30
0.0
11
-0.077500
21
0.000000
31
0.0
0
LINE
8
0
6
CONTINUOUS
10
-0.047743
20
0.074916
30
0.0
11
-0.051888
21
0.074168
31
0.0
0
LINE
8
0
6
CONTINUOUS
10
-0.051888
20
0.074168
30
0.0
11
-0.055946
21
0.073062
31
0.0
0
LINE
8
0
6
CONTINUOUS
10
-0.069697
20
0.063759
30
0.0
11
-0.071798
21
0.060084
31
0.0
0
LINE
8
0
6
CONTINUOUS
10
-0.063551
20
0.069494
30
0.0
11
-0.066776
21
0.066794
31
0.0
0
LINE
8
0
6
CONTINUOUS
10
-0.075806
20
0.040025
30
0.0
11
-0.076565
21
0.028962
31
0.0
0
LINE
8
0
6
CONTINUOUS
10
-0.074143
20
0.051880
30
0.0
11
-0.074923
21
0.047743
31
0.0
0
LINE
8
0
6
CONTINUOUS
10
-0.073009
20
0.055933
30
0.0
11
-0.074143
21
0.051880
31
0.0
0
LINE
8
0
6
CONTINUOUS
10
-0.076873
20
0.029102
30
0.0
11
-0.077270
21
0.016409
31
0.0
0
LINE
8
0
6
CONTINUOUS
10
-0.076935
20
0.016353
30
0.0
11
-0.076565
21
0.028962
31
0.0
0
LINE
8
0
6
CONTINUOUS
10
-0.071798
20
0.060084
30
0.0
11
-0.073306
21
0.056131
31
0.0
0
LINE
8
0
6
CONTINUOUS
10
-0.073009
20
0.055933
30
0.0
11
-0.071521
21
0.059870
31
0.0
0
LINE
8
0
6
CONTINUOUS
10
-0.069428
20
0.063525
30
0.0
11
-0.071521
21
0.059870
31
0.0
0
LINE
8
0
6
CONTINUOUS
10
-0.067038
20
0.067050
30
0.0
11
-0.069697
21
0.063759
31
0.0
0
LINE
8
0
6
CONTINUOUS
10
-0.069428
20
0.063525
30
0.0
11
-0.066776
21
0.066794
31
0.0
0
LINE
8
0
6
CONTINUOUS
10
-0.063551
20
0.069494
30
0.0
11
-0.059870
21
0.071534
31
0.0
0
LINE
8
0
6
CONTINUOUS
10
-0.060091
20
0.071823
30
0.0
11
-0.063759
21
0.069723
31
0.0
0
LINE
8
0
6
CONTINUOUS
10
-0.006968
20
0.035028
30
0.0
11
0.000000
21
0.035714
31
0.0
0
LINE
8
0
6
CONTINUOUS
10
-0.013667
20
0.032996
30
0.0
11
-0.006968
21
0.035028
31
0.0
0
LINE
8
0
6
CONTINUOUS
10
-0.019842
20
0.029695
30
0.0
11
-0.013667
21
0.032996
31
0.0
0
LINE
8
0
6
CONTINUOUS
10
-0.025254
20
0.025254
30
0.0
11
-0.019842
21
0.029695
31
0.0
0
LINE
8
0
6
CONTINUOUS
10
-0.029695
20
0.019842
30
0.0
11
-0.025254
21
0.025254
31
0.0
0
LINE
8
0
6
CONTINUOUS
10
-0.032996
20
0.013667
30
0.0
11
-0.029695
21
0.019842
31
0.0
0
LINE
8
0
6
CONTINUOUS
10
-0.035028
20
0.006968
30
0.0
11
-0.032996
21
0.013667
31
0.0
0
LINE
8
0
6
CONTINUOUS
10
-0.035714
20
0.000000
30
0.0
11
-0.035028
21
0.006968
31
0.0
0
LINE
8
0
6
CONTINUOUS
10
0.000000
20
0.035235
30
0.0
11
-0.006874
21
0.034558
31
0.0
0
LINE
8
0
6
CONTINUOUS
10
-0.006874
20
0.034558
30
0.0
11
-0.013484
21
0.032553
31
0.0
0
LINE
8
0
6
CONTINUOUS
10
-0.013484
20
0.032553
30
0.0
11
-0.019576
21
0.029297
31
0.0
0
LINE
8
0
6
CONTINUOUS
10
-0.019576
20
0.029297
30
0.0
11
-0.024915
21
0.024915
31
0.0
0
LINE
8
0
6
CONTINUOUS
10
-0.024915
20
0.024915
30
0.0
11
-0.029297
21
0.019576
31
0.0
0
LINE
8
0
6
CONTINUOUS
10
-0.029297
20
0.019576
30
0.0
11
-0.032553
21
0.013484
31
0.0
0
LINE
8
0
6
CONTINUOUS
10
-0.032553
20
0.013484
30
0.0
11
-0.034558
21
0.006874
31
0.0
0
LINE
8
0
6
CONTINUOUS
10
-0.034558
20
0.006874
30
0.0
11
-0.035235
21
0.000000
31
0.0
0
LINE
8
0
6
CONTINUOUS
10
0.006874
20
0.034558
30
0.0
11
0.000000
21
0.035235
31
0.0
0
LINE
8
0
6
CONTINUOUS
10
0.013484
20
0.032553
30
0.0
11
0.006874
21
0.034558
31
0.0
0
LINE
8
0
6
CONTINUOUS
10
0.019576
20
0.029297
30
0.0
11
0.013484
21
0.032553
31
0.0
0
LINE
8
0
6
CONTINUOUS
10
0.024915
20
0.024915
30
0.0
11
0.019576
21
0.029297
31
0.0
0
LINE
8
0
6
CONTINUOUS
10
0.029297
20
0.019576
30
0.0
11
0.024915
21
0.024915
31
0.0
0
LINE
8
0
6
CONTINUOUS
10
0.032553
20
0.013484
30
0.0
11
0.029297
21
0.019576
31
0.0
0
LINE
8
0
6
CONTINUOUS
10
0.034558
20
0.006874
30
0.0
11
0.032553
21
0.013484
31
0.0
0
LINE
8
0
6
CONTINUOUS
10
0.035235
20
0.000000
30
0.0
11
0.034558
21
0.006874
31
0.0
0
LINE
8
0
6
CONTINUOUS
10
-0.006874
20
-0.034558
30
0.0
11
0.000000
21
-0.035235
31
0.0
0
LINE
8
0
6
CONTINUOUS
10
-0.013484
20
-0.032553
30
0.0
11
-0.006874
21
-0.034558
31
0.0
0
LINE
8
0
6
CONTINUOUS
10
-0.019576
20
-0.029297
30
0.0
11
-0.013484
21
-0.032553
31
0.0
0
LINE
8
0
6
CONTINUOUS
10
-0.024915
20
-0.024915
30
0.0
11
-0.019576
21
-0.029297
31
0.0
0
LINE
8
0
6
CONTINUOUS
10
-0.029297
20
-0.019576
30
0.0
11
-0.024915
21
-0.024915
31
0.0
0
LINE
8
0
6
CONTINUOUS
10
-0.032553
20
-0.013484
30
0.0
11
-0.029297
21
-0.019576
31
0.0
0
LINE
8
0
6
CONTINUOUS
10
-0.034558
20
-0.006874
30
0.0
11
-0.032553
21
-0.013484
31
0.0
0
LINE
8
0
6
CONTINUOUS
10
-0.035235
20
0.000000
30
0.0
11
-0.034558
21
-0.006874
31
0.0
0
LINE
8
0
6
CONTINUOUS
10
0.000000
20
-0.035235
30
0.0
11
0.006874
21
-0.034558
31
0.0
0
LINE
8
0
6
CONTINUOUS
10
0.006874
20
-0.034558
30
0.0
11
0.013484
21
-0.032553
31
0.0
0
LINE
8
0
6
CONTINUOUS
10
0.013484
20
-0.032553
30
0.0
11
0.019576
21
-0.029297
31
0.0
0
LINE
8
0
6
CONTINUOUS
10
0.019576
20
-0.029297
30
0.0
11
0.024915
21
-0.024915
31
0.0
0
LINE
8
0
6
CONTINUOUS
10
0.024915
20
-0.024915
30
0.0
11
0.029297
21
-0.019576
31
0.0
0
LINE
8
0
6
CONTINUOUS
10
0.029297
20
-0.019576
30
0.0
11
0.032553
21
-0.013484
31
0.0
0
LINE
8
0
6
CONTINUOUS
10
0.032553
20
-0.013484
30
0.0
11
0.034558
21
-0.006874
31
0.0
0
LINE
8
0
6
CONTINUOUS
10
0.034558
20
-0.006874
30
0.0
11
0.035235
21
0.000000
31
0.0
0
ENDSEC
0
EOF
