  0
SECTION
  2
HEADER
  9
$ACADVER
  1
AC1015
  9
$ACADMAINTVER
 70
     6
  9
$DWGCODEPAGE
  3
ANSI_1252
  9
$INSBASE
 10
0.0
 20
0.0
 30
0.0
  9
$EXTMIN
 10
0.2565
 20
0.194
 30
0.0
  9
$EXTMAX
 10
242.7585
 20
275.806
 30
0.0
  9
$LIMMIN
 10
0.0
 20
0.0
  9
$LIMMAX
 10
12.0
 20
9.0
  9
$ORTHOMODE
 70
     0
  9
$REGENMODE
 70
     1
  9
$FILLMODE
 70
     1
  9
$QTEXTMODE
 70
     0
  9
$MIRRTEXT
 70
     1
  9
$LTSCALE
 40
1.0
  9
$ATTMODE
 70
     1
  9
$TEXTSIZE
 40
0.2
  9
$TRACEWID
 40
0.05
  9
$TEXTSTYLE
  7
Standard
  9
$CLAYER
  8
0
  9
$CELTYPE
  6
ByBlock
  9
$CECOLOR
 62
   256
  9
$CELTSCALE
 40
1.0
  9
$DISPSILH
 70
     0
  9
$DIMSCALE
 40
1.0
  9
$DIMASZ
 40
0.18
  9
$DIMEXO
 40
0.0625
  9
$DIMDLI
 40
0.38
  9
$DIMRND
 40
0.0
  9
$DIMDLE
 40
0.0
  9
$DIMEXE
 40
0.18
  9
$DIMTP
 40
0.0
  9
$DIMTM
 40
0.0
  9
$DIMTXT
 40
0.18
  9
$DIMCEN
 40
0.09
  9
$DIMTSZ
 40
0.0
  9
$DIMTOL
 70
     0
  9
$DIMLIM
 70
     0
  9
$DIMTIH
 70
     1
  9
$DIMTOH
 70
     1
  9
$DIMSE1
 70
     0
  9
$DIMSE2
 70
     0
  9
$DIMTAD
 70
     0
  9
$DIMZIN
 70
     0
  9
$DIMBLK
  1

  9
$DIMASO
 70
     1
  9
$DIMSHO
 70
     1
  9
$DIMPOST
  1

  9
$DIMAPOST
  1

  9
$DIMALT
 70
     0
  9
$DIMALTD
 70
     2
  9
$DIMALTF
 40
25.4
  9
$DIMLFAC
 40
1.0
  9
$DIMTOFL
 70
     0
  9
$DIMTVP
 40
0.0
  9
$DIMTIX
 70
     0
  9
$DIMSOXD
 70
     0
  9
$DIMSAH
 70
     0
  9
$DIMBLK1
  1

  9
$DIMBLK2
  1

  9
$DIMSTYLE
  2
Standard
  9
$DIMCLRD
 70
     0
  9
$DIMCLRE
 70
     0
  9
$DIMCLRT
 70
     0
  9
$DIMTFAC
 40
1.0
  9
$DIMGAP
 40
0.09
  9
$DIMJUST
 70
     0
  9
$DIMSD1
 70
     0
  9
$DIMSD2
 70
     0
  9
$DIMTOLJ
 70
     1
  9
$DIMTZIN
 70
     0
  9
$DIMALTZ
 70
     0
  9
$DIMALTTZ
 70
     0
  9
$DIMUPT
 70
     0
  9
$DIMDEC
 70
     4
  9
$DIMTDEC
 70
     4
  9
$DIMALTU
 70
     2
  9
$DIMALTTD
 70
     2
  9
$DIMTXSTY
  7
Standard
  9
$DIMAUNIT
 70
     0
  9
$DIMADEC
 70
     0
  9
$DIMALTRND
 40
0.0
  9
$DIMAZIN
 70
     0
  9
$DIMDSEP
 70
    46
  9
$DIMATFIT
 70
     3
  9
$DIMFRAC
 70
     0
  9
$DIMLDRBLK
  1

  9
$DIMLUNIT
 70
     2
  9
$DIMLWD
 70
    -2
  9
$DIMLWE
 70
    -2
  9
$DIMTMOVE
 70
     2
  9
$LUNITS
 70
     2
  9
$LUPREC
 70
     4
  9
$SKETCHINC
 40
0.1
  9
$FILLETRAD
 40
0.5
  9
$AUNITS
 70
     0
  9
$AUPREC
 70
     0
  9
$MENU
  1
.
  9
$ELEVATION
 40
0.0
  9
$PELEVATION
 40
0.0
  9
$THICKNESS
 40
0.0
  9
$LIMCHECK
 70
     0
  9
$CHAMFERA
 40
0.5
  9
$CHAMFERB
 40
0.5
  9
$CHAMFERC
 40
1.0
  9
$CHAMFERD
 40
0.0
  9
$SKPOLY
 70
     0
  9
$TDCREATE
 40
2456647.899874132
  9
$TDUCREATE
 40
2456647.858207465
  9
$TDUPDATE
 40
2456647.901702465
  9
$TDUUPDATE
 40
2456647.860035799
  9
$TDINDWG
 40
0.0018281713
  9
$TDUSRTIMER
 40
0.0018281713
  9
$USRTIMER
 70
     1
  9
$ANGBASE
 50
0.0
  9
$ANGDIR
 70
     0
  9
$PDMODE
 70
     0
  9
$PDSIZE
 40
0.0
  9
$PLINEWID
 40
0.0
  9
$SPLFRAME
 70
     0
  9
$SPLINETYPE
 70
     6
  9
$SPLINESEGS
 70
     8
  9
$HANDSEED
  5
BD5
  9
$SURFTAB1
 70
     6
  9
$SURFTAB2
 70
     6
  9
$SURFTYPE
 70
     6
  9
$SURFU
 70
     6
  9
$SURFV
 70
     6
  9
$UCSBASE
  2

  9
$UCSNAME
  2

  9
$UCSORG
 10
0.0
 20
0.0
 30
0.0
  9
$UCSXDIR
 10
1.0
 20
0.0
 30
0.0
  9
$UCSYDIR
 10
0.0
 20
1.0
 30
0.0
  9
$UCSORTHOREF
  2

  9
$UCSORTHOVIEW
 70
     0
  9
$UCSORGTOP
 10
0.0
 20
0.0
 30
0.0
  9
$UCSORGBOTTOM
 10
0.0
 20
0.0
 30
0.0
  9
$UCSORGLEFT
 10
0.0
 20
0.0
 30
0.0
  9
$UCSORGRIGHT
 10
0.0
 20
0.0
 30
0.0
  9
$UCSORGFRONT
 10
0.0
 20
0.0
 30
0.0
  9
$UCSORGBACK
 10
0.0
 20
0.0
 30
0.0
  9
$PUCSBASE
  2

  9
$PUCSNAME
  2

  9
$PUCSORG
 10
0.0
 20
0.0
 30
0.0
  9
$PUCSXDIR
 10
1.0
 20
0.0
 30
0.0
  9
$PUCSYDIR
 10
0.0
 20
1.0
 30
0.0
  9
$PUCSORTHOREF
  2

  9
$PUCSORTHOVIEW
 70
     0
  9
$PUCSORGTOP
 10
0.0
 20
0.0
 30
0.0
  9
$PUCSORGBOTTOM
 10
0.0
 20
0.0
 30
0.0
  9
$PUCSORGLEFT
 10
0.0
 20
0.0
 30
0.0
  9
$PUCSORGRIGHT
 10
0.0
 20
0.0
 30
0.0
  9
$PUCSORGFRONT
 10
0.0
 20
0.0
 30
0.0
  9
$PUCSORGBACK
 10
0.0
 20
0.0
 30
0.0
  9
$USERI1
 70
     0
  9
$USERI2
 70
     0
  9
$USERI3
 70
     0
  9
$USERI4
 70
     0
  9
$USERI5
 70
     0
  9
$USERR1
 40
0.0
  9
$USERR2
 40
0.0
  9
$USERR3
 40
0.0
  9
$USERR4
 40
0.0
  9
$USERR5
 40
0.0
  9
$WORLDVIEW
 70
     1
  9
$SHADEDGE
 70
     3
  9
$SHADEDIF
 70
    70
  9
$TILEMODE
 70
     1
  9
$MAXACTVP
 70
    64
  9
$PINSBASE
 10
0.0
 20
0.0
 30
0.0
  9
$PLIMCHECK
 70
     0
  9
$PEXTMIN
 10
1.000000000000E+20
 20
1.000000000000E+20
 30
1.000000000000E+20
  9
$PEXTMAX
 10
-1.000000000000E+20
 20
-1.000000000000E+20
 30
-1.000000000000E+20
  9
$PLIMMIN
 10
0.0
 20
0.0
  9
$PLIMMAX
 10
12.0
 20
9.0
  9
$UNITMODE
 70
     0
  9
$VISRETAIN
 70
     1
  9
$PLINEGEN
 70
     0
  9
$PSLTSCALE
 70
     1
  9
$TREEDEPTH
 70
  3020
  9
$CMLSTYLE
  2
Standard
  9
$CMLJUST
 70
     0
  9
$CMLSCALE
 40
1.0
  9
$PROXYGRAPHICS
 70
     1
  9
$MEASUREMENT
 70
     0
  9
$CELWEIGHT
370
    -1
  9
$ENDCAPS
280
     0
  9
$JOINSTYLE
280
     0
  9
$LWDISPLAY
290
     0
  9
$INSUNITS
 70
     0
  9
$HYPERLINKBASE
  1

  9
$STYLESHEET
  1

  9
$XEDIT
290
     1
  9
$CEPSNTYPE
380
     0
  9
$PSTYLEMODE
290
     1
  9
$FINGERPRINTGUID
  2
{A38BC0C0-AB22-4B9F-9423-0BD156695D6D}
  9
$VERSIONGUID
  2
{FAEB1C32-E019-11D5-929B-00C0DF256EC4}
  9
$EXTNAMES
290
     1
  9
$PSVPSCALE
 40
0.0
  9
$OLESTARTUP
290
     0
  0
ENDSEC
  0
SECTION
  2
CLASSES
  0
CLASS
  1
ACDBDICTIONARYWDFLT
  2
AcDbDictionaryWithDefault
  3
ObjectDBX Classes
 90
        0
280
     0
281
     0
  0
CLASS
  1
SCALE
  2
AcDbScale
  3
ObjectDBX Classes
 90
     1153
280
     0
281
     0
  0
CLASS
  1
DICTIONARYVAR
  2
AcDbDictionaryVar
  3
ObjectDBX Classes
 90
        0
280
     0
281
     0
  0
CLASS
  1
ACDBPLACEHOLDER
  2
AcDbPlaceHolder
  3
ObjectDBX Classes
 90
        0
280
     0
281
     0
  0
CLASS
  1
LAYOUT
  2
AcDbLayout
  3
ObjectDBX Classes
 90
        0
280
     0
281
     0
  0
ENDSEC
  0
SECTION
  2
TABLES
  0
TABLE
  2
VPORT
  5
8
330
0
100
AcDbSymbolTable
 70
     1
  0
VPORT
  5
4C4
330
8
100
AcDbSymbolTableRecord
100
AcDbViewportTableRecord
  2
*Active
 70
     0
 10
0.0
 20
0.0
 11
1.0
 21
1.0
 12
121.37925
 22
137.903
 13
0.0
 23
0.0
 14
0.5
 24
0.5
 15
0.5
 25
0.5
 16
0.0
 26
0.0
 36
1.0
 17
0.0
 27
0.0
 37
0.0
 40
281.32212
 41
1.729542302358
 42
50.0
 43
0.0
 44
0.0
 50
0.0
 51
0.0
 71
    16
 72
   100
 73
     1
 74
     3
 75
     0
 76
     0
 77
     0
 78
     0
281
     0
 65
     1
110
0.0
120
0.0
130
0.0
111
1.0
121
0.0
131
0.0
112
0.0
122
1.0
132
0.0
 79
     0
146
0.0
  0
ENDTAB
  0
TABLE
  2
LTYPE
  5
5
330
0
100
AcDbSymbolTable
 70
     1
  0
LTYPE
  5
14
330
5
100
AcDbSymbolTableRecord
100
AcDbLinetypeTableRecord
  2
ByBlock
 70
     0
  3

 72
    65
 73
     0
 40
0.0
  0
LTYPE
  5
15
330
5
100
AcDbSymbolTableRecord
100
AcDbLinetypeTableRecord
  2
ByLayer
 70
     0
  3

 72
    65
 73
     0
 40
0.0
  0
LTYPE
  5
16
330
5
100
AcDbSymbolTableRecord
100
AcDbLinetypeTableRecord
  2
Continuous
 70
     0
  3
Solid line
 72
    65
 73
     0
 40
0.0
  0
ENDTAB
  0
TABLE
  2
LAYER
  5
2
330
0
100
AcDbSymbolTable
 70
     1
  0
LAYER
  5
10
330
2
100
AcDbSymbolTableRecord
100
AcDbLayerTableRecord
  2
0
 70
     0
 62
     7
  6
Continuous
370
    -3
390
F
  0
ENDTAB
  0
TABLE
  2
STYLE
  5
3
330
0
100
AcDbSymbolTable
 70
     1
  0
STYLE
  5
11
330
3
100
AcDbSymbolTableRecord
100
AcDbTextStyleTableRecord
  2
Standard
 70
     0
 40
0.0
 41
1.0
 50
0.0
 71
     0
 42
0.2
  3
txt
  4

  0
ENDTAB
  0
TABLE
  2
VIEW
  5
6
330
0
100
AcDbSymbolTable
 70
     0
  0
ENDTAB
  0
TABLE
  2
UCS
  5
7
330
0
100
AcDbSymbolTable
 70
     0
  0
ENDTAB
  0
TABLE
  2
APPID
  5
9
330
0
100
AcDbSymbolTable
 70
     1
  0
APPID
  5
12
330
9
100
AcDbSymbolTableRecord
100
AcDbRegAppTableRecord
  2
ACAD
 70
     0
  0
ENDTAB
  0
TABLE
  2
DIMSTYLE
  5
A
330
0
100
AcDbSymbolTable
 70
     1
100
AcDbDimStyleTable
  0
DIMSTYLE
105
20
330
A
100
AcDbSymbolTableRecord
100
AcDbDimStyleTableRecord
  2
Standard
 70
     0
340
11
  0
ENDTAB
  0
TABLE
  2
BLOCK_RECORD
  5
1
330
0
100
AcDbSymbolTable
 70
     2
  0
BLOCK_RECORD
  5
1D
330
1
100
AcDbSymbolTableRecord
100
AcDbBlockTableRecord
  2
*Model_Space
340
1E
  0
BLOCK_RECORD
  5
1B
330
1
100
AcDbSymbolTableRecord
100
AcDbBlockTableRecord
  2
*Paper_Space
340
1C
  0
ENDTAB
  0
ENDSEC
  0
SECTION
  2
BLOCKS
  0
BLOCK
  5
4C7
330
1D
100
AcDbEntity
  8
0
100
AcDbBlockBegin
  2
*Model_Space
 70
     0
 10
0.0
 20
0.0
 30
0.0
  3
*Model_Space
  1
*Model_Space
  0
ENDBLK
  5
4C8
330
1D
100
AcDbEntity
  8
0
100
AcDbBlockEnd
  0
BLOCK
  5
4C5
330
1B
100
AcDbEntity
 67
     1
  8
0
100
AcDbBlockBegin
  2
*Paper_Space
 70
     0
 10
0.0
 20
0.0
 30
0.0
  3
*Paper_Space
  1
*Paper_Space
  0
ENDBLK
  5
4C6
330
1B
100
AcDbEntity
 67
     1
  8
0
100
AcDbBlockEnd
  0
ENDSEC
  0
SECTION
  2
ENTITIES
  0
LINE
  5
EE
330
1D
100
AcDbEntity
  8
0
100
AcDbLine
 10
125.6335
 20
0.194
 30
0.0
 11
126.3215
 21
0.194
 31
0.0
  0
LINE
  5
EF
330
1D
100
AcDbEntity
  8
0
100
AcDbLine
 10
126.3215
 20
0.194
 30
0.0
 11
127.3355
 21
0.194
 31
0.0
  0
LINE
  5
F0
330
1D
100
AcDbEntity
  8
0
100
AcDbLine
 10
126.2485
 20
0.194
 30
0.0
 11
127.2345
 21
0.194
 31
0.0
  0
LINE
  5
F1
330
1D
100
AcDbEntity
  8
0
100
AcDbLine
 10
125.5895
 20
0.194
 30
0.0
 11
126.2485
 21
0.194
 31
0.0
  0
LINE
  5
F2
330
1D
100
AcDbEntity
  8
0
100
AcDbLine
 10
125.2645
 20
0.194
 30
0.0
 11
125.5895
 21
0.194
 31
0.0
  0
LINE
  5
F5
330
1D
100
AcDbEntity
  8
0
100
AcDbLine
 10
125.2795
 20
0.194
 30
0.0
 11
125.6335
 21
0.194
 31
0.0
  0
LINE
  5
10A
330
1D
100
AcDbEntity
  8
0
100
AcDbLine
 10
127.3355
 20
0.194
 30
0.0
 11
128.6635
 21
0.194
 31
0.0
  0
LINE
  5
10B
330
1D
100
AcDbEntity
  8
0
100
AcDbLine
 10
127.2345
 20
0.194
 30
0.0
 11
128.5355
 21
0.194
 31
0.0
  0
LINE
  5
118
330
1D
100
AcDbEntity
  8
0
100
AcDbLine
 10
128.6635
 20
0.194
 30
0.0
 11
130.2855
 21
0.194
 31
0.0
  0
LINE
  5
11D
330
1D
100
AcDbEntity
  8
0
100
AcDbLine
 10
128.5355
 20
0.194
 30
0.0
 11
130.1335
 21
0.194
 31
0.0
  0
LINE
  5
13E
330
1D
100
AcDbEntity
  8
0
100
AcDbLine
 10
135.3525
 20
0.194
 30
0.0
 11
137.1065
 21
0.194
 31
0.0
  0
LINE
  5
13F
330
1D
100
AcDbEntity
  8
0
100
AcDbLine
 10
134.3815
 20
0.194
 30
0.0
 11
135.9535
 21
0.194
 31
0.0
  0
LINE
  5
140
330
1D
100
AcDbEntity
  8
0
100
AcDbLine
 10
135.0735
 20
0.194
 30
0.0
 11
135.4215
 21
0.194
 31
0.0
  0
LINE
  5
141
330
1D
100
AcDbEntity
  8
0
100
AcDbLine
 10
135.0735
 20
0.194
 30
0.0
 11
135.4235
 21
0.194
 31
0.0
  0
LINE
  5
142
330
1D
100
AcDbEntity
  8
0
100
AcDbLine
 10
135.4235
 20
0.194
 30
0.0
 11
136.1155
 21
0.194
 31
0.0
  0
LINE
  5
143
330
1D
100
AcDbEntity
  8
0
100
AcDbLine
 10
135.4215
 20
0.194
 30
0.0
 11
136.1125
 21
0.194
 31
0.0
  0
LINE
  5
144
330
1D
100
AcDbEntity
  8
0
100
AcDbLine
 10
133.8885
 20
0.194
 30
0.0
 11
134.3365
 21
0.194
 31
0.0
  0
LINE
  5
145
330
1D
100
AcDbEntity
  8
0
100
AcDbLine
 10
134.1395
 20
0.194
 30
0.0
 11
136.4975
 21
0.194
 31
0.0
  0
LINE
  5
146
330
1D
100
AcDbEntity
  8
0
100
AcDbLine
 10
134.1335
 20
0.194
 30
0.0
 11
134.2485
 21
0.194
 31
0.0
  0
LINE
  5
147
330
1D
100
AcDbEntity
  8
0
100
AcDbLine
 10
134.1335
 20
0.194
 30
0.0
 11
134.3365
 21
0.194
 31
0.0
  0
LINE
  5
148
330
1D
100
AcDbEntity
  8
0
100
AcDbLine
 10
134.3565
 20
0.194
 30
0.0
 11
134.9115
 21
0.194
 31
0.0
  0
LINE
  5
149
330
1D
100
AcDbEntity
  8
0
100
AcDbLine
 10
134.2485
 20
0.194
 30
0.0
 11
134.6975
 21
0.194
 31
0.0
  0
LINE
  5
14A
330
1D
100
AcDbEntity
  8
0
100
AcDbLine
 10
134.6975
 20
0.194
 30
0.0
 11
135.4735
 21
0.194
 31
0.0
  0
LINE
  5
14B
330
1D
100
AcDbEntity
  8
0
100
AcDbLine
 10
135.9535
 20
0.194
 30
0.0
 11
137.8035
 21
0.194
 31
0.0
  0
LINE
  5
14C
330
1D
100
AcDbEntity
  8
0
100
AcDbLine
 10
136.1155
 20
0.194
 30
0.0
 11
137.1355
 21
0.194
 31
0.0
  0
LINE
  5
14D
330
1D
100
AcDbEntity
  8
0
100
AcDbLine
 10
136.1125
 20
0.194
 30
0.0
 11
137.1315
 21
0.194
 31
0.0
  0
LINE
  5
14E
330
1D
100
AcDbEntity
  8
0
100
AcDbLine
 10
135.4735
 20
0.194
 30
0.0
 11
136.5625
 21
0.194
 31
0.0
  0
LINE
  5
14F
330
1D
100
AcDbEntity
  8
0
100
AcDbLine
 10
132.1745
 20
0.194
 30
0.0
 11
133.1145
 21
0.194
 31
0.0
  0
LINE
  5
150
330
1D
100
AcDbEntity
  8
0
100
AcDbLine
 10
131.5785
 20
0.194
 30
0.0
 11
132.1745
 21
0.194
 31
0.0
  0
LINE
  5
151
330
1D
100
AcDbEntity
  8
0
100
AcDbLine
 10
130.2855
 20
0.194
 30
0.0
 11
132.1855
 21
0.194
 31
0.0
  0
LINE
  5
152
330
1D
100
AcDbEntity
  8
0
100
AcDbLine
 10
131.4495
 20
0.194
 30
0.0
 11
131.9195
 21
0.194
 31
0.0
  0
LINE
  5
153
330
1D
100
AcDbEntity
  8
0
100
AcDbLine
 10
130.1335
 20
0.194
 30
0.0
 11
132.0095
 21
0.194
 31
0.0
  0
LINE
  5
154
330
1D
100
AcDbEntity
  8
0
100
AcDbLine
 10
132.0095
 20
0.194
 30
0.0
 11
134.1395
 21
0.194
 31
0.0
  0
LINE
  5
155
330
1D
100
AcDbEntity
  8
0
100
AcDbLine
 10
133.1145
 20
0.194
 30
0.0
 11
134.3815
 21
0.194
 31
0.0
  0
LINE
  5
156
330
1D
100
AcDbEntity
  8
0
100
AcDbLine
 10
132.1855
 20
0.194
 30
0.0
 11
134.3365
 21
0.194
 31
0.0
  0
LINE
  5
157
330
1D
100
AcDbEntity
  8
0
100
AcDbLine
 10
134.3365
 20
0.194
 30
0.0
 11
136.7135
 21
0.194
 31
0.0
  0
LINE
  5
158
330
1D
100
AcDbEntity
  8
0
100
AcDbLine
 10
136.9745
 20
0.194
 30
0.0
 11
138.4435
 21
0.194
 31
0.0
  0
LINE
  5
159
330
1D
100
AcDbEntity
  8
0
100
AcDbLine
 10
137.1355
 20
0.194
 30
0.0
 11
138.4625
 21
0.194
 31
0.0
  0
LINE
  5
15A
330
1D
100
AcDbEntity
  8
0
100
AcDbLine
 10
137.1315
 20
0.194
 30
0.0
 11
138.4575
 21
0.194
 31
0.0
  0
LINE
  5
15B
330
1D
100
AcDbEntity
  8
0
100
AcDbLine
 10
136.5625
 20
0.194
 30
0.0
 11
137.9425
 21
0.194
 31
0.0
  0
LINE
  5
15C
330
1D
100
AcDbEntity
  8
0
100
AcDbLine
 10
136.7135
 20
0.194
 30
0.0
 11
139.2845
 21
0.194
 31
0.0
  0
LINE
  5
15D
330
1D
100
AcDbEntity
  8
0
100
AcDbLine
 10
136.7135
 20
0.194
 30
0.0
 11
136.9745
 21
0.194
 31
0.0
  0
LINE
  5
15E
330
1D
100
AcDbEntity
  8
0
100
AcDbLine
 10
136.4975
 20
0.194
 30
0.0
 11
139.0535
 21
0.194
 31
0.0
  0
LINE
  5
187
330
1D
100
AcDbEntity
  8
0
100
AcDbLine
 10
141.9195
 20
0.194
 30
0.0
 11
142.0195
 21
0.194
 31
0.0
  0
LINE
  5
188
330
1D
100
AcDbEntity
  8
0
100
AcDbLine
 10
142.0195
 20
0.194
 30
0.0
 11
142.2095
 21
0.194
 31
0.0
  0
LINE
  5
189
330
1D
100
AcDbEntity
  8
0
100
AcDbLine
 10
141.9245
 20
0.194
 30
0.0
 11
142.0195
 21
0.194
 31
0.0
  0
LINE
  5
18A
330
1D
100
AcDbEntity
  8
0
100
AcDbLine
 10
144.6895
 20
0.194
 30
0.0
 11
147.2985
 21
0.194
 31
0.0
  0
LINE
  5
18B
330
1D
100
AcDbEntity
  8
0
100
AcDbLine
 10
142.2095
 20
0.194
 30
0.0
 11
144.6895
 21
0.194
 31
0.0
  0
LINE
  5
18C
330
1D
100
AcDbEntity
  8
0
100
AcDbLine
 10
143.7775
 20
0.194
 30
0.0
 11
146.3455
 21
0.194
 31
0.0
  0
LINE
  5
18D
330
1D
100
AcDbEntity
  8
0
100
AcDbLine
 10
144.2565
 20
0.194
 30
0.0
 11
146.5435
 21
0.194
 31
0.0
  0
LINE
  5
18E
330
1D
100
AcDbEntity
  8
0
100
AcDbLine
 10
142.0195
 20
0.194
 30
0.0
 11
144.8825
 21
0.194
 31
0.0
  0
LINE
  5
18F
330
1D
100
AcDbEntity
  8
0
100
AcDbLine
 10
139.2845
 20
0.194
 30
0.0
 11
141.3555
 21
0.194
 31
0.0
  0
LINE
  5
190
330
1D
100
AcDbEntity
  8
0
100
AcDbLine
 10
141.4695
 20
0.194
 30
0.0
 11
143.5515
 21
0.194
 31
0.0
  0
LINE
  5
193
330
1D
100
AcDbEntity
  8
0
100
AcDbLine
 10
141.3555
 20
0.194
 30
0.0
 11
143.7775
 21
0.194
 31
0.0
  0
LINE
  5
194
330
1D
100
AcDbEntity
  8
0
100
AcDbLine
 10
139.2845
 20
0.194
 30
0.0
 11
142.0195
 21
0.194
 31
0.0
  0
LINE
  5
195
330
1D
100
AcDbEntity
  8
0
100
AcDbLine
 10
141.7745
 20
0.194
 30
0.0
 11
144.6275
 21
0.194
 31
0.0
  0
LINE
  5
196
330
1D
100
AcDbEntity
  8
0
100
AcDbLine
 10
153.6115
 20
0.194
 30
0.0
 11
153.8755
 21
0.194
 31
0.0
  0
LINE
  5
197
330
1D
100
AcDbEntity
  8
0
100
AcDbLine
 10
153.8605
 20
0.194
 30
0.0
 11
156.2995
 21
0.194
 31
0.0
  0
LINE
  5
198
330
1D
100
AcDbEntity
  8
0
100
AcDbLine
 10
153.4605
 20
0.194
 30
0.0
 11
155.8885
 21
0.194
 31
0.0
  0
LINE
  5
199
330
1D
100
AcDbEntity
  8
0
100
AcDbLine
 10
155.8885
 20
0.194
 30
0.0
 11
156.8825
 21
0.194
 31
0.0
  0
LINE
  5
19A
330
1D
100
AcDbEntity
  8
0
100
AcDbLine
 10
155.8825
 20
0.194
 30
0.0
 11
156.8825
 21
0.194
 31
0.0
  0
LINE
  5
19B
330
1D
100
AcDbEntity
  8
0
100
AcDbLine
 10
153.4525
 20
0.194
 30
0.0
 11
155.8825
 21
0.194
 31
0.0
  0
LINE
  5
19D
330
1D
100
AcDbEntity
  8
0
100
AcDbLine
 10
178.8695
 20
0.194
 30
0.0
 11
179.1945
 21
0.194
 31
0.0
  0
LINE
  5
19E
330
1D
100
AcDbEntity
  8
0
100
AcDbLine
 10
172.2845
 20
0.194
 30
0.0
 11
172.8805
 21
0.194
 31
0.0
  0
LINE
  5
19F
330
1D
100
AcDbEntity
  8
0
100
AcDbLine
 10
178.1375
 20
0.194
 30
0.0
 11
178.8255
 21
0.194
 31
0.0
  0
LINE
  5
1A0
330
1D
100
AcDbEntity
  8
0
100
AcDbLine
 10
177.1235
 20
0.194
 30
0.0
 11
178.1375
 21
0.194
 31
0.0
  0
LINE
  5
1A1
330
1D
100
AcDbEntity
  8
0
100
AcDbLine
 10
175.9245
 20
0.194
 30
0.0
 11
177.1235
 21
0.194
 31
0.0
  0
LINE
  5
1A2
330
1D
100
AcDbEntity
  8
0
100
AcDbLine
 10
174.1725
 20
0.194
 30
0.0
 11
175.7965
 21
0.194
 31
0.0
  0
LINE
  5
1A3
330
1D
100
AcDbEntity
  8
0
100
AcDbLine
 10
173.0095
 20
0.194
 30
0.0
 11
173.1235
 21
0.194
 31
0.0
  0
LINE
  5
1A4
330
1D
100
AcDbEntity
  8
0
100
AcDbLine
 10
172.8805
 20
0.194
 30
0.0
 11
173.1235
 21
0.194
 31
0.0
  0
LINE
  5
1A5
330
1D
100
AcDbEntity
  8
0
100
AcDbLine
 10
174.3255
 20
0.194
 30
0.0
 11
175.9245
 21
0.194
 31
0.0
  0
LINE
  5
1A6
330
1D
100
AcDbEntity
  8
0
100
AcDbLine
 10
175.9245
 20
0.194
 30
0.0
 11
177.2245
 21
0.194
 31
0.0
  0
LINE
  5
1A7
330
1D
100
AcDbEntity
  8
0
100
AcDbLine
 10
177.2245
 20
0.194
 30
0.0
 11
178.2105
 21
0.194
 31
0.0
  0
LINE
  5
1A8
330
1D
100
AcDbEntity
  8
0
100
AcDbLine
 10
178.2105
 20
0.194
 30
0.0
 11
178.8695
 21
0.194
 31
0.0
  0
LINE
  5
1A9
330
1D
100
AcDbEntity
  8
0
100
AcDbLine
 10
172.5395
 20
0.194
 30
0.0
 11
173.0095
 21
0.194
 31
0.0
  0
LINE
  5
1AA
330
1D
100
AcDbEntity
  8
0
100
AcDbLine
 10
172.4495
 20
0.194
 30
0.0
 11
174.3255
 21
0.194
 31
0.0
  0
LINE
  5
1AB
330
1D
100
AcDbEntity
  8
0
100
AcDbLine
 10
159.8315
 20
0.194
 30
0.0
 11
162.6845
 21
0.194
 31
0.0
  0
LINE
  5
1AC
330
1D
100
AcDbEntity
  8
0
100
AcDbLine
 10
159.8315
 20
0.194
 30
0.0
 11
160.9075
 21
0.194
 31
0.0
  0
LINE
  5
1AD
330
1D
100
AcDbEntity
  8
0
100
AcDbLine
 10
162.4395
 20
0.194
 30
0.0
 11
165.1745
 21
0.194
 31
0.0
  0
LINE
  5
1AE
330
1D
100
AcDbEntity
  8
0
100
AcDbLine
 10
162.2495
 20
0.194
 30
0.0
 11
162.6845
 21
0.194
 31
0.0
  0
LINE
  5
1AF
330
1D
100
AcDbEntity
  8
0
100
AcDbLine
 10
162.6845
 20
0.194
 30
0.0
 11
163.1035
 21
0.194
 31
0.0
  0
LINE
  5
1B0
330
1D
100
AcDbEntity
  8
0
100
AcDbLine
 10
162.6845
 20
0.194
 30
0.0
 11
165.4055
 21
0.194
 31
0.0
  0
LINE
  5
1B1
330
1D
100
AcDbEntity
  8
0
100
AcDbLine
 10
162.5395
 20
0.194
 30
0.0
 11
164.3945
 21
0.194
 31
0.0
  0
LINE
  5
1B2
330
1D
100
AcDbEntity
  8
0
100
AcDbLine
 10
163.1035
 20
0.194
 30
0.0
 11
165.3405
 21
0.194
 31
0.0
  0
LINE
  5
1B3
330
1D
100
AcDbEntity
  8
0
100
AcDbLine
 10
162.9895
 20
0.194
 30
0.0
 11
164.8705
 21
0.194
 31
0.0
  0
LINE
  5
1B4
330
1D
100
AcDbEntity
  8
0
100
AcDbLine
 10
162.5345
 20
0.194
 30
0.0
 11
164.3895
 21
0.194
 31
0.0
  0
LINE
  5
1B5
330
1D
100
AcDbEntity
  8
0
100
AcDbLine
 10
167.3525
 20
0.194
 30
0.0
 11
169.1065
 21
0.194
 31
0.0
  0
LINE
  5
1B6
330
1D
100
AcDbEntity
  8
0
100
AcDbLine
 10
167.3275
 20
0.194
 30
0.0
 11
168.3465
 21
0.194
 31
0.0
  0
LINE
  5
1B7
330
1D
100
AcDbEntity
  8
0
100
AcDbLine
 10
165.1745
 20
0.194
 30
0.0
 11
167.7455
 21
0.194
 31
0.0
  0
LINE
  5
1B8
330
1D
100
AcDbEntity
  8
0
100
AcDbLine
 10
165.4055
 20
0.194
 30
0.0
 11
166.6555
 21
0.194
 31
0.0
  0
LINE
  5
1B9
330
1D
100
AcDbEntity
  8
0
100
AcDbLine
 10
165.4055
 20
0.194
 30
0.0
 11
167.9615
 21
0.194
 31
0.0
  0
LINE
  5
1BA
330
1D
100
AcDbEntity
  8
0
100
AcDbLine
 10
165.3405
 20
0.194
 30
0.0
 11
167.3525
 21
0.194
 31
0.0
  0
LINE
  5
1BB
330
1D
100
AcDbEntity
  8
0
100
AcDbLine
 10
164.3945
 20
0.194
 30
0.0
 11
165.4055
 21
0.194
 31
0.0
  0
LINE
  5
1BC
330
1D
100
AcDbEntity
  8
0
100
AcDbLine
 10
166.6555
 20
0.194
 30
0.0
 11
168.5055
 21
0.194
 31
0.0
  0
LINE
  5
1BD
330
1D
100
AcDbEntity
  8
0
100
AcDbLine
 10
166.5165
 20
0.194
 30
0.0
 11
167.8965
 21
0.194
 31
0.0
  0
LINE
  5
1BE
330
1D
100
AcDbEntity
  8
0
100
AcDbLine
 10
167.3235
 20
0.194
 30
0.0
 11
168.3435
 21
0.194
 31
0.0
  0
LINE
  5
1BF
330
1D
100
AcDbEntity
  8
0
100
AcDbLine
 10
168.9855
 20
0.194
 30
0.0
 11
169.7615
 21
0.194
 31
0.0
  0
LINE
  5
1C0
330
1D
100
AcDbEntity
  8
0
100
AcDbLine
 10
169.1065
 20
0.194
 30
0.0
 11
170.5705
 21
0.194
 31
0.0
  0
LINE
  5
1C1
330
1D
100
AcDbEntity
  8
0
100
AcDbLine
 10
169.0375
 20
0.194
 30
0.0
 11
169.3855
 21
0.194
 31
0.0
  0
LINE
  5
1C2
330
1D
100
AcDbEntity
  8
0
100
AcDbLine
 10
169.0355
 20
0.194
 30
0.0
 11
169.3855
 21
0.194
 31
0.0
  0
LINE
  5
1C3
330
1D
100
AcDbEntity
  8
0
100
AcDbLine
 10
170.1215
 20
0.194
 30
0.0
 11
172.2735
 21
0.194
 31
0.0
  0
LINE
  5
1C4
330
1D
100
AcDbEntity
  8
0
100
AcDbLine
 10
170.0775
 20
0.194
 30
0.0
 11
171.3445
 21
0.194
 31
0.0
  0
LINE
  5
1C5
330
1D
100
AcDbEntity
  8
0
100
AcDbLine
 10
171.3445
 20
0.194
 30
0.0
 11
172.2845
 21
0.194
 31
0.0
  0
LINE
  5
1C6
330
1D
100
AcDbEntity
  8
0
100
AcDbLine
 10
170.5705
 20
0.194
 30
0.0
 11
171.7225
 21
0.194
 31
0.0
  0
LINE
  5
1C7
330
1D
100
AcDbEntity
  8
0
100
AcDbLine
 10
171.7225
 20
0.194
 30
0.0
 11
172.5395
 21
0.194
 31
0.0
  0
LINE
  5
1C8
330
1D
100
AcDbEntity
  8
0
100
AcDbLine
 10
170.3195
 20
0.194
 30
0.0
 11
172.4495
 21
0.194
 31
0.0
  0
LINE
  5
1C9
330
1D
100
AcDbEntity
  8
0
100
AcDbLine
 10
170.2105
 20
0.194
 30
0.0
 11
170.3195
 21
0.194
 31
0.0
  0
LINE
  5
1CA
330
1D
100
AcDbEntity
  8
0
100
AcDbLine
 10
169.7615
 20
0.194
 30
0.0
 11
170.2105
 21
0.194
 31
0.0
  0
LINE
  5
1CB
330
1D
100
AcDbEntity
  8
0
100
AcDbLine
 10
170.1025
 20
0.194
 30
0.0
 11
170.3195
 21
0.194
 31
0.0
  0
LINE
  5
1CC
330
1D
100
AcDbEntity
  8
0
100
AcDbLine
 10
169.5475
 20
0.194
 30
0.0
 11
170.1025
 21
0.194
 31
0.0
  0
LINE
  5
1CD
330
1D
100
AcDbEntity
  8
0
100
AcDbLine
 10
167.7455
 20
0.194
 30
0.0
 11
170.1215
 21
0.194
 31
0.0
  0
LINE
  5
1CE
330
1D
100
AcDbEntity
  8
0
100
AcDbLine
 10
168.5055
 20
0.194
 30
0.0
 11
170.0775
 21
0.194
 31
0.0
  0
LINE
  5
1CF
330
1D
100
AcDbEntity
  8
0
100
AcDbLine
 10
167.9615
 20
0.194
 30
0.0
 11
170.3195
 21
0.194
 31
0.0
  0
LINE
  5
1D0
330
1D
100
AcDbEntity
  8
0
100
AcDbLine
 10
167.8965
 20
0.194
 30
0.0
 11
167.9615
 21
0.194
 31
0.0
  0
LINE
  5
1D1
330
1D
100
AcDbEntity
  8
0
100
AcDbLine
 10
168.6685
 20
0.194
 30
0.0
 11
169.5475
 21
0.194
 31
0.0
  0
LINE
  5
1D2
330
1D
100
AcDbEntity
  8
0
100
AcDbLine
 10
167.4845
 20
0.194
 30
0.0
 11
168.6685
 21
0.194
 31
0.0
  0
LINE
  5
1D3
330
1D
100
AcDbEntity
  8
0
100
AcDbLine
 10
164.3895
 20
0.194
 30
0.0
 11
165.4055
 21
0.194
 31
0.0
  0
LINE
  5
1D4
330
1D
100
AcDbEntity
  8
0
100
AcDbLine
 10
164.2905
 20
0.194
 30
0.0
 11
165.4055
 21
0.194
 31
0.0
  0
LINE
  5
1D5
330
1D
100
AcDbEntity
  8
0
100
AcDbLine
 10
160.9075
 20
0.194
 30
0.0
 11
162.9895
 21
0.194
 31
0.0
  0
LINE
  5
1D6
330
1D
100
AcDbEntity
  8
0
100
AcDbLine
 10
160.4755
 20
0.194
 30
0.0
 11
162.5395
 21
0.194
 31
0.0
  0
LINE
  5
1D7
330
1D
100
AcDbEntity
  8
0
100
AcDbLine
 10
160.4695
 20
0.194
 30
0.0
 11
162.5345
 21
0.194
 31
0.0
  0
LINE
  5
1D8
330
1D
100
AcDbEntity
  8
0
100
AcDbLine
 10
162.3405
 20
0.194
 30
0.0
 11
164.2905
 21
0.194
 31
0.0
  0
LINE
  5
1D9
330
1D
100
AcDbEntity
  8
0
100
AcDbLine
 10
160.2025
 20
0.194
 30
0.0
 11
162.3405
 21
0.194
 31
0.0
  0
LINE
  5
1DA
330
1D
100
AcDbEntity
  8
0
100
AcDbLine
 10
172.2735
 20
0.194
 30
0.0
 11
174.1725
 21
0.194
 31
0.0
  0
LINE
  5
1DB
330
1D
100
AcDbEntity
  8
0
100
AcDbLine
 10
178.8695
 20
0.194
 30
0.0
 11
179.1795
 21
0.194
 31
0.0
  0
LINE
  5
1DC
330
1D
100
AcDbEntity
  8
0
100
AcDbLine
 10
156.8825
 20
0.194
 30
0.0
 11
159.8315
 21
0.194
 31
0.0
  0
LINE
  5
1DE
330
1D
100
AcDbEntity
  8
0
100
AcDbLine
 10
145.7955
 20
0.194
 30
0.0
 11
148.1595
 21
0.194
 31
0.0
  0
LINE
  5
1DF
330
1D
100
AcDbEntity
  8
0
100
AcDbLine
 10
146.2155
 20
0.194
 30
0.0
 11
148.5705
 21
0.194
 31
0.0
  0
LINE
  5
1E0
330
1D
100
AcDbEntity
  8
0
100
AcDbLine
 10
150.5835
 20
0.194
 30
0.0
 11
153.6115
 21
0.194
 31
0.0
  0
LINE
  5
1E1
330
1D
100
AcDbEntity
  8
0
100
AcDbLine
 10
150.5985
 20
0.194
 30
0.0
 11
153.0685
 21
0.194
 31
0.0
  0
LINE
  5
1E2
330
1D
100
AcDbEntity
  8
0
100
AcDbLine
 10
150.8475
 20
0.194
 30
0.0
 11
151.7365
 21
0.194
 31
0.0
  0
LINE
  5
1E3
330
1D
100
AcDbEntity
  8
0
100
AcDbLine
 10
150.8475
 20
0.194
 30
0.0
 11
153.8755
 21
0.194
 31
0.0
  0
LINE
  5
1E4
330
1D
100
AcDbEntity
  8
0
100
AcDbLine
 10
150.8475
 20
0.194
 30
0.0
 11
152.7225
 21
0.194
 31
0.0
  0
LINE
  5
1E5
330
1D
100
AcDbEntity
  8
0
100
AcDbLine
 10
152.7225
 20
0.194
 30
0.0
 11
155.4455
 21
0.194
 31
0.0
  0
LINE
  5
1E6
330
1D
100
AcDbEntity
  8
0
100
AcDbLine
 10
151.7365
 20
0.194
 30
0.0
 11
154.4675
 21
0.194
 31
0.0
  0
LINE
  5
1E7
330
1D
100
AcDbEntity
  8
0
100
AcDbLine
 10
151.3905
 20
0.194
 30
0.0
 11
153.8605
 21
0.194
 31
0.0
  0
LINE
  5
1E8
330
1D
100
AcDbEntity
  8
0
100
AcDbLine
 10
151.0065
 20
0.194
 30
0.0
 11
153.4605
 21
0.194
 31
0.0
  0
LINE
  5
1E9
330
1D
100
AcDbEntity
  8
0
100
AcDbLine
 10
150.9985
 20
0.194
 30
0.0
 11
153.4525
 21
0.194
 31
0.0
  0
LINE
  5
1EA
330
1D
100
AcDbEntity
  8
0
100
AcDbLine
 10
153.0685
 20
0.194
 30
0.0
 11
155.5225
 21
0.194
 31
0.0
  0
LINE
  5
1EB
330
1D
100
AcDbEntity
  8
0
100
AcDbLine
 10
148.5705
 20
0.194
 30
0.0
 11
150.9985
 21
0.194
 31
0.0
  0
LINE
  5
1EC
330
1D
100
AcDbEntity
  8
0
100
AcDbLine
 10
147.5765
 20
0.194
 30
0.0
 11
150.5835
 21
0.194
 31
0.0
  0
LINE
  5
1EE
330
1D
100
AcDbEntity
  8
0
100
AcDbLine
 10
147.8375
 20
0.194
 30
0.0
 11
150.8475
 21
0.194
 31
0.0
  0
LINE
  5
208
330
1D
100
AcDbEntity
  8
0
100
AcDbLine
 10
148.1595
 20
0.194
 30
0.0
 11
150.5985
 21
0.194
 31
0.0
  0
LINE
  5
209
330
1D
100
AcDbEntity
  8
0
100
AcDbLine
 10
147.2985
 20
0.194
 30
0.0
 11
147.8375
 21
0.194
 31
0.0
  0
LINE
  5
20A
330
1D
100
AcDbEntity
  8
0
100
AcDbLine
 10
148.5765
 20
0.194
 30
0.0
 11
151.0065
 21
0.194
 31
0.0
  0
LINE
  5
20B
330
1D
100
AcDbEntity
  8
0
100
AcDbLine
 10
146.2215
 20
0.194
 30
0.0
 11
148.5765
 21
0.194
 31
0.0
  0
LINE
  5
20C
330
1D
100
AcDbEntity
  8
0
100
AcDbLine
 10
153.8755
 20
0.194
 30
0.0
 11
156.8825
 21
0.194
 31
0.0
  0
LINE
  5
20D
330
1D
100
AcDbEntity
  8
0
100
AcDbLine
 10
144.8825
 20
0.194
 30
0.0
 11
147.5765
 21
0.194
 31
0.0
  0
LINE
  5
20E
330
1D
100
AcDbEntity
  8
0
100
AcDbLine
 10
144.8825
 20
0.194
 30
0.0
 11
146.2215
 21
0.194
 31
0.0
  0
LINE
  5
20F
330
1D
100
AcDbEntity
  8
0
100
AcDbLine
 10
144.8825
 20
0.194
 30
0.0
 11
147.8375
 21
0.194
 31
0.0
  0
LINE
  5
210
330
1D
100
AcDbEntity
  8
0
100
AcDbLine
 10
144.8825
 20
0.194
 30
0.0
 11
145.7955
 21
0.194
 31
0.0
  0
LINE
  5
211
330
1D
100
AcDbEntity
  8
0
100
AcDbLine
 10
144.8825
 20
0.194
 30
0.0
 11
146.2155
 21
0.194
 31
0.0
  0
LINE
  5
6F2
330
1D
100
AcDbEntity
  8
0
100
AcDbLine
 10
3.3625
 20
196.172
 30
0.0
 11
3.9815
 21
195.566
 31
0.0
  0
LINE
  5
6F3
330
1D
100
AcDbEntity
  8
0
100
AcDbLine
 10
3.3625
 20
196.172
 30
0.0
 11
4.521869133668
 21
200.692613977286
 31
0.0
  0
LINE
  5
6F4
330
1D
100
AcDbEntity
  8
0
100
AcDbLine
 10
0.3355
 20
201.767
 30
0.0
 11
1.1045
 21
201.569
 31
0.0
  0
LINE
  5
6F5
330
1D
100
AcDbEntity
  8
0
100
AcDbLine
 10
0.2565
 20
201.787
 30
0.0
 11
0.602834763938
 21
201.698167381977
 31
0.0
  0
LINE
  5
6F6
330
1D
100
AcDbEntity
  8
0
100
AcDbLine
 10
0.2565
 20
201.787
 30
0.0
 11
4.4625
 21
218.158
 31
0.0
  0
LINE
  5
6F7
330
1D
100
AcDbEntity
  8
0
100
AcDbLine
 10
0.3355
 20
201.767
 30
0.0
 11
1.1045
 21
201.569
 31
0.0
  0
LINE
  5
6F8
330
1D
100
AcDbEntity
  8
0
100
AcDbLine
 10
0.2565
 20
201.787
 30
0.0
 11
0.3355
 21
201.767
 31
0.0
  0
LINE
  5
6F9
330
1D
100
AcDbEntity
  8
0
100
AcDbLine
 10
0.2565
 20
201.787
 30
0.0
 11
0.602834763938
 21
201.698167381977
 31
0.0
  0
LINE
  5
6FA
330
1D
100
AcDbEntity
  8
0
100
AcDbLine
 10
0.2565
 20
201.787
 30
0.0
 11
4.4625
 21
218.158
 31
0.0
  0
LINE
  5
6FB
330
1D
100
AcDbEntity
  8
0
100
AcDbLine
 10
4.4625
 20
218.158
 30
0.0
 11
4.9315
 21
219.1
 31
0.0
  0
LINE
  5
6FC
330
1D
100
AcDbEntity
  8
0
100
AcDbLine
 10
4.9315
 20
219.1
 30
0.0
 11
5.7455
 21
219.765
 31
0.0
  0
LINE
  5
6FD
330
1D
100
AcDbEntity
  8
0
100
AcDbLine
 10
5.7455
 20
219.765
 30
0.0
 11
6.7185
 21
220.047
 31
0.0
  0
LINE
  5
6FE
330
1D
100
AcDbEntity
  8
0
100
AcDbLine
 10
11.6765
 20
220.037
 30
0.0
 11
16.6195
 21
219.531
 31
0.0
  0
LINE
  5
6FF
330
1D
100
AcDbEntity
  8
0
100
AcDbLine
 10
6.7185
 20
220.047
 30
0.0
 11
11.6765
 21
220.037
 31
0.0
  0
LINE
  5
700
330
1D
100
AcDbEntity
  8
0
100
AcDbLine
 10
16.6195
 20
219.531
 30
0.0
 11
21.4865
 21
218.537
 31
0.0
  0
LINE
  5
701
330
1D
100
AcDbEntity
  8
0
100
AcDbLine
 10
122.7455
 20
29.1372
 30
0.0
 11
122.9205
 21
28.9957
 31
0.0
  0
LINE
  5
702
330
1D
100
AcDbEntity
  8
0
100
AcDbLine
 10
122.9205
 20
28.9957
 30
0.0
 11
123.1395
 21
28.9452
 31
0.0
  0
LINE
  5
703
330
1D
100
AcDbEntity
  8
0
100
AcDbLine
 10
125.6485
 20
0.194
 30
0.0
 11
126.3365
 21
0.194
 31
0.0
  0
LINE
  5
704
330
1D
100
AcDbEntity
  8
0
100
AcDbLine
 10
126.3365
 20
0.194
 30
0.0
 11
127.3505
 21
0.194
 31
0.0
  0
LINE
  5
705
330
1D
100
AcDbEntity
  8
0
100
AcDbLine
 10
126.2635
 20
0.194
 30
0.0
 11
127.2495
 21
0.194
 31
0.0
  0
LINE
  5
706
330
1D
100
AcDbEntity
  8
0
100
AcDbLine
 10
125.6045
 20
0.194
 30
0.0
 11
126.2635
 21
0.194
 31
0.0
  0
LINE
  5
707
330
1D
100
AcDbEntity
  8
0
100
AcDbLine
 10
125.2795
 20
0.194
 30
0.0
 11
125.6045
 21
0.194
 31
0.0
  0
LINE
  5
708
330
1D
100
AcDbEntity
  8
0
100
AcDbLine
 10
125.2795
 20
0.194
 30
0.0
 11
125.2795
 21
28.946546393079
 31
0.0
  0
LINE
  5
709
330
1D
100
AcDbEntity
  8
0
100
AcDbLine
 10
125.2795
 20
28.946546393079
 30
0.0
 11
125.2795
 21
0.194
 31
0.0
  0
LINE
  5
70A
330
1D
100
AcDbEntity
  8
0
100
AcDbLine
 10
125.2945
 20
0.194
 30
0.0
 11
125.6485
 21
0.194
 31
0.0
  0
LINE
  5
70B
330
1D
100
AcDbEntity
  8
0
100
AcDbLine
 10
123.1395
 20
28.9452
 30
0.0
 11
137.1265
 21
28.954
 31
0.0
  0
LINE
  5
70C
330
1D
100
AcDbEntity
  8
0
100
AcDbLine
 10
122.2895
 20
31.9012
 30
0.0
 11
122.4255
 21
30.6147
 31
0.0
  0
LINE
  5
70D
330
1D
100
AcDbEntity
  8
0
100
AcDbLine
 10
122.2895
 20
34.4868
 30
0.0
 11
122.4255
 21
35.7733
 31
0.0
  0
LINE
  5
70E
330
1D
100
AcDbEntity
  8
0
100
AcDbLine
 10
122.2445
 20
33.194
 30
0.0
 11
122.2895
 21
31.9051
 31
0.0
  0
LINE
  5
70F
330
1D
100
AcDbEntity
  8
0
100
AcDbLine
 10
122.2445
 20
33.194
 30
0.0
 11
122.2895
 21
34.4829
 31
0.0
  0
LINE
  5
710
330
1D
100
AcDbEntity
  8
0
100
AcDbLine
 10
122.4255
 20
35.7733
 30
0.0
 11
122.6505
 21
37.0431
 31
0.0
  0
LINE
  5
711
330
1D
100
AcDbEntity
  8
0
100
AcDbLine
 10
122.4255
 20
30.6147
 30
0.0
 11
122.6505
 21
29.3449
 31
0.0
  0
LINE
  5
712
330
1D
100
AcDbEntity
  8
0
100
AcDbLine
 10
122.7455
 20
37.2508
 30
0.0
 11
122.9205
 21
37.3923
 31
0.0
  0
LINE
  5
713
330
1D
100
AcDbEntity
  8
0
100
AcDbLine
 10
125.2795
 20
37.442616440314
 30
0.0
 11
125.2795
 21
49.194
 31
0.0
  0
LINE
  5
714
330
1D
100
AcDbEntity
  8
0
100
AcDbLine
 10
122.9205
 20
37.3923
 30
0.0
 11
123.1395
 21
37.4428
 31
0.0
  0
LINE
  5
715
330
1D
100
AcDbEntity
  8
0
100
AcDbLine
 10
126.3365
 20
49.194
 30
0.0
 11
127.3505
 21
49.194
 31
0.0
  0
LINE
  5
716
330
1D
100
AcDbEntity
  8
0
100
AcDbLine
 10
125.6485
 20
49.194
 30
0.0
 11
126.3365
 21
49.194
 31
0.0
  0
LINE
  5
717
330
1D
100
AcDbEntity
  8
0
100
AcDbLine
 10
126.7515
 20
50.694
 30
0.0
 11
126.7595
 21
155.992
 31
0.0
  0
LINE
  5
718
330
1D
100
AcDbEntity
  8
0
100
AcDbLine
 10
126.4985
 20
50.194
 30
0.0
 11
127.0945
 21
50.194
 31
0.0
  0
LINE
  5
719
330
1D
100
AcDbEntity
  8
0
100
AcDbLine
 10
126.2515
 20
50.194
 30
0.0
 11
126.4985
 21
50.194
 31
0.0
  0
LINE
  5
71A
330
1D
100
AcDbEntity
  8
0
100
AcDbLine
 10
125.2945
 20
49.194
 30
0.0
 11
126.2515
 21
50.194
 31
0.0
  0
LINE
  5
71B
330
1D
100
AcDbEntity
  8
0
100
AcDbLine
 10
125.2945
 20
49.194
 30
0.0
 11
125.6485
 21
49.194
 31
0.0
  0
LINE
  5
71C
330
1D
100
AcDbEntity
  8
0
100
AcDbLine
 10
125.2795
 20
49.194
 30
0.0
 11
125.2795
 21
37.442616440314
 31
0.0
  0
LINE
  5
71D
330
1D
100
AcDbEntity
  8
0
100
AcDbLine
 10
123.1395
 20
37.4428
 30
0.0
 11
137.1295
 21
37.4416
 31
0.0
  0
LINE
  5
71E
330
1D
100
AcDbEntity
  8
0
100
AcDbLine
 10
122.6505
 20
37.0431
 30
0.0
 11
122.7455
 21
37.2508
 31
0.0
  0
LINE
  5
71F
330
1D
100
AcDbEntity
  8
0
100
AcDbLine
 10
122.6505
 20
29.3449
 30
0.0
 11
122.7455
 21
29.1372
 31
0.0
  0
LINE
  5
720
330
1D
100
AcDbEntity
  8
0
100
AcDbLine
 10
127.0345
 20
50.694
 30
0.0
 11
128.0835
 21
50.694
 31
0.0
  0
LINE
  5
721
330
1D
100
AcDbEntity
  8
0
100
AcDbLine
 10
126.7595
 20
155.992
 30
0.0
 11
126.9565
 21
156.235
 31
0.0
  0
LINE
  5
722
330
1D
100
AcDbEntity
  8
0
100
AcDbLine
 10
127.3505
 20
0.194
 30
0.0
 11
128.6785
 21
0.194
 31
0.0
  0
LINE
  5
723
330
1D
100
AcDbEntity
  8
0
100
AcDbLine
 10
127.2495
 20
0.194
 30
0.0
 11
127.3505
 21
0.194
 31
0.0
  0
LINE
  5
724
330
1D
100
AcDbEntity
  8
0
100
AcDbLine
 10
127.2435
 20
50.694
 30
0.0
 11
128.4955
 21
50.694
 31
0.0
  0
LINE
  5
725
330
1D
100
AcDbEntity
  8
0
100
AcDbLine
 10
127.3505
 20
49.194
 30
0.0
 11
128.6785
 21
49.194
 31
0.0
  0
LINE
  5
726
330
1D
100
AcDbEntity
  8
0
100
AcDbLine
 10
127.0945
 20
50.194
 30
0.0
 11
128.0295
 21
50.194
 31
0.0
  0
LINE
  5
727
330
1D
100
AcDbEntity
  8
0
100
AcDbLine
 10
127.3765
 20
156.765
 30
0.0
 11
128.1265
 21
157.762
 31
0.0
  0
LINE
  5
728
330
1D
100
AcDbEntity
  8
0
100
AcDbLine
 10
126.9565
 20
156.235
 30
0.0
 11
127.3765
 21
156.765
 31
0.0
  0
LINE
  5
729
330
1D
100
AcDbEntity
  8
0
100
AcDbLine
 10
126.7515
 20
50.694
 30
0.0
 11
126.7595
 21
155.992
 31
0.0
  0
LINE
  5
72A
330
1D
100
AcDbEntity
  8
0
100
AcDbLine
 10
126.7515
 20
50.694
 30
0.0
 11
127.2435
 21
50.694
 31
0.0
  0
LINE
  5
72B
330
1D
100
AcDbEntity
  8
0
100
AcDbLine
 10
126.7515
 20
50.694
 30
0.0
 11
127.0345
 21
50.694
 31
0.0
  0
LINE
  5
72C
330
1D
100
AcDbEntity
  8
0
100
AcDbLine
 10
134.3965
 20
0.194
 30
0.0
 11
135.9685
 21
0.194
 31
0.0
  0
LINE
  5
72D
330
1D
100
AcDbEntity
  8
0
100
AcDbLine
 10
134.9265
 20
0.194
 30
0.0
 11
135.8055
 21
0.194
 31
0.0
  0
LINE
  5
72E
330
1D
100
AcDbEntity
  8
0
100
AcDbLine
 10
135.3675
 20
0.194
 30
0.0
 11
137.1215
 21
0.194
 31
0.0
  0
LINE
  5
72F
330
1D
100
AcDbEntity
  8
0
100
AcDbLine
 10
135.0885
 20
0.194
 30
0.0
 11
135.4365
 21
0.194
 31
0.0
  0
LINE
  5
730
330
1D
100
AcDbEntity
  8
0
100
AcDbLine
 10
135.0885
 20
0.194
 30
0.0
 11
135.4385
 21
0.194
 31
0.0
  0
LINE
  5
731
330
1D
100
AcDbEntity
  8
0
100
AcDbLine
 10
133.9035
 20
0.194
 30
0.0
 11
135.3675
 21
0.194
 31
0.0
  0
LINE
  5
732
330
1D
100
AcDbEntity
  8
0
100
AcDbLine
 10
134.1545
 20
0.194
 30
0.0
 11
136.5125
 21
0.194
 31
0.0
  0
LINE
  5
733
330
1D
100
AcDbEntity
  8
0
100
AcDbLine
 10
134.1485
 20
0.194
 30
0.0
 11
134.2635
 21
0.194
 31
0.0
  0
LINE
  5
734
330
1D
100
AcDbEntity
  8
0
100
AcDbLine
 10
134.1485
 20
0.194
 30
0.0
 11
134.3515
 21
0.194
 31
0.0
  0
LINE
  5
735
330
1D
100
AcDbEntity
  8
0
100
AcDbLine
 10
134.3715
 20
0.194
 30
0.0
 11
134.9265
 21
0.194
 31
0.0
  0
LINE
  5
736
330
1D
100
AcDbEntity
  8
0
100
AcDbLine
 10
134.2635
 20
0.194
 30
0.0
 11
134.7125
 21
0.194
 31
0.0
  0
LINE
  5
737
330
1D
100
AcDbEntity
  8
0
100
AcDbLine
 10
134.7125
 20
0.194
 30
0.0
 11
135.4885
 21
0.194
 31
0.0
  0
LINE
  5
738
330
1D
100
AcDbEntity
  8
0
100
AcDbLine
 10
135.9685
 20
0.194
 30
0.0
 11
137.8185
 21
0.194
 31
0.0
  0
LINE
  5
739
330
1D
100
AcDbEntity
  8
0
100
AcDbLine
 10
136.1305
 20
0.194
 30
0.0
 11
137.1505
 21
0.194
 31
0.0
  0
LINE
  5
73A
330
1D
100
AcDbEntity
  8
0
100
AcDbLine
 10
136.1275
 20
0.194
 30
0.0
 11
137.1465
 21
0.194
 31
0.0
  0
LINE
  5
73B
330
1D
100
AcDbEntity
  8
0
100
AcDbLine
 10
135.4885
 20
0.194
 30
0.0
 11
136.5775
 21
0.194
 31
0.0
  0
LINE
  5
73C
330
1D
100
AcDbEntity
  8
0
100
AcDbLine
 10
132.1895
 20
0.194
 30
0.0
 11
133.1295
 21
0.194
 31
0.0
  0
LINE
  5
73D
330
1D
100
AcDbEntity
  8
0
100
AcDbLine
 10
128.6785
 20
0.194
 30
0.0
 11
130.3005
 21
0.194
 31
0.0
  0
LINE
  5
73E
330
1D
100
AcDbEntity
  8
0
100
AcDbLine
 10
131.4645
 20
0.194
 30
0.0
 11
131.9345
 21
0.194
 31
0.0
  0
LINE
  5
73F
330
1D
100
AcDbEntity
  8
0
100
AcDbLine
 10
130.3005
 20
0.194
 30
0.0
 11
132.2005
 21
0.194
 31
0.0
  0
LINE
  5
740
330
1D
100
AcDbEntity
  8
0
100
AcDbLine
 10
131.3505
 20
0.194
 30
0.0
 11
131.5935
 21
0.194
 31
0.0
  0
LINE
  5
741
330
1D
100
AcDbEntity
  8
0
100
AcDbLine
 10
130.1485
 20
0.194
 30
0.0
 11
132.0245
 21
0.194
 31
0.0
  0
LINE
  5
742
330
1D
100
AcDbEntity
  8
0
100
AcDbLine
 10
132.0245
 20
0.194
 30
0.0
 11
134.1545
 21
0.194
 31
0.0
  0
LINE
  5
743
330
1D
100
AcDbEntity
  8
0
100
AcDbLine
 10
133.1295
 20
0.194
 30
0.0
 11
134.3965
 21
0.194
 31
0.0
  0
LINE
  5
744
330
1D
100
AcDbEntity
  8
0
100
AcDbLine
 10
132.7515
 20
0.194
 30
0.0
 11
133.9035
 21
0.194
 31
0.0
  0
LINE
  5
745
330
1D
100
AcDbEntity
  8
0
100
AcDbLine
 10
132.2005
 20
0.194
 30
0.0
 11
134.3515
 21
0.194
 31
0.0
  0
LINE
  5
746
330
1D
100
AcDbEntity
  8
0
100
AcDbLine
 10
134.3515
 20
0.194
 30
0.0
 11
136.7285
 21
0.194
 31
0.0
  0
LINE
  5
747
330
1D
100
AcDbEntity
  8
0
100
AcDbLine
 10
136.5775
 20
0.194
 30
0.0
 11
137.9575
 21
0.194
 31
0.0
  0
LINE
  5
748
330
1D
100
AcDbEntity
  8
0
100
AcDbLine
 10
136.7285
 20
0.194
 30
0.0
 11
139.2995
 21
0.194
 31
0.0
  0
LINE
  5
749
330
1D
100
AcDbEntity
  8
0
100
AcDbLine
 10
136.7285
 20
0.194
 30
0.0
 11
136.9895
 21
0.194
 31
0.0
  0
LINE
  5
74A
330
1D
100
AcDbEntity
  8
0
100
AcDbLine
 10
136.5125
 20
0.194
 30
0.0
 11
139.0685
 21
0.194
 31
0.0
  0
LINE
  5
74B
330
1D
100
AcDbEntity
  8
0
100
AcDbLine
 10
137.8635
 20
28.6255
 30
0.0
 11
138.0735
 21
28.2746
 31
0.0
  0
LINE
  5
74C
330
1D
100
AcDbEntity
  8
0
100
AcDbLine
 10
137.5305
 20
28.8625
 30
0.0
 11
137.8635
 21
28.6255
 31
0.0
  0
LINE
  5
74D
330
1D
100
AcDbEntity
  8
0
100
AcDbLine
 10
144.7045
 20
0.194
 30
0.0
 11
147.3135
 21
0.194
 31
0.0
  0
LINE
  5
74E
330
1D
100
AcDbEntity
  8
0
100
AcDbLine
 10
144.8975
 20
0.194
 30
0.0
 11
146.2365
 21
0.194
 31
0.0
  0
LINE
  5
74F
330
1D
100
AcDbEntity
  8
0
100
AcDbLine
 10
144.8975
 20
0.194
 30
0.0
 11
147.8525
 21
0.194
 31
0.0
  0
LINE
  5
750
330
1D
100
AcDbEntity
  8
0
100
AcDbLine
 10
144.8975
 20
0.194
 30
0.0
 11
145.8105
 21
0.194
 31
0.0
  0
LINE
  5
751
330
1D
100
AcDbEntity
  8
0
100
AcDbLine
 10
144.8975
 20
0.194
 30
0.0
 11
146.2305
 21
0.194
 31
0.0
  0
LINE
  5
752
330
1D
100
AcDbEntity
  8
0
100
AcDbLine
 10
141.4845
 20
0.194
 30
0.0
 11
143.5665
 21
0.194
 31
0.0
  0
LINE
  5
753
330
1D
100
AcDbEntity
  8
0
100
AcDbLine
 10
141.3705
 20
0.194
 30
0.0
 11
143.7925
 21
0.194
 31
0.0
  0
LINE
  5
754
330
1D
100
AcDbEntity
  8
0
100
AcDbLine
 10
138.6155
 20
26.9295
 30
0.0
 11
139.4345
 21
25.3894
 31
0.0
  0
LINE
  5
755
330
1D
100
AcDbEntity
  8
0
100
AcDbLine
 10
141.5795
 20
22.6458
 30
0.0
 11
142.8765
 21
21.4791
 31
0.0
  0
LINE
  5
756
330
1D
100
AcDbEntity
  8
0
100
AcDbLine
 10
140.4275
 20
23.9553
 30
0.0
 11
141.5795
 21
22.6458
 31
0.0
  0
LINE
  5
757
330
1D
100
AcDbEntity
  8
0
100
AcDbLine
 10
139.4345
 20
25.3894
 30
0.0
 11
140.4275
 21
23.9553
 31
0.0
  0
LINE
  5
758
330
1D
100
AcDbEntity
  8
0
100
AcDbLine
 10
139.2995
 20
0.194
 30
0.0
 11
141.3705
 21
0.194
 31
0.0
  0
LINE
  5
759
330
1D
100
AcDbEntity
  8
0
100
AcDbLine
 10
139.2995
 20
0.194
 30
0.0
 11
142.0345
 21
0.194
 31
0.0
  0
LINE
  5
75A
330
1D
100
AcDbEntity
  8
0
100
AcDbLine
 10
141.9345
 20
0.194
 30
0.0
 11
142.0345
 21
0.194
 31
0.0
  0
LINE
  5
75B
330
1D
100
AcDbEntity
  8
0
100
AcDbLine
 10
141.9395
 20
0.194
 30
0.0
 11
142.0345
 21
0.194
 31
0.0
  0
LINE
  5
75C
330
1D
100
AcDbEntity
  8
0
100
AcDbLine
 10
142.2245
 20
0.194
 30
0.0
 11
144.7045
 21
0.194
 31
0.0
  0
LINE
  5
75D
330
1D
100
AcDbEntity
  8
0
100
AcDbLine
 10
143.7925
 20
0.194
 30
0.0
 11
146.3605
 21
0.194
 31
0.0
  0
LINE
  5
75E
330
1D
100
AcDbEntity
  8
0
100
AcDbLine
 10
144.2715
 20
0.194
 30
0.0
 11
146.5585
 21
0.194
 31
0.0
  0
LINE
  5
75F
330
1D
100
AcDbEntity
  8
0
100
AcDbLine
 10
142.1335
 20
0.194
 30
0.0
 11
144.2715
 21
0.194
 31
0.0
  0
LINE
  5
760
330
1D
100
AcDbEntity
  8
0
100
AcDbLine
 10
142.0345
 20
0.194
 30
0.0
 11
142.1335
 21
0.194
 31
0.0
  0
LINE
  5
761
330
1D
100
AcDbEntity
  8
0
100
AcDbLine
 10
142.0345
 20
0.194
 30
0.0
 11
142.2245
 21
0.194
 31
0.0
  0
LINE
  5
762
330
1D
100
AcDbEntity
  8
0
100
AcDbLine
 10
142.0345
 20
0.194
 30
0.0
 11
144.8975
 21
0.194
 31
0.0
  0
LINE
  5
763
330
1D
100
AcDbEntity
  8
0
100
AcDbLine
 10
141.7895
 20
0.194
 30
0.0
 11
144.6425
 21
0.194
 31
0.0
  0
LINE
  5
764
330
1D
100
AcDbEntity
  8
0
100
AcDbLine
 10
144.6425
 20
0.194
 30
0.0
 11
147.5915
 21
0.194
 31
0.0
  0
LINE
  5
765
330
1D
100
AcDbEntity
  8
0
100
AcDbLine
 10
138.0735
 20
28.2746
 30
0.0
 11
138.6155
 21
26.9295
 31
0.0
  0
LINE
  5
766
330
1D
100
AcDbEntity
  8
0
100
AcDbLine
 10
130.3005
 20
49.194
 30
0.0
 11
132.2005
 21
49.194
 31
0.0
  0
LINE
  5
767
330
1D
100
AcDbEntity
  8
0
100
AcDbLine
 10
128.6785
 20
49.194
 30
0.0
 11
130.3005
 21
49.194
 31
0.0
  0
LINE
  5
768
330
1D
100
AcDbEntity
  8
0
100
AcDbLine
 10
132.2005
 20
49.194
 30
0.0
 11
134.3515
 21
49.194
 31
0.0
  0
LINE
  5
769
330
1D
100
AcDbEntity
  8
0
100
AcDbLine
 10
136.7285
 20
49.194
 30
0.0
 11
139.3005
 21
49.194
 31
0.0
  0
LINE
  5
76A
330
1D
100
AcDbEntity
  8
0
100
AcDbLine
 10
127.8875
 20
50.694
 30
0.0
 11
128.1575
 21
50.694
 31
0.0
  0
LINE
  5
76B
330
1D
100
AcDbEntity
  8
0
100
AcDbLine
 10
127.8875
 20
50.694
 30
0.0
 11
128.3575
 21
50.694
 31
0.0
  0
LINE
  5
76C
330
1D
100
AcDbEntity
  8
0
100
AcDbLine
 10
134.8535
 20
50.194
 30
0.0
 11
137.2145
 21
50.194
 31
0.0
  0
LINE
  5
76D
330
1D
100
AcDbEntity
  8
0
100
AcDbLine
 10
132.7265
 20
50.194
 30
0.0
 11
134.8535
 21
50.194
 31
0.0
  0
LINE
  5
76E
330
1D
100
AcDbEntity
  8
0
100
AcDbLine
 10
130.8655
 20
50.194
 30
0.0
 11
132.7265
 21
50.194
 31
0.0
  0
LINE
  5
76F
330
1D
100
AcDbEntity
  8
0
100
AcDbLine
 10
128.4955
 20
50.694
 30
0.0
 11
130.4685
 21
50.694
 31
0.0
  0
LINE
  5
770
330
1D
100
AcDbEntity
  8
0
100
AcDbLine
 10
128.3575
 20
50.694
 30
0.0
 11
129.5535
 21
50.694
 31
0.0
  0
LINE
  5
771
330
1D
100
AcDbEntity
  8
0
100
AcDbLine
 10
128.1575
 20
50.694
 30
0.0
 11
129.1595
 21
50.694
 31
0.0
  0
LINE
  5
772
330
1D
100
AcDbEntity
  8
0
100
AcDbLine
 10
129.5535
 20
50.694
 30
0.0
 11
131.4385
 21
50.694
 31
0.0
  0
LINE
  5
773
330
1D
100
AcDbEntity
  8
0
100
AcDbLine
 10
129.1595
 20
50.694
 30
0.0
 11
130.8635
 21
50.694
 31
0.0
  0
LINE
  5
774
330
1D
100
AcDbEntity
  8
0
100
AcDbLine
 10
128.0835
 20
50.694
 30
0.0
 11
129.8665
 21
50.694
 31
0.0
  0
LINE
  5
775
330
1D
100
AcDbEntity
  8
0
100
AcDbLine
 10
131.4385
 20
50.694
 30
0.0
 11
133.9545
 21
50.694
 31
0.0
  0
LINE
  5
776
330
1D
100
AcDbEntity
  8
0
100
AcDbLine
 10
130.8635
 20
50.694
 30
0.0
 11
133.2155
 21
50.694
 31
0.0
  0
LINE
  5
777
330
1D
100
AcDbEntity
  8
0
100
AcDbLine
 10
133.9545
 20
50.694
 30
0.0
 11
137.0285
 21
50.694
 31
0.0
  0
LINE
  5
778
330
1D
100
AcDbEntity
  8
0
100
AcDbLine
 10
133.2155
 20
50.694
 30
0.0
 11
136.1475
 21
50.694
 31
0.0
  0
LINE
  5
779
330
1D
100
AcDbEntity
  8
0
100
AcDbLine
 10
133.1025
 20
50.694
 30
0.0
 11
136.3195
 21
50.694
 31
0.0
  0
LINE
  5
77A
330
1D
100
AcDbEntity
  8
0
100
AcDbLine
 10
130.4685
 20
50.694
 30
0.0
 11
133.1025
 21
50.694
 31
0.0
  0
LINE
  5
77B
330
1D
100
AcDbEntity
  8
0
100
AcDbLine
 10
137.0285
 20
50.694
 30
0.0
 11
140.5645
 21
50.694
 31
0.0
  0
LINE
  5
77C
330
1D
100
AcDbEntity
  8
0
100
AcDbLine
 10
136.3195
 20
50.694
 30
0.0
 11
140.0195
 21
50.694
 31
0.0
  0
LINE
  5
77D
330
1D
100
AcDbEntity
  8
0
100
AcDbLine
 10
136.1475
 20
50.694
 30
0.0
 11
139.5685
 21
50.694
 31
0.0
  0
LINE
  5
77E
330
1D
100
AcDbEntity
  8
0
100
AcDbLine
 10
135.3975
 20
50.694
 30
0.0
 11
138.9775
 21
50.694
 31
0.0
  0
LINE
  5
77F
330
1D
100
AcDbEntity
  8
0
100
AcDbLine
 10
132.3295
 20
50.694
 30
0.0
 11
135.3975
 21
50.694
 31
0.0
  0
LINE
  5
780
330
1D
100
AcDbEntity
  8
0
100
AcDbLine
 10
129.8665
 20
50.694
 30
0.0
 11
132.3295
 21
50.694
 31
0.0
  0
LINE
  5
781
330
1D
100
AcDbEntity
  8
0
100
AcDbLine
 10
129.2915
 20
50.194
 30
0.0
 11
130.8655
 21
50.194
 31
0.0
  0
LINE
  5
782
330
1D
100
AcDbEntity
  8
0
100
AcDbLine
 10
128.0295
 20
50.194
 30
0.0
 11
129.2915
 21
50.194
 31
0.0
  0
LINE
  5
783
330
1D
100
AcDbEntity
  8
0
100
AcDbLine
 10
134.3515
 20
49.194
 30
0.0
 11
136.7285
 21
49.194
 31
0.0
  0
LINE
  5
784
330
1D
100
AcDbEntity
  8
0
100
AcDbLine
 10
137.8635
 20
37.7623
 30
0.0
 11
138.0735
 21
38.113
 31
0.0
  0
LINE
  5
785
330
1D
100
AcDbEntity
  8
0
100
AcDbLine
 10
137.5305
 20
37.5252
 30
0.0
 11
137.8635
 21
37.7623
 31
0.0
  0
LINE
  5
786
330
1D
100
AcDbEntity
  8
0
100
AcDbLine
 10
137.2145
 20
50.194
 30
0.0
 11
139.7795
 21
50.194
 31
0.0
  0
LINE
  5
787
330
1D
100
AcDbEntity
  8
0
100
AcDbLine
 10
139.0805
 20
40.3854
 30
0.0
 11
140.0045
 21
41.8649
 31
0.0
  0
LINE
  5
788
330
1D
100
AcDbEntity
  8
0
100
AcDbLine
 10
140.0045
 20
41.8649
 30
0.0
 11
141.0935
 21
43.2273
 31
0.0
  0
LINE
  5
789
330
1D
100
AcDbEntity
  8
0
100
AcDbLine
 10
141.0935
 20
43.2273
 30
0.0
 11
142.3345
 21
44.4539
 31
0.0
  0
LINE
  5
78A
330
1D
100
AcDbEntity
  8
0
100
AcDbLine
 10
141.0975
 20
49.194
 30
0.0
 11
141.7555
 21
49.1937
 31
0.0
  0
LINE
  5
78B
330
1D
100
AcDbEntity
  8
0
100
AcDbLine
 10
142.3345
 20
44.4539
 30
0.0
 11
143.7085
 21
45.5284
 31
0.0
  0
LINE
  5
78C
330
1D
100
AcDbEntity
  8
0
100
AcDbLine
 10
141.7555
 20
49.1937
 30
0.0
 11
142.4215
 21
49.1941
 31
0.0
  0
LINE
  5
78D
330
1D
100
AcDbEntity
  8
0
100
AcDbLine
 10
139.5685
 20
50.694
 30
0.0
 11
143.3735
 21
50.694
 31
0.0
  0
LINE
  5
78E
330
1D
100
AcDbEntity
  8
0
100
AcDbLine
 10
138.9775
 20
50.694
 30
0.0
 11
142.9605
 21
50.694
 31
0.0
  0
LINE
  5
78F
330
1D
100
AcDbEntity
  8
0
100
AcDbLine
 10
140.0195
 20
50.694
 30
0.0
 11
144.0905
 21
50.694
 31
0.0
  0
LINE
  5
790
330
1D
100
AcDbEntity
  8
0
100
AcDbLine
 10
140.5645
 20
50.694
 30
0.0
 11
144.4545
 21
50.694
 31
0.0
  0
LINE
  5
791
330
1D
100
AcDbEntity
  8
0
100
AcDbLine
 10
139.7795
 20
50.194
 30
0.0
 11
142.5125
 21
50.194
 31
0.0
  0
LINE
  5
792
330
1D
100
AcDbEntity
  8
0
100
AcDbLine
 10
139.3005
 20
49.194
 30
0.0
 11
141.0975
 21
49.194
 31
0.0
  0
LINE
  5
793
330
1D
100
AcDbEntity
  8
0
100
AcDbLine
 10
143.7085
 20
45.5284
 30
0.0
 11
145.1985
 21
46.4358
 31
0.0
  0
LINE
  5
794
330
1D
100
AcDbEntity
  8
0
100
AcDbLine
 10
143.3735
 20
50.694
 30
0.0
 11
147.4485
 21
50.694
 31
0.0
  0
LINE
  5
795
330
1D
100
AcDbEntity
  8
0
100
AcDbLine
 10
142.9605
 20
50.694
 30
0.0
 11
147.2245
 21
50.694
 31
0.0
  0
LINE
  5
796
330
1D
100
AcDbEntity
  8
0
100
AcDbLine
 10
144.4545
 20
50.694
 30
0.0
 11
148.5815
 21
50.694
 31
0.0
  0
LINE
  5
797
330
1D
100
AcDbEntity
  8
0
100
AcDbLine
 10
144.0905
 20
50.694
 30
0.0
 11
148.4105
 21
50.694
 31
0.0
  0
LINE
  5
798
330
1D
100
AcDbEntity
  8
0
100
AcDbLine
 10
142.5125
 20
50.194
 30
0.0
 11
145.3775
 21
50.194
 31
0.0
  0
LINE
  5
799
330
1D
100
AcDbEntity
  8
0
100
AcDbLine
 10
142.4215
 20
49.1941
 30
0.0
 11
160.7165
 21
49.1943
 31
0.0
  0
LINE
  5
79A
330
1D
100
AcDbEntity
  8
0
100
AcDbLine
 10
138.3345
 20
38.8084
 30
0.0
 11
139.0805
 21
40.3854
 31
0.0
  0
LINE
  5
79B
330
1D
100
AcDbEntity
  8
0
100
AcDbLine
 10
138.0735
 20
38.113
 30
0.0
 11
138.3345
 21
38.8084
 31
0.0
  0
LINE
  5
79C
330
1D
100
AcDbEntity
  8
0
100
AcDbLine
 10
137.1295
 20
37.4416
 30
0.0
 11
137.5305
 21
37.5252
 31
0.0
  0
LINE
  5
79D
330
1D
100
AcDbEntity
  8
0
100
AcDbLine
 10
137.1265
 20
28.954
 30
0.0
 11
137.431274042596
 21
28.890765086424
 31
0.0
  0
LINE
  5
79E
330
1D
100
AcDbEntity
  8
0
100
AcDbLine
 10
159.7845
 20
0.194
 30
0.0
 11
162.2645
 21
0.194
 31
0.0
  0
LINE
  5
79F
330
1D
100
AcDbEntity
  8
0
100
AcDbLine
 10
160.4905
 20
0.194
 30
0.0
 11
162.5545
 21
0.194
 31
0.0
  0
LINE
  5
7A0
330
1D
100
AcDbEntity
  8
0
100
AcDbLine
 10
162.4545
 20
0.194
 30
0.0
 11
165.1895
 21
0.194
 31
0.0
  0
LINE
  5
7A1
330
1D
100
AcDbEntity
  8
0
100
AcDbLine
 10
160.6965
 20
0.194
 30
0.0
 11
163.1185
 21
0.194
 31
0.0
  0
LINE
  5
7A2
330
1D
100
AcDbEntity
  8
0
100
AcDbLine
 10
164.4095
 20
0.194
 30
0.0
 11
165.4205
 21
0.194
 31
0.0
  0
LINE
  5
7A3
330
1D
100
AcDbEntity
  8
0
100
AcDbLine
 10
162.6995
 20
0.194
 30
0.0
 11
165.4205
 21
0.194
 31
0.0
  0
LINE
  5
7A4
330
1D
100
AcDbEntity
  8
0
100
AcDbLine
 10
162.6995
 20
0.194
 30
0.0
 11
163.0045
 21
0.194
 31
0.0
  0
LINE
  5
7A5
330
1D
100
AcDbEntity
  8
0
100
AcDbLine
 10
162.5545
 20
0.194
 30
0.0
 11
164.4095
 21
0.194
 31
0.0
  0
LINE
  5
7A6
330
1D
100
AcDbEntity
  8
0
100
AcDbLine
 10
163.1185
 20
0.194
 30
0.0
 11
165.3555
 21
0.194
 31
0.0
  0
LINE
  5
7A7
330
1D
100
AcDbEntity
  8
0
100
AcDbLine
 10
163.0045
 20
0.194
 30
0.0
 11
164.8855
 21
0.194
 31
0.0
  0
LINE
  5
7A8
330
1D
100
AcDbEntity
  8
0
100
AcDbLine
 10
164.4045
 20
0.194
 30
0.0
 11
165.4205
 21
0.194
 31
0.0
  0
LINE
  5
7A9
330
1D
100
AcDbEntity
  8
0
100
AcDbLine
 10
162.5495
 20
0.194
 30
0.0
 11
164.4045
 21
0.194
 31
0.0
  0
LINE
  5
7AA
330
1D
100
AcDbEntity
  8
0
100
AcDbLine
 10
160.4845
 20
0.194
 30
0.0
 11
162.5495
 21
0.194
 31
0.0
  0
LINE
  5
7AB
330
1D
100
AcDbEntity
  8
0
100
AcDbLine
 10
159.8465
 20
0.194
 30
0.0
 11
160.2175
 21
0.194
 31
0.0
  0
LINE
  5
7AC
330
1D
100
AcDbEntity
  8
0
100
AcDbLine
 10
159.8465
 20
0.194
 30
0.0
 11
162.6995
 21
0.194
 31
0.0
  0
LINE
  5
7AD
330
1D
100
AcDbEntity
  8
0
100
AcDbLine
 10
154.4825
 20
0.194
 30
0.0
 11
157.1755
 21
0.194
 31
0.0
  0
LINE
  5
7AE
330
1D
100
AcDbEntity
  8
0
100
AcDbLine
 10
155.4605
 20
0.194
 30
0.0
 11
158.1285
 21
0.194
 31
0.0
  0
LINE
  5
7AF
330
1D
100
AcDbEntity
  8
0
100
AcDbLine
 10
156.3145
 20
0.194
 30
0.0
 11
158.6785
 21
0.194
 31
0.0
  0
LINE
  5
7B0
330
1D
100
AcDbEntity
  8
0
100
AcDbLine
 10
153.8755
 20
0.194
 30
0.0
 11
156.3145
 21
0.194
 31
0.0
  0
LINE
  5
7B1
330
1D
100
AcDbEntity
  8
0
100
AcDbLine
 10
145.8305
 20
19.6343
 30
0.0
 11
147.4485
 21
18.9816
 31
0.0
  0
LINE
  5
7B2
330
1D
100
AcDbEntity
  8
0
100
AcDbLine
 10
145.8105
 20
0.194
 30
0.0
 11
148.1745
 21
0.194
 31
0.0
  0
LINE
  5
7B3
330
1D
100
AcDbEntity
  8
0
100
AcDbLine
 10
146.2305
 20
0.194
 30
0.0
 11
148.5855
 21
0.194
 31
0.0
  0
LINE
  5
7B4
330
1D
100
AcDbEntity
  8
0
100
AcDbLine
 10
150.8625
 20
0.194
 30
0.0
 11
153.8905
 21
0.194
 31
0.0
  0
LINE
  5
7B5
330
1D
100
AcDbEntity
  8
0
100
AcDbLine
 10
149.0285
 20
0.194
 30
0.0
 11
150.8625
 21
0.194
 31
0.0
  0
LINE
  5
7B6
330
1D
100
AcDbEntity
  8
0
100
AcDbLine
 10
151.4055
 20
0.194
 30
0.0
 11
153.8755
 21
0.194
 31
0.0
  0
LINE
  5
7B7
330
1D
100
AcDbEntity
  8
0
100
AcDbLine
 10
146.3605
 20
0.194
 30
0.0
 11
149.0285
 21
0.194
 31
0.0
  0
LINE
  5
7B8
330
1D
100
AcDbEntity
  8
0
100
AcDbLine
 10
147.8525
 20
0.194
 30
0.0
 11
150.8625
 21
0.194
 31
0.0
  0
LINE
  5
7B9
330
1D
100
AcDbEntity
  8
0
100
AcDbLine
 10
147.5915
 20
0.194
 30
0.0
 11
147.8525
 21
0.194
 31
0.0
  0
LINE
  5
7BA
330
1D
100
AcDbEntity
  8
0
100
AcDbLine
 10
150.8555
 20
18.2584
 30
0.0
 11
152.5985
 21
18.1982
 31
0.0
  0
LINE
  5
7BB
330
1D
100
AcDbEntity
  8
0
100
AcDbLine
 10
149.1305
 20
18.5208
 30
0.0
 11
150.8555
 21
18.2584
 31
0.0
  0
LINE
  5
7BC
330
1D
100
AcDbEntity
  8
0
100
AcDbLine
 10
147.4485
 20
18.9816
 30
0.0
 11
149.1305
 21
18.5208
 31
0.0
  0
LINE
  5
7BD
330
1D
100
AcDbEntity
  8
0
100
AcDbLine
 10
156.0475
 20
18.684
 30
0.0
 11
157.7065
 21
19.2236
 31
0.0
  0
LINE
  5
7BE
330
1D
100
AcDbEntity
  8
0
100
AcDbLine
 10
154.3375
 20
18.3407
 30
0.0
 11
156.0475
 21
18.684
 31
0.0
  0
LINE
  5
7BF
330
1D
100
AcDbEntity
  8
0
100
AcDbLine
 10
152.5985
 20
18.1982
 30
0.0
 11
154.3375
 21
18.3407
 31
0.0
  0
LINE
  5
7C0
330
1D
100
AcDbEntity
  8
0
100
AcDbLine
 10
147.3135
 20
0.194
 30
0.0
 11
150.0065
 21
0.194
 31
0.0
  0
LINE
  5
7C1
330
1D
100
AcDbEntity
  8
0
100
AcDbLine
 10
146.5585
 20
0.194
 30
0.0
 11
148.9515
 21
0.194
 31
0.0
  0
LINE
  5
7C2
330
1D
100
AcDbEntity
  8
0
100
AcDbLine
 10
148.9515
 20
0.194
 30
0.0
 11
150.8625
 21
0.194
 31
0.0
  0
LINE
  5
7C3
330
1D
100
AcDbEntity
  8
0
100
AcDbLine
 10
146.2365
 20
0.194
 30
0.0
 11
148.5915
 21
0.194
 31
0.0
  0
LINE
  5
7C4
330
1D
100
AcDbEntity
  8
0
100
AcDbLine
 10
153.8905
 20
0.194
 30
0.0
 11
156.8975
 21
0.194
 31
0.0
  0
LINE
  5
7C5
330
1D
100
AcDbEntity
  8
0
100
AcDbLine
 10
153.8905
 20
0.194
 30
0.0
 11
156.6365
 21
0.194
 31
0.0
  0
LINE
  5
7C6
330
1D
100
AcDbEntity
  8
0
100
AcDbLine
 10
157.1755
 20
0.194
 30
0.0
 11
159.7845
 21
0.194
 31
0.0
  0
LINE
  5
7C7
330
1D
100
AcDbEntity
  8
0
100
AcDbLine
 10
158.6785
 20
0.194
 30
0.0
 11
159.8465
 21
0.194
 31
0.0
  0
LINE
  5
7C8
330
1D
100
AcDbEntity
  8
0
100
AcDbLine
 10
158.2585
 20
0.194
 30
0.0
 11
160.4905
 21
0.194
 31
0.0
  0
LINE
  5
7C9
330
1D
100
AcDbEntity
  8
0
100
AcDbLine
 10
158.1285
 20
0.194
 30
0.0
 11
160.6965
 21
0.194
 31
0.0
  0
LINE
  5
7CA
330
1D
100
AcDbEntity
  8
0
100
AcDbLine
 10
162.9095
 20
43.7422
 30
0.0
 11
164.0615
 21
42.4327
 31
0.0
  0
LINE
  5
7CB
330
1D
100
AcDbEntity
  8
0
100
AcDbLine
 10
164.0615
 20
42.4327
 30
0.0
 11
165.0545
 21
40.9986
 31
0.0
  0
LINE
  5
7CC
330
1D
100
AcDbEntity
  8
0
100
AcDbLine
 10
163.3955
 20
23.1607
 30
0.0
 11
164.4845
 21
24.523
 31
0.0
  0
LINE
  5
7CD
330
1D
100
AcDbEntity
  8
0
100
AcDbLine
 10
162.1545
 20
21.9341
 30
0.0
 11
163.3955
 21
23.1607
 31
0.0
  0
LINE
  5
7CE
330
1D
100
AcDbEntity
  8
0
100
AcDbLine
 10
160.7805
 20
20.8596
 30
0.0
 11
162.1545
 21
21.9341
 31
0.0
  0
LINE
  5
7CF
330
1D
100
AcDbEntity
  8
0
100
AcDbLine
 10
159.2905
 20
19.9522
 30
0.0
 11
160.7805
 21
20.8596
 31
0.0
  0
LINE
  5
7D0
330
1D
100
AcDbEntity
  8
0
100
AcDbLine
 10
157.7065
 20
19.2236
 30
0.0
 11
159.2905
 21
19.9522
 31
0.0
  0
LINE
  5
7D1
330
1D
100
AcDbEntity
  8
0
100
AcDbLine
 10
156.8975
 20
0.194
 30
0.0
 11
159.8465
 21
0.194
 31
0.0
  0
LINE
  5
7D2
330
1D
100
AcDbEntity
  8
0
100
AcDbLine
 10
156.8975
 20
0.194
 30
0.0
 11
158.2525
 21
0.194
 31
0.0
  0
LINE
  5
7D3
330
1D
100
AcDbEntity
  8
0
100
AcDbLine
 10
156.8975
 20
0.194
 30
0.0
 11
158.2585
 21
0.194
 31
0.0
  0
LINE
  5
7D4
330
1D
100
AcDbEntity
  8
0
100
AcDbLine
 10
156.6365
 20
0.194
 30
0.0
 11
159.5915
 21
0.194
 31
0.0
  0
LINE
  5
7D5
330
1D
100
AcDbEntity
  8
0
100
AcDbLine
 10
159.5915
 20
0.194
 30
0.0
 11
162.4545
 21
0.194
 31
0.0
  0
LINE
  5
7D6
330
1D
100
AcDbEntity
  8
0
100
AcDbLine
 10
179.2095
 20
0.194
 30
0.0
 11
179.2255
 21
49.194
 31
0.0
  0
LINE
  5
7D7
330
1D
100
AcDbEntity
  8
0
100
AcDbLine
 10
178.8845
 20
0.194
 30
0.0
 11
179.2095
 21
0.194
 31
0.0
  0
LINE
  5
7D8
330
1D
100
AcDbEntity
  8
0
100
AcDbLine
 10
172.2995
 20
0.194
 30
0.0
 11
172.8955
 21
0.194
 31
0.0
  0
LINE
  5
7D9
330
1D
100
AcDbEntity
  8
0
100
AcDbLine
 10
178.1525
 20
0.194
 30
0.0
 11
178.8405
 21
0.194
 31
0.0
  0
LINE
  5
7DA
330
1D
100
AcDbEntity
  8
0
100
AcDbLine
 10
177.1385
 20
0.194
 30
0.0
 11
178.1525
 21
0.194
 31
0.0
  0
LINE
  5
7DB
330
1D
100
AcDbEntity
  8
0
100
AcDbLine
 10
175.8115
 20
0.194
 30
0.0
 11
177.1385
 21
0.194
 31
0.0
  0
LINE
  5
7DC
330
1D
100
AcDbEntity
  8
0
100
AcDbLine
 10
173.0245
 20
0.194
 30
0.0
 11
173.1385
 21
0.194
 31
0.0
  0
LINE
  5
7DD
330
1D
100
AcDbEntity
  8
0
100
AcDbLine
 10
172.8955
 20
0.194
 30
0.0
 11
173.1385
 21
0.194
 31
0.0
  0
LINE
  5
7DE
330
1D
100
AcDbEntity
  8
0
100
AcDbLine
 10
174.1875
 20
0.194
 30
0.0
 11
175.8115
 21
0.194
 31
0.0
  0
LINE
  5
7DF
330
1D
100
AcDbEntity
  8
0
100
AcDbLine
 10
174.3405
 20
0.194
 30
0.0
 11
175.9395
 21
0.194
 31
0.0
  0
LINE
  5
7E0
330
1D
100
AcDbEntity
  8
0
100
AcDbLine
 10
175.9395
 20
0.194
 30
0.0
 11
177.2395
 21
0.194
 31
0.0
  0
LINE
  5
7E1
330
1D
100
AcDbEntity
  8
0
100
AcDbLine
 10
177.2395
 20
0.194
 30
0.0
 11
178.2255
 21
0.194
 31
0.0
  0
LINE
  5
7E2
330
1D
100
AcDbEntity
  8
0
100
AcDbLine
 10
178.2255
 20
0.194
 30
0.0
 11
178.8845
 21
0.194
 31
0.0
  0
LINE
  5
7E3
330
1D
100
AcDbEntity
  8
0
100
AcDbLine
 10
172.4645
 20
0.194
 30
0.0
 11
174.3405
 21
0.194
 31
0.0
  0
LINE
  5
7E4
330
1D
100
AcDbEntity
  8
0
100
AcDbLine
 10
165.0545
 20
40.9986
 30
0.0
 11
165.8735
 21
39.4585
 31
0.0
  0
LINE
  5
7E5
330
1D
100
AcDbEntity
  8
0
100
AcDbLine
 10
165.4205
 20
0.194
 30
0.0
 11
167.9765
 21
0.194
 31
0.0
  0
LINE
  5
7E6
330
1D
100
AcDbEntity
  8
0
100
AcDbLine
 10
165.8735
 20
39.4585
 30
0.0
 11
166.5085
 21
37.8338
 31
0.0
  0
LINE
  5
7E7
330
1D
100
AcDbEntity
  8
0
100
AcDbLine
 10
166.5085
 20
37.8338
 30
0.0
 11
166.9515
 21
36.1464
 31
0.0
  0
LINE
  5
7E8
330
1D
100
AcDbEntity
  8
0
100
AcDbLine
 10
166.9515
 20
36.1464
 30
0.0
 11
167.1945
 21
34.4195
 31
0.0
  0
LINE
  5
7E9
330
1D
100
AcDbEntity
  8
0
100
AcDbLine
 10
167.1945
 20
34.4195
 30
0.0
 11
167.2355
 21
32.6756
 31
0.0
  0
LINE
  5
7EA
330
1D
100
AcDbEntity
  8
0
100
AcDbLine
 10
167.0735
 20
30.9384
 30
0.0
 11
167.2355
 21
32.6755
 31
0.0
  0
LINE
  5
7EB
330
1D
100
AcDbEntity
  8
0
100
AcDbLine
 10
166.7115
 20
29.2321
 30
0.0
 11
167.0735
 21
30.9384
 31
0.0
  0
LINE
  5
7EC
330
1D
100
AcDbEntity
  8
0
100
AcDbLine
 10
166.1545
 20
27.5796
 30
0.0
 11
166.7115
 21
29.2321
 31
0.0
  0
LINE
  5
7ED
330
1D
100
AcDbEntity
  8
0
100
AcDbLine
 10
165.4085
 20
26.0026
 30
0.0
 11
166.1545
 21
27.5796
 31
0.0
  0
LINE
  5
7EE
330
1D
100
AcDbEntity
  8
0
100
AcDbLine
 10
165.3555
 20
0.194
 30
0.0
 11
167.3675
 21
0.194
 31
0.0
  0
LINE
  5
7EF
330
1D
100
AcDbEntity
  8
0
100
AcDbLine
 10
166.5315
 20
0.194
 30
0.0
 11
167.9115
 21
0.194
 31
0.0
  0
LINE
  5
7F0
330
1D
100
AcDbEntity
  8
0
100
AcDbLine
 10
169.0005
 20
0.194
 30
0.0
 11
169.7765
 21
0.194
 31
0.0
  0
LINE
  5
7F1
330
1D
100
AcDbEntity
  8
0
100
AcDbLine
 10
169.0525
 20
0.194
 30
0.0
 11
169.4005
 21
0.194
 31
0.0
  0
LINE
  5
7F2
330
1D
100
AcDbEntity
  8
0
100
AcDbLine
 10
169.7765
 20
0.194
 30
0.0
 11
170.2255
 21
0.194
 31
0.0
  0
LINE
  5
7F3
330
1D
100
AcDbEntity
  8
0
100
AcDbLine
 10
171.3595
 20
0.194
 30
0.0
 11
172.2995
 21
0.194
 31
0.0
  0
LINE
  5
7F4
330
1D
100
AcDbEntity
  8
0
100
AcDbLine
 10
170.5855
 20
0.194
 30
0.0
 11
171.7375
 21
0.194
 31
0.0
  0
LINE
  5
7F5
330
1D
100
AcDbEntity
  8
0
100
AcDbLine
 10
170.3345
 20
0.194
 30
0.0
 11
172.2885
 21
0.194
 31
0.0
  0
LINE
  5
7F6
330
1D
100
AcDbEntity
  8
0
100
AcDbLine
 10
170.3345
 20
0.194
 30
0.0
 11
172.4645
 21
0.194
 31
0.0
  0
LINE
  5
7F7
330
1D
100
AcDbEntity
  8
0
100
AcDbLine
 10
170.3345
 20
0.194
 30
0.0
 11
171.3595
 21
0.194
 31
0.0
  0
LINE
  5
7F8
330
1D
100
AcDbEntity
  8
0
100
AcDbLine
 10
170.2255
 20
0.194
 30
0.0
 11
170.3345
 21
0.194
 31
0.0
  0
LINE
  5
7F9
330
1D
100
AcDbEntity
  8
0
100
AcDbLine
 10
167.7605
 20
0.194
 30
0.0
 11
167.9765
 21
0.194
 31
0.0
  0
LINE
  5
7FA
330
1D
100
AcDbEntity
  8
0
100
AcDbLine
 10
167.3675
 20
0.194
 30
0.0
 11
167.9765
 21
0.194
 31
0.0
  0
LINE
  5
7FB
330
1D
100
AcDbEntity
  8
0
100
AcDbLine
 10
167.3425
 20
0.194
 30
0.0
 11
168.3615
 21
0.194
 31
0.0
  0
LINE
  5
7FC
330
1D
100
AcDbEntity
  8
0
100
AcDbLine
 10
168.5205
 20
0.194
 30
0.0
 11
170.0925
 21
0.194
 31
0.0
  0
LINE
  5
7FD
330
1D
100
AcDbEntity
  8
0
100
AcDbLine
 10
167.9765
 20
0.194
 30
0.0
 11
170.3345
 21
0.194
 31
0.0
  0
LINE
  5
7FE
330
1D
100
AcDbEntity
  8
0
100
AcDbLine
 10
167.9115
 20
0.194
 30
0.0
 11
167.9765
 21
0.194
 31
0.0
  0
LINE
  5
7FF
330
1D
100
AcDbEntity
  8
0
100
AcDbLine
 10
169.0505
 20
0.194
 30
0.0
 11
169.4005
 21
0.194
 31
0.0
  0
LINE
  5
800
330
1D
100
AcDbEntity
  8
0
100
AcDbLine
 10
167.3385
 20
0.194
 30
0.0
 11
168.3585
 21
0.194
 31
0.0
  0
LINE
  5
801
330
1D
100
AcDbEntity
  8
0
100
AcDbLine
 10
172.2885
 20
0.194
 30
0.0
 11
174.1875
 21
0.194
 31
0.0
  0
LINE
  5
802
330
1D
100
AcDbEntity
  8
0
100
AcDbLine
 10
179.2095
 20
0.194
 30
0.0
 11
179.2255
 21
49.194
 31
0.0
  0
LINE
  5
803
330
1D
100
AcDbEntity
  8
0
100
AcDbLine
 10
178.8845
 20
0.194
 30
0.0
 11
179.1945
 21
0.194
 31
0.0
  0
LINE
  5
804
330
1D
100
AcDbEntity
  8
0
100
AcDbLine
 10
164.4845
 20
24.523
 30
0.0
 11
165.4085
 21
26.0026
 31
0.0
  0
LINE
  5
805
330
1D
100
AcDbEntity
  8
0
100
AcDbLine
 10
145.1985
 20
46.4358
 30
0.0
 11
146.7825
 21
47.1644
 31
0.0
  0
LINE
  5
806
330
1D
100
AcDbEntity
  8
0
100
AcDbLine
 10
146.7825
 20
47.1644
 30
0.0
 11
148.4415
 21
47.704
 31
0.0
  0
LINE
  5
807
330
1D
100
AcDbEntity
  8
0
100
AcDbLine
 10
148.4415
 20
47.704
 30
0.0
 11
150.1515
 21
48.0473
 31
0.0
  0
LINE
  5
808
330
1D
100
AcDbEntity
  8
0
100
AcDbLine
 10
150.1515
 20
48.0473
 30
0.0
 11
151.8905
 21
48.1899
 31
0.0
  0
LINE
  5
809
330
1D
100
AcDbEntity
  8
0
100
AcDbLine
 10
151.8905
 20
48.1899
 30
0.0
 11
153.6335
 21
48.1296
 31
0.0
  0
LINE
  5
80A
330
1D
100
AcDbEntity
  8
0
100
AcDbLine
 10
153.6335
 20
48.1296
 30
0.0
 11
155.3585
 21
47.8672
 31
0.0
  0
LINE
  5
80B
330
1D
100
AcDbEntity
  8
0
100
AcDbLine
 10
155.3585
 20
47.8672
 30
0.0
 11
157.0405
 21
47.4064
 31
0.0
  0
LINE
  5
80C
330
1D
100
AcDbEntity
  8
0
100
AcDbLine
 10
157.0405
 20
47.4064
 30
0.0
 11
158.6585
 21
46.7537
 31
0.0
  0
LINE
  5
80D
330
1D
100
AcDbEntity
  8
0
100
AcDbLine
 10
158.6585
 20
46.7537
 30
0.0
 11
160.1895
 21
45.9175
 31
0.0
  0
LINE
  5
80E
330
1D
100
AcDbEntity
  8
0
100
AcDbLine
 10
160.1895
 20
45.9175
 30
0.0
 11
161.6125
 21
44.9089
 31
0.0
  0
LINE
  5
80F
330
1D
100
AcDbEntity
  8
0
100
AcDbLine
 10
161.6125
 20
44.9089
 30
0.0
 11
162.9095
 21
43.7422
 31
0.0
  0
LINE
  5
810
330
1D
100
AcDbEntity
  8
0
100
AcDbLine
 10
145.3775
 20
50.194
 30
0.0
 11
148.3345
 21
50.194
 31
0.0
  0
LINE
  5
811
330
1D
100
AcDbEntity
  8
0
100
AcDbLine
 10
151.3455
 20
50.194
 30
0.0
 11
154.3685
 21
50.194
 31
0.0
  0
LINE
  5
812
330
1D
100
AcDbEntity
  8
0
100
AcDbLine
 10
160.2865
 20
50.194
 30
0.0
 11
163.1035
 21
50.194
 31
0.0
  0
LINE
  5
813
330
1D
100
AcDbEntity
  8
0
100
AcDbLine
 10
160.7165
 20
49.1943
 30
0.0
 11
161.3955
 21
49.1942
 31
0.0
  0
LINE
  5
814
330
1D
100
AcDbEntity
  8
0
100
AcDbLine
 10
162.0675
 20
49.1939
 30
0.0
 11
162.7335
 21
49.1934
 31
0.0
  0
LINE
  5
815
330
1D
100
AcDbEntity
  8
0
100
AcDbLine
 10
161.3955
 20
49.1942
 30
0.0
 11
162.0675
 21
49.1939
 31
0.0
  0
LINE
  5
816
330
1D
100
AcDbEntity
  8
0
100
AcDbLine
 10
157.3625
 20
50.194
 30
0.0
 11
160.2865
 21
50.194
 31
0.0
  0
LINE
  5
817
330
1D
100
AcDbEntity
  8
0
100
AcDbLine
 10
154.3685
 20
50.194
 30
0.0
 11
157.3625
 21
50.194
 31
0.0
  0
LINE
  5
818
330
1D
100
AcDbEntity
  8
0
100
AcDbLine
 10
148.5815
 20
50.694
 30
0.0
 11
152.8195
 21
50.694
 31
0.0
  0
LINE
  5
819
330
1D
100
AcDbEntity
  8
0
100
AcDbLine
 10
151.6695
 20
50.694
 30
0.0
 11
155.9075
 21
50.694
 31
0.0
  0
LINE
  5
81A
330
1D
100
AcDbEntity
  8
0
100
AcDbLine
 10
155.9075
 20
50.694
 30
0.0
 11
160.0345
 21
50.694
 31
0.0
  0
LINE
  5
81B
330
1D
100
AcDbEntity
  8
0
100
AcDbLine
 10
151.6425
 20
50.694
 30
0.0
 11
156.0785
 21
50.694
 31
0.0
  0
LINE
  5
81C
330
1D
100
AcDbEntity
  8
0
100
AcDbLine
 10
156.0785
 20
50.694
 30
0.0
 11
160.3985
 21
50.694
 31
0.0
  0
LINE
  5
81D
330
1D
100
AcDbEntity
  8
0
100
AcDbLine
 10
148.4105
 20
50.694
 30
0.0
 11
152.8465
 21
50.694
 31
0.0
  0
LINE
  5
81E
330
1D
100
AcDbEntity
  8
0
100
AcDbLine
 10
152.8195
 20
50.694
 30
0.0
 11
157.0405
 21
50.694
 31
0.0
  0
LINE
  5
81F
330
1D
100
AcDbEntity
  8
0
100
AcDbLine
 10
157.0405
 20
50.694
 30
0.0
 11
161.1155
 21
50.694
 31
0.0
  0
LINE
  5
820
330
1D
100
AcDbEntity
  8
0
100
AcDbLine
 10
147.4485
 20
50.694
 30
0.0
 11
151.6695
 21
50.694
 31
0.0
  0
LINE
  5
821
330
1D
100
AcDbEntity
  8
0
100
AcDbLine
 10
147.2245
 20
50.694
 30
0.0
 11
151.6425
 21
50.694
 31
0.0
  0
LINE
  5
822
330
1D
100
AcDbEntity
  8
0
100
AcDbLine
 10
152.8465
 20
50.694
 30
0.0
 11
157.2635
 21
50.694
 31
0.0
  0
LINE
  5
823
330
1D
100
AcDbEntity
  8
0
100
AcDbLine
 10
160.0345
 20
50.694
 30
0.0
 11
163.9245
 21
50.694
 31
0.0
  0
LINE
  5
824
330
1D
100
AcDbEntity
  8
0
100
AcDbLine
 10
160.3985
 20
50.694
 30
0.0
 11
164.4695
 21
50.694
 31
0.0
  0
LINE
  5
825
330
1D
100
AcDbEntity
  8
0
100
AcDbLine
 10
161.5295
 20
50.694
 30
0.0
 11
165.5125
 21
50.694
 31
0.0
  0
LINE
  5
826
330
1D
100
AcDbEntity
  8
0
100
AcDbLine
 10
161.1155
 20
50.694
 30
0.0
 11
164.9205
 21
50.694
 31
0.0
  0
LINE
  5
827
330
1D
100
AcDbEntity
  8
0
100
AcDbLine
 10
157.2635
 20
50.694
 30
0.0
 11
161.5295
 21
50.694
 31
0.0
  0
LINE
  5
828
330
1D
100
AcDbEntity
  8
0
100
AcDbLine
 10
148.3345
 20
50.194
 30
0.0
 11
151.3455
 21
50.194
 31
0.0
  0
LINE
  5
829
330
1D
100
AcDbEntity
  8
0
100
AcDbLine
 10
163.1035
 20
50.194
 30
0.0
 11
165.7725
 21
50.194
 31
0.0
  0
LINE
  5
82A
330
1D
100
AcDbEntity
  8
0
100
AcDbLine
 10
162.7335
 20
49.1934
 30
0.0
 11
163.3915
 21
49.194
 31
0.0
  0
LINE
  5
82B
330
1D
100
AcDbEntity
  8
0
100
AcDbLine
 10
168.5235
 20
49.194
 30
0.0
 11
170.8055
 21
49.194
 31
0.0
  0
LINE
  5
82C
330
1D
100
AcDbEntity
  8
0
100
AcDbLine
 10
178.9495
 20
49.194
 30
0.0
 11
179.2255
 21
49.194
 31
0.0
  0
LINE
  5
82D
330
1D
100
AcDbEntity
  8
0
100
AcDbLine
 10
178.3455
 20
49.194
 30
0.0
 11
178.9495
 21
49.194
 31
0.0
  0
LINE
  5
82E
330
1D
100
AcDbEntity
  8
0
100
AcDbLine
 10
177.4215
 20
49.194
 30
0.0
 11
178.3455
 21
49.194
 31
0.0
  0
LINE
  5
82F
330
1D
100
AcDbEntity
  8
0
100
AcDbLine
 10
176.1885
 20
49.194
 30
0.0
 11
177.4215
 21
49.194
 31
0.0
  0
LINE
  5
830
330
1D
100
AcDbEntity
  8
0
100
AcDbLine
 10
174.6615
 20
49.194
 30
0.0
 11
176.1885
 21
49.194
 31
0.0
  0
LINE
  5
831
330
1D
100
AcDbEntity
  8
0
100
AcDbLine
 10
172.8595
 20
49.194
 30
0.0
 11
174.6615
 21
49.194
 31
0.0
  0
LINE
  5
832
330
1D
100
AcDbEntity
  8
0
100
AcDbLine
 10
170.8055
 20
49.194
 30
0.0
 11
172.8595
 21
49.194
 31
0.0
  0
LINE
  5
833
330
1D
100
AcDbEntity
  8
0
100
AcDbLine
 10
163.9245
 20
50.694
 30
0.0
 11
167.4605
 21
50.694
 31
0.0
  0
LINE
  5
834
330
1D
100
AcDbEntity
  8
0
100
AcDbLine
 10
164.9205
 20
50.694
 30
0.0
 11
168.3415
 21
50.694
 31
0.0
  0
LINE
  5
835
330
1D
100
AcDbEntity
  8
0
100
AcDbLine
 10
164.4695
 20
50.694
 30
0.0
 11
168.1705
 21
50.694
 31
0.0
  0
LINE
  5
836
330
1D
100
AcDbEntity
  8
0
100
AcDbLine
 10
165.5125
 20
50.694
 30
0.0
 11
169.0915
 21
50.694
 31
0.0
  0
LINE
  5
837
330
1D
100
AcDbEntity
  8
0
100
AcDbLine
 10
178.1325
 20
50.194
 30
0.0
 11
178.2365
 21
50.194
 31
0.0
  0
LINE
  5
838
330
1D
100
AcDbEntity
  8
0
100
AcDbLine
 10
177.6785
 20
50.194
 30
0.0
 11
178.1325
 21
50.194
 31
0.0
  0
LINE
  5
839
330
1D
100
AcDbEntity
  8
0
100
AcDbLine
 10
176.8795
 20
50.194
 30
0.0
 11
177.6785
 21
50.194
 31
0.0
  0
LINE
  5
83A
330
1D
100
AcDbEntity
  8
0
100
AcDbLine
 10
175.7475
 20
50.194
 30
0.0
 11
176.8795
 21
50.194
 31
0.0
  0
LINE
  5
83B
330
1D
100
AcDbEntity
  8
0
100
AcDbLine
 10
174.2975
 20
50.194
 30
0.0
 11
175.7475
 21
50.194
 31
0.0
  0
LINE
  5
83C
330
1D
100
AcDbEntity
  8
0
100
AcDbLine
 10
172.5505
 20
50.194
 30
0.0
 11
174.2975
 21
50.194
 31
0.0
  0
LINE
  5
83D
330
1D
100
AcDbEntity
  8
0
100
AcDbLine
 10
170.5275
 20
50.194
 30
0.0
 11
172.5505
 21
50.194
 31
0.0
  0
LINE
  5
83E
330
1D
100
AcDbEntity
  8
0
100
AcDbLine
 10
167.4605
 20
50.694
 30
0.0
 11
170.5345
 21
50.694
 31
0.0
  0
LINE
  5
83F
330
1D
100
AcDbEntity
  8
0
100
AcDbLine
 10
168.3415
 20
50.694
 30
0.0
 11
171.2735
 21
50.694
 31
0.0
  0
LINE
  5
840
330
1D
100
AcDbEntity
  8
0
100
AcDbLine
 10
168.1705
 20
50.694
 30
0.0
 11
171.3865
 21
50.694
 31
0.0
  0
LINE
  5
841
330
1D
100
AcDbEntity
  8
0
100
AcDbLine
 10
170.5345
 20
50.694
 30
0.0
 11
173.0505
 21
50.694
 31
0.0
  0
LINE
  5
842
330
1D
100
AcDbEntity
  8
0
100
AcDbLine
 10
171.2735
 20
50.694
 30
0.0
 11
173.6255
 21
50.694
 31
0.0
  0
LINE
  5
843
330
1D
100
AcDbEntity
  8
0
100
AcDbLine
 10
173.0505
 20
50.694
 30
0.0
 11
174.9355
 21
50.694
 31
0.0
  0
LINE
  5
844
330
1D
100
AcDbEntity
  8
0
100
AcDbLine
 10
174.9355
 20
50.694
 30
0.0
 11
176.1315
 21
50.694
 31
0.0
  0
LINE
  5
845
330
1D
100
AcDbEntity
  8
0
100
AcDbLine
 10
175.3295
 20
50.694
 30
0.0
 11
176.3315
 21
50.694
 31
0.0
  0
LINE
  5
846
330
1D
100
AcDbEntity
  8
0
100
AcDbLine
 10
173.6255
 20
50.694
 30
0.0
 11
175.3295
 21
50.694
 31
0.0
  0
LINE
  5
847
330
1D
100
AcDbEntity
  8
0
100
AcDbLine
 10
174.6235
 20
50.694
 30
0.0
 11
176.4055
 21
50.694
 31
0.0
  0
LINE
  5
848
330
1D
100
AcDbEntity
  8
0
100
AcDbLine
 10
171.3865
 20
50.694
 30
0.0
 11
174.0205
 21
50.694
 31
0.0
  0
LINE
  5
849
330
1D
100
AcDbEntity
  8
0
100
AcDbLine
 10
174.0205
 20
50.694
 30
0.0
 11
175.9945
 21
50.694
 31
0.0
  0
LINE
  5
84A
330
1D
100
AcDbEntity
  8
0
100
AcDbLine
 10
176.1315
 20
50.694
 30
0.0
 11
176.6015
 21
50.694
 31
0.0
  0
LINE
  5
84B
330
1D
100
AcDbEntity
  8
0
100
AcDbLine
 10
176.3315
 20
50.694
 30
0.0
 11
176.6015
 21
50.694
 31
0.0
  0
LINE
  5
84C
330
1D
100
AcDbEntity
  8
0
100
AcDbLine
 10
176.4055
 20
50.694
 30
0.0
 11
177.4545
 21
50.694
 31
0.0
  0
LINE
  5
84D
330
1D
100
AcDbEntity
  8
0
100
AcDbLine
 10
175.9945
 20
50.694
 30
0.0
 11
177.2455
 21
50.694
 31
0.0
  0
LINE
  5
84E
330
1D
100
AcDbEntity
  8
0
100
AcDbLine
 10
177.2455
 20
50.694
 30
0.0
 11
177.7375
 21
50.694
 31
0.0
  0
LINE
  5
850
330
1D
100
AcDbEntity
  8
0
100
AcDbLine
 10
177.4545
 20
50.694
 30
0.0
 11
177.7375
 21
50.694
 31
0.0
  0
LINE
  5
852
330
1D
100
AcDbEntity
  8
0
100
AcDbLine
 10
172.1595
 20
50.694
 30
0.0
 11
174.6235
 21
50.694
 31
0.0
  0
LINE
  5
853
330
1D
100
AcDbEntity
  8
0
100
AcDbLine
 10
169.0915
 20
50.694
 30
0.0
 11
172.1595
 21
50.694
 31
0.0
  0
LINE
  5
854
330
1D
100
AcDbEntity
  8
0
100
AcDbLine
 10
168.2585
 20
50.194
 30
0.0
 11
170.5275
 21
50.194
 31
0.0
  0
LINE
  5
855
330
1D
100
AcDbEntity
  8
0
100
AcDbLine
 10
165.7725
 20
50.194
 30
0.0
 11
168.2585
 21
50.194
 31
0.0
  0
LINE
  5
856
330
1D
100
AcDbEntity
  8
0
100
AcDbLine
 10
166.0425
 20
49.194
 30
0.0
 11
168.5235
 21
49.194
 31
0.0
  0
LINE
  5
857
330
1D
100
AcDbEntity
  8
0
100
AcDbLine
 10
163.3915
 20
49.194
 30
0.0
 11
166.0425
 21
49.194
 31
0.0
  0
LINE
  5
858
330
1D
100
AcDbEntity
  8
0
100
AcDbLine
 10
129.0815
 20
159.155
 30
0.0
 11
129.8665
 21
160.447
 31
0.0
  0
LINE
  5
859
330
1D
100
AcDbEntity
  8
0
100
AcDbLine
 10
128.1265
 20
157.762
 30
0.0
 11
129.0815
 21
159.155
 31
0.0
  0
LINE
  5
85A
330
1D
100
AcDbEntity
  8
0
100
AcDbLine
 10
129.8665
 20
160.447
 30
0.0
 11
131.0535
 21
162.821
 31
0.0
  0
LINE
  5
85B
330
1D
100
AcDbEntity
  8
0
100
AcDbLine
 10
81.3783
 20
177.554
 30
0.0
 11
96.9309
 21
170.8
 31
0.0
  0
LINE
  5
85C
330
1D
100
AcDbEntity
  8
0
100
AcDbLine
 10
96.9309
 20
170.8
 30
0.0
 11
112.2395
 21
163.507
 31
0.0
  0
LINE
  5
85D
330
1D
100
AcDbEntity
  8
0
100
AcDbLine
 10
128.4225
 20
176.777
 30
0.0
 11
129.8665
 21
175.252
 31
0.0
  0
LINE
  5
85E
330
1D
100
AcDbEntity
  8
0
100
AcDbLine
 10
112.2395
 20
163.507
 30
0.0
 11
126.7595
 21
155.992
 31
0.0
  0
LINE
  5
85F
330
1D
100
AcDbEntity
  8
0
100
AcDbLine
 10
49.6105
 20
189.409
 30
0.0
 11
65.5987
 21
183.759
 31
0.0
  0
LINE
  5
860
330
1D
100
AcDbEntity
  8
0
100
AcDbLine
 10
65.5987
 20
183.759
 30
0.0
 11
81.3783
 21
177.554
 31
0.0
  0
LINE
  5
861
330
1D
100
AcDbEntity
  8
0
100
AcDbLine
 10
25.7745
 20
189.976
 30
0.0
 11
26.6085
 21
190.209
 31
0.0
  0
LINE
  5
862
330
1D
100
AcDbEntity
  8
0
100
AcDbLine
 10
114.6575
 20
184.49
 30
0.0
 11
126.7575
 21
178.567
 31
0.0
  0
LINE
  5
863
330
1D
100
AcDbEntity
  8
0
100
AcDbLine
 10
26.6085
 20
190.209
 30
0.0
 11
27.76797904009
 21
194.730042524583
 31
0.0
  0
LINE
  5
864
330
1D
100
AcDbEntity
  8
0
100
AcDbLine
 10
26.6085
 20
190.209
 30
0.0
 11
27.76797904009
 21
194.730042524583
 31
0.0
  0
LINE
  5
865
330
1D
100
AcDbEntity
  8
0
100
AcDbLine
 10
32.3685
 20
194.309
 30
0.0
 11
32.8265
 21
194.57
 31
0.0
  0
LINE
  5
866
330
1D
100
AcDbEntity
  8
0
100
AcDbLine
 10
32.1055
 20
193.853
 30
0.0
 11
32.3685
 21
194.309
 31
0.0
  0
LINE
  5
867
330
1D
100
AcDbEntity
  8
0
100
AcDbLine
 10
31.9555
 20
193.656
 30
0.0
 11
32.0335
 21
193.636
 31
0.0
  0
LINE
  5
868
330
1D
100
AcDbEntity
  8
0
100
AcDbLine
 10
32.0335
 20
193.636
 30
0.0
 11
32.1055
 21
193.853
 31
0.0
  0
LINE
  5
869
330
1D
100
AcDbEntity
  8
0
100
AcDbLine
 10
96.5833
 20
192.739
 30
0.0
 11
114.6575
 21
184.49
 31
0.0
  0
LINE
  5
86A
330
1D
100
AcDbEntity
  8
0
100
AcDbLine
 10
78.1971
 20
200.271
 30
0.0
 11
96.5833
 21
192.739
 31
0.0
  0
LINE
  5
86B
330
1D
100
AcDbEntity
  8
0
100
AcDbLine
 10
59.5295
 20
207.074
 30
0.0
 11
78.1971
 21
200.271
 31
0.0
  0
LINE
  5
86C
330
1D
100
AcDbEntity
  8
0
100
AcDbLine
 10
40.6085
 20
213.137
 30
0.0
 11
59.5295
 21
207.074
 31
0.0
  0
LINE
  5
86D
330
1D
100
AcDbEntity
  8
0
100
AcDbLine
 10
33.4365
 20
194.497
 30
0.0
 11
49.6105
 21
189.409
 31
0.0
  0
LINE
  5
86E
330
1D
100
AcDbEntity
  8
0
100
AcDbLine
 10
25.7115
 20
189.992
 30
0.0
 11
25.7745
 21
189.976
 31
0.0
  0
LINE
  5
86F
330
1D
100
AcDbEntity
  8
0
100
AcDbLine
 10
56.633
 20
265.156
 30
0.0
 11
56.6642
 21
265.424
 31
0.0
  0
LINE
  5
870
330
1D
100
AcDbEntity
  8
0
100
AcDbLine
 10
56.633
 20
265.156
 30
0.0
 11
56.7388
 21
264.921
 31
0.0
  0
LINE
  5
871
330
1D
100
AcDbEntity
  8
0
100
AcDbLine
 10
56.7388
 20
264.921
 30
0.0
 11
56.9484
 21
264.769
 31
0.0
  0
LINE
  5
872
330
1D
100
AcDbEntity
  8
0
100
AcDbLine
 10
59.8318
 20
273.49
 30
0.0
 11
60.0677
 21
273.593
 31
0.0
  0
LINE
  5
873
330
1D
100
AcDbEntity
  8
0
100
AcDbLine
 10
60.0677
 20
273.593
 30
0.0
 11
60.325
 21
273.566
 31
0.0
  0
LINE
  5
874
330
1D
100
AcDbEntity
  8
0
100
AcDbLine
 10
59.741803940389
 20
273.355032583986
 30
0.0
 11
59.8318
 21
273.49
 31
0.0
  0
LINE
  5
875
330
1D
100
AcDbEntity
  8
0
100
AcDbLine
 10
56.9484
 20
264.769
 30
0.0
 11
125.6735
 21
238.347
 31
0.0
  0
LINE
  5
876
330
1D
100
AcDbEntity
  8
0
100
AcDbLine
 10
125.6735
 20
238.347
 30
0.0
 11
125.9065
 21
238.164
 31
0.0
  0
LINE
  5
877
330
1D
100
AcDbEntity
  8
0
100
AcDbLine
 10
60.325
 20
273.566
 30
0.0
 11
132.6735
 21
245.804
 31
0.0
  0
LINE
  5
878
330
1D
100
AcDbEntity
  8
0
100
AcDbLine
 10
126.7575
 20
178.567
 30
0.0
 11
126.8645
 21
178.453
 31
0.0
  0
LINE
  5
879
330
1D
100
AcDbEntity
  8
0
100
AcDbLine
 10
126.5275
 20
210.3
 30
0.0
 11
126.9485
 21
210.3
 31
0.0
  0
LINE
  5
87A
330
1D
100
AcDbEntity
  8
0
100
AcDbLine
 10
126.7595
 20
207.894
 30
0.0
 11
126.7595
 21
208.494
 31
0.0
  0
LINE
  5
87B
330
1D
100
AcDbEntity
  8
0
100
AcDbLine
 10
126.7595
 20
207.894
 30
0.0
 11
126.7865
 21
207.794
 31
0.0
  0
LINE
  5
87C
330
1D
100
AcDbEntity
  8
0
100
AcDbLine
 10
126.7595
 20
208.494
 30
0.0
 11
126.7865
 21
208.594
 31
0.0
  0
LINE
  5
87D
330
1D
100
AcDbEntity
  8
0
100
AcDbLine
 10
126.7595
 20
208.494
 30
0.0
 11
126.7595
 21
207.894
 31
0.0
  0
LINE
  5
87E
330
1D
100
AcDbEntity
  8
0
100
AcDbLine
 10
126.7515
 20
207.694
 30
0.0
 11
126.7575
 21
178.567
 31
0.0
  0
LINE
  5
87F
330
1D
100
AcDbEntity
  8
0
100
AcDbLine
 10
126.7515
 20
207.694
 30
0.0
 11
127.0345
 21
207.694
 31
0.0
  0
LINE
  5
880
330
1D
100
AcDbEntity
  8
0
100
AcDbLine
 10
126.7865
 20
207.794
 30
0.0
 11
126.8595
 21
207.721
 31
0.0
  0
LINE
  5
881
330
1D
100
AcDbEntity
  8
0
100
AcDbLine
 10
126.8595
 20
207.721
 30
0.0
 11
126.9595
 21
207.694
 31
0.0
  0
LINE
  5
882
330
1D
100
AcDbEntity
  8
0
100
AcDbLine
 10
126.9485
 20
210.3
 30
0.0
 11
127.8475
 21
210.3
 31
0.0
  0
LINE
  5
883
330
1D
100
AcDbEntity
  8
0
100
AcDbLine
 10
126.9595
 20
208.694
 30
0.0
 11
127.2325
 21
208.694
 31
0.0
  0
LINE
  5
884
330
1D
100
AcDbEntity
  8
0
100
AcDbLine
 10
126.8595
 20
208.667
 30
0.0
 11
126.9595
 21
208.694
 31
0.0
  0
LINE
  5
885
330
1D
100
AcDbEntity
  8
0
100
AcDbLine
 10
126.7865
 20
208.594
 30
0.0
 11
126.8595
 21
208.667
 31
0.0
  0
LINE
  5
886
330
1D
100
AcDbEntity
  8
0
100
AcDbLine
 10
126.7835
 20
210.3
 30
0.0
 11
127.3295
 21
210.3
 31
0.0
  0
LINE
  5
887
330
1D
100
AcDbEntity
  8
0
100
AcDbLine
 10
126.0275
 20
210.8
 30
0.0
 11
126.0945
 21
210.55
 31
0.0
  0
LINE
  5
888
330
1D
100
AcDbEntity
  8
0
100
AcDbLine
 10
126.0945
 20
210.55
 30
0.0
 11
126.2775
 21
210.367
 31
0.0
  0
LINE
  5
889
330
1D
100
AcDbEntity
  8
0
100
AcDbLine
 10
126.2775
 20
210.367
 30
0.0
 11
126.5275
 21
210.3
 31
0.0
  0
LINE
  5
88A
330
1D
100
AcDbEntity
  8
0
100
AcDbLine
 10
126.7185
 20
210.3
 30
0.0
 11
126.7835
 21
210.3
 31
0.0
  0
LINE
  5
88B
330
1D
100
AcDbEntity
  8
0
100
AcDbLine
 10
125.9065
 20
238.164
 30
0.0
 11
125.9945
 21
237.881
 31
0.0
  0
LINE
  5
88C
330
1D
100
AcDbEntity
  8
0
100
AcDbLine
 10
126.8645
 20
178.453
 30
0.0
 11
127.3835
 21
177.89
 31
0.0
  0
LINE
  5
88D
330
1D
100
AcDbEntity
  8
0
100
AcDbLine
 10
127.2325
 20
208.694
 30
0.0
 11
127.8425
 21
208.694
 31
0.0
  0
LINE
  5
88E
330
1D
100
AcDbEntity
  8
0
100
AcDbLine
 10
127.8425
 20
208.694
 30
0.0
 11
128.7835
 21
208.694
 31
0.0
  0
LINE
  5
88F
330
1D
100
AcDbEntity
  8
0
100
AcDbLine
 10
128.7835
 20
208.694
 30
0.0
 11
130.0415
 21
208.694
 31
0.0
  0
LINE
  5
890
330
1D
100
AcDbEntity
  8
0
100
AcDbLine
 10
127.7215
 20
208.809
 30
0.0
 11
128.0795
 21
209.127
 31
0.0
  0
LINE
  5
891
330
1D
100
AcDbEntity
  8
0
100
AcDbLine
 10
128.0835
 20
207.694
 30
0.0
 11
129.8665
 21
207.694
 31
0.0
  0
LINE
  5
892
330
1D
100
AcDbEntity
  8
0
100
AcDbLine
 10
127.8475
 20
210.3
 30
0.0
 11
129.2075
 21
210.3
 31
0.0
  0
LINE
  5
893
330
1D
100
AcDbEntity
  8
0
100
AcDbLine
 10
128.2315
 20
209.575
 30
0.0
 11
128.356398662343
 21
210.3
 31
0.0
  0
LINE
  5
894
330
1D
100
AcDbEntity
  8
0
100
AcDbLine
 10
129.2075
 20
210.3
 30
0.0
 11
131.0035
 21
210.3
 31
0.0
  0
LINE
  5
895
330
1D
100
AcDbEntity
  8
0
100
AcDbLine
 10
127.3295
 20
210.3
 30
0.0
 11
128.3465
 21
210.3
 31
0.0
  0
LINE
  5
896
330
1D
100
AcDbEntity
  8
0
100
AcDbLine
 10
128.0795
 20
209.127
 30
0.0
 11
128.2315
 21
209.575
 31
0.0
  0
LINE
  5
897
330
1D
100
AcDbEntity
  8
0
100
AcDbLine
 10
127.0345
 20
207.694
 30
0.0
 11
128.0835
 21
207.694
 31
0.0
  0
LINE
  5
898
330
1D
100
AcDbEntity
  8
0
100
AcDbLine
 10
127.3835
 20
177.89
 30
0.0
 11
128.4225
 21
176.777
 31
0.0
  0
LINE
  5
899
330
1D
100
AcDbEntity
  8
0
100
AcDbLine
 10
129.8665
 20
207.694
 30
0.0
 11
132.3295
 21
207.694
 31
0.0
  0
LINE
  5
89A
330
1D
100
AcDbEntity
  8
0
100
AcDbLine
 10
129.8665
 20
175.252
 30
0.0
 11
131.4025
 21
173.664
 31
0.0
  0
LINE
  5
89B
330
1D
100
AcDbEntity
  8
0
100
AcDbLine
 10
132.6605
 20
171.172
 30
0.0
 11
132.7595
 21
170.009
 31
0.0
  0
LINE
  5
89C
330
1D
100
AcDbEntity
  8
0
100
AcDbLine
 10
132.3015
 20
166.684
 30
0.0
 11
132.7595
 21
170.009
 31
0.0
  0
LINE
  5
89D
330
1D
100
AcDbEntity
  8
0
100
AcDbLine
 10
132.2595
 20
172.365
 30
0.0
 11
132.6605
 21
171.172
 31
0.0
  0
LINE
  5
89E
330
1D
100
AcDbEntity
  8
0
100
AcDbLine
 10
131.7535
 20
164.667
 30
0.0
 11
132.3015
 21
166.684
 31
0.0
  0
LINE
  5
89F
330
1D
100
AcDbEntity
  8
0
100
AcDbLine
 10
131.0535
 20
162.821
 30
0.0
 11
131.7535
 21
164.667
 31
0.0
  0
LINE
  5
8A0
330
1D
100
AcDbEntity
  8
0
100
AcDbLine
 10
131.4025
 20
173.664
 30
0.0
 11
131.8615
 21
173.085
 31
0.0
  0
LINE
  5
8A1
330
1D
100
AcDbEntity
  8
0
100
AcDbLine
 10
131.8615
 20
173.085
 30
0.0
 11
132.2595
 21
172.365
 31
0.0
  0
LINE
  5
8A2
330
1D
100
AcDbEntity
  8
0
100
AcDbLine
 10
130.0415
 20
208.694
 30
0.0
 11
131.5995
 21
208.694
 31
0.0
  0
LINE
  5
8A3
330
1D
100
AcDbEntity
  8
0
100
AcDbLine
 10
135.3975
 20
207.694
 30
0.0
 11
138.9775
 21
207.694
 31
0.0
  0
LINE
  5
8A4
330
1D
100
AcDbEntity
  8
0
100
AcDbLine
 10
132.3295
 20
207.694
 30
0.0
 11
135.3975
 21
207.694
 31
0.0
  0
LINE
  5
8A5
330
1D
100
AcDbEntity
  8
0
100
AcDbLine
 10
131.5995
 20
208.694
 30
0.0
 11
133.4375
 21
208.694
 31
0.0
  0
LINE
  5
8A6
330
1D
100
AcDbEntity
  8
0
100
AcDbLine
 10
133.4375
 20
208.694
 30
0.0
 11
135.5295
 21
208.694
 31
0.0
  0
LINE
  5
8A7
330
1D
100
AcDbEntity
  8
0
100
AcDbLine
 10
138.9775
 20
207.694
 30
0.0
 11
142.9595
 21
207.694
 31
0.0
  0
LINE
  5
8A8
330
1D
100
AcDbEntity
  8
0
100
AcDbLine
 10
135.5295
 20
208.694
 30
0.0
 11
137.8465
 21
208.694
 31
0.0
  0
LINE
  5
8A9
330
1D
100
AcDbEntity
  8
0
100
AcDbLine
 10
137.8465
 20
208.694
 30
0.0
 11
140.3595
 21
208.694
 31
0.0
  0
LINE
  5
8AA
330
1D
100
AcDbEntity
  8
0
100
AcDbLine
 10
142.9595
 20
207.694
 30
0.0
 11
147.2255
 21
207.694
 31
0.0
  0
LINE
  5
8AB
330
1D
100
AcDbEntity
  8
0
100
AcDbLine
 10
140.3595
 20
208.694
 30
0.0
 11
143.0325
 21
208.694
 31
0.0
  0
LINE
  5
8AC
330
1D
100
AcDbEntity
  8
0
100
AcDbLine
 10
143.0325
 20
208.694
 30
0.0
 11
145.8305
 21
208.694
 31
0.0
  0
LINE
  5
8AD
330
1D
100
AcDbEntity
  8
0
100
AcDbLine
 10
147.2255
 20
207.694
 30
0.0
 11
151.6425
 21
207.694
 31
0.0
  0
LINE
  5
8AE
330
1D
100
AcDbEntity
  8
0
100
AcDbLine
 10
151.6425
 20
207.694
 30
0.0
 11
156.0785
 21
207.694
 31
0.0
  0
LINE
  5
8AF
330
1D
100
AcDbEntity
  8
0
100
AcDbLine
 10
145.8305
 20
208.694
 30
0.0
 11
148.7145
 21
208.694
 31
0.0
  0
LINE
  5
8B0
330
1D
100
AcDbEntity
  8
0
100
AcDbLine
 10
148.7145
 20
208.694
 30
0.0
 11
151.6475
 21
208.694
 31
0.0
  0
LINE
  5
8B1
330
1D
100
AcDbEntity
  8
0
100
AcDbLine
 10
156.0785
 20
207.694
 30
0.0
 11
160.3985
 21
207.694
 31
0.0
  0
LINE
  5
8B2
330
1D
100
AcDbEntity
  8
0
100
AcDbLine
 10
151.6475
 20
208.694
 30
0.0
 11
154.5875
 21
208.694
 31
0.0
  0
LINE
  5
8B3
330
1D
100
AcDbEntity
  8
0
100
AcDbLine
 10
154.5875
 20
208.694
 30
0.0
 11
157.4965
 21
208.694
 31
0.0
  0
LINE
  5
8B4
330
1D
100
AcDbEntity
  8
0
100
AcDbLine
 10
160.3985
 20
207.694
 30
0.0
 11
164.4695
 21
207.694
 31
0.0
  0
LINE
  5
8B5
330
1D
100
AcDbEntity
  8
0
100
AcDbLine
 10
157.4965
 20
208.694
 30
0.0
 11
160.3345
 21
208.694
 31
0.0
  0
LINE
  5
8B6
330
1D
100
AcDbEntity
  8
0
100
AcDbLine
 10
160.3345
 20
208.694
 30
0.0
 11
163.0625
 21
208.694
 31
0.0
  0
LINE
  5
8B7
330
1D
100
AcDbEntity
  8
0
100
AcDbLine
 10
164.4695
 20
207.694
 30
0.0
 11
168.1695
 21
207.694
 31
0.0
  0
LINE
  5
8B8
330
1D
100
AcDbEntity
  8
0
100
AcDbLine
 10
163.0625
 20
208.694
 30
0.0
 11
165.6445
 21
208.694
 31
0.0
  0
LINE
  5
8B9
330
1D
100
AcDbEntity
  8
0
100
AcDbLine
 10
165.6445
 20
208.694
 30
0.0
 11
168.0445
 21
208.694
 31
0.0
  0
LINE
  5
8BA
330
1D
100
AcDbEntity
  8
0
100
AcDbLine
 10
168.1695
 20
207.694
 30
0.0
 11
171.285222365591
 21
207.694
 31
0.0
  0
LINE
  5
8BC
330
1D
100
AcDbEntity
  8
0
100
AcDbLine
 10
168.0445
 20
208.694
 30
0.0
 11
170.2325
 21
208.694
 31
0.0
  0
LINE
  5
8BD
330
1D
100
AcDbEntity
  8
0
100
AcDbLine
 10
170.2325
 20
208.694
 30
0.0
 11
171.032265693431
 21
208.694
 31
0.0
  0
LINE
  5
8C5
330
1D
100
AcDbEntity
  8
0
100
AcDbLine
 10
133.2005
 20
210.3
 30
0.0
 11
135.7575
 21
210.3
 31
0.0
  0
LINE
  5
8C6
330
1D
100
AcDbEntity
  8
0
100
AcDbLine
 10
131.0035
 20
210.3
 30
0.0
 11
133.2005
 21
210.3
 31
0.0
  0
LINE
  5
8C7
330
1D
100
AcDbEntity
  8
0
100
AcDbLine
 10
135.7575
 20
210.3
 30
0.0
 11
138.6275
 21
210.3
 31
0.0
  0
LINE
  5
8C8
330
1D
100
AcDbEntity
  8
0
100
AcDbLine
 10
152.0685
 20
210.3
 30
0.0
 11
152.4105
 21
210.36
 31
0.0
  0
LINE
  5
8C9
330
1D
100
AcDbEntity
  8
0
100
AcDbLine
 10
145.0775
 20
210.3
 30
0.0
 11
148.5375
 21
210.3
 31
0.0
  0
LINE
  5
8CA
330
1D
100
AcDbEntity
  8
0
100
AcDbLine
 10
148.5375
 20
210.3
 30
0.0
 11
152.0685
 21
210.3
 31
0.0
  0
LINE
  5
8CB
330
1D
100
AcDbEntity
  8
0
100
AcDbLine
 10
138.6275
 20
210.3
 30
0.0
 11
141.7535
 21
210.3
 31
0.0
  0
LINE
  5
8CC
330
1D
100
AcDbEntity
  8
0
100
AcDbLine
 10
141.7535
 20
210.3
 30
0.0
 11
145.0775
 21
210.3
 31
0.0
  0
LINE
  5
8CD
330
1D
100
AcDbEntity
  8
0
100
AcDbLine
 10
132.7575
 20
245.803
 30
0.0
 11
133.3885
 21
245.707
 31
0.0
  0
LINE
  5
8CE
330
1D
100
AcDbEntity
  8
0
100
AcDbLine
 10
132.671938247323
 20
245.804599285097
 30
0.0
 11
132.7575
 21
245.803
 31
0.0
  0
LINE
  5
8CF
330
1D
100
AcDbEntity
  8
0
100
AcDbLine
 10
133.3885
 20
245.707
 30
0.0
 11
140.0285
 21
246.051
 31
0.0
  0
LINE
  5
8E7
330
1D
100
AcDbEntity
  8
0
100
AcDbLine
 10
21.4865
 20
218.537
 30
0.0
 11
40.6085
 21
213.137
 31
0.0
  0
LINE
  5
8E8
330
1D
100
AcDbEntity
  8
0
100
AcDbLine
 10
1.1045
 20
201.569
 30
0.0
 11
31.9555
 21
193.656
 31
0.0
  0
LINE
  5
8E9
330
1D
100
AcDbEntity
  8
0
100
AcDbLine
 10
33.4365
 20
194.497
 30
0.0
 11
33.209330833407
 21
194.547139508294
 31
0.0
  0
LINE
  5
8EA
330
1D
100
AcDbEntity
  8
0
100
AcDbLine
 10
33.209330833407
 20
194.547139508294
 30
0.0
 11
32.8265
 21
194.57
 31
0.0
  0
LINE
  5
8EB
330
1D
100
AcDbEntity
  8
0
100
AcDbLine
 10
25.7115
 20
189.992
 30
0.0
 11
3.9815
 21
195.566
 31
0.0
  0
LINE
  5
8ED
330
1D
100
AcDbEntity
  8
0
100
AcDbLine
 10
152.4105
 20
210.36
 30
0.0
 11
170.167833856832
 21
216.823170075159
 31
0.0
  0
LINE
  5
8EE
330
1D
100
AcDbEntity
  8
0
100
AcDbLine
 10
126.0275
 20
210.8
 30
0.0
 11
125.9945
 21
237.881
 31
0.0
  0
LINE
  5
8EF
330
1D
100
AcDbEntity
  8
0
100
AcDbLine
 10
140.0285
 20
246.051
 30
0.0
 11
154.5253884273
 21
246.051
 31
0.0
  0
LINE
  5
8F0
330
1D
100
AcDbEntity
  8
0
100
AcDbLine
 10
59.741803940389
 20
273.355032583986
 30
0.0
 11
56.6642
 21
265.424
 31
0.0
  0
LINE
  5
8F1
330
1D
100
AcDbEntity
  8
0
100
AcDbLine
 10
145.8305
 20
19.6343
 30
0.0
 11
144.410607471369
 21
20.371457419728
 31
0.0
  0
LINE
  5
8F2
330
1D
100
AcDbEntity
  8
0
100
AcDbLine
 10
144.410607471369
 20
20.371457419728
 30
0.0
 11
142.8765
 21
21.4791
 31
0.0
  0
LINE
  5
8F3
330
1D
100
AcDbEntity
  8
0
100
AcDbLine
 10
179.2255
 20
49.194
 30
0.0
 11
178.2365
 21
50.194
 31
0.0
  0
LINE
  5
8F4
330
1D
100
AcDbEntity
  8
0
100
AcDbLine
 10
178.2365
 20
50.194
 30
0.0
 11
177.7375
 21
50.694
 31
0.0
  0
LINE
  5
8F5
330
1D
100
AcDbEntity
  8
0
100
AcDbLine
 10
126.2515
 20
50.194
 30
0.0
 11
126.7515
 21
50.694
 31
0.0
  0
LINE
  5
A63
330
1D
100
AcDbEntity
  8
0
100
AcDbLine
 10
191.7262
 20
115.776
 30
0.0
 11
192.512678474164
 21
115.29150099181
 31
0.0
  0
LINE
  5
A64
330
1D
100
AcDbEntity
  8
0
100
AcDbLine
 10
191.7262
 20
115.776
 30
0.0
 11
192.1019
 21
115.882
 31
0.0
  0
LINE
  5
A65
330
1D
100
AcDbEntity
  8
0
100
AcDbLine
 10
150.396501
 20
260.699
 30
0.0
 11
150.839450899722
 21
260.823721181284
 31
0.0
  0
LINE
  5
A66
330
1D
100
AcDbEntity
  8
0
100
AcDbLine
 10
150.315108
 20
260.987
 30
0.0
 11
150.758215423664
 21
261.112015354727
 31
0.0
  0
LINE
  5
A67
330
1D
100
AcDbEntity
  8
0
100
AcDbLine
 10
150.315108
 20
260.987
 30
0.0
 11
150.396501
 21
260.699
 31
0.0
  0
LINE
  5
A68
330
1D
100
AcDbEntity
  8
0
100
AcDbLine
 10
150.315108
 20
260.987
 30
0.0
 11
150.586419
 21
260.025
 31
0.0
  0
LINE
  5
A69
330
1D
100
AcDbEntity
  8
0
100
AcDbLine
 10
150.315108
 20
260.987
 30
0.0
 11
150.758215423664
 21
261.112015354727
 31
0.0
  0
LINE
  5
A6A
330
1D
100
AcDbEntity
  8
0
100
AcDbLine
 10
150.396501
 20
260.699
 30
0.0
 11
150.586419
 21
260.025
 31
0.0
  0
LINE
  5
A6B
330
1D
100
AcDbEntity
  8
0
100
AcDbLine
 10
150.396501
 20
260.699
 30
0.0
 11
150.839450899722
 21
260.823721181284
 31
0.0
  0
LINE
  5
A6C
330
1D
100
AcDbEntity
  8
0
100
AcDbLine
 10
150.586419
 20
260.025
 30
0.0
 11
150.857731
 21
259.062
 31
0.0
  0
LINE
  5
A6D
330
1D
100
AcDbEntity
  8
0
100
AcDbLine
 10
150.586419
 20
260.025
 30
0.0
 11
151.029377506099
 21
260.149723463822
 31
0.0
  0
LINE
  5
A6E
330
1D
100
AcDbEntity
  8
0
100
AcDbLine
 10
150.586419
 20
260.025
 30
0.0
 11
150.857731
 21
259.062
 31
0.0
  0
LINE
  5
A6F
330
1D
100
AcDbEntity
  8
0
100
AcDbLine
 10
150.586419
 20
260.025
 30
0.0
 11
150.776337
 21
259.351
 31
0.0
  0
LINE
  5
A70
330
1D
100
AcDbEntity
  8
0
100
AcDbLine
 10
150.586419
 20
260.025
 30
0.0
 11
151.029377506099
 21
260.149723463822
 31
0.0
  0
LINE
  5
A71
330
1D
100
AcDbEntity
  8
0
100
AcDbLine
 10
150.396501
 20
260.699
 30
0.0
 11
150.586419
 21
260.025
 31
0.0
  0
LINE
  5
A72
330
1D
100
AcDbEntity
  8
0
100
AcDbLine
 10
150.642447
 20
261.523
 30
0.0
 11
150.766952
 21
261.081
 31
0.0
  0
LINE
  5
A73
330
1D
100
AcDbEntity
  8
0
100
AcDbLine
 10
150.642447
 20
261.523
 30
0.0
 11
150.70487
 21
261.938
 31
0.0
  0
LINE
  5
A74
330
1D
100
AcDbEntity
  8
0
100
AcDbLine
 10
150.642447
 20
261.523
 30
0.0
 11
150.758215423664
 21
261.112015354727
 31
0.0
  0
LINE
  5
A75
330
1D
100
AcDbEntity
  8
0
100
AcDbLine
 10
150.642447
 20
261.523
 30
0.0
 11
150.758215423664
 21
261.112015354727
 31
0.0
  0
LINE
  5
A76
330
1D
100
AcDbEntity
  8
0
100
AcDbLine
 10
150.726823
 20
259.527
 30
0.0
 11
151.169766572175
 21
259.65171954039
 31
0.0
  0
LINE
  5
A77
330
1D
100
AcDbEntity
  8
0
100
AcDbLine
 10
150.751295
 20
259.44
 30
0.0
 11
150.916741
 21
258.853
 31
0.0
  0
LINE
  5
A78
330
1D
100
AcDbEntity
  8
0
100
AcDbLine
 10
150.751295
 20
259.44
 30
0.0
 11
151.194231791424
 21
259.564967707298
 31
0.0
  0
LINE
  5
A79
330
1D
100
AcDbEntity
  8
0
100
AcDbLine
 10
150.726823
 20
259.527
 30
0.0
 11
150.751295
 21
259.44
 31
0.0
  0
LINE
  5
A7A
330
1D
100
AcDbEntity
  8
0
100
AcDbLine
 10
150.726823
 20
259.527
 30
0.0
 11
151.169766572175
 21
259.65171954039
 31
0.0
  0
LINE
  5
A7B
330
1D
100
AcDbEntity
  8
0
100
AcDbLine
 10
151.121907
 20
258.125
 30
0.0
 11
151.24571
 21
257.686
 31
0.0
  0
LINE
  5
A7C
330
1D
100
AcDbEntity
  8
0
100
AcDbLine
 10
151.121907
 20
258.125
 30
0.0
 11
151.565062569337
 21
258.250029573174
 31
0.0
  0
LINE
  5
A7D
330
1D
100
AcDbEntity
  8
0
100
AcDbLine
 10
151.121907
 20
258.125
 30
0.0
 11
151.565062569337
 21
258.250029573174
 31
0.0
  0
LINE
  5
A7E
330
1D
100
AcDbEntity
  8
0
100
AcDbLine
 10
150.916741
 20
258.853
 30
0.0
 11
151.121907
 21
258.125
 31
0.0
  0
LINE
  5
A7F
330
1D
100
AcDbEntity
  8
0
100
AcDbLine
 10
150.916741
 20
258.853
 30
0.0
 11
151.359766915176
 21
258.977992570057
 31
0.0
  0
LINE
  5
A80
330
1D
100
AcDbEntity
  8
0
100
AcDbLine
 10
150.916741
 20
258.853
 30
0.0
 11
151.359766915176
 21
258.977992570057
 31
0.0
  0
LINE
  5
A81
330
1D
100
AcDbEntity
  8
0
100
AcDbLine
 10
150.857826720554
 20
259.062027006
 30
0.0
 11
150.916741
 21
258.853
 31
0.0
  0
LINE
  5
A82
330
1D
100
AcDbEntity
  8
0
100
AcDbLine
 10
150.776337
 20
259.351
 30
0.0
 11
150.857731
 21
259.062
 31
0.0
  0
LINE
  5
A83
330
1D
100
AcDbEntity
  8
0
100
AcDbLine
 10
150.766952
 20
261.081
 30
0.0
 11
151.098902
 21
259.903
 31
0.0
  0
LINE
  5
A84
330
1D
100
AcDbEntity
  8
0
100
AcDbLine
 10
151.24571
 20
257.686
 30
0.0
 11
151.688828896578
 21
257.81101943815
 31
0.0
  0
LINE
  5
A85
330
1D
100
AcDbEntity
  8
0
100
AcDbLine
 10
151.24571
 20
257.686
 30
0.0
 11
151.688828896578
 21
257.81101943815
 31
0.0
  0
LINE
  5
A86
330
1D
100
AcDbEntity
  8
0
100
AcDbLine
 10
151.171689
 20
260.281
 30
0.0
 11
151.72147
 21
258.331
 31
0.0
  0
LINE
  5
A87
330
1D
100
AcDbEntity
  8
0
100
AcDbLine
 10
150.829348
 20
261.496
 30
0.0
 11
151.171689
 21
260.281
 31
0.0
  0
LINE
  5
A88
330
1D
100
AcDbEntity
  8
0
100
AcDbLine
 10
150.70487
 20
261.938
 30
0.0
 11
150.829348
 21
261.496
 31
0.0
  0
LINE
  5
A89
330
1D
100
AcDbEntity
  8
0
100
AcDbLine
 10
150.70487
 20
261.938
 30
0.0
 11
150.985286
 21
262.215
 31
0.0
  0
LINE
  5
A8A
330
1D
100
AcDbEntity
  8
0
100
AcDbLine
 10
151.157785
 20
263.729
 30
0.0
 11
151.315615434307
 21
262.308048976697
 31
0.0
  0
LINE
  5
A8B
330
1D
100
AcDbEntity
  8
0
100
AcDbLine
 10
151.12809
 20
264.941
 30
0.0
 11
151.206445
 21
265.802
 31
0.0
  0
LINE
  5
A8C
330
1D
100
AcDbEntity
  8
0
100
AcDbLine
 10
151.12809
 20
264.941
 30
0.0
 11
151.157785
 21
263.729
 31
0.0
  0
LINE
  5
A8D
330
1D
100
AcDbEntity
  8
0
100
AcDbLine
 10
151.206445
 20
265.802
 30
0.0
 11
151.287072864984
 21
266.022400532207
 31
0.0
  0
LINE
  5
A8E
330
1D
100
AcDbEntity
  8
0
100
AcDbLine
 10
151.206445
 20
265.802
 30
0.0
 11
151.287072864984
 21
266.022400532207
 31
0.0
  0
LINE
  5
A8F
330
1D
100
AcDbEntity
  8
0
100
AcDbLine
 10
150.985286
 20
262.215
 30
0.0
 11
151.32205459077
 21
262.309862793019
 31
0.0
  0
LINE
  5
A90
330
1D
100
AcDbEntity
  8
0
100
AcDbLine
 10
150.985286
 20
262.215
 30
0.0
 11
151.32205459077
 21
262.309862793019
 31
0.0
  0
LINE
  5
A91
330
1D
100
AcDbEntity
  8
0
100
AcDbLine
 10
151.6021
 20
256.422
 30
0.0
 11
152.045134112897
 21
256.546744822755
 31
0.0
  0
LINE
  5
A92
330
1D
100
AcDbEntity
  8
0
100
AcDbLine
 10
151.558690889132
 20
256.575880015833
 30
0.0
 11
151.66616
 21
256.194
 31
0.0
  0
LINE
  5
A93
330
1D
100
AcDbEntity
  8
0
100
AcDbLine
 10
151.558690889132
 20
256.575880015833
 30
0.0
 11
151.66616
 21
256.194
 31
0.0
  0
LINE
  5
A94
330
1D
100
AcDbEntity
  8
0
100
AcDbLine
 10
151.6021
 20
256.422
 30
0.0
 11
151.80662
 21
255.696
 31
0.0
  0
LINE
  5
A95
330
1D
100
AcDbEntity
  8
0
100
AcDbLine
 10
151.6021
 20
256.422
 30
0.0
 11
152.045134112897
 21
256.546744822755
 31
0.0
  0
LINE
  5
A96
330
1D
100
AcDbEntity
  8
0
100
AcDbLine
 10
151.47431
 20
256.875
 30
0.0
 11
151.917392704256
 21
257.000008521636
 31
0.0
  0
LINE
  5
A97
330
1D
100
AcDbEntity
  8
0
100
AcDbLine
 10
151.47431
 20
256.875
 30
0.0
 11
151.558690889132
 21
256.575880015833
 31
0.0
  0
LINE
  5
A98
330
1D
100
AcDbEntity
  8
0
100
AcDbLine
 10
151.47431
 20
256.875
 30
0.0
 11
151.558690889132
 21
256.575880015833
 31
0.0
  0
LINE
  5
A99
330
1D
100
AcDbEntity
  8
0
100
AcDbLine
 10
151.47431
 20
256.875
 30
0.0
 11
151.6021
 21
256.422
 31
0.0
  0
LINE
  5
A9A
330
1D
100
AcDbEntity
  8
0
100
AcDbLine
 10
151.47431
 20
256.875
 30
0.0
 11
151.917392704256
 21
257.000008521636
 31
0.0
  0
LINE
  5
A9B
330
1D
100
AcDbEntity
  8
0
100
AcDbLine
 10
151.66616
 20
256.194
 30
0.0
 11
151.793680683366
 21
255.741931663779
 31
0.0
  0
LINE
  5
A9C
330
1D
100
AcDbEntity
  8
0
100
AcDbLine
 10
151.66616
 20
256.194
 30
0.0
 11
151.793680683366
 21
255.741931663779
 31
0.0
  0
LINE
  5
A9D
330
1D
100
AcDbEntity
  8
0
100
AcDbLine
 10
151.62796
 20
258.027
 30
0.0
 11
152.33337
 21
255.524
 31
0.0
  0
LINE
  5
A9E
330
1D
100
AcDbEntity
  8
0
100
AcDbLine
 10
151.72147
 20
258.331
 30
0.0
 11
152.44764
 21
255.755
 31
0.0
  0
LINE
  5
A9F
330
1D
100
AcDbEntity
  8
0
100
AcDbLine
 10
151.3309
 20
265.867
 30
0.0
 11
151.79186
 21
264.232
 31
0.0
  0
LINE
  5
AA0
330
1D
100
AcDbEntity
  8
0
100
AcDbLine
 10
151.173811
 20
266.424
 30
0.0
 11
151.7886
 21
267.637
 31
0.0
  0
LINE
  5
AA1
330
1D
100
AcDbEntity
  8
0
100
AcDbLine
 10
151.173811
 20
266.424
 30
0.0
 11
151.287072864984
 21
266.022400532207
 31
0.0
  0
LINE
  5
AA2
330
1D
100
AcDbEntity
  8
0
100
AcDbLine
 10
151.173811
 20
266.424
 30
0.0
 11
151.287072864984
 21
266.022400532207
 31
0.0
  0
LINE
  5
AA3
330
1D
100
AcDbEntity
  8
0
100
AcDbLine
 10
151.173811
 20
266.424
 30
0.0
 11
151.3309
 21
265.867
 31
0.0
  0
LINE
  5
AA4
330
1D
100
AcDbEntity
  8
0
100
AcDbLine
 10
154.32447
 20
246.764
 30
0.0
 11
154.767464077407
 21
246.888983517023
 31
0.0
  0
LINE
  5
AA5
330
1D
100
AcDbEntity
  8
0
100
AcDbLine
 10
154.32447
 20
246.764
 30
0.0
 11
154.767464077407
 21
246.888983517023
 31
0.0
  0
LINE
  5
AA6
330
1D
100
AcDbEntity
  8
0
100
AcDbLine
 10
154.11347
 20
247.512
 30
0.0
 11
154.23724
 21
247.073
 31
0.0
  0
LINE
  5
AA7
330
1D
100
AcDbEntity
  8
0
100
AcDbLine
 10
154.011899999993
 20
247.872959513006
 30
0.0
 11
154.19668
 21
247.217
 31
0.0
  0
LINE
  5
AA8
330
1D
100
AcDbEntity
  8
0
100
AcDbLine
 10
154.011899999993
 20
247.872959513006
 30
0.0
 11
154.19668
 21
247.217
 31
0.0
  0
LINE
  5
AA9
330
1D
100
AcDbEntity
  8
0
100
AcDbLine
 10
153.92811
 20
248.17
 30
0.0
 11
154.13262
 21
247.445
 31
0.0
  0
LINE
  5
AAA
330
1D
100
AcDbEntity
  8
0
100
AcDbLine
 10
153.92811
 20
248.17
 30
0.0
 11
154.371092197945
 21
248.294980165427
 31
0.0
  0
LINE
  5
AAB
330
1D
100
AcDbEntity
  8
0
100
AcDbLine
 10
153.92811
 20
248.17
 30
0.0
 11
154.371092197945
 21
248.294980165427
 31
0.0
  0
LINE
  5
AAC
330
1D
100
AcDbEntity
  8
0
100
AcDbLine
 10
153.76076
 20
248.764
 30
0.0
 11
153.84216
 21
248.475
 31
0.0
  0
LINE
  5
AAD
330
1D
100
AcDbEntity
  8
0
100
AcDbLine
 10
153.76076
 20
248.764
 30
0.0
 11
154.203707748849
 21
248.888720505288
 31
0.0
  0
LINE
  5
AAE
330
1D
100
AcDbEntity
  8
0
100
AcDbLine
 10
153.80032
 20
248.623
 30
0.0
 11
153.92811
 21
248.17
 31
0.0
  0
LINE
  5
AAF
330
1D
100
AcDbEntity
  8
0
100
AcDbLine
 10
153.83906235638
 20
248.485663060958
 30
0.0
 11
153.9083
 21
248.24
 31
0.0
  0
LINE
  5
AB0
330
1D
100
AcDbEntity
  8
0
100
AcDbLine
 10
153.71838
 20
248.914
 30
0.0
 11
153.74286
 21
248.827
 31
0.0
  0
LINE
  5
AB1
330
1D
100
AcDbEntity
  8
0
100
AcDbLine
 10
153.74286
 20
248.827
 30
0.0
 11
153.80035272965
 21
248.623009234134
 31
0.0
  0
LINE
  5
AB2
330
1D
100
AcDbEntity
  8
0
100
AcDbLine
 10
153.84216
 20
248.475
 30
0.0
 11
154.285110382175
 21
248.599971894305
 31
0.0
  0
LINE
  5
AB3
330
1D
100
AcDbEntity
  8
0
100
AcDbLine
 10
153.83906235638
 20
248.485663060958
 30
0.0
 11
153.9083
 21
248.24
 31
0.0
  0
LINE
  5
AB4
330
1D
100
AcDbEntity
  8
0
100
AcDbLine
 10
153.9083
 20
248.24
 30
0.0
 11
154.11347
 21
247.512
 31
0.0
  0
LINE
  5
AB5
330
1D
100
AcDbEntity
  8
0
100
AcDbLine
 10
154.19668
 20
247.217
 30
0.0
 11
154.240089110869
 21
247.063119984163
 31
0.0
  0
LINE
  5
AB6
330
1D
100
AcDbEntity
  8
0
100
AcDbLine
 10
154.19668
 20
247.217
 30
0.0
 11
154.240089110869
 21
247.063119984163
 31
0.0
  0
LINE
  5
AB7
330
1D
100
AcDbEntity
  8
0
100
AcDbLine
 10
154.13262
 20
247.445
 30
0.0
 11
154.295
 21
246.868
 31
0.0
  0
LINE
  5
AB8
330
1D
100
AcDbEntity
  8
0
100
AcDbLine
 10
154.13262
 20
247.445
 30
0.0
 11
154.575554962457
 21
247.569716905032
 31
0.0
  0
LINE
  5
AB9
330
1D
100
AcDbEntity
  8
0
100
AcDbLine
 10
154.295
 20
246.868
 30
0.0
 11
154.32447
 21
246.764
 31
0.0
  0
LINE
  5
ABA
330
1D
100
AcDbEntity
  8
0
100
AcDbLine
 10
154.295
 20
246.868
 30
0.0
 11
154.738133780969
 21
246.993022932093
 31
0.0
  0
LINE
  5
ABB
330
1D
100
AcDbEntity
  8
0
100
AcDbLine
 10
154.11347
 20
247.512
 30
0.0
 11
154.23724
 21
247.073
 31
0.0
  0
LINE
  5
ABC
330
1D
100
AcDbEntity
  8
0
100
AcDbLine
 10
154.324478328949
 20
246.764002349876
 30
0.0
 11
154.38478
 21
246.55
 31
0.0
  0
LINE
  5
ABD
330
1D
100
AcDbEntity
  8
0
100
AcDbLine
 10
154.64519
 20
245.626
 30
0.0
 11
154.72194
 21
245.354
 31
0.0
  0
LINE
  5
ABE
330
1D
100
AcDbEntity
  8
0
100
AcDbLine
 10
154.8281
 20
244.977
 30
0.0
 11
154.99355
 21
244.39
 31
0.0
  0
LINE
  5
ABF
330
1D
100
AcDbEntity
  8
0
100
AcDbLine
 10
154.8281
 20
244.977
 30
0.0
 11
155.271250068564
 21
245.102027527371
 31
0.0
  0
LINE
  5
AC0
330
1D
100
AcDbEntity
  8
0
100
AcDbLine
 10
154.80363
 20
245.064
 30
0.0
 11
154.8281
 21
244.977
 31
0.0
  0
LINE
  5
AC1
330
1D
100
AcDbEntity
  8
0
100
AcDbLine
 10
154.80363
 20
245.064
 30
0.0
 11
155.246726680926
 21
245.189012464924
 31
0.0
  0
LINE
  5
AC2
330
1D
100
AcDbEntity
  8
0
100
AcDbLine
 10
154.72194
 20
245.354
 30
0.0
 11
154.80363368645
 21
245.064001040072
 31
0.0
  0
LINE
  5
AC3
330
1D
100
AcDbEntity
  8
0
100
AcDbLine
 10
154.72194
 20
245.354
 30
0.0
 11
155.165038263542
 21
245.47876288561
 31
0.0
  0
LINE
  5
AC4
330
1D
100
AcDbEntity
  8
0
100
AcDbLine
 10
154.72194
 20
245.354
 30
0.0
 11
155.165038263542
 21
245.47876288561
 31
0.0
  0
LINE
  5
AC5
330
1D
100
AcDbEntity
  8
0
100
AcDbLine
 10
154.65609
 20
245.588
 30
0.0
 11
155.099076275336
 21
245.712731353165
 31
0.0
  0
LINE
  5
AC6
330
1D
100
AcDbEntity
  8
0
100
AcDbLine
 10
154.5747
 20
245.876
 30
0.0
 11
154.65609
 21
245.588
 31
0.0
  0
LINE
  5
AC7
330
1D
100
AcDbEntity
  8
0
100
AcDbLine
 10
154.5747
 20
245.876
 30
0.0
 11
155.017801512385
 21
246.001014533457
 31
0.0
  0
LINE
  5
AC8
330
1D
100
AcDbEntity
  8
0
100
AcDbLine
 10
154.38478
 20
246.55
 30
0.0
 11
154.5747
 21
245.876
 31
0.0
  0
LINE
  5
AC9
330
1D
100
AcDbEntity
  8
0
100
AcDbLine
 10
154.38478
 20
246.55
 30
0.0
 11
154.827792474991
 21
246.6749887076
 31
0.0
  0
LINE
  5
ACA
330
1D
100
AcDbEntity
  8
0
100
AcDbLine
 10
153.57085
 20
249.437
 30
0.0
 11
153.718428501198
 21
248.914013683818
 31
0.0
  0
LINE
  5
ACB
330
1D
100
AcDbEntity
  8
0
100
AcDbLine
 10
153.57085
 20
249.437
 30
0.0
 11
153.76076
 21
248.764
 31
0.0
  0
LINE
  5
ACC
330
1D
100
AcDbEntity
  8
0
100
AcDbLine
 10
153.57085
 20
249.437
 30
0.0
 11
154.0139
 21
249.562
 31
0.0
  0
LINE
  5
ACD
330
1D
100
AcDbEntity
  8
0
100
AcDbLine
 10
155.053421595328
 20
244.177840466936
 30
0.0
 11
155.13257
 21
243.897
 31
0.0
  0
LINE
  5
ACE
330
1D
100
AcDbEntity
  8
0
100
AcDbLine
 10
155.053421595328
 20
244.177840466936
 30
0.0
 11
155.13257
 21
243.897
 31
0.0
  0
LINE
  5
ACF
330
1D
100
AcDbEntity
  8
0
100
AcDbLine
 10
154.99355
 20
244.39
 30
0.0
 11
155.053421595328
 21
244.177840466936
 31
0.0
  0
LINE
  5
AD0
330
1D
100
AcDbEntity
  8
0
100
AcDbLine
 10
154.99355
 20
244.39
 30
0.0
 11
155.19871
 21
243.663
 31
0.0
  0
LINE
  5
AD1
330
1D
100
AcDbEntity
  8
0
100
AcDbLine
 10
154.99355
 20
244.39
 30
0.0
 11
155.436738092853
 21
244.515038255301
 31
0.0
  0
LINE
  5
AD2
330
1D
100
AcDbEntity
  8
0
100
AcDbLine
 10
154.8853
 20
246.471
 30
0.0
 11
155.69443
 21
243.601
 31
0.0
  0
LINE
  5
AD3
330
1D
100
AcDbEntity
  8
0
100
AcDbLine
 10
154.0139
 20
249.562
 30
0.0
 11
154.8853
 21
246.471
 31
0.0
  0
LINE
  5
AD4
330
1D
100
AcDbEntity
  8
0
100
AcDbLine
 10
155.429492847531
 20
242.843926621808
 30
0.0
 11
155.47553
 21
242.68
 31
0.0
  0
LINE
  5
AD5
330
1D
100
AcDbEntity
  8
0
100
AcDbLine
 10
155.47553
 20
242.68
 30
0.0
 11
155.63791
 21
242.104
 31
0.0
  0
LINE
  5
AD6
330
1D
100
AcDbEntity
  8
0
100
AcDbLine
 10
155.429492847531
 20
242.843926621808
 30
0.0
 11
155.47553
 21
242.68
 31
0.0
  0
LINE
  5
AD7
330
1D
100
AcDbEntity
  8
0
100
AcDbLine
 10
155.55007929966
 20
242.415914349202
 30
0.0
 11
155.63791
 21
242.104
 31
0.0
  0
LINE
  5
AD8
330
1D
100
AcDbEntity
  8
0
100
AcDbLine
 10
155.66738
 20
242.0
 30
0.0
 11
156.110472016411
 21
242.1247618306
 31
0.0
  0
LINE
  5
AD9
330
1D
100
AcDbEntity
  8
0
100
AcDbLine
 10
155.63791
 20
242.104
 30
0.0
 11
155.66738
 21
242.0
 31
0.0
  0
LINE
  5
ADA
330
1D
100
AcDbEntity
  8
0
100
AcDbLine
 10
155.55007929966
 20
242.415914349202
 30
0.0
 11
155.63791
 21
242.104
 31
0.0
  0
LINE
  5
ADB
330
1D
100
AcDbEntity
  8
0
100
AcDbLine
 10
155.53962
 20
242.453
 30
0.0
 11
155.66738
 21
242.0
 31
0.0
  0
LINE
  5
ADC
330
1D
100
AcDbEntity
  8
0
100
AcDbLine
 10
155.53962
 20
242.453
 30
0.0
 11
155.982732808542
 21
242.578017720501
 31
0.0
  0
LINE
  5
ADD
330
1D
100
AcDbEntity
  8
0
100
AcDbLine
 10
155.19871
 20
243.663
 30
0.0
 11
155.32249
 21
243.223
 31
0.0
  0
LINE
  5
ADE
330
1D
100
AcDbEntity
  8
0
100
AcDbLine
 10
155.19871
 20
243.663
 30
0.0
 11
155.641778865508
 21
243.787754608025
 31
0.0
  0
LINE
  5
ADF
330
1D
100
AcDbEntity
  8
0
100
AcDbLine
 10
155.32249
 20
243.223
 30
0.0
 11
155.765717792845
 21
243.34805016162
 31
0.0
  0
LINE
  5
AE0
330
1D
100
AcDbEntity
  8
0
100
AcDbLine
 10
155.285893155334
 20
243.353090577257
 30
0.0
 11
155.32249
 21
243.223
 31
0.0
  0
LINE
  5
AE1
330
1D
100
AcDbEntity
  8
0
100
AcDbLine
 10
155.285893155334
 20
243.353090577257
 30
0.0
 11
155.32249
 21
243.223
 31
0.0
  0
LINE
  5
AE2
330
1D
100
AcDbEntity
  8
0
100
AcDbLine
 10
155.13257
 20
243.897
 30
0.0
 11
155.285893155334
 21
243.353090577258
 31
0.0
  0
LINE
  5
AE3
330
1D
100
AcDbEntity
  8
0
100
AcDbLine
 10
155.13257
 20
243.897
 30
0.0
 11
155.285893155334
 21
243.353090577257
 31
0.0
  0
LINE
  5
AE4
330
1D
100
AcDbEntity
  8
0
100
AcDbLine
 10
155.14326
 20
243.859
 30
0.0
 11
155.187311620521
 21
243.702805697432
 31
0.0
  0
LINE
  5
AE5
330
1D
100
AcDbEntity
  8
0
100
AcDbLine
 10
155.14326
 20
243.859
 30
0.0
 11
155.174510393152
 21
243.748217678248
 31
0.0
  0
LINE
  5
AE6
330
1D
100
AcDbEntity
  8
0
100
AcDbLine
 10
155.14326
 20
243.859
 30
0.0
 11
155.187311620521
 21
243.702805697432
 31
0.0
  0
LINE
  5
AE7
330
1D
100
AcDbEntity
  8
0
100
AcDbLine
 10
155.322655005486
 20
243.223046553856
 30
0.0
 11
155.349899950095
 21
243.126463505921
 31
0.0
  0
LINE
  5
AE8
330
1D
100
AcDbEntity
  8
0
100
AcDbLine
 10
155.322640187562
 20
243.223042373198
 30
0.0
 11
155.356847601811
 21
243.101800904975
 31
0.0
  0
LINE
  5
AE9
330
1D
100
AcDbEntity
  8
0
100
AcDbLine
 10
155.322640187562
 20
243.223042373198
 30
0.0
 11
155.356847601811
 21
243.101800904975
 31
0.0
  0
LINE
  5
AEA
330
1D
100
AcDbEntity
  8
0
100
AcDbLine
 10
155.322564148321
 20
243.223020919851
 30
0.0
 11
155.47553
 21
242.68
 31
0.0
  0
LINE
  5
AEB
330
1D
100
AcDbEntity
  8
0
100
AcDbLine
 10
155.3351
 20
243.179
 30
0.0
 11
155.53962
 21
242.453
 31
0.0
  0
LINE
  5
AEC
330
1D
100
AcDbEntity
  8
0
100
AcDbLine
 10
155.3351
 20
243.179
 30
0.0
 11
155.778199029458
 21
243.303763101269
 31
0.0
  0
LINE
  5
AED
330
1D
100
AcDbEntity
  8
0
100
AcDbLine
 10
155.07217
 20
246.444
 30
0.0
 11
155.91245
 21
243.463
 31
0.0
  0
LINE
  5
AEE
330
1D
100
AcDbEntity
  8
0
100
AcDbLine
 10
152.90445
 20
251.802
 30
0.0
 11
152.92892
 21
251.715
 31
0.0
  0
LINE
  5
AEF
330
1D
100
AcDbEntity
  8
0
100
AcDbLine
 10
152.90445
 20
251.802
 30
0.0
 11
153.02822
 21
251.362
 31
0.0
  0
LINE
  5
AF0
330
1D
100
AcDbEntity
  8
0
100
AcDbLine
 10
152.90445
 20
251.802
 30
0.0
 11
153.347459927422
 21
251.926738012867
 31
0.0
  0
LINE
  5
AF1
330
1D
100
AcDbEntity
  8
0
100
AcDbLine
 10
152.826298723702
 20
252.07874894811
 30
0.0
 11
152.84671
 21
252.006
 31
0.0
  0
LINE
  5
AF2
330
1D
100
AcDbEntity
  8
0
100
AcDbLine
 10
152.84671
 20
252.006
 30
0.0
 11
152.988611810099
 21
251.502640949521
 31
0.0
  0
LINE
  5
AF3
330
1D
100
AcDbEntity
  8
0
100
AcDbLine
 10
152.84671
 20
252.006
 30
0.0
 11
152.988611810099
 21
251.502640949521
 31
0.0
  0
LINE
  5
AF4
330
1D
100
AcDbEntity
  8
0
100
AcDbLine
 10
152.826298723702
 20
252.07874894811
 30
0.0
 11
152.84671
 21
252.006
 31
0.0
  0
LINE
  5
AF5
330
1D
100
AcDbEntity
  8
0
100
AcDbLine
 10
152.75691
 20
252.325
 30
0.0
 11
152.94683
 21
251.651
 31
0.0
  0
LINE
  5
AF6
330
1D
100
AcDbEntity
  8
0
100
AcDbLine
 10
152.75691
 20
252.325
 30
0.0
 11
153.199989927825
 21
252.450007738311
 31
0.0
  0
LINE
  5
AF7
330
1D
100
AcDbEntity
  8
0
100
AcDbLine
 10
153.172854999056
 20
250.849499905866
 30
0.0
 11
153.29953
 21
250.4
 31
0.0
  0
LINE
  5
AF8
330
1D
100
AcDbEntity
  8
0
100
AcDbLine
 10
153.172854999056
 20
250.849499905866
 30
0.0
 11
153.29953
 21
250.4
 31
0.0
  0
LINE
  5
AF9
330
1D
100
AcDbEntity
  8
0
100
AcDbLine
 10
153.23339
 20
250.635
 30
0.0
 11
153.299626688471
 21
250.400027279067
 31
0.0
  0
LINE
  5
AFA
330
1D
100
AcDbEntity
  8
0
100
AcDbLine
 10
153.23339
 20
250.635
 30
0.0
 11
153.67635219709
 21
250.759725277253
 31
0.0
  0
LINE
  5
AFB
330
1D
100
AcDbEntity
  8
0
100
AcDbLine
 10
153.23339
 20
250.635
 30
0.0
 11
153.67635219709
 21
250.759725277253
 31
0.0
  0
LINE
  5
AFC
330
1D
100
AcDbEntity
  8
0
100
AcDbLine
 10
153.02822
 20
251.362
 30
0.0
 11
153.172854999056
 21
250.849499905866
 31
0.0
  0
LINE
  5
AFD
330
1D
100
AcDbEntity
  8
0
100
AcDbLine
 10
153.02822
 20
251.362
 30
0.0
 11
153.23339
 21
250.635
 31
0.0
  0
LINE
  5
AFE
330
1D
100
AcDbEntity
  8
0
100
AcDbLine
 10
153.02822
 20
251.362
 30
0.0
 11
153.471380123131
 21
251.487030364102
 31
0.0
  0
LINE
  5
AFF
330
1D
100
AcDbEntity
  8
0
100
AcDbLine
 10
153.02822
 20
251.362
 30
0.0
 11
153.471380123131
 21
251.487030364102
 31
0.0
  0
LINE
  5
B00
330
1D
100
AcDbEntity
  8
0
100
AcDbLine
 10
153.126024503701
 20
251.01543922508
 30
0.0
 11
153.14953
 21
250.932
 31
0.0
  0
LINE
  5
B01
330
1D
100
AcDbEntity
  8
0
100
AcDbLine
 10
153.126024503701
 20
251.01543922508
 30
0.0
 11
153.14953
 21
250.932
 31
0.0
  0
LINE
  5
B02
330
1D
100
AcDbEntity
  8
0
100
AcDbLine
 10
153.14953
 20
250.932
 30
0.0
 11
153.31191
 21
250.356
 31
0.0
  0
LINE
  5
B03
330
1D
100
AcDbEntity
  8
0
100
AcDbLine
 10
152.94683
 20
251.651
 30
0.0
 11
153.02822
 21
251.362
 31
0.0
  0
LINE
  5
B04
330
1D
100
AcDbEntity
  8
0
100
AcDbLine
 10
152.49651
 20
253.249
 30
0.0
 11
152.939581461008
 21
253.373756042796
 31
0.0
  0
LINE
  5
B05
330
1D
100
AcDbEntity
  8
0
100
AcDbLine
 10
152.49651
 20
253.249
 30
0.0
 11
152.939581461008
 21
253.373756042796
 31
0.0
  0
LINE
  5
B06
330
1D
100
AcDbEntity
  8
0
100
AcDbLine
 10
152.31362
 20
253.898
 30
0.0
 11
152.33806
 21
253.811
 31
0.0
  0
LINE
  5
B07
330
1D
100
AcDbEntity
  8
0
100
AcDbLine
 10
152.31362
 20
253.898
 30
0.0
 11
152.756616870024
 21
254.022735040143
 31
0.0
  0
LINE
  5
B08
330
1D
100
AcDbEntity
  8
0
100
AcDbLine
 10
152.31362
 20
253.898
 30
0.0
 11
152.756616870024
 21
254.022735040143
 31
0.0
  0
LINE
  5
B09
330
1D
100
AcDbEntity
  8
0
100
AcDbLine
 10
152.21429
 20
254.25
 30
0.0
 11
152.33806
 21
253.811
 31
0.0
  0
LINE
  5
B0A
330
1D
100
AcDbEntity
  8
0
100
AcDbLine
 10
152.41978
 20
253.521
 30
0.0
 11
152.49651
 21
253.249
 31
0.0
  0
LINE
  5
B0B
330
1D
100
AcDbEntity
  8
0
100
AcDbLine
 10
152.41978
 20
253.521
 30
0.0
 11
152.862894171471
 21
253.645767364796
 31
0.0
  0
LINE
  5
B0C
330
1D
100
AcDbEntity
  8
0
100
AcDbLine
 10
152.41978
 20
253.521
 30
0.0
 11
152.862894171471
 21
253.645767364796
 31
0.0
  0
LINE
  5
B0D
330
1D
100
AcDbEntity
  8
0
100
AcDbLine
 10
152.33808410831
 20
253.811006788161
 30
0.0
 11
152.41978
 21
253.521
 31
0.0
  0
LINE
  5
B0E
330
1D
100
AcDbEntity
  8
0
100
AcDbLine
 10
152.33806
 20
253.811
 30
0.0
 11
152.781138243052
 21
253.935757248454
 31
0.0
  0
LINE
  5
B0F
330
1D
100
AcDbEntity
  8
0
100
AcDbLine
 10
152.4856
 20
253.287
 30
0.0
 11
152.56699
 21
252.999
 31
0.0
  0
LINE
  5
B10
330
1D
100
AcDbEntity
  8
0
100
AcDbLine
 10
152.56699
 20
252.999
 30
0.0
 11
152.75691
 21
252.325
 31
0.0
  0
LINE
  5
B11
330
1D
100
AcDbEntity
  8
0
100
AcDbLine
 10
152.56699
 20
252.999
 30
0.0
 11
153.010063226631
 21
253.123755835984
 31
0.0
  0
LINE
  5
B12
330
1D
100
AcDbEntity
  8
0
100
AcDbLine
 10
152.56699
 20
252.999
 30
0.0
 11
153.010063226631
 21
253.123755835984
 31
0.0
  0
LINE
  5
B13
330
1D
100
AcDbEntity
  8
0
100
AcDbLine
 10
153.1425
 20
252.654
 30
0.0
 11
154.0139
 21
249.562
 31
0.0
  0
LINE
  5
B14
330
1D
100
AcDbEntity
  8
0
100
AcDbLine
 10
153.29953
 20
250.4
 30
0.0
 11
153.38093
 21
250.111
 31
0.0
  0
LINE
  5
B15
330
1D
100
AcDbEntity
  8
0
100
AcDbLine
 10
153.29953
 20
250.4
 30
0.0
 11
153.742509252278
 21
250.524979334356
 31
0.0
  0
LINE
  5
B16
330
1D
100
AcDbEntity
  8
0
100
AcDbLine
 10
153.38093
 20
250.111
 30
0.0
 11
153.57085
 21
249.437
 31
0.0
  0
LINE
  5
B17
330
1D
100
AcDbEntity
  8
0
100
AcDbLine
 10
153.38093
 20
250.111
 30
0.0
 11
153.823952933074
 21
250.235991658177
 31
0.0
  0
LINE
  5
B18
330
1D
100
AcDbEntity
  8
0
100
AcDbLine
 10
153.28792
 20
252.774
 30
0.0
 11
154.18005
 21
249.609
 31
0.0
  0
LINE
  5
B19
330
1D
100
AcDbEntity
  8
0
100
AcDbLine
 10
154.18005
 20
249.609
 30
0.0
 11
155.07217
 21
246.444
 31
0.0
  0
LINE
  5
B1A
330
1D
100
AcDbEntity
  8
0
100
AcDbLine
 10
156.82658
 20
237.888
 30
0.0
 11
157.269668083291
 21
238.012760019164
 31
0.0
  0
LINE
  5
B1B
330
1D
100
AcDbEntity
  8
0
100
AcDbLine
 10
156.74519
 20
238.176
 30
0.0
 11
156.82658
 21
237.888
 31
0.0
  0
LINE
  5
B1C
330
1D
100
AcDbEntity
  8
0
100
AcDbLine
 10
156.74519
 20
238.176
 30
0.0
 11
157.188373359171
 21
238.30103691977
 31
0.0
  0
LINE
  5
B1D
330
1D
100
AcDbEntity
  8
0
100
AcDbLine
 10
156.74519
 20
238.176
 30
0.0
 11
157.188373359171
 21
238.30103691977
 31
0.0
  0
LINE
  5
B1E
330
1D
100
AcDbEntity
  8
0
100
AcDbLine
 10
156.55527
 20
238.85
 30
0.0
 11
156.74519
 21
238.176
 31
0.0
  0
LINE
  5
B1F
330
1D
100
AcDbEntity
  8
0
100
AcDbLine
 10
156.55527
 20
238.85
 30
0.0
 11
156.998286563948
 21
238.974989861232
 31
0.0
  0
LINE
  5
B20
330
1D
100
AcDbEntity
  8
0
100
AcDbLine
 10
157.38535
 20
237.602
 30
0.0
 11
157.65522
 21
237.281
 31
0.0
  0
LINE
  5
B21
330
1D
100
AcDbEntity
  8
0
100
AcDbLine
 10
156.3904
 20
239.435
 30
0.0
 11
156.41487
 21
239.348
 31
0.0
  0
LINE
  5
B22
330
1D
100
AcDbEntity
  8
0
100
AcDbLine
 10
156.3904
 20
239.435
 30
0.0
 11
156.833355397437
 21
239.559973309287
 31
0.0
  0
LINE
  5
B23
330
1D
100
AcDbEntity
  8
0
100
AcDbLine
 10
156.41487
 20
239.348
 30
0.0
 11
156.857873961201
 21
239.472986305573
 31
0.0
  0
LINE
  5
B24
330
1D
100
AcDbEntity
  8
0
100
AcDbLine
 10
156.01979
 20
240.75
 30
0.0
 11
156.22495
 21
240.022
 31
0.0
  0
LINE
  5
B25
330
1D
100
AcDbEntity
  8
0
100
AcDbLine
 10
156.01979
 20
240.75
 30
0.0
 11
156.462771709185
 21
240.874730771292
 31
0.0
  0
LINE
  5
B26
330
1D
100
AcDbEntity
  8
0
100
AcDbLine
 10
156.22495
 20
240.022
 30
0.0
 11
156.3904
 21
239.435
 31
0.0
  0
LINE
  5
B27
330
1D
100
AcDbEntity
  8
0
100
AcDbLine
 10
156.22495
 20
240.022
 30
0.0
 11
156.667966622072
 21
240.146739897876
 31
0.0
  0
LINE
  5
B28
330
1D
100
AcDbEntity
  8
0
100
AcDbLine
 10
156.08593
 20
240.515
 30
0.0
 11
156.2911
 21
239.787
 31
0.0
  0
LINE
  5
B29
330
1D
100
AcDbEntity
  8
0
100
AcDbLine
 10
155.92049
 20
241.102
 30
0.0
 11
156.08593
 21
240.515
 31
0.0
  0
LINE
  5
B2A
330
1D
100
AcDbEntity
  8
0
100
AcDbLine
 10
155.89601
 20
241.189
 30
0.0
 11
155.92049
 21
241.102
 31
0.0
  0
LINE
  5
B2B
330
1D
100
AcDbEntity
  8
0
100
AcDbLine
 10
155.89601
 20
241.189
 30
0.0
 11
156.339038023961
 21
241.313743108298
 31
0.0
  0
LINE
  5
B2C
330
1D
100
AcDbEntity
  8
0
100
AcDbLine
 10
155.89601
 20
241.189
 30
0.0
 11
156.01979
 21
240.75
 31
0.0
  0
LINE
  5
B2D
330
1D
100
AcDbEntity
  8
0
100
AcDbLine
 10
156.2911
 20
239.787
 30
0.0
 11
156.41487
 21
239.348
 31
0.0
  0
LINE
  5
B2E
330
1D
100
AcDbEntity
  8
0
100
AcDbLine
 10
156.414937951028
 20
239.348019171269
 30
0.0
 11
156.55527
 21
238.85
 31
0.0
  0
LINE
  5
B2F
330
1D
100
AcDbEntity
  8
0
100
AcDbLine
 10
155.91245
 20
243.463
 30
0.0
 11
156.63862
 21
240.887
 31
0.0
  0
LINE
  5
B30
330
1D
100
AcDbEntity
  8
0
100
AcDbLine
 10
156.9289
 20
239.221
 30
0.0
 11
157.26087
 21
238.044
 31
0.0
  0
LINE
  5
B31
330
1D
100
AcDbEntity
  8
0
100
AcDbLine
 10
156.63862
 20
240.887
 30
0.0
 11
157.18843
 21
238.937
 31
0.0
  0
LINE
  5
B32
330
1D
100
AcDbEntity
  8
0
100
AcDbLine
 10
157.18843
 20
238.937
 30
0.0
 11
157.53074
 21
237.722
 31
0.0
  0
LINE
  5
B33
330
1D
100
AcDbEntity
  8
0
100
AcDbLine
 10
157.53074
 20
237.722
 30
0.0
 11
157.65522
 21
237.281
 31
0.0
  0
LINE
  5
B34
330
1D
100
AcDbEntity
  8
0
100
AcDbLine
 10
157.65522
 20
237.281
 30
0.0
 11
158.03939
 21
237.19
 31
0.0
  0
LINE
  5
B35
330
1D
100
AcDbEntity
  8
0
100
AcDbLine
 10
158.03939
 20
237.19
 30
0.0
 11
158.369884833313
 21
237.283493861671
 31
0.0
  0
LINE
  5
B36
330
1D
100
AcDbEntity
  8
0
100
AcDbLine
 10
157.93625
 20
245.827
 30
0.0
 11
159.11401
 21
241.649
 31
0.0
  0
LINE
  5
B37
330
1D
100
AcDbEntity
  8
0
100
AcDbLine
 10
158.369884833313
 20
237.283493861671
 30
0.0
 11
158.97693
 21
235.99
 31
0.0
  0
LINE
  5
B38
330
1D
100
AcDbEntity
  8
0
100
AcDbLine
 10
158.97693
 20
235.99
 30
0.0
 11
159.5846
 21
234.941
 31
0.0
  0
LINE
  5
B39
330
1D
100
AcDbEntity
  8
0
100
AcDbLine
 10
158.09225
 20
241.881
 30
0.0
 11
159.04754
 21
238.492
 31
0.0
  0
LINE
  5
B3A
330
1D
100
AcDbEntity
  8
0
100
AcDbLine
 10
156.67221
 20
250.312
 30
0.0
 11
157.93625
 21
245.827
 31
0.0
  0
LINE
  5
B3B
330
1D
100
AcDbEntity
  8
0
100
AcDbLine
 10
156.97988
 20
245.827
 30
0.0
 11
158.09225
 21
241.881
 31
0.0
  0
LINE
  5
B3C
330
1D
100
AcDbEntity
  8
0
100
AcDbLine
 10
155.78611
 20
250.062
 30
0.0
 11
156.97988
 21
245.827
 31
0.0
  0
LINE
  5
B3D
330
1D
100
AcDbEntity
  8
0
100
AcDbLine
 10
151.8192
 20
255.652
 30
0.0
 11
151.94298
 21
255.212
 31
0.0
  0
LINE
  5
B3E
330
1D
100
AcDbEntity
  8
0
100
AcDbLine
 10
151.8192
 20
255.652
 30
0.0
 11
152.26214690602
 21
255.776720267973
 31
0.0
  0
LINE
  5
B3F
330
1D
100
AcDbEntity
  8
0
100
AcDbLine
 10
151.80662
 20
255.696
 30
0.0
 11
151.902886905016
 21
255.354518676628
 31
0.0
  0
LINE
  5
B40
330
1D
100
AcDbEntity
  8
0
100
AcDbLine
 10
151.80662
 20
255.696
 30
0.0
 11
152.249667901571
 21
255.820999407959
 31
0.0
  0
LINE
  5
B41
330
1D
100
AcDbEntity
  8
0
100
AcDbLine
 10
151.80662
 20
255.696
 30
0.0
 11
151.902886905016
 21
255.354518676628
 31
0.0
  0
LINE
  5
B42
330
1D
100
AcDbEntity
  8
0
100
AcDbLine
 10
151.80662
 20
255.696
 30
0.0
 11
152.249667901571
 21
255.820999407959
 31
0.0
  0
LINE
  5
B43
330
1D
100
AcDbEntity
  8
0
100
AcDbLine
 10
151.902886905016
 20
255.354518676628
 30
0.0
 11
151.94298
 21
255.212
 31
0.0
  0
LINE
  5
B44
330
1D
100
AcDbEntity
  8
0
100
AcDbLine
 10
152.03609
 20
254.882
 30
0.0
 11
152.114961666663
 21
254.602444444459
 31
0.0
  0
LINE
  5
B45
330
1D
100
AcDbEntity
  8
0
100
AcDbLine
 10
152.03609
 20
254.882
 30
0.0
 11
152.114961666663
 21
254.602444444459
 31
0.0
  0
LINE
  5
B46
330
1D
100
AcDbEntity
  8
0
100
AcDbLine
 10
151.95934
 20
255.154
 30
0.0
 11
152.03609
 21
254.882
 31
0.0
  0
LINE
  5
B47
330
1D
100
AcDbEntity
  8
0
100
AcDbLine
 10
152.088268404666
 20
254.697159533084
 30
0.0
 11
152.21429
 21
254.25
 31
0.0
  0
LINE
  5
B48
330
1D
100
AcDbEntity
  8
0
100
AcDbLine
 10
152.14814
 20
254.485
 30
0.0
 11
152.31362
 21
253.898
 31
0.0
  0
LINE
  5
B49
330
1D
100
AcDbEntity
  8
0
100
AcDbLine
 10
152.14814
 20
254.485
 30
0.0
 11
152.591126817652
 21
254.609731505864
 31
0.0
  0
LINE
  5
B4A
330
1D
100
AcDbEntity
  8
0
100
AcDbLine
 10
152.14814
 20
254.485
 30
0.0
 11
152.591126817652
 21
254.609731505864
 31
0.0
  0
LINE
  5
B4B
330
1D
100
AcDbEntity
  8
0
100
AcDbLine
 10
152.114961666663
 20
254.602444444459
 30
0.0
 11
152.21429
 21
254.25
 31
0.0
  0
LINE
  5
B4C
330
1D
100
AcDbEntity
  8
0
100
AcDbLine
 10
152.114961666663
 20
254.602444444459
 30
0.0
 11
152.21429
 21
254.25
 31
0.0
  0
LINE
  5
B4D
330
1D
100
AcDbEntity
  8
0
100
AcDbLine
 10
151.94298
 20
255.212
 30
0.0
 11
151.95934708386
 21
255.154001998606
 31
0.0
  0
LINE
  5
B4E
330
1D
100
AcDbEntity
  8
0
100
AcDbLine
 10
151.94298
 20
255.212
 30
0.0
 11
151.95934708386
 21
255.154001998606
 31
0.0
  0
LINE
  5
B4F
330
1D
100
AcDbEntity
  8
0
100
AcDbLine
 10
151.94298
 20
255.212
 30
0.0
 11
152.14814
 21
254.485
 31
0.0
  0
LINE
  5
B50
330
1D
100
AcDbEntity
  8
0
100
AcDbLine
 10
151.94298
 20
255.212
 30
0.0
 11
152.386085872863
 21
255.337015763701
 31
0.0
  0
LINE
  5
B51
330
1D
100
AcDbEntity
  8
0
100
AcDbLine
 10
151.902886905016
 20
255.354518676628
 30
0.0
 11
151.94298
 21
255.212
 31
0.0
  0
LINE
  5
B52
330
1D
100
AcDbEntity
  8
0
100
AcDbLine
 10
152.44764
 20
255.755
 30
0.0
 11
153.28792
 21
252.774
 31
0.0
  0
LINE
  5
B53
330
1D
100
AcDbEntity
  8
0
100
AcDbLine
 10
153.21895
 20
262.562
 30
0.0
 11
154.2304
 21
258.974
 31
0.0
  0
LINE
  5
B54
330
1D
100
AcDbEntity
  8
0
100
AcDbLine
 10
152.52467
 20
261.632
 30
0.0
 11
153.47996
 21
258.243
 31
0.0
  0
LINE
  5
B55
330
1D
100
AcDbEntity
  8
0
100
AcDbLine
 10
155.40817
 20
254.796
 30
0.0
 11
156.67221
 21
250.312
 31
0.0
  0
LINE
  5
B56
330
1D
100
AcDbEntity
  8
0
100
AcDbLine
 10
154.2304
 20
258.974
 30
0.0
 11
155.40817
 21
254.796
 31
0.0
  0
LINE
  5
B57
330
1D
100
AcDbEntity
  8
0
100
AcDbLine
 10
153.47996
 20
258.243
 30
0.0
 11
154.59234
 21
254.297
 31
0.0
  0
LINE
  5
B58
330
1D
100
AcDbEntity
  8
0
100
AcDbLine
 10
154.59234
 20
254.297
 30
0.0
 11
155.78611
 21
250.062
 31
0.0
  0
LINE
  5
B59
330
1D
100
AcDbEntity
  8
0
100
AcDbLine
 10
160.10115
 20
234.247
 30
0.0
 11
160.285244423794
 21
234.101194499979
 31
0.0
  0
LINE
  5
B5A
330
1D
100
AcDbEntity
  8
0
100
AcDbLine
 10
159.5846
 20
234.941
 30
0.0
 11
160.10115
 21
234.247
 31
0.0
  0
LINE
  5
B5B
330
1D
100
AcDbEntity
  8
0
100
AcDbLine
 10
159.78035
 20
235.892
 30
0.0
 11
160.2413
 21
234.257
 31
0.0
  0
LINE
  5
B5C
330
1D
100
AcDbEntity
  8
0
100
AcDbLine
 10
160.2413
 20
234.257
 30
0.0
 11
160.3984
 21
233.7
 31
0.0
  0
LINE
  5
B5D
330
1D
100
AcDbEntity
  8
0
100
AcDbLine
 10
160.9014
 20
235.308
 30
0.0
 11
161.3895
 21
233.577
 31
0.0
  0
LINE
  5
B5E
330
1D
100
AcDbEntity
  8
0
100
AcDbLine
 10
159.11401
 20
241.649
 30
0.0
 11
160.12546
 21
238.061
 31
0.0
  0
LINE
  5
B5F
330
1D
100
AcDbEntity
  8
0
100
AcDbLine
 10
160.12546
 20
238.061
 30
0.0
 11
160.9014
 21
235.308
 31
0.0
  0
LINE
  5
B60
330
1D
100
AcDbEntity
  8
0
100
AcDbLine
 10
159.04754
 20
238.492
 30
0.0
 11
159.78035
 21
235.892
 31
0.0
  0
LINE
  5
B61
330
1D
100
AcDbEntity
  8
0
100
AcDbLine
 10
151.95491
 20
267.047
 30
0.0
 11
152.443
 21
265.315
 31
0.0
  0
LINE
  5
B62
330
1D
100
AcDbEntity
  8
0
100
AcDbLine
 10
152.443
 20
265.315
 30
0.0
 11
153.21895
 21
262.562
 31
0.0
  0
LINE
  5
B63
330
1D
100
AcDbEntity
  8
0
100
AcDbLine
 10
151.79186
 20
264.232
 30
0.0
 11
152.52467
 21
261.632
 31
0.0
  0
LINE
  5
B64
330
1D
100
AcDbEntity
  8
0
100
AcDbLine
 10
151.7886
 20
267.637
 30
0.0
 11
163.0367
 21
271.846
 31
0.0
  0
LINE
  5
B65
330
1D
100
AcDbEntity
  8
0
100
AcDbLine
 10
151.7886
 20
267.637
 30
0.0
 11
151.95491
 21
267.047
 31
0.0
  0
LINE
  5
B66
330
1D
100
AcDbEntity
  8
0
100
AcDbLine
 10
160.3984
 20
233.7
 30
0.0
 11
161.5558
 21
232.987
 31
0.0
  0
LINE
  5
B67
330
1D
100
AcDbEntity
  8
0
100
AcDbLine
 10
171.6689
 20
206.177
 30
0.0
 11
179.5131
 21
175.156
 31
0.0
  0
LINE
  5
B68
330
1D
100
AcDbEntity
  8
0
100
AcDbLine
 10
171.4178
 20
207.17
 30
0.0
 11
171.6689
 21
206.177
 31
0.0
  0
LINE
  5
B69
330
1D
100
AcDbEntity
  8
0
100
AcDbLine
 10
171.1825
 20
208.1
 30
0.0
 11
171.4178
 21
207.17
 31
0.0
  0
LINE
  5
B6A
330
1D
100
AcDbEntity
  8
0
100
AcDbLine
 10
170.9746
 20
208.922
 30
0.0
 11
171.1825
 21
208.1
 31
0.0
  0
LINE
  5
B6B
330
1D
100
AcDbEntity
  8
0
100
AcDbLine
 10
170.8177
 20
209.543
 30
0.0
 11
170.9746
 21
208.922
 31
0.0
  0
LINE
  5
B6C
330
1D
100
AcDbEntity
  8
0
100
AcDbLine
 10
170.7236
 20
209.915
 30
0.0
 11
170.8177
 21
209.543
 31
0.0
  0
LINE
  5
B6D
330
1D
100
AcDbEntity
  8
0
100
AcDbLine
 10
170.6883
 20
210.055
 30
0.0
 11
170.7236
 21
209.915
 31
0.0
  0
LINE
  5
B6E
330
1D
100
AcDbEntity
  8
0
100
AcDbLine
 10
170.6883
 20
210.055
 30
0.0
 11
171.816669354072
 21
210.334535610374
 31
0.0
  0
LINE
  5
B6F
330
1D
100
AcDbEntity
  8
0
100
AcDbLine
 10
179.5131
 20
175.156
 30
0.0
 11
179.7642
 21
174.163
 31
0.0
  0
LINE
  5
B70
330
1D
100
AcDbEntity
  8
0
100
AcDbLine
 10
179.7642
 20
174.163
 30
0.0
 11
179.9994
 21
173.233
 31
0.0
  0
LINE
  5
B71
330
1D
100
AcDbEntity
  8
0
100
AcDbLine
 10
179.9994
 20
173.233
 30
0.0
 11
180.2074
 21
172.41
 31
0.0
  0
LINE
  5
B72
330
1D
100
AcDbEntity
  8
0
100
AcDbLine
 10
180.2074
 20
172.41
 30
0.0
 11
180.3643
 21
171.789
 31
0.0
  0
LINE
  5
B73
330
1D
100
AcDbEntity
  8
0
100
AcDbLine
 10
180.3643
 20
171.789
 30
0.0
 11
180.4585
 21
171.417
 31
0.0
  0
LINE
  5
B74
330
1D
100
AcDbEntity
  8
0
100
AcDbLine
 10
180.4938
 20
171.277
 30
0.0
 11
180.989554210093
 21
171.39981524238
 31
0.0
  0
LINE
  5
B75
330
1D
100
AcDbEntity
  8
0
100
AcDbLine
 10
180.4585
 20
171.417
 30
0.0
 11
180.4938
 21
171.277
 31
0.0
  0
LINE
  5
B76
330
1D
100
AcDbEntity
  8
0
100
AcDbLine
 10
161.5558
 20
232.987
 30
0.0
 11
165.781221072752
 21
233.805514738749
 31
0.0
  0
LINE
  5
B77
330
1D
100
AcDbEntity
  8
0
100
AcDbLine
 10
166.5041
 20
231.241
 30
0.0
 11
171.816669354072
 21
210.334535610374
 31
0.0
  0
LINE
  5
B78
330
1D
100
AcDbEntity
  8
0
100
AcDbLine
 10
180.986203480285
 20
171.415506527997
 30
0.0
 11
185.6951
 21
149.364
 31
0.0
  0
LINE
  5
B79
330
1D
100
AcDbEntity
  8
0
100
AcDbLine
 10
165.781221072752
 20
233.805514738749
 30
0.0
 11
166.5041
 21
231.241
 31
0.0
  0
LINE
  5
B7A
330
1D
100
AcDbEntity
  8
0
100
AcDbLine
 10
178.8872
 20
266.425
 30
0.0
 11
179.3126
 21
265.005
 31
0.0
  0
LINE
  5
B7B
330
1D
100
AcDbEntity
  8
0
100
AcDbLine
 10
178.3178
 20
268.104
 30
0.0
 11
178.8872
 21
266.425
 31
0.0
  0
LINE
  5
B7C
330
1D
100
AcDbEntity
  8
0
100
AcDbLine
 10
177.5758
 20
270.004
 30
0.0
 11
178.3178
 21
268.104
 31
0.0
  0
LINE
  5
B7D
330
1D
100
AcDbEntity
  8
0
100
AcDbLine
 10
176.8013
 20
271.775
 30
0.0
 11
177.5758
 21
270.004
 31
0.0
  0
LINE
  5
B7E
330
1D
100
AcDbEntity
  8
0
100
AcDbLine
 10
175.9679
 20
273.365
 30
0.0
 11
176.8013
 21
271.775
 31
0.0
  0
LINE
  5
B7F
330
1D
100
AcDbEntity
  8
0
100
AcDbLine
 10
175.1595
 20
274.572
 30
0.0
 11
175.9679
 21
273.365
 31
0.0
  0
LINE
  5
B80
330
1D
100
AcDbEntity
  8
0
100
AcDbLine
 10
174.4556
 20
275.361
 30
0.0
 11
175.1595
 21
274.572
 31
0.0
  0
LINE
  5
B81
330
1D
100
AcDbEntity
  8
0
100
AcDbLine
 10
173.8063
 20
275.761
 30
0.0
 11
174.4556
 21
275.361
 31
0.0
  0
LINE
  5
B82
330
1D
100
AcDbEntity
  8
0
100
AcDbLine
 10
173.3986
 20
275.806
 30
0.0
 11
173.8063
 21
275.761
 31
0.0
  0
LINE
  5
B83
330
1D
100
AcDbEntity
  8
0
100
AcDbLine
 10
163.0367
 20
271.846
 30
0.0
 11
173.3986
 21
275.806
 31
0.0
  0
LINE
  5
B84
330
1D
100
AcDbEntity
  8
0
100
AcDbLine
 10
181.4831
 20
257.306
 30
0.0
 11
185.4582
 21
242.046
 31
0.0
  0
LINE
  5
B85
330
1D
100
AcDbEntity
  8
0
100
AcDbLine
 10
180.9212
 20
259.299
 30
0.0
 11
181.4831
 21
257.306
 31
0.0
  0
LINE
  5
B86
330
1D
100
AcDbEntity
  8
0
100
AcDbLine
 10
185.4582
 20
242.046
 30
0.0
 11
186.8845
 21
236.986
 31
0.0
  0
LINE
  5
B87
330
1D
100
AcDbEntity
  8
0
100
AcDbLine
 10
186.8845
 20
236.986
 30
0.0
 11
193.504
 21
210.936
 31
0.0
  0
LINE
  5
B88
330
1D
100
AcDbEntity
  8
0
100
AcDbLine
 10
179.3867
 20
264.743
 30
0.0
 11
179.6035
 21
263.974
 31
0.0
  0
LINE
  5
B89
330
1D
100
AcDbEntity
  8
0
100
AcDbLine
 10
179.6035
 20
263.974
 30
0.0
 11
180.9212
 21
259.299
 31
0.0
  0
LINE
  5
B8A
330
1D
100
AcDbEntity
  8
0
100
AcDbLine
 10
179.3126
 20
265.005
 30
0.0
 11
179.3867
 21
264.743
 31
0.0
  0
LINE
  5
B8B
330
1D
100
AcDbEntity
  8
0
100
AcDbLine
 10
179.3126
 20
265.005
 30
0.0
 11
179.3867
 21
264.743
 31
0.0
  0
LINE
  5
B8C
330
1D
100
AcDbEntity
  8
0
100
AcDbLine
 10
161.5558
 20
232.987
 30
0.0
 11
165.781221072752
 21
233.805514738749
 31
0.0
  0
LINE
  5
B8D
330
1D
100
AcDbEntity
  8
0
100
AcDbLine
 10
161.3895
 20
233.577
 30
0.0
 11
161.5558
 21
232.987
 31
0.0
  0
LINE
  5
B8E
330
1D
100
AcDbEntity
  8
0
100
AcDbLine
 10
185.6951
 20
149.364
 30
0.0
 11
191.7262
 21
115.776
 31
0.0
  0
LINE
  5
B8F
330
1D
100
AcDbEntity
  8
0
100
AcDbLine
 10
201.315466677511
 20
86.592219585278
 30
0.0
 11
204.704428859207
 21
74.935847120066
 31
0.0
  0
LINE
  5
B90
330
1D
100
AcDbEntity
  8
0
100
AcDbLine
 10
201.2235
 20
86.5676
 30
0.0
 11
201.315466677511
 21
86.592219585278
 31
0.0
  0
LINE
  5
B91
330
1D
100
AcDbEntity
  8
0
100
AcDbLine
 10
192.1019
 20
115.882
 30
0.0
 11
193.2167
 21
116.196
 31
0.0
  0
LINE
  5
B92
330
1D
100
AcDbEntity
  8
0
100
AcDbLine
 10
193.2167
 20
116.196
 30
0.0
 11
194.6503
 21
116.6
 31
0.0
  0
LINE
  5
B93
330
1D
100
AcDbEntity
  8
0
100
AcDbLine
 10
193.504
 20
210.936
 30
0.0
 11
199.8589
 21
184.221
 31
0.0
  0
LINE
  5
B94
330
1D
100
AcDbEntity
  8
0
100
AcDbLine
 10
194.6503
 20
116.6
 30
0.0
 11
196.233
 21
117.047
 31
0.0
  0
LINE
  5
B95
330
1D
100
AcDbEntity
  8
0
100
AcDbLine
 10
194.7815
 20
116.495
 30
0.0
 11
196.3285
 21
116.857
 31
0.0
  0
LINE
  5
B96
330
1D
100
AcDbEntity
  8
0
100
AcDbLine
 10
196.233
 20
117.047
 30
0.0
 11
198.5281
 21
117.693
 31
0.0
  0
LINE
  5
B97
330
1D
100
AcDbEntity
  8
0
100
AcDbLine
 10
198.5281
 20
117.693
 30
0.0
 11
201.4733
 21
118.524
 31
0.0
  0
LINE
  5
B98
330
1D
100
AcDbEntity
  8
0
100
AcDbLine
 10
201.4733
 20
118.524
 30
0.0
 11
209.4482
 21
120.772
 31
0.0
  0
LINE
  5
B99
330
1D
100
AcDbEntity
  8
0
100
AcDbLine
 10
199.8589
 20
184.221
 30
0.0
 11
206.0755
 21
155.109
 31
0.0
  0
LINE
  5
B9A
330
1D
100
AcDbEntity
  8
0
100
AcDbLine
 10
199.4475
 20
117.574
 30
0.0
 11
242.7585
 21
127.608
 31
0.0
  0
LINE
  5
B9B
330
1D
100
AcDbEntity
  8
0
100
AcDbLine
 10
198.3375
 20
117.335
 30
0.0
 11
199.4475
 21
117.574
 31
0.0
  0
LINE
  5
B9C
330
1D
100
AcDbEntity
  8
0
100
AcDbLine
 10
196.3285
 20
116.857
 30
0.0
 11
198.3375
 21
117.335
 31
0.0
  0
LINE
  5
B9D
330
1D
100
AcDbEntity
  8
0
100
AcDbLine
 10
192.7585
 20
116.024
 30
0.0
 11
194.7815
 21
116.495
 31
0.0
  0
LINE
  5
B9E
330
1D
100
AcDbEntity
  8
0
100
AcDbLine
 10
192.7585
 20
116.024
 30
0.0
 11
206.2535
 21
69.6078
 31
0.0
  0
LINE
  5
B9F
330
1D
100
AcDbEntity
  8
0
100
AcDbLine
 10
192.5895
 20
115.312
 30
0.0
 11
192.938343611453
 21
115.405425932722
 31
0.0
  0
LINE
  5
BA0
330
1D
100
AcDbEntity
  8
0
100
AcDbLine
 10
192.2035
 20
115.209
 30
0.0
 11
192.512678474164
 21
115.29150099181
 31
0.0
  0
LINE
  5
BA1
330
1D
100
AcDbEntity
  8
0
100
AcDbLine
 10
192.2035
 20
115.209
 30
0.0
 11
192.5895
 21
115.312
 31
0.0
  0
LINE
  5
BA2
330
1D
100
AcDbEntity
  8
0
100
AcDbLine
 10
191.7555
 20
113.018
 30
0.0
 11
200.9335
 21
86.4899
 31
0.0
  0
LINE
  5
BA3
330
1D
100
AcDbEntity
  8
0
100
AcDbLine
 10
191.7555
 20
113.018
 30
0.0
 11
192.2035
 21
115.209
 31
0.0
  0
LINE
  5
BA4
330
1D
100
AcDbEntity
  8
0
100
AcDbLine
 10
200.9335
 20
86.4899
 30
0.0
 11
201.2235
 21
86.5676
 31
0.0
  0
LINE
  5
BA5
330
1D
100
AcDbEntity
  8
0
100
AcDbLine
 10
207.9035
 20
69.9657
 30
0.0
 11
209.9275
 21
70.4258
 31
0.0
  0
LINE
  5
BA6
330
1D
100
AcDbEntity
  8
0
100
AcDbLine
 10
206.2535
 20
69.6078
 30
0.0
 11
207.9035
 21
69.9657
 31
0.0
  0
LINE
  5
BA7
330
1D
100
AcDbEntity
  8
0
100
AcDbLine
 10
211.3915
 20
33.3
 30
0.0
 11
213.1925
 21
1.699
 31
0.0
  0
LINE
  5
BA8
330
1D
100
AcDbEntity
  8
0
100
AcDbLine
 10
211.3915
 20
33.3
 30
0.0
 11
213.1925
 21
1.699
 31
0.0
  0
LINE
  5
BB2
330
1D
100
AcDbEntity
  8
0
100
AcDbLine
 10
227.1925
 20
36.104
 30
0.0
 11
229.1925
 21
1.703
 31
0.0
  0
LINE
  5
BB3
330
1D
100
AcDbEntity
  8
0
100
AcDbLine
 10
227.1925
 20
36.104
 30
0.0
 11
229.1925
 21
1.703
 31
0.0
  0
LINE
  5
BB9
330
1D
100
AcDbEntity
  8
0
100
AcDbLine
 10
213.1185
 20
71.0922
 30
0.0
 11
214.2345
 21
71.3391
 31
0.0
  0
LINE
  5
BBA
330
1D
100
AcDbEntity
  8
0
100
AcDbLine
 10
211.8625
 20
70.8246
 30
0.0
 11
213.1185
 21
71.0922
 31
0.0
  0
LINE
  5
BBB
330
1D
100
AcDbEntity
  8
0
100
AcDbLine
 10
209.9275
 20
70.4258
 30
0.0
 11
211.8625
 21
70.8246
 31
0.0
  0
LINE
  5
BBC
330
1D
100
AcDbEntity
  8
0
100
AcDbLine
 10
214.2345
 20
71.3391
 30
0.0
 11
242.7585
 21
77.6023
 31
0.0
  0
LINE
  5
BBD
330
1D
100
AcDbEntity
  8
0
100
AcDbLine
 10
223.4925
 20
60.5022
 30
0.0
 11
227.1925
 21
36.104
 31
0.0
  0
LINE
  5
BBE
330
1D
100
AcDbEntity
  8
0
100
AcDbLine
 10
208.4925
 20
54.9972
 30
0.0
 11
211.3915
 21
33.3
 31
0.0
  0
LINE
  5
BBF
330
1D
100
AcDbEntity
  8
0
100
AcDbLine
 10
209.4482
 20
120.772
 30
0.0
 11
209.8142
 21
120.875
 31
0.0
  0
LINE
  5
BC0
330
1D
100
AcDbEntity
  8
0
100
AcDbLine
 10
209.8142
 20
120.875
 30
0.0
 11
210.3113
 21
121.015
 31
0.0
  0
LINE
  5
BC1
330
1D
100
AcDbEntity
  8
0
100
AcDbLine
 10
206.0755
 20
155.109
 30
0.0
 11
212.1065
 21
121.521
 31
0.0
  0
LINE
  5
BC2
330
1D
100
AcDbEntity
  8
0
100
AcDbLine
 10
211.1909
 20
121.263
 30
0.0
 11
211.5479
 21
121.364
 31
0.0
  0
LINE
  5
BC3
330
1D
100
AcDbEntity
  8
0
100
AcDbLine
 10
210.7575
 20
121.141
 30
0.0
 11
211.1909
 21
121.263
 31
0.0
  0
LINE
  5
BC4
330
1D
100
AcDbEntity
  8
0
100
AcDbLine
 10
210.3113
 20
121.015
 30
0.0
 11
210.7575
 21
121.141
 31
0.0
  0
LINE
  5
BC5
330
1D
100
AcDbEntity
  8
0
100
AcDbLine
 10
211.5479
 20
121.364
 30
0.0
 11
211.8028
 21
121.435
 31
0.0
  0
LINE
  5
BC6
330
1D
100
AcDbEntity
  8
0
100
AcDbLine
 10
211.8028
 20
121.435
 30
0.0
 11
211.994
 21
121.489
 31
0.0
  0
LINE
  5
BC7
330
1D
100
AcDbEntity
  8
0
100
AcDbLine
 10
211.52712775416
 20
120.378655503565
 30
0.0
 11
212.1065
 21
121.521
 31
0.0
  0
LINE
  5
BC8
330
1D
100
AcDbEntity
  8
0
100
AcDbLine
 10
211.994
 20
121.489
 30
0.0
 11
212.0832
 21
121.514
 31
0.0
  0
LINE
  5
BC9
330
1D
100
AcDbEntity
  8
0
100
AcDbLine
 10
242.7585
 20
77.6023
 30
0.0
 11
242.7585
 21
127.608
 31
0.0
  0
LINE
  5
BCA
330
1D
100
AcDbEntity
  8
0
100
AcDbLine
 10
242.7585
 20
127.608
 30
0.0
 11
242.7585
 21
77.6023
 31
0.0
  0
LINE
  5
BCB
330
1D
100
AcDbEntity
  8
0
100
AcDbLine
 10
221.020683581718
 20
72.81136109316
 30
0.0
 11
223.4925
 21
60.5022
 31
0.0
  0
LINE
  5
BCC
330
1D
100
AcDbEntity
  8
0
100
AcDbLine
 10
204.704428859207
 20
74.935847120066
 30
0.0
 11
208.4925
 21
54.9972
 31
0.0
  0
LINE
  5
BCD
330
1D
100
AcDbEntity
  8
0
100
AcDbLine
 10
213.1925
 20
1.699
 30
0.0
 11
229.192732551379
 21
1.699
 31
0.0
  0
LINE
  5
BCE
330
1D
100
AcDbEntity
  8
0
100
AcDbLine
 10
177.7375
 20
50.694
 30
0.0
 11
177.7375
 21
182.177861706739
 31
0.0
  0
ENDSEC
  0
SECTION
  2
OBJECTS
  0
DICTIONARY
  5
C
330
0
100
AcDbDictionary
281
     1
  3
ACAD_GROUP
350
D
  3
ACAD_LAYOUT
350
1A
  3
ACAD_MLEADERSTYLE
350
BD1
  3
ACAD_MLINESTYLE
350
17
  3
ACAD_PLOTSETTINGS
350
19
  3
ACAD_PLOTSTYLENAME
350
E
  3
ACAD_SCALELIST
350
4C9
  3
AcDbVariableDictionary
350
BCF
  3
DWGPROPS
350
BD4
  0
DICTIONARY
  5
D
102
{ACAD_REACTORS
330
C
102
}
330
C
100
AcDbDictionary
281
     1
  0
DICTIONARY
  5
1A
102
{ACAD_REACTORS
330
C
102
}
330
C
100
AcDbDictionary
281
     1
  3
Layout1
350
1C
  3
Model
350
1E
  0
DICTIONARY
  5
BD1
102
{ACAD_REACTORS
330
C
102
}
330
C
100
AcDbDictionary
281
     1
  0
DICTIONARY
  5
17
102
{ACAD_REACTORS
330
C
102
}
330
C
100
AcDbDictionary
281
     1
  3
Standard
350
18
  0
DICTIONARY
  5
19
102
{ACAD_REACTORS
330
C
102
}
330
C
100
AcDbDictionary
281
     1
  0
ACDBDICTIONARYWDFLT
  5
E
102
{ACAD_REACTORS
330
C
102
}
330
C
100
AcDbDictionary
281
     1
  3
Normal
350
F
100
AcDbDictionaryWithDefault
340
F
  0
DICTIONARY
  5
4C9
102
{ACAD_REACTORS
330
C
102
}
330
C
100
AcDbDictionary
281
     1
  3
A0
350
4CA
  3
A1
350
4CB
  3
A2
350
4CC
  3
A3
350
4CD
  3
A4
350
4CE
  3
A5
350
4CF
  3
A6
350
4D0
  3
A7
350
4D1
  3
A8
350
4D2
  3
A9
350
4D3
  3
B0
350
4D4
  3
B1
350
4D5
  3
B2
350
4D6
  3
B3
350
4D7
  3
B4
350
4D8
  3
B5
350
4D9
  3
B6
350
4DA
  3
B7
350
4DB
  3
B8
350
4DC
  3
B9
350
4DD
  3
C0
350
4DE
  3
C1
350
4DF
  3
C2
350
4E0
  3
C3
350
4E1
  3
C4
350
4E2
  3
C5
350
4E3
  3
C6
350
4E4
  3
C7
350
4E5
  3
C8
350
4E6
  3
C9
350
4E7
  3
D0
350
4E8
  3
D1
350
4E9
  3
D2
350
4EA
  0
DICTIONARY
  5
BCF
102
{ACAD_REACTORS
330
C
102
}
330
C
100
AcDbDictionary
281
     1
  3
CANNOSCALE
350
BD2
  0
XRECORD
  5
BD4
102
{ACAD_REACTORS
330
C
102
}
330
C
100
AcDbXrecord
280
     1
  1
DWGPROPS COOKIE
  2

  3

  4

  6

  7

  8
MARTIN
  9

300
=
301
=
302
=
303
=
304
=
305
=
306
=
307
=
308
=
309
=
 40
0.0
 41
2456647.858207465
 42
2456647.860035799
  1

 90
        0
  0
LAYOUT
  5
1C
102
{ACAD_REACTORS
330
1A
102
}
330
1A
100
AcDbPlotSettings
  1

  2
none_device
  4

  6

 40
0.0
 41
0.0
 42
0.0
 43
0.0
 44
0.0
 45
0.0
 46
0.0
 47
0.0
 48
0.0
 49
0.0
140
0.0
141
0.0
142
1.0
143
1.0
 70
   688
 72
     0
 73
     0
 74
     5
  7

 75
    16
147
1.0
148
0.0
149
0.0
100
AcDbLayout
  1
Layout1
 70
     1
 71
     1
 10
0.0
 20
0.0
 11
12.0
 21
9.0
 12
0.0
 22
0.0
 32
0.0
 14
1.000000000000E+20
 24
1.000000000000E+20
 34
1.000000000000E+20
 15
-1.000000000000E+20
 25
-1.000000000000E+20
 35
-1.000000000000E+20
146
0.0
 13
0.0
 23
0.0
 33
0.0
 16
1.0
 26
0.0
 36
0.0
 17
0.0
 27
1.0
 37
0.0
 76
     0
330
1B
  0
LAYOUT
  5
1E
102
{ACAD_REACTORS
330
1A
102
}
330
1A
100
AcDbPlotSettings
  1

  2
none_device
  4

  6

 40
0.0
 41
0.0
 42
0.0
 43
0.0
 44
0.0
 45
0.0
 46
0.0
 47
0.0
 48
0.0
 49
0.0
140
0.0
141
0.0
142
1.0
143
1.0
 70
  1712
 72
     0
 73
     0
 74
     0
  7

 75
     0
147
1.0
148
0.0
149
0.0
100
AcDbLayout
  1
Model
 70
     1
 71
     0
 10
0.0
 20
0.0
 11
12.0
 21
9.0
 12
0.0
 22
0.0
 32
0.0
 14
0.2565
 24
0.194
 34
0.0
 15
242.7585
 25
275.806
 35
0.0
146
0.0
 13
0.0
 23
0.0
 33
0.0
 16
1.0
 26
0.0
 36
0.0
 17
0.0
 27
1.0
 37
0.0
 76
     0
330
1D
331
4C4
  0
MLINESTYLE
  5
18
102
{ACAD_REACTORS
330
17
102
}
330
17
100
AcDbMlineStyle
  2
Standard
 70
     0
  3

 62
   256
 51
90.0
 52
90.0
 71
     2
 49
0.5
 62
   256
  6
BYLAYER
 49
-0.5
 62
   256
  6
BYLAYER
  0
ACDBPLACEHOLDER
  5
F
102
{ACAD_REACTORS
330
E
102
}
330
E
  0
SCALE
  5
4CA
102
{ACAD_REACTORS
330
4C9
102
}
330
4C9
100
AcDbScale
 70
     0
300
1:1
140
1.0
141
1.0
290
     1
  0
SCALE
  5
4CB
102
{ACAD_REACTORS
330
4C9
102
}
330
4C9
100
AcDbScale
 70
     0
300
1:2
140
1.0
141
2.0
290
     0
  0
SCALE
  5
4CC
102
{ACAD_REACTORS
330
4C9
102
}
330
4C9
100
AcDbScale
 70
     0
300
1:4
140
1.0
141
4.0
290
     0
  0
SCALE
  5
4CD
102
{ACAD_REACTORS
330
4C9
102
}
330
4C9
100
AcDbScale
 70
     0
300
1:5
140
1.0
141
5.0
290
     0
  0
SCALE
  5
4CE
102
{ACAD_REACTORS
330
4C9
102
}
330
4C9
100
AcDbScale
 70
     0
300
1:8
140
1.0
141
8.0
290
     0
  0
SCALE
  5
4CF
102
{ACAD_REACTORS
330
4C9
102
}
330
4C9
100
AcDbScale
 70
     0
300
1:10
140
1.0
141
10.0
290
     0
  0
SCALE
  5
4D0
102
{ACAD_REACTORS
330
4C9
102
}
330
4C9
100
AcDbScale
 70
     0
300
1:16
140
1.0
141
16.0
290
     0
  0
SCALE
  5
4D1
102
{ACAD_REACTORS
330
4C9
102
}
330
4C9
100
AcDbScale
 70
     0
300
1:20
140
1.0
141
20.0
290
     0
  0
SCALE
  5
4D2
102
{ACAD_REACTORS
330
4C9
102
}
330
4C9
100
AcDbScale
 70
     0
300
1:30
140
1.0
141
30.0
290
     0
  0
SCALE
  5
4D3
102
{ACAD_REACTORS
330
4C9
102
}
330
4C9
100
AcDbScale
 70
     0
300
1:40
140
1.0
141
40.0
290
     0
  0
SCALE
  5
4D4
102
{ACAD_REACTORS
330
4C9
102
}
330
4C9
100
AcDbScale
 70
     0
300
1:50
140
1.0
141
50.0
290
     0
  0
SCALE
  5
4D5
102
{ACAD_REACTORS
330
4C9
102
}
330
4C9
100
AcDbScale
 70
     0
300
1:100
140
1.0
141
100.0
290
     0
  0
SCALE
  5
4D6
102
{ACAD_REACTORS
330
4C9
102
}
330
4C9
100
AcDbScale
 70
     0
300
2:1
140
2.0
141
1.0
290
     0
  0
SCALE
  5
4D7
102
{ACAD_REACTORS
330
4C9
102
}
330
4C9
100
AcDbScale
 70
     0
300
4:1
140
4.0
141
1.0
290
     0
  0
SCALE
  5
4D8
102
{ACAD_REACTORS
330
4C9
102
}
330
4C9
100
AcDbScale
 70
     0
300
8:1
140
8.0
141
1.0
290
     0
  0
SCALE
  5
4D9
102
{ACAD_REACTORS
330
4C9
102
}
330
4C9
100
AcDbScale
 70
     0
300
10:1
140
10.0
141
1.0
290
     0
  0
SCALE
  5
4DA
102
{ACAD_REACTORS
330
4C9
102
}
330
4C9
100
AcDbScale
 70
     0
300
100:1
140
100.0
141
1.0
290
     0
  0
SCALE
  5
4DB
102
{ACAD_REACTORS
330
4C9
102
}
330
4C9
100
AcDbScale
 70
     0
300
1/128" = 1'-0"
140
0.0078125
141
12.0
290
     0
  0
SCALE
  5
4DC
102
{ACAD_REACTORS
330
4C9
102
}
330
4C9
100
AcDbScale
 70
     0
300
1/64" = 1'-0"
140
0.015625
141
12.0
290
     0
  0
SCALE
  5
4DD
102
{ACAD_REACTORS
330
4C9
102
}
330
4C9
100
AcDbScale
 70
     0
300
1/32" = 1'-0"
140
0.03125
141
12.0
290
     0
  0
SCALE
  5
4DE
102
{ACAD_REACTORS
330
4C9
102
}
330
4C9
100
AcDbScale
 70
     0
300
1/16" = 1'-0"
140
0.0625
141
12.0
290
     0
  0
SCALE
  5
4DF
102
{ACAD_REACTORS
330
4C9
102
}
330
4C9
100
AcDbScale
 70
     0
300
3/32" = 1'-0"
140
0.09375
141
12.0
290
     0
  0
SCALE
  5
4E0
102
{ACAD_REACTORS
330
4C9
102
}
330
4C9
100
AcDbScale
 70
     0
300
1/8" = 1'-0"
140
0.125
141
12.0
290
     0
  0
SCALE
  5
4E1
102
{ACAD_REACTORS
330
4C9
102
}
330
4C9
100
AcDbScale
 70
     0
300
3/16" = 1'-0"
140
0.1875
141
12.0
290
     0
  0
SCALE
  5
4E2
102
{ACAD_REACTORS
330
4C9
102
}
330
4C9
100
AcDbScale
 70
     0
300
1/4" = 1'-0"
140
0.25
141
12.0
290
     0
  0
SCALE
  5
4E3
102
{ACAD_REACTORS
330
4C9
102
}
330
4C9
100
AcDbScale
 70
     0
300
3/8" = 1'-0"
140
0.375
141
12.0
290
     0
  0
SCALE
  5
4E4
102
{ACAD_REACTORS
330
4C9
102
}
330
4C9
100
AcDbScale
 70
     0
300
1/2" = 1'-0"
140
0.5
141
12.0
290
     0
  0
SCALE
  5
4E5
102
{ACAD_REACTORS
330
4C9
102
}
330
4C9
100
AcDbScale
 70
     0
300
3/4" = 1'-0"
140
0.75
141
12.0
290
     0
  0
SCALE
  5
4E6
102
{ACAD_REACTORS
330
4C9
102
}
330
4C9
100
AcDbScale
 70
     0
300
1" = 1'-0"
140
1.0
141
12.0
290
     0
  0
SCALE
  5
4E7
102
{ACAD_REACTORS
330
4C9
102
}
330
4C9
100
AcDbScale
 70
     0
300
1-1/2" = 1'-0"
140
1.5
141
12.0
290
     0
  0
SCALE
  5
4E8
102
{ACAD_REACTORS
330
4C9
102
}
330
4C9
100
AcDbScale
 70
     0
300
3" = 1'-0"
140
3.0
141
12.0
290
     0
  0
SCALE
  5
4E9
102
{ACAD_REACTORS
330
4C9
102
}
330
4C9
100
AcDbScale
 70
     0
300
6" = 1'-0"
140
6.0
141
12.0
290
     0
  0
SCALE
  5
4EA
102
{ACAD_REACTORS
330
4C9
102
}
330
4C9
100
AcDbScale
 70
     0
300
1'-0" = 1'-0"
140
12.0
141
12.0
290
     0
  0
DICTIONARYVAR
  5
BD2
102
{ACAD_REACTORS
330
BCF
102
}
330
BCF
100
DictionaryVariables
280
     0
  1
1:1
  0
ENDSEC
  0
SECTION
  2
THUMBNAILIMAGE
 90
    16364
310
28000000B40000005500000001000800000000000000000000000000000000000000000000000000FFFFFF000000FF0000FFFF0000FF0000FFFF0000FF000000FF00FF000000000080808000C0C0C0000000FF007F7FFF000000A5005252A50000007F003F3F7F0000004C0026264C000000260013132600003FFF007F9FFF
310
000029A5005267A500001F7F003F4F7F0000134C00262F4C000009260013172600007FFF007FBFFF000052A500527CA500003F7F003F5F7F0000264C0026394C0000132600131C260000BFFF007FDFFF00007CA5005291A500005F7F003F6F7F0000394C0026424C00001C26001321260000FFFF007FFFFF0000A5A50052A5
310
A500007F7F003F7F7F00004C4C00264C4C00002626001326260000FFBF007FFFDF0000A57C0052A59100007F5F003F7F6F00004C3900264C420000261C001326210000FF7F007FFFBF0000A5520052A57C00007F3F003F7F5F00004C2600264C39000026130013261C0000FF3F007FFF9F0000A5290052A56700007F1F003F
310
7F4F00004C1300264C2F00002609001326170000FF00007FFF7F0000A5000052A55200007F00003F7F3F00004C0000264C260000260000132613003FFF00009FFF7F0029A5000067A552001F7F00004F7F3F00134C00002F4C260009260000172613007FFF0000BFFF7F0052A500007CA552003F7F00005F7F3F00264C0000
310
394C2600132600001C261300BFFF0000DFFF7F007CA5000091A552005F7F00006F7F3F00394C0000424C26001C26000021261300FFFF0000FFFF7F00A5A50000A5A552007F7F00007F7F3F004C4C00004C4C26002626000026261300FFBF0000FFDF7F00A57C0000A59152007F5F00007F6F3F004C3900004C422600261C00
310
0026211300FF7F0000FFBF7F00A5520000A57C52007F3F00007F5F3F004C2600004C39260026130000261C1300FF3F0000FF9F7F00A5290000A56752007F1F00007F4F3F004C1300004C2F26002609000026171300FF000000FF7F7F00A5000000A55252007F0000007F3F3F004C0000004C2626002600000026131300FF00
310
3F00FF7F9F00A5002900A55267007F001F007F3F4F004C0013004C262F002600090026131700FF007F00FF7FBF00A5005200A5527C007F003F007F3F5F004C0026004C2639002600130026131C00FF00BF00FF7FDF00A5007C00A55291007F005F007F3F6F004C0039004C26420026001C0026132100FF00FF00FF7FFF00A5
310
00A500A552A5007F007F007F3F7F004C004C004C264C002600260026132600BF00FF00DF7FFF007C00A5009152A5005F007F006F3F7F0039004C0042264C001C002600211326007F00FF00BF7FFF005200A5007C52A5003F007F005F3F7F0026004C0039264C00130026001C1326003F00FF009F7FFF002900A5006752A500
310
1F007F004F3F7F0013004C002F264C000900260017132600000000002D2D2D005B5B5B0089898900B7B7B700B3B3B30000000000000000000000000000000000000000000000000000000000000000000000000000000000000000000000000000000000000000000000000000000000000000000000000000000000000000
310
00000000000000000000000007070707070707070707070707070707070000000000000000000007070707070000000000000000000000000000000000000000000000000000000000000000000000000000000000000000000000000000000000000000000000000000000000000000000000000000000000000000000000
310
00000000000000000000000000000000000000000000000000000000000000000000000000000000000000000000000000000000000000000000000000000000000700000000000000000000000000000007000000000000000000000700000000070000000000000000000000000000000000000000000000000000000000
310
00000000000000000000000000000000000000000000000000000000000000000000000000000000000000000000000000000000000000000000000000000000000000000000000000000000000000000000000000000000000000000000000000000000000000000000000000000000000000000000070000000000000000
310
00000000000000070000000000000000000007000000000700000000000000000000000000000000000000000000000000000000000000000000000000000000000000000000000000000000000000000000000000000000000000000000000000000000000000000000000000000000000000000000000000000000000000
310
00000000000000000000000000000000000000000000000000000000000000000000000000000000000000000700000000000000000000000000000007000000000000000000000700000000070000000000000000000000000000000000000000000000000000000000000000000000000000000000000000000000000000
310
00000000000000000000000000000000000000000000000000000000000000000000000000000000000000000000000000000000000000000000000000000000000000000000000000000000000000000000000000000000000000000000000000070000000000000000000000000000000700000000000000000000070000
310
00000700000000000000000000000000000000000000000000000000000000000000000000000000000000000000000000000000000000000000000000000000000000000000000000000000000000000000000000000000000000000000000000000000000000000000000000000000000000000000000000000000000000
310
00000000000000000000000000000000000000000000000700000000000007070700000000000007000000000000000000070000000000070000000000000000000000000000000000000000000000000000000000000000000000000000000000000000000000000000000000000000000000000000000000000000000000
310
00000000000000000000000000000000000000000000000000000000000000000000000000000000000000000000000000000000000000000000000000000000000000000000000000000000070000000000070700000707000000000700000000000000000007000000000700000000000000000000000000000000000000
310
00000000000000000000000000000000000000000000000000000000000000000000000000000000000000000000000000000000000000000000000000000000000000000000000000000000000000000000000000000000000000000000000000000000000000000000000000000000000000000000000000000000000000
310
00000700000000070000000000000700000007000000000000000000070000000007000000000000000000000000000000000000000000000000000000000000000000000000000000000000000000000000000000000000000000000000000000000000000000000000000000000000000000000000000000000000000000
310
00000000000000000000000000000000000000000000000000000000000000000000000000000000000000000000000000000000000000070000000700000000000000070700000700000000000000000007000000000700000000000000000000000000000000000000000000000000000000000000000000000000000000
310
00000000000000000000000000000000000000000000000000000000000000000000000000000000000000000000000000000000000000000000000000000000000000000000000000000000000000000000000000000000000000000000000000000000000000000000000707070707070000000000000000070000070000
310
00000000000000070000000007000000000000000000000000000000000000000000000000000000000000000000000000000000000000000000000000000000000000000000000000000000000000000000000000000000000000000000000000000000000000000000000000000000000000000000000000000000000000
310
00000000000000000000000000000000000000000000000000000000000000000007000000000000000000000000000700000700000000000000000007000000000700000000000000000000000000000000000000000000000000000000000000000000000000000000000000000000000000000000000000000000000000
310
00000000000000000000000000000000000000000000000000000000000000000000000000000000000000000000000000000000000000000000000000000000000000000000000000000000000000000000000000000707070707070000000000000000070000070000000000000000000700000000070000000000000000
310
00000000000000000000000000000000000000000000000000000000000000000000000000000000000000000000000000000000000000000000000000000000000000000000000000000000000000000000000000000000000000000000000000000000000000000000000000000000000000000000000000000000000000
310
00000000000000000000000000070000000707000000000000070000000700000000000000000007000000000700000000000000000000000000000000000000000000000000000000000000000000000000000000000000000000000000000000000000000000000000000000000000000000000000000000000000000000
310
00000000000000000000000000000000000000000000000000000000000000000000000000000000000000000000000000000000000000000000000000000000000007000000000700000000000707000000070000000000000000070000000000070000000000000000000000000000000000000000000000000000000000
310
00000000000000000000000000000000000000000000000000000000000000000000000000000000000000000000000000000000000000000000000000000000000000000000000000000000000000000000000000000000000000000000000000000000000000000000000000000000000000000000000700000000000707
310
07070707000000000700000000000000000700000000000700000000000000000000000000000000000000000000000000000000000000000000000000000000000000000000000000000000000000000000000000000000000000000000000000000000000000000000000000000000000000000000000000000000000000
310
00000000000000000000000000000000000000000000000000000000000000000000000000000000000000000007070707070707070707070707070707070000000000000000070000000007000000000000000000000000000000000000000000000000000000000000000000000000000000000000000000000000000000
310
00000000000000000000000000000000000000000000000000000000000000000000000000000000000000000000000000000000000000000000000000000000000000000000000000000000000000000000000000000000000000000000000000000007000000000000000000000000000007000000000000000007000000
310
00070000000000000000000000000000000000000000000000000000000000000000000000000000000000000000000000000000000000000000000000000000000000000000000000000000000000000000000000000000000000000000000000000000000000000000000000000000000000000000000000000000000000
310
00000000000000000000000000000000000000000000000000070000000000000000000000000000070000000000000000070000000007000000000000000000000000000000000000000000000000000000000000000000000000000000000000000000000000000000000000000000000000000000000000000000000000
310
00000000000000000000000000000000000000000000000000000000000000000000000000000000000000000000000000000000000000000000000000000000000000000000000000000000000007000000000000000000000000000007000000000000000007000000000700000000000000000000000000000000000000
310
00000000000000000000000000000000000000000000000000000000000000000000000000000000000000000000000000000000000000000000000000000000000000000000000000000000000000000000000000000000000000000000000000000000000000000000000000000000000000000000000000000000000000
310
00000000070000000000000000000000000000070000000000000007000000000007000000000000000000000000000000000000000000000000000000000000000000000000000000000000000000000000000000000000000000000000000000000000000000000000000000000000000000000000000000000000000000
310
00000000000000000000000000000000000000000000000000000000000000000000000000000000000000000000000000000000000000000007000000000000000000000000000007000000000000000700000000070000000000000000000000000000000000000000000000000000000000000000000000000000000000
310
00000000000000000000000000000000000000000000000000000000000000000000000000000000000000000000000000000000000000000000000000000000000000000000000000000000000000000000000000000000000000000000000000000000000000000000000000000700000000000000000000000000000700
310
00000000000007070707070700000000000000000000000000000000000000000000000000000000000000000000000000000000000000000000000000000000000000000000000000000000000000000000000000000000000000000000000000000000000000000000000000000000000000000000000000000000000000
310
00000000000000000000000000000000000000000000000000000000000000000000000007000000000000000000000000000007000000000000000707000000070707070700000000000000000000000000000000000000000000000000000000000000000000000000000000000000000000000000000000000000000000
310
00000000000000000000000000000000000000000000000000000000000000000000000000000000000000000000000000000000000000000000000000000000000000000000000000000000000000000000000000000000000700000000000000000000000000000700000000000000070000000000000000000707070000
310
00000000000000000000000000000000000000000000000000000000000000000000000000000000000000000000000000000000000000000000000000000000000000000000000000000000000000000000000000000000000000000000000000000000000000000000000000000000000000000000000000000000000000
310
00000000000000000000000000000007000000000000000000000000000007000000000000070700000000000000000000000700000000000000000000000000000000000000000000000000000000000000000000000000000000000000000000000000000000000000000000000000000000000000000000000000000000
310
00000000000000000000000000000000000000000000000000000000000000000000000000000000000000000000000000000000000000000000000000000000000000000700000000000000000000000000000700000000000007070000000000000000000000070000000000000000000000000000000000000000000000
310
00000000000000000000000000000000000000000000000000000000000000000000000000000000000000000000000000000000000000000000000000000000000000000000000000000000000000000000000000000000000000000000000000000000000000000000000000000000000000000000000000070000000000
310
00000000000000000007000000000000070700000000000000000000000700000000000000000000000000000000000000000000000000000000000000000000000000000000000000000000000000000000000000000000000000000000000000000000000000000000000000000000000000000000000000000000000000
310
00000000000000000000000000000000000000000000000000000000000000000000000000000000000000000000000700000000000000000000000000000700000000000007000000000000000000000000070000000000000000000000000000000000000000000000000000000000000000000000000000000000000000
310
00000000000000000000000000000000000000000000000000000000000000000000000000000000000000000000000000000000000000000000000000000000000000000000000000000000000000000000000000000000000000000000000000000000070000000000000000000000000000070000000000070700000000
310
00000000000000000700000000000000000000000000000000000000000000000000000000000000000000000000000000000000000000000000000000000000000000000000000000000000000000000000000000000000000000000000000000000000000000000000000000000000000000000000000000000000000000
310
00000000000000000000000000000000000000000000000000000700000000000000000000000000000700000000000707000000000000000000000000070000000000000000000000000000000000000000000000000000000000000000000000000000000000000000000000000000000000000000000000000000000000
310
00000000000000000000000000000000000000000000000000000000000000000000000000000000000000000000000000000000000000000000000000000000000000000000000000000000000000070000000000000000000000000000070000000007070000000000000000000000000007000000000000000000000000
310
00000000000000000000000000000000000000000000000000000000000000000000000000000000000000000000000000000000000000000000000000000000000000000000000000000000000000000000000000000000000000000000000000000000000000000000000000000000000000000000000000000000000000
310
00000000000700000000000000000000000000000700000000070700000000000000000000000000070000000000000000000000000000000000000000000000000000000000000000000000000000000000000000000000000000000000000000000000000000000000000000000000000000000000000000000000000000
310
00000000000000000000000000000000000000000000000000000000000000000000000000000000000000000000000000000000000000000000070000000000000000000000000000070000000007070000000000000000000000000007000000000000000000000000000000000000000000000000000000000000000000
310
00000000000000000000000000000000000000000000000000000000000000000000000000000000000000000000000000000000000000000000000000000000000000000000000000000000000000000000000000000000000000000000000000000000000000000000000000000007000000000000000000000000000007
310
00000007000700000000000000000000000000070000000000000000000000000000000000000000000000000000000000000000000000000000000000000000000000000000000000000000000000000000000000000000000000000000000000000000000000000000000000000000000000000000000000000000000000
310
00000000000000000000000000000000000000000000000000000000000000000000000000070000000000000000000000000000070000000707000000000000000000000000000007000000000000000000000000000000000000000000000000000000000000000000000000000000000000000000000000000000000000
310
00000000000000000000000000000000000000000000000000000000000000000000000000000000000000000000000000000000000000000000000000000000000000000000000000000000000000000000000000000000000007000000000000000000000000000007000000070707070707000000000000000000000700
310
00000000000000000000000000000000000000000000000000000000000000000000000000000000000000000000000000000000000000000000000000000000000000000000000000000000000000000000000000000000000000000000000000000000000000000000000000000000000000000000000000000000000000
310
00000000000000000000000000000000070000000000000000000000000000070000000700000707070707070700000000000007000000000000000000000000000000000000000000000000000000000000000000000000000000000000000000000000000000000000000000000000000000000000000000000000000000
310
00000000000000000000000000000000000000000000000000000000000000000000000000000000000000000000000000000000000000000000000000000000000000000007000000000000000000000000000007000000070000000000070000000707070700000700000000000000000000000000000000000000000000
310
00000000000000000000000000000000000000000000000000000000000000000000000000000000000000000000000000000000000000000000000000000000000000000000000000000000000000000000000000000000000000000000000000000000000000000000000000000000000000000000000000000700000000
310
00000000000000000000070000070000000000000700000000000000070707000000000000000000000000000000000000000000000000000000000000000000000000000000000000000000000000000000000000000000000000000000000000000000000000000000000000000000000000000000000000000000000000
310
00000000000000000000000000000000000000000000000000000000000000000000000000000000000000000000000007000000000000000000000000000007000007000000000000070000000000000000000000000000000000000000000000000000000000000000000000000000000000000000000000000000000000
310
00000000000000000000000000000000000000000000000000000000000000000000000000000000000000000000000000000000000000000000000000000000000000000000000000000000000000000000000000000000000000000000000000000000000700000000000000000000000000000700000700000000000007
310
00000000000000000000000000000000000000000000000000000000000000000000000000000000000000000000000000000000000000000000000000000000000000000000000000000000000000000000000000000000000000000000000000000000000000000000000000000000000000000000000000000000000000
310
00000000000000000000000000000000000000000000000000000007000000000000000000000000000007000007000000000000070000000000000000000000000000000000000000000000000000000000000000000000000000000000000000000000000000000000000000000000000000000000000000000000000000
310
00000000000000000000000000000000000000000000000000000000000000000000000000000000000000000000000000000000000000000000000000000000000000000000000000000000000000000700000000000000000000000000000700000700000000000700000000000000000000000000000000000000000000
310
00000000000000000000000000000000000000000000000000000000000000000000000000000000000000000000000000000000000000000000000000000000000000000000000000000000000000000000000000000000000000000000000000000000000000000000000000000000000000000000000000000000000000
310
00000000000007000000000000000000000000000007000700000000000007000000000000000000000000000000000000000000000000000000000000000000000000000000000000000000000000000000000000000000000000000000000000000000000000000000000000000000000000000000000000000000000000
310
00000000000000000000000000000000000000000000000000000000000000000000000000000000000000000000000000000000000000000000000700000000000000000000000000000700070000000000000700000000000000000000000000000000000000000000000000000000000000000000000000000000000000
310
00000000000000000000000000000000000000000000000000000000000000000000000000000000000000000000000000000000000000000000000000000000000000000000000000000000000000000000000000000000000000000000000000000000000000000000000000000000070000000000000000000000000000
310
07000700000000000007000000000000000000000000000000000000000000000000000000000000000000000000000000000000000000000000000000000000000000000000000000000000000000000000000000000000000000000000000000000000000000000000000000000000000000000000000000000000000000
310
00000000000000000000000000000000000000000000000000000000000000000000000000000700000000000000000000000000000700070000000000000700000000000000000000000000000000000000000000000000000000000000000000000000000000000000000000000000000000000000000000000000000000
310
00000000000000000000000000000000000000000000000000000000000000000000000000000000000000000000000000000000000000000000000000000000000000000000000000000000000000000000000000000000000007070000000000000000000000000000070007000000000000070000000000000000000000
310
00000000000000000000000000000000000000000000000000000000000000000000000000000000000000000000000000000000000000000000000000000000000000000000000000000000000000000000000000000000000000000000000000000000000000000000000000000000000000000000000000000000000000
310
00000000000000000000000000000707000707000000000000000000000000000700070000000000000700000000000000000000000000000000000000000000000000000000000000000000000000000000000000000000000000000000000000000000000000000000000000000000000000000000000000000000000000
310
00000000000000000000000000000000000000000000000000000000000000000000000000000000000000000000000000000000000000000000000000000000000707000000000700000000000000000000000000070700000000000007000000000000000000000000000000000000000000000000000000000000000000
310
00000000000000000000000000000000000000000000000000000000000000000000000000000000000000000000000000000000000000000000000000000000000000000000000000000000000000000000000000000000000000000000000000000000000000000000000000000000000000000707000000000000070000
310
00000000000000000000000707000000000000070000000000000000000000000000000000000000000000000000000000000000000000000000000000000000000000000000000000000000000000000000000000000000000000000000000000000000000000000000000000000000000000000000000000000000000000
310
00000000000000000000000000000000000000000000000000000000000000000000000000000007070700000000000000000000000000000000000000000000070700000000000007000000000000000000000000000000000000000000000000000000000000000000000000000000000000000000000000000000000000
310
00000000000000000000000000000000000000000000000000000000000000000000000000000000000000000000000000000000000000000000000000000000000000000000000000000000000000000000000000000000000007070000000000000000000000070000000000000000000000000007070000000000000700
310
00000000000000000000000000000000000000000000000000000000000000000000000000000000000000000000000000000000000000000000000000000000000000000000000000000000000000000000000000000000000000000000000000000000000000000000000000000000000000000000000000000000000000
310
00000000000000000000000000070707000000000000000000000000070700000000000000000000000000070700000000000700000000000000000000000000000000000000000000000000000000000000000000000000000000000000000000000000000000000000000000000000000000000000000000000000000000
310
00000000000000000000000000000000000000000000000000000000000000000000000000000000000000000000000000000000000000000000000000000000070700000000000000000000000000000007000000000000000000000000000007070000000000070000000000000000000000000000000000000000000000
310
00000000000000000000000000000000000000000000000000000000000000000000000000000000000000000000000000000000000000000000000000000000000000000000000000000000000000000000000000000000000000000000000000000000000000000000000000000000000007070700000000000000000000
310
00000000000707070000000000000000000000000000070000000000000700000000000000000000000000000000000000000000000000000000000000000000000000000000000000000000000000000000000000000000000000000000000000000000000000000000000000000000000000000000000000000000000000
310
00000000000000000000000000000000000000000000000000000000000000000000000000000707000000000000000000000000000000070707000007000000000000000000000000000007000000000000070000000000000000000000000000000000000000000000000000000000000000000000000000000000000000
310
00000000000000000000000000000000000000000000000000000000000000000000000000000000000000000000000000000000000000000000000000000000000000000000000000000000000000000007070000000000070707000000000000000000000000000000070700000000000700000000000000000000000000
310
00070000000000000700000000000000000000000000000000000000000000000000000000000000000000000000000000000000000000000000000000000000000000000000000000000000000000000000000000000000000000000000000000000000000000000000000000000000000000000000000000000000000000
310
00000000070707000707070007070000000000000000000000000000000707070000000000000007000000000000000000000000000700000000000007000000000000000000000000000000000000000000000000000000000000000000000000000000000000000000000000000000000000000000000000000000000000
310
00000000000000000000000000000000000000000000000000000000000000000000000000000000000000000000000000000000000007000700000707070007070000000000000000000000000000070707000000000000000000000700000000000000000000000000070000000000000700000000000000000000000000
310
00000000000000000000000000000000000000000000000000000000000000000000000000000000000000000000000000000000000000000000000000000000000000000000000000000000000000000000000000000000000000000000000000000000000000000000000000070707000000000000000000000000000000
310
00000707070000000000000000000000000007000000000000000000000000000700000000000007000000000000000000000000000000000000000000000000000000000000000000000000000000000000000000000000000000000000000000000000000000000000000000000000000000000000000000000000000000
310
00000000000000000000000000000000000000000000000000000000000000000707070000000000000000000000000000000000070707000000000000000000000000000000000700000000000000000000000007000000000000000700000000000000000000000000000000000000000000000000000000000000000000
310
00000000000000000000000000000000000000000000000000000000000000000000000000000000000000000000000000000000000000000000000000000000000000000000000000000000000000000000000000070000000000000000000000000000000007070700000000000000000000000000000000000000070000
310
00000000000000000000070000000000000700000000000000000000000000000000000000000000000000000000000000000000000000000000000000000000000000000000000000000000000000000000000000000000000000000000000000000000000000000000000000000000000000000000000000000000000000
310
00000000000000000000000007000000000000000000000000000707000000000000000000000000000000000000000000070707070707070707070707070707000000000000070000000000000000000000000000000000000000000000000000000000000000000000000000000000000000000000000000000000000000
310
00000000000000000000000000000000000000000000000000000000000000000000000000000000000000000000000000000000000000000000000000000000000700000000000000000000070707000000000000000000000000000000000000000000000007000000000000000000070707000700000000000007000000
310
00000000000000000000000000000000000000000000000000000000000000000000000000000000000000000000000000000000000000000000000000000000000000000000000000000000000000000000000000000000000000000000000000000000000000000000000000000000000000000000000700000000000007
310
07070000000000000000000000000000000000000000000000000000070000000000000000000000000707000000000000070000000000000000000000000000000000000000000000000000000000000000000000000000000000000000000000000000000000000000000000000000000000000000000000000000000000
310
00000000000000000000000000000000000000000000000000000000000000000000000000000000000000000007070707070707000000000000000000000000000000000000000000000000000000000007000000000000000000000000000700000000000700000000000000000000000000000000000000000000000000
310
00000000000000000000000000000000000000000000000000000000000000000000000000000000000000000000000000000000000000000000000000000000000000000000000000000000000000000000000000000000000000000000000000000000000000000000000000000000000000000000000000000000000000
310
00000000000000070000000000000000000000000700000000000007000000000000000000000000000000000000000000000000000000000000000000000000000000000000000000000000000000000000000000000000000000000000000000000000000000000000000000000000000000000000000000000000000000
310
00000000000000000000000000000000000000000000000000000000000000000000000000000000000000000000000000000000000000000000000007000000000000000000000000070000000000000700000000000000000000000000000000000000000000000000000000000000000000000000000000000000000000
310
00000000000000000000000000000000000000000000000000000000000000000000000000000000000000000000000000000000000000000000000000000000000000000000000000000000000000000000000000000000000000000000000000000000000000000000000000000000000700000000000000000000000007
310
00000000000007000000000000000000000000000000000000000000000000000000000000000000000000000000000000000000000000000000000000000000000000000000000000000000000000000000000000000000000000000000000000000000000000000000000000000000000000000000000000000000000000
310
00000000000000000000000000000000000000000000000000000000000000000000000000000007000000000000000000000707070000000000070000000000000000000000000000000000000000000000000000000000000000000000000000000000000000000000000000000000000000000000000000000000000000
310
00000000000000000000000000000000000000000000000000000000000000000000000000000000000000000000000000000000000000000000000000000000000000000000000000000000000000000000000000000000000000000700000000000000000007070000000000000007000000000000000000000000000000
310
00000000000000000000000000000000000000000000000000000000000000000000000000000000000000000000000000000000000000000000000000000000000000000000000000000000000000000000000000000000000000000000000000000000000000000000000000000000000000000000000000000000000000
310
00000000000000000000000000000000000707000000000000000000070700000000000007000000000000000000000000000000000000000000000000000000000000000000000000000000000000000000000000000000000000000000000000000000000000000000000000000000000000000000000000000000000000
310
00000000000000000000000000000000000000000000000000000000000000000000000000000000000000000000000000000000000000000000000000000000000000000707000000000000000000000707000000000000000700000000000000000000000000000000000000000000000000000000000000000000000000
310
00000000000000000000000000000000000000000000000000000000000000000000000000000000000000000000000000000000000000000000000000000000000000000000000000000000000000000000000000000000000000000000000000000000000000000000000000000000000000000000070707000000000707
310
07070707070707070000000000000007000000000000000000000000000000000000000000000000000000000000000000000000000000000000000000000000000000000000000000000000000000000000000000000000000000000000000000000000000000000000000000000000000000000000000000000000000000
310
00000000000000000000000000000000000000000000000000000000000000000000000000000000000007070000000000070700000000000000000707000000000000000700000000000000000000000000000000000000000000000000000000000000000000000000000000000000000000000000000000000000000000
310
00000000000000000000000000000000000000000000000000000000000000000000000000000000000000000000000000000000000000000000000000000000000000000000000000000000000000000000000000000000000000000707070000000007070700000000000000000007070000000000000007000000000000
310
00000000000000000000000000000000000000000000000000000000000000000000000000000000000000000000000000000000000000000000000000000000000000000000000000000000000000000000000000000000000000000000000000000000000000000000000000000000000000000000000000000000000000
310
00000000000000000000000000000000070700000000070707000000000000000000000000070700000000000000070000000000000000000000000000000000000000000000000000000000000000000000000000000000000000000000000000000000000000000000000000000000000000000000000000000000000000
310
00000000000000000000000000000000000000000000000000000000000000000000000000000000000000000000000000000000000000000000000000000000000007070700000000070700000000000000000000000000000007070000000000000007000000000000000000000000000000000000000000000000000000
310
00000000000000000000000000000000000000000000000000000000000000000000000000000000000000000000000000000000000000000000000000000000000000000000000000000000000000000000000000000000000000000000000000000000000000000000000000000000000000000007070000000007070700
310
00000000000000000000000000000000070700000000000000070000000000000000000000000000000000000000000000000000000000000000000000000000000000000000000000000000000000000000000000000000000000000000000000000000000000000000000000000000000000000000000000000000000000
310
00000000000000000000000000000000000000000000000000000000000000000000000000000000070707000000070707000000000000000000000000000000000000000007000000000000000707000000000000000000000000000000000000000000000000000000000000000000000000000000000000000000000000
310
00000000000000000000000000000000000000000000000000000000000000000000000000000000000000000000000000000000000000000000000000000000000000000000000000000000000000000000000000000000000000000007000000070700000000000000000000000000000000000000000000000707000000
310
00000007000000000000000000000000000000000000000000000000000000000000000000000000000000000000000000000000000000000000000000000000000000000000000000000000000000000000000000000000000000000000000000000000000000000000000000000000000000000000000000000000000000
310
00000000000000000000000000000000000000000707070000000000000000000000000000000000000000000000000000000707070700070700000000000000000000000000000000000000000000000000000000000000000000000000000000000000000000000000000000000000000000000000000000000000000000
310
00000000000000000000000000000000000000000000000000000000000000000000000000000000000000000000000000000000000000000000000000000000000000000000000000000000000000000000000000000000000000000000000000000000000000000000000707000000000000000000000000000000000000
310
00000000000000000000000000000000000000000000000000000000000000000000000000000000000000000000000000000000000000000000000000000000000000000000000000000000000000000000000000000000000000000000000000000000000000000000000000000000000000000000000000000000000000
310
000000000000000000000000000000000000000000000000000000000000000000000000000000000000000000000000000000000000000000000000000000000000000000000000000000000000000000000000000000000000000000000000000000000000000000000000
  0
ENDSEC
  0
EOF
