  0
SECTION
  2
HEADER
  9
$ACADVER
  1
AC1015
  9
$ACADMAINTVER
 70
     6
  9
$DWGCODEPAGE
  3
ANSI_1252
  9
$INSBASE
 10
0.0
 20
0.0
 30
0.0
  9
$EXTMIN
 10
0.14335
 20
-0.1305
 30
0.0
  9
$EXTMAX
 10
475.85425
 20
1169.1305
 30
0.0
  9
$LIMMIN
 10
0.0
 20
0.0
  9
$LIMMAX
 10
12.0
 20
9.0
  9
$ORTHOMODE
 70
     0
  9
$REGENMODE
 70
     1
  9
$FILLMODE
 70
     1
  9
$QTEXTMODE
 70
     0
  9
$MIRRTEXT
 70
     1
  9
$LTSCALE
 40
1.0
  9
$ATTMODE
 70
     1
  9
$TEXTSIZE
 40
0.2
  9
$TRACEWID
 40
0.05
  9
$TEXTSTYLE
  7
Standard
  9
$CLAYER
  8
0
  9
$CELTYPE
  6
ByBlock
  9
$CECOLOR
 62
   256
  9
$CELTSCALE
 40
1.0
  9
$DISPSILH
 70
     0
  9
$DIMSCALE
 40
1.0
  9
$DIMASZ
 40
0.18
  9
$DIMEXO
 40
0.0625
  9
$DIMDLI
 40
0.38
  9
$DIMRND
 40
0.0
  9
$DIMDLE
 40
0.0
  9
$DIMEXE
 40
0.18
  9
$DIMTP
 40
0.0
  9
$DIMTM
 40
0.0
  9
$DIMTXT
 40
0.18
  9
$DIMCEN
 40
0.09
  9
$DIMTSZ
 40
0.0
  9
$DIMTOL
 70
     0
  9
$DIMLIM
 70
     0
  9
$DIMTIH
 70
     1
  9
$DIMTOH
 70
     1
  9
$DIMSE1
 70
     0
  9
$DIMSE2
 70
     0
  9
$DIMTAD
 70
     0
  9
$DIMZIN
 70
     0
  9
$DIMBLK
  1

  9
$DIMASO
 70
     1
  9
$DIMSHO
 70
     1
  9
$DIMPOST
  1

  9
$DIMAPOST
  1

  9
$DIMALT
 70
     0
  9
$DIMALTD
 70
     2
  9
$DIMALTF
 40
25.4
  9
$DIMLFAC
 40
1.0
  9
$DIMTOFL
 70
     0
  9
$DIMTVP
 40
0.0
  9
$DIMTIX
 70
     0
  9
$DIMSOXD
 70
     0
  9
$DIMSAH
 70
     0
  9
$DIMBLK1
  1

  9
$DIMBLK2
  1

  9
$DIMSTYLE
  2
Standard
  9
$DIMCLRD
 70
     0
  9
$DIMCLRE
 70
     0
  9
$DIMCLRT
 70
     0
  9
$DIMTFAC
 40
1.0
  9
$DIMGAP
 40
0.09
  9
$DIMJUST
 70
     0
  9
$DIMSD1
 70
     0
  9
$DIMSD2
 70
     0
  9
$DIMTOLJ
 70
     1
  9
$DIMTZIN
 70
     0
  9
$DIMALTZ
 70
     0
  9
$DIMALTTZ
 70
     0
  9
$DIMUPT
 70
     0
  9
$DIMDEC
 70
     4
  9
$DIMTDEC
 70
     4
  9
$DIMALTU
 70
     2
  9
$DIMALTTD
 70
     2
  9
$DIMTXSTY
  7
Standard
  9
$DIMAUNIT
 70
     0
  9
$DIMADEC
 70
     0
  9
$DIMALTRND
 40
0.0
  9
$DIMAZIN
 70
     0
  9
$DIMDSEP
 70
    46
  9
$DIMATFIT
 70
     3
  9
$DIMFRAC
 70
     0
  9
$DIMLDRBLK
  1

  9
$DIMLUNIT
 70
     2
  9
$DIMLWD
 70
    -2
  9
$DIMLWE
 70
    -2
  9
$DIMTMOVE
 70
     2
  9
$LUNITS
 70
     2
  9
$LUPREC
 70
     4
  9
$SKETCHINC
 40
0.1
  9
$FILLETRAD
 40
0.5
  9
$AUNITS
 70
     0
  9
$AUPREC
 70
     0
  9
$MENU
  1
.
  9
$ELEVATION
 40
0.0
  9
$PELEVATION
 40
0.0
  9
$THICKNESS
 40
0.0
  9
$LIMCHECK
 70
     0
  9
$CHAMFERA
 40
0.5
  9
$CHAMFERB
 40
0.5
  9
$CHAMFERC
 40
1.0
  9
$CHAMFERD
 40
0.0
  9
$SKPOLY
 70
     0
  9
$TDCREATE
 40
2456647.359622569
  9
$TDUCREATE
 40
2456647.317955903
  9
$TDUPDATE
 40
2456647.361994537
  9
$TDUUPDATE
 40
2456647.320327871
  9
$TDINDWG
 40
0.0023642014
  9
$TDUSRTIMER
 40
0.0023642014
  9
$USRTIMER
 70
     1
  9
$ANGBASE
 50
0.0
  9
$ANGDIR
 70
     0
  9
$PDMODE
 70
     0
  9
$PDSIZE
 40
0.0
  9
$PLINEWID
 40
0.0
  9
$SPLFRAME
 70
     0
  9
$SPLINETYPE
 70
     6
  9
$SPLINESEGS
 70
     8
  9
$HANDSEED
  5
2C74
  9
$SURFTAB1
 70
     6
  9
$SURFTAB2
 70
     6
  9
$SURFTYPE
 70
     6
  9
$SURFU
 70
     6
  9
$SURFV
 70
     6
  9
$UCSBASE
  2

  9
$UCSNAME
  2

  9
$UCSORG
 10
0.0
 20
0.0
 30
0.0
  9
$UCSXDIR
 10
1.0
 20
0.0
 30
0.0
  9
$UCSYDIR
 10
0.0
 20
1.0
 30
0.0
  9
$UCSORTHOREF
  2

  9
$UCSORTHOVIEW
 70
     0
  9
$UCSORGTOP
 10
0.0
 20
0.0
 30
0.0
  9
$UCSORGBOTTOM
 10
0.0
 20
0.0
 30
0.0
  9
$UCSORGLEFT
 10
0.0
 20
0.0
 30
0.0
  9
$UCSORGRIGHT
 10
0.0
 20
0.0
 30
0.0
  9
$UCSORGFRONT
 10
0.0
 20
0.0
 30
0.0
  9
$UCSORGBACK
 10
0.0
 20
0.0
 30
0.0
  9
$PUCSBASE
  2

  9
$PUCSNAME
  2

  9
$PUCSORG
 10
0.0
 20
0.0
 30
0.0
  9
$PUCSXDIR
 10
1.0
 20
0.0
 30
0.0
  9
$PUCSYDIR
 10
0.0
 20
1.0
 30
0.0
  9
$PUCSORTHOREF
  2

  9
$PUCSORTHOVIEW
 70
     0
  9
$PUCSORGTOP
 10
0.0
 20
0.0
 30
0.0
  9
$PUCSORGBOTTOM
 10
0.0
 20
0.0
 30
0.0
  9
$PUCSORGLEFT
 10
0.0
 20
0.0
 30
0.0
  9
$PUCSORGRIGHT
 10
0.0
 20
0.0
 30
0.0
  9
$PUCSORGFRONT
 10
0.0
 20
0.0
 30
0.0
  9
$PUCSORGBACK
 10
0.0
 20
0.0
 30
0.0
  9
$USERI1
 70
     0
  9
$USERI2
 70
     0
  9
$USERI3
 70
     0
  9
$USERI4
 70
     0
  9
$USERI5
 70
     0
  9
$USERR1
 40
0.0
  9
$USERR2
 40
0.0
  9
$USERR3
 40
0.0
  9
$USERR4
 40
0.0
  9
$USERR5
 40
0.0
  9
$WORLDVIEW
 70
     1
  9
$SHADEDGE
 70
     3
  9
$SHADEDIF
 70
    70
  9
$TILEMODE
 70
     1
  9
$MAXACTVP
 70
    64
  9
$PINSBASE
 10
0.0
 20
0.0
 30
0.0
  9
$PLIMCHECK
 70
     0
  9
$PEXTMIN
 10
1.000000000000E+20
 20
1.000000000000E+20
 30
1.000000000000E+20
  9
$PEXTMAX
 10
-1.000000000000E+20
 20
-1.000000000000E+20
 30
-1.000000000000E+20
  9
$PLIMMIN
 10
0.0
 20
0.0
  9
$PLIMMAX
 10
12.0
 20
9.0
  9
$UNITMODE
 70
     0
  9
$VISRETAIN
 70
     1
  9
$PLINEGEN
 70
     0
  9
$PSLTSCALE
 70
     1
  9
$TREEDEPTH
 70
  3020
  9
$CMLSTYLE
  2
Standard
  9
$CMLJUST
 70
     0
  9
$CMLSCALE
 40
1.0
  9
$PROXYGRAPHICS
 70
     1
  9
$MEASUREMENT
 70
     0
  9
$CELWEIGHT
370
    -1
  9
$ENDCAPS
280
     0
  9
$JOINSTYLE
280
     0
  9
$LWDISPLAY
290
     0
  9
$INSUNITS
 70
     0
  9
$HYPERLINKBASE
  1

  9
$STYLESHEET
  1

  9
$XEDIT
290
     1
  9
$CEPSNTYPE
380
     0
  9
$PSTYLEMODE
290
     1
  9
$FINGERPRINTGUID
  2
{522C9902-9D10-4C1F-90D3-75BE03754E5A}
  9
$VERSIONGUID
  2
{FAEB1C32-E019-11D5-929B-00C0DF256EC4}
  9
$EXTNAMES
290
     1
  9
$PSVPSCALE
 40
0.0
  9
$OLESTARTUP
290
     0
  0
ENDSEC
  0
SECTION
  2
CLASSES
  0
CLASS
  1
ACDBDICTIONARYWDFLT
  2
AcDbDictionaryWithDefault
  3
ObjectDBX Classes
 90
        0
280
     0
281
     0
  0
CLASS
  1
SCALE
  2
AcDbScale
  3
ObjectDBX Classes
 90
     1153
280
     0
281
     0
  0
CLASS
  1
DICTIONARYVAR
  2
AcDbDictionaryVar
  3
ObjectDBX Classes
 90
        0
280
     0
281
     0
  0
CLASS
  1
ACDBPLACEHOLDER
  2
AcDbPlaceHolder
  3
ObjectDBX Classes
 90
        0
280
     0
281
     0
  0
CLASS
  1
LAYOUT
  2
AcDbLayout
  3
ObjectDBX Classes
 90
        0
280
     0
281
     0
  0
ENDSEC
  0
SECTION
  2
TABLES
  0
TABLE
  2
VPORT
  5
8
330
0
100
AcDbSymbolTable
 70
     1
  0
VPORT
  5
F21
330
8
100
AcDbSymbolTableRecord
100
AcDbViewportTableRecord
  2
*Active
 70
     0
 10
0.0
 20
0.0
 11
1.0
 21
1.0
 12
237.927125
 22
584.5
 13
0.0
 23
0.0
 14
0.5
 24
0.5
 15
0.5
 25
0.5
 16
0.0
 26
0.0
 36
1.0
 17
0.0
 27
0.0
 37
0.0
 40
1192.64622
 41
1.729542302358
 42
50.0
 43
0.0
 44
0.0
 50
0.0
 51
0.0
 71
    16
 72
   100
 73
     1
 74
     3
 75
     0
 76
     0
 77
     0
 78
     0
281
     0
 65
     1
110
0.0
120
0.0
130
0.0
111
1.0
121
0.0
131
0.0
112
0.0
122
1.0
132
0.0
 79
     0
146
0.0
  0
ENDTAB
  0
TABLE
  2
LTYPE
  5
5
330
0
100
AcDbSymbolTable
 70
     1
  0
LTYPE
  5
14
330
5
100
AcDbSymbolTableRecord
100
AcDbLinetypeTableRecord
  2
ByBlock
 70
     0
  3

 72
    65
 73
     0
 40
0.0
  0
LTYPE
  5
15
330
5
100
AcDbSymbolTableRecord
100
AcDbLinetypeTableRecord
  2
ByLayer
 70
     0
  3

 72
    65
 73
     0
 40
0.0
  0
LTYPE
  5
16
330
5
100
AcDbSymbolTableRecord
100
AcDbLinetypeTableRecord
  2
Continuous
 70
     0
  3
Solid line
 72
    65
 73
     0
 40
0.0
  0
ENDTAB
  0
TABLE
  2
LAYER
  5
2
330
0
100
AcDbSymbolTable
 70
     1
  0
LAYER
  5
10
330
2
100
AcDbSymbolTableRecord
100
AcDbLayerTableRecord
  2
0
 70
     0
 62
     7
  6
Continuous
370
    -3
390
F
  0
ENDTAB
  0
TABLE
  2
STYLE
  5
3
330
0
100
AcDbSymbolTable
 70
     1
  0
STYLE
  5
11
330
3
100
AcDbSymbolTableRecord
100
AcDbTextStyleTableRecord
  2
Standard
 70
     0
 40
0.0
 41
1.0
 50
0.0
 71
     0
 42
0.2
  3
txt
  4

  0
ENDTAB
  0
TABLE
  2
VIEW
  5
6
330
0
100
AcDbSymbolTable
 70
     0
  0
ENDTAB
  0
TABLE
  2
UCS
  5
7
330
0
100
AcDbSymbolTable
 70
     0
  0
ENDTAB
  0
TABLE
  2
APPID
  5
9
330
0
100
AcDbSymbolTable
 70
     1
  0
APPID
  5
12
330
9
100
AcDbSymbolTableRecord
100
AcDbRegAppTableRecord
  2
ACAD
 70
     0
  0
ENDTAB
  0
TABLE
  2
DIMSTYLE
  5
A
330
0
100
AcDbSymbolTable
 70
     1
100
AcDbDimStyleTable
  0
DIMSTYLE
105
20
330
A
100
AcDbSymbolTableRecord
100
AcDbDimStyleTableRecord
  2
Standard
 70
     0
340
11
  0
ENDTAB
  0
TABLE
  2
BLOCK_RECORD
  5
1
330
0
100
AcDbSymbolTable
 70
     1
  0
BLOCK_RECORD
  5
1D
330
1
100
AcDbSymbolTableRecord
100
AcDbBlockTableRecord
  2
*Model_Space
340
1E
  0
BLOCK_RECORD
  5
1B
330
1
100
AcDbSymbolTableRecord
100
AcDbBlockTableRecord
  2
*Paper_Space
340
1C
  0
ENDTAB
  0
ENDSEC
  0
SECTION
  2
BLOCKS
  0
BLOCK
  5
F24
330
1D
100
AcDbEntity
  8
0
100
AcDbBlockBegin
  2
*Model_Space
 70
     0
 10
0.0
 20
0.0
 30
0.0
  3
*Model_Space
  1
*Model_Space
  0
ENDBLK
  5
F25
330
1D
100
AcDbEntity
  8
0
100
AcDbBlockEnd
  0
BLOCK
  5
F22
330
1B
100
AcDbEntity
 67
     1
  8
0
100
AcDbBlockBegin
  2
*Paper_Space
 70
     0
 10
0.0
 20
0.0
 30
0.0
  3
*Paper_Space
  1
*Paper_Space
  0
ENDBLK
  5
F23
330
1B
100
AcDbEntity
 67
     1
  8
0
100
AcDbBlockEnd
  0
ENDSEC
  0
SECTION
  2
ENTITIES
  0
LINE
  5
246
330
1D
100
AcDbEntity
  8
0
100
AcDbLine
 10
410.70145
 20
0.3955
 30
0.0
 11
412.29745
 21
0.0055
 31
0.0
  0
LINE
  5
247
330
1D
100
AcDbEntity
  8
0
100
AcDbLine
 10
414.09745
 20
-0.0865
 30
0.0
 11
415.99645
 21
-0.1305
 31
0.0
  0
LINE
  5
248
330
1D
100
AcDbEntity
  8
0
100
AcDbLine
 10
412.29745
 20
0.0055
 30
0.0
 11
414.09745
 21
-0.0865
 31
0.0
  0
LINE
  5
D23
330
1D
100
AcDbEntity
  8
0
100
AcDbLine
 10
415.99645
 20
-0.1305
 30
0.0
 11
417.89645
 21
-0.1225
 31
0.0
  0
LINE
  5
D2F
330
1D
100
AcDbEntity
  8
0
100
AcDbLine
 10
417.89645
 20
-0.1225
 30
0.0
 11
419.69745
 21
-0.0645
 31
0.0
  0
LINE
  5
D45
330
1D
100
AcDbEntity
  8
0
100
AcDbLine
 10
419.69745
 20
-0.0645
 30
0.0
 11
421.30045
 21
0.2955
 31
0.0
  0
LINE
  5
2526
330
1D
100
AcDbEntity
  8
0
100
AcDbLine
 10
64.42645
 20
1104.6105
 30
0.0
 11
64.98415
 21
1104.5105
 31
0.0
  0
LINE
  5
2527
330
1D
100
AcDbEntity
  8
0
100
AcDbLine
 10
64.42645
 20
1104.6105
 30
0.0
 11
64.77375
 21
1106.5805
 31
0.0
  0
LINE
  5
2528
330
1D
100
AcDbEntity
  8
0
100
AcDbLine
 10
64.42645
 20
1104.6105
 30
0.0
 11
64.773707475662
 21
1106.58025878795
 31
0.0
  0
LINE
  5
2529
330
1D
100
AcDbEntity
  8
0
100
AcDbLine
 10
64.77375
 20
1106.5805
 30
0.0
 11
65.33145
 21
1106.4805
 31
0.0
  0
LINE
  5
252A
330
1D
100
AcDbEntity
  8
0
100
AcDbLine
 10
50.17615
 20
1107.1205
 30
0.0
 11
50.52345
 21
1109.0905
 31
0.0
  0
LINE
  5
252B
330
1D
100
AcDbEntity
  8
0
100
AcDbLine
 10
49.61855
 20
1107.2205
 30
0.0
 11
50.17615
 21
1107.1205
 31
0.0
  0
LINE
  5
252C
330
1D
100
AcDbEntity
  8
0
100
AcDbLine
 10
49.61855
 20
1107.2205
 30
0.0
 11
49.96585
 21
1109.1905
 31
0.0
  0
LINE
  5
252D
330
1D
100
AcDbEntity
  8
0
100
AcDbLine
 10
48.31745
 20
1107.4505
 30
0.0
 11
49.61855
 21
1107.2205
 31
0.0
  0
LINE
  5
252E
330
1D
100
AcDbEntity
  8
0
100
AcDbLine
 10
48.31745
 20
1107.4505
 30
0.0
 11
48.66465
 21
1109.4205
 31
0.0
  0
LINE
  5
252F
330
1D
100
AcDbEntity
  8
0
100
AcDbLine
 10
48.66465
 20
1109.4205
 30
0.0
 11
49.96585
 21
1109.1905
 31
0.0
  0
LINE
  5
2530
330
1D
100
AcDbEntity
  8
0
100
AcDbLine
 10
49.96585
 20
1109.1905
 30
0.0
 11
50.52345
 21
1109.0905
 31
0.0
  0
LINE
  5
2531
330
1D
100
AcDbEntity
  8
0
100
AcDbLine
 10
46.45865
 20
1107.7805
 30
0.0
 11
47.01625
 21
1107.6805
 31
0.0
  0
LINE
  5
2532
330
1D
100
AcDbEntity
  8
0
100
AcDbLine
 10
46.45865
 20
1107.7805
 30
0.0
 11
46.805754835562
 21
1109.74939296302
 31
0.0
  0
LINE
  5
2533
330
1D
100
AcDbEntity
  8
0
100
AcDbLine
 10
46.45865
 20
1107.7805
 30
0.0
 11
46.80556536437
 21
1109.74831822001
 31
0.0
  0
LINE
  5
2534
330
1D
100
AcDbEntity
  8
0
100
AcDbLine
 10
47.01625
 20
1107.6805
 30
0.0
 11
48.31745
 21
1107.4505
 31
0.0
  0
LINE
  5
2535
330
1D
100
AcDbEntity
  8
0
100
AcDbLine
 10
47.01625
 20
1107.6805
 30
0.0
 11
47.36355
 21
1109.6505
 31
0.0
  0
LINE
  5
2536
330
1D
100
AcDbEntity
  8
0
100
AcDbLine
 10
64.8568606836
 20
1106.56559760022
 30
0.0
 11
67.114022730842
 21
1106.16762526289
 31
0.0
  0
LINE
  5
2537
330
1D
100
AcDbEntity
  8
0
100
AcDbLine
 10
64.856860683599
 20
1106.56559760022
 30
0.0
 11
67.114022730841
 21
1106.16762526289
 31
0.0
  0
LINE
  5
2538
330
1D
100
AcDbEntity
  8
0
100
AcDbLine
 10
64.979468138022
 20
1106.54398002284
 30
0.0
 11
67.114022730841
 21
1106.16762526289
 31
0.0
  0
LINE
  5
2539
330
1D
100
AcDbEntity
  8
0
100
AcDbLine
 10
64.98415
 20
1104.5105
 30
0.0
 11
66.28535
 21
1104.2805
 31
0.0
  0
LINE
  5
253A
330
1D
100
AcDbEntity
  8
0
100
AcDbLine
 10
64.98415
 20
1104.5105
 30
0.0
 11
65.33145
 21
1106.4805
 31
0.0
  0
LINE
  5
253B
330
1D
100
AcDbEntity
  8
0
100
AcDbLine
 10
68.14405
 20
1103.9605
 30
0.0
 11
68.490473859524
 21
1105.92553024262
 31
0.0
  0
LINE
  5
253C
330
1D
100
AcDbEntity
  8
0
100
AcDbLine
 10
67.58635
 20
1104.0505
 30
0.0
 11
68.14405
 21
1103.9605
 31
0.0
  0
LINE
  5
253D
330
1D
100
AcDbEntity
  8
0
100
AcDbLine
 10
67.58635
 20
1104.0505
 30
0.0
 11
67.93365
 21
1106.0205
 31
0.0
  0
LINE
  5
253E
330
1D
100
AcDbEntity
  8
0
100
AcDbLine
 10
66.28535
 20
1104.2805
 30
0.0
 11
67.58635
 21
1104.0505
 31
0.0
  0
LINE
  5
253F
330
1D
100
AcDbEntity
  8
0
100
AcDbLine
 10
66.28535
 20
1104.2805
 30
0.0
 11
66.63265
 21
1106.2505
 31
0.0
  0
LINE
  5
2540
330
1D
100
AcDbEntity
  8
0
100
AcDbLine
 10
65.33145
 20
1106.4805
 30
0.0
 11
66.63265
 21
1106.2505
 31
0.0
  0
LINE
  5
2541
330
1D
100
AcDbEntity
  8
0
100
AcDbLine
 10
66.63265
 20
1106.2505
 30
0.0
 11
67.93365
 21
1106.0205
 31
0.0
  0
LINE
  5
2542
330
1D
100
AcDbEntity
  8
0
100
AcDbLine
 10
66.63265
 20
1106.2505
 30
0.0
 11
67.264191764083
 21
1106.14177166057
 31
0.0
  0
LINE
  5
2543
330
1D
100
AcDbEntity
  8
0
100
AcDbLine
 10
66.63265
 20
1106.2505
 30
0.0
 11
67.264191764083
 21
1106.14177166057
 31
0.0
  0
LINE
  5
2544
330
1D
100
AcDbEntity
  8
0
100
AcDbLine
 10
67.93365
 20
1106.0205
 30
0.0
 11
68.148864539639
 21
1105.98576930506
 31
0.0
  0
LINE
  5
2545
330
1D
100
AcDbEntity
  8
0
100
AcDbLine
 10
67.93365
 20
1106.0205
 30
0.0
 11
68.148864539639
 21
1105.98576930506
 31
0.0
  0
LINE
  5
2546
330
1D
100
AcDbEntity
  8
0
100
AcDbLine
 10
65.33145
 20
1106.4805
 30
0.0
 11
66.63265
 21
1106.2505
 31
0.0
  0
LINE
  5
2547
330
1D
100
AcDbEntity
  8
0
100
AcDbLine
 10
68.490372219734
 20
1105.92495370825
 30
0.0
 11
81.191817440311
 21
1103.68549383073
 31
0.0
  0
LINE
  5
2548
330
1D
100
AcDbEntity
  8
0
100
AcDbLine
 10
68.490372219734
 20
1105.92495370825
 30
0.0
 11
85.15398704683
 21
1102.986902473
 31
0.0
  0
LINE
  5
2549
330
1D
100
AcDbEntity
  8
0
100
AcDbLine
 10
64.979468138023
 20
1106.54398002284
 30
0.0
 11
67.114022730842
 21
1106.16762526289
 31
0.0
  0
LINE
  5
254A
330
1D
100
AcDbEntity
  8
0
100
AcDbLine
 10
14.24045
 20
1113.4605
 30
0.0
 11
14.58775
 21
1115.4305
 31
0.0
  0
LINE
  5
254B
330
1D
100
AcDbEntity
  8
0
100
AcDbLine
 10
13.68275
 20
1113.5605
 30
0.0
 11
14.24045
 21
1113.4605
 31
0.0
  0
LINE
  5
254C
330
1D
100
AcDbEntity
  8
0
100
AcDbLine
 10
13.68275
 20
1113.5605
 30
0.0
 11
14.029798587001
 21
1115.52907390266
 31
0.0
  0
LINE
  5
254D
330
1D
100
AcDbEntity
  8
0
100
AcDbLine
 10
12.38175
 20
1113.7905
 30
0.0
 11
13.68275
 21
1113.5605
 31
0.0
  0
LINE
  5
254E
330
1D
100
AcDbEntity
  8
0
100
AcDbLine
 10
12.38175
 20
1113.7905
 30
0.0
 11
12.728698923657
 21
1115.75850857934
 31
0.0
  0
LINE
  5
254F
330
1D
100
AcDbEntity
  8
0
100
AcDbLine
 10
10.52295
 20
1114.1205
 30
0.0
 11
11.08065
 21
1114.0205
 31
0.0
  0
LINE
  5
2550
330
1D
100
AcDbEntity
  8
0
100
AcDbLine
 10
10.52295
 20
1114.1205
 30
0.0
 11
10.869184156422
 21
1116.08445418414
 31
0.0
  0
LINE
  5
2551
330
1D
100
AcDbEntity
  8
0
100
AcDbLine
 10
10.52295
 20
1114.1205
 30
0.0
 11
10.869519183104
 21
1116.08635456584
 31
0.0
  0
LINE
  5
2552
330
1D
100
AcDbEntity
  8
0
100
AcDbLine
 10
11.08065
 20
1114.0205
 30
0.0
 11
12.38175
 21
1113.7905
 31
0.0
  0
LINE
  5
2553
330
1D
100
AcDbEntity
  8
0
100
AcDbLine
 10
11.08065
 20
1114.0205
 30
0.0
 11
11.427502275341
 21
1115.98796035826
 31
0.0
  0
LINE
  5
2554
330
1D
100
AcDbEntity
  8
0
100
AcDbLine
 10
14.586998159146
 20
1115.42894647249
 30
0.0
 11
28.837423253078
 21
1112.91637765207
 31
0.0
  0
LINE
  5
2555
330
1D
100
AcDbEntity
  8
0
100
AcDbLine
 10
14.525340972853
 20
1115.44169042983
 30
0.0
 11
14.58775
 21
1115.4305
 31
0.0
  0
LINE
  5
2556
330
1D
100
AcDbEntity
  8
0
100
AcDbLine
 10
14.525340972853
 20
1115.44169042983
 30
0.0
 11
14.58775
 21
1115.4305
 31
0.0
  0
LINE
  5
2557
330
1D
100
AcDbEntity
  8
0
100
AcDbLine
 10
14.586998159146
 20
1115.42894647249
 30
0.0
 11
28.837423253078
 21
1112.91637765207
 31
0.0
  0
LINE
  5
2558
330
1D
100
AcDbEntity
  8
0
100
AcDbLine
 10
9.498576900864
 20
1116.32775323847
 30
0.0
 11
10.8694599822
 21
1116.08601875881
 31
0.0
  0
LINE
  5
2559
330
1D
100
AcDbEntity
  8
0
100
AcDbLine
 10
9.498576900865
 20
1116.32775323847
 30
0.0
 11
10.8694599822
 21
1116.08601875881
 31
0.0
  0
LINE
  5
255A
330
1D
100
AcDbEntity
  8
0
100
AcDbLine
 10
9.82525
 20
1116.2705
 30
0.0
 11
93.58435
 21
1101.5005
 31
0.0
  0
LINE
  5
255B
330
1D
100
AcDbEntity
  8
0
100
AcDbLine
 10
14.58746171294
 20
1115.42886474084
 30
0.0
 11
28.837423253078
 21
1112.91637765207
 31
0.0
  0
LINE
  5
255C
330
1D
100
AcDbEntity
  8
0
100
AcDbLine
 10
7.373612323952
 20
1116.70245857498
 30
0.0
 11
7.94235
 21
1116.6005
 31
0.0
  0
LINE
  5
255D
330
1D
100
AcDbEntity
  8
0
100
AcDbLine
 10
7.94235
 20
1116.6005
 30
0.0
 11
10.869184156422
 21
1116.08445418414
 31
0.0
  0
LINE
  5
255E
330
1D
100
AcDbEntity
  8
0
100
AcDbLine
 10
7.94235
 20
1116.6005
 30
0.0
 11
10.869184156422
 21
1116.08445418414
 31
0.0
  0
LINE
  5
255F
330
1D
100
AcDbEntity
  8
0
100
AcDbLine
 10
7.94235
 20
1116.6005
 30
0.0
 11
14.029476360659
 21
1115.5272461287
 31
0.0
  0
LINE
  5
2560
330
1D
100
AcDbEntity
  8
0
100
AcDbLine
 10
7.94235
 20
1116.6005
 30
0.0
 11
14.029476360659
 21
1115.5272461287
 31
0.0
  0
LINE
  5
2561
330
1D
100
AcDbEntity
  8
0
100
AcDbLine
 10
32.20835
 20
1110.2905
 30
0.0
 11
32.55565
 21
1112.2605
 31
0.0
  0
LINE
  5
2562
330
1D
100
AcDbEntity
  8
0
100
AcDbLine
 10
31.65075
 20
1110.3905
 30
0.0
 11
32.20835
 21
1110.2905
 31
0.0
  0
LINE
  5
2563
330
1D
100
AcDbEntity
  8
0
100
AcDbLine
 10
31.65075
 20
1110.3905
 30
0.0
 11
31.99805
 21
1112.3605
 31
0.0
  0
LINE
  5
2564
330
1D
100
AcDbEntity
  8
0
100
AcDbLine
 10
30.34955
 20
1110.6205
 30
0.0
 11
31.65075
 21
1110.3905
 31
0.0
  0
LINE
  5
2565
330
1D
100
AcDbEntity
  8
0
100
AcDbLine
 10
30.34955
 20
1110.6205
 30
0.0
 11
30.6967682574
 21
1112.59003632905
 31
0.0
  0
LINE
  5
2566
330
1D
100
AcDbEntity
  8
0
100
AcDbLine
 10
28.49085
 20
1110.9505
 30
0.0
 11
29.04845
 21
1110.8505
 31
0.0
  0
LINE
  5
2567
330
1D
100
AcDbEntity
  8
0
100
AcDbLine
 10
28.49085
 20
1110.9505
 30
0.0
 11
28.837423253078
 21
1112.91637765207
 31
0.0
  0
LINE
  5
2568
330
1D
100
AcDbEntity
  8
0
100
AcDbLine
 10
28.49085
 20
1110.9505
 30
0.0
 11
28.837685501819
 21
1112.91786521331
 31
0.0
  0
LINE
  5
2569
330
1D
100
AcDbEntity
  8
0
100
AcDbLine
 10
29.04845
 20
1110.8505
 30
0.0
 11
30.34955
 21
1110.6205
 31
0.0
  0
LINE
  5
256A
330
1D
100
AcDbEntity
  8
0
100
AcDbLine
 10
29.04845
 20
1110.8505
 30
0.0
 11
29.395571609084
 21
1112.81948810796
 31
0.0
  0
LINE
  5
256B
330
1D
100
AcDbEntity
  8
0
100
AcDbLine
 10
47.36355
 20
1109.6505
 30
0.0
 11
48.66465
 21
1109.4205
 31
0.0
  0
LINE
  5
256C
330
1D
100
AcDbEntity
  8
0
100
AcDbLine
 10
47.250939557173
 20
1109.67069556005
 30
0.0
 11
67.237780112944
 21
1106.14631877864
 31
0.0
  0
LINE
  5
256D
330
1D
100
AcDbEntity
  8
0
100
AcDbLine
 10
47.186309759721
 20
1109.68228626978
 30
0.0
 11
47.36355
 21
1109.6505
 31
0.0
  0
LINE
  5
256E
330
1D
100
AcDbEntity
  8
0
100
AcDbLine
 10
47.186309759721
 20
1109.68228626978
 30
0.0
 11
47.36355
 21
1109.6505
 31
0.0
  0
LINE
  5
256F
330
1D
100
AcDbEntity
  8
0
100
AcDbLine
 10
47.250939557173
 20
1109.67069556005
 30
0.0
 11
67.237780112944
 21
1106.14631877864
 31
0.0
  0
LINE
  5
2570
330
1D
100
AcDbEntity
  8
0
100
AcDbLine
 10
48.592522419298
 20
1109.43325024484
 30
0.0
 11
64.773707475662
 21
1106.58025878795
 31
0.0
  0
LINE
  5
2571
330
1D
100
AcDbEntity
  8
0
100
AcDbLine
 10
48.592522419294
 20
1109.43325024484
 30
0.0
 11
64.773707475662
 21
1106.58025878795
 31
0.0
  0
LINE
  5
2572
330
1D
100
AcDbEntity
  8
0
100
AcDbLine
 10
48.637742633932
 20
1109.42527722645
 30
0.0
 11
64.773707475662
 21
1106.58025878795
 31
0.0
  0
LINE
  5
2573
330
1D
100
AcDbEntity
  8
0
100
AcDbLine
 10
32.457402146207
 20
1112.27811977292
 30
0.0
 11
46.80556536437
 21
1109.74831822001
 31
0.0
  0
LINE
  5
2574
330
1D
100
AcDbEntity
  8
0
100
AcDbLine
 10
31.99805
 20
1112.3605
 30
0.0
 11
32.55565
 21
1112.2605
 31
0.0
  0
LINE
  5
2575
330
1D
100
AcDbEntity
  8
0
100
AcDbLine
 10
31.832807898075
 20
1112.38970817971
 30
0.0
 11
31.99805
 21
1112.3605
 31
0.0
  0
LINE
  5
2576
330
1D
100
AcDbEntity
  8
0
100
AcDbLine
 10
31.832807898076
 20
1112.38970817971
 30
0.0
 11
31.99805
 21
1112.3605
 31
0.0
  0
LINE
  5
2577
330
1D
100
AcDbEntity
  8
0
100
AcDbLine
 10
14.587725139579
 20
1115.4303589835
 30
0.0
 11
28.837639161143
 21
1112.91760235373
 31
0.0
  0
LINE
  5
2578
330
1D
100
AcDbEntity
  8
0
100
AcDbLine
 10
14.587725139579
 20
1115.4303589835
 30
0.0
 11
28.837639161143
 21
1112.91760235373
 31
0.0
  0
LINE
  5
2579
330
1D
100
AcDbEntity
  8
0
100
AcDbLine
 10
32.060694459179
 20
1112.34926534089
 30
0.0
 11
46.805721355046
 21
1109.74920305051
 31
0.0
  0
LINE
  5
257A
330
1D
100
AcDbEntity
  8
0
100
AcDbLine
 10
32.060694459179
 20
1112.34926534089
 30
0.0
 11
46.805721355046
 21
1109.74920305051
 31
0.0
  0
LINE
  5
257B
330
1D
100
AcDbEntity
  8
0
100
AcDbLine
 10
32.457402146208
 20
1112.27811977292
 30
0.0
 11
46.80556536437
 21
1109.74831822001
 31
0.0
  0
LINE
  5
257C
330
1D
100
AcDbEntity
  8
0
100
AcDbLine
 10
14.58746171294
 20
1115.42886474084
 30
0.0
 11
28.837423253078
 21
1112.91637765207
 31
0.0
  0
LINE
  5
257D
330
1D
100
AcDbEntity
  8
0
100
AcDbLine
 10
48.637742633933
 20
1109.42527722645
 30
0.0
 11
64.773707475662
 21
1106.58025878795
 31
0.0
  0
LINE
  5
257E
330
1D
100
AcDbEntity
  8
0
100
AcDbLine
 10
86.11186
 20
1100.7905
 30
0.0
 11
86.458552891764
 21
1102.75705628211
 31
0.0
  0
LINE
  5
257F
330
1D
100
AcDbEntity
  8
0
100
AcDbLine
 10
85.55426
 20
1100.8905
 30
0.0
 11
86.11186
 21
1100.7905
 31
0.0
  0
LINE
  5
2580
330
1D
100
AcDbEntity
  8
0
100
AcDbLine
 10
85.55426
 20
1100.8905
 30
0.0
 11
85.900666784499
 21
1102.85543338745
 31
0.0
  0
LINE
  5
2581
330
1D
100
AcDbEntity
  8
0
100
AcDbLine
 10
82.394408
 20
1101.4405
 30
0.0
 11
82.952006
 21
1101.3405
 31
0.0
  0
LINE
  5
2582
330
1D
100
AcDbEntity
  8
0
100
AcDbLine
 10
82.394408
 20
1101.4405
 30
0.0
 11
82.741704
 21
1103.4105
 31
0.0
  0
LINE
  5
2583
330
1D
100
AcDbEntity
  8
0
100
AcDbLine
 10
82.952006
 20
1101.3405
 30
0.0
 11
83.874881730868
 21
1101.18445594825
 31
0.0
  0
LINE
  5
2584
330
1D
100
AcDbEntity
  8
0
100
AcDbLine
 10
82.952006
 20
1101.3405
 30
0.0
 11
84.25313
 21
1101.1205
 31
0.0
  0
LINE
  5
2585
330
1D
100
AcDbEntity
  8
0
100
AcDbLine
 10
82.952006
 20
1101.3405
 30
0.0
 11
83.299302
 21
1103.3105
 31
0.0
  0
LINE
  5
2586
330
1D
100
AcDbEntity
  8
0
100
AcDbLine
 10
81.29152
 20
1101.6405
 30
0.0
 11
82.395314018949
 21
1101.44563929711
 31
0.0
  0
LINE
  5
2587
330
1D
100
AcDbEntity
  8
0
100
AcDbLine
 10
80.8454
 20
1101.7205
 30
0.0
 11
81.191867634601
 21
1103.68577854928
 31
0.0
  0
LINE
  5
2588
330
1D
100
AcDbEntity
  8
0
100
AcDbLine
 10
80.8454
 20
1101.7205
 30
0.0
 11
81.29152
 21
1101.6405
 31
0.0
  0
LINE
  5
2589
330
1D
100
AcDbEntity
  8
0
100
AcDbLine
 10
84.25313
 20
1101.1205
 30
0.0
 11
85.55426
 21
1100.8905
 31
0.0
  0
LINE
  5
258A
330
1D
100
AcDbEntity
  8
0
100
AcDbLine
 10
84.25313
 20
1101.1205
 30
0.0
 11
84.60043
 21
1103.0805
 31
0.0
  0
LINE
  5
258B
330
1D
100
AcDbEntity
  8
0
100
AcDbLine
 10
86.458328998743
 20
1102.75578628714
 30
0.0
 11
87.43806
 21
1102.5805
 31
0.0
  0
LINE
  5
258C
330
1D
100
AcDbEntity
  8
0
100
AcDbLine
 10
83.874881730868
 20
1101.18445594825
 30
0.0
 11
84.46378
 21
1101.0805
 31
0.0
  0
LINE
  5
258D
330
1D
100
AcDbEntity
  8
0
100
AcDbLine
 10
84.46378
 20
1101.0805
 30
0.0
 11
87.09076
 21
1100.6105
 31
0.0
  0
LINE
  5
258E
330
1D
100
AcDbEntity
  8
0
100
AcDbLine
 10
93.23705
 20
1099.5305
 30
0.0
 11
96.40935
 21
1098.9705
 31
0.0
  0
LINE
  5
258F
330
1D
100
AcDbEntity
  8
0
100
AcDbLine
 10
90.06478
 20
1100.0905
 30
0.0
 11
93.23705
 21
1099.5305
 31
0.0
  0
LINE
  5
2590
330
1D
100
AcDbEntity
  8
0
100
AcDbLine
 10
87.09076
 20
1100.6105
 30
0.0
 11
93.23705
 21
1099.5305
 31
0.0
  0
LINE
  5
2591
330
1D
100
AcDbEntity
  8
0
100
AcDbLine
 10
87.09076
 20
1100.6105
 30
0.0
 11
90.06478
 21
1100.0905
 31
0.0
  0
LINE
  5
2592
330
1D
100
AcDbEntity
  8
0
100
AcDbLine
 10
87.43806
 20
1102.5805
 30
0.0
 11
90.006507076906
 21
1102.13141341686
 31
0.0
  0
LINE
  5
2593
330
1D
100
AcDbEntity
  8
0
100
AcDbLine
 10
87.43806
 20
1102.5805
 30
0.0
 11
90.006507076906
 21
1102.13141341686
 31
0.0
  0
LINE
  5
2594
330
1D
100
AcDbEntity
  8
0
100
AcDbLine
 10
93.58435
 20
1101.5005
 30
0.0
 11
97.111951057295
 21
1100.87837398709
 31
0.0
  0
LINE
  5
2595
330
1D
100
AcDbEntity
  8
0
100
AcDbLine
 10
93.58435
 20
1101.5005
 30
0.0
 11
177.34325
 21
1086.7305
 31
0.0
  0
LINE
  5
2596
330
1D
100
AcDbEntity
  8
0
100
AcDbLine
 10
93.58435
 20
1101.5005
 30
0.0
 11
97.124968278131
 21
1100.87609786656
 31
0.0
  0
LINE
  5
2597
330
1D
100
AcDbEntity
  8
0
100
AcDbLine
 10
93.58435
 20
1101.5005
 30
0.0
 11
97.12496827813
 21
1100.87609786656
 31
0.0
  0
LINE
  5
2598
330
1D
100
AcDbEntity
  8
0
100
AcDbLine
 10
93.58435
 20
1101.5005
 30
0.0
 11
97.111951057296
 21
1100.87837398709
 31
0.0
  0
LINE
  5
2599
330
1D
100
AcDbEntity
  8
0
100
AcDbLine
 10
93.58435
 20
1101.5005
 30
0.0
 11
96.75665
 21
1100.9405
 31
0.0
  0
LINE
  5
259A
330
1D
100
AcDbEntity
  8
0
100
AcDbLine
 10
86.458524029562
 20
1102.75689256619
 30
0.0
 11
89.948765068579
 21
1102.1415094634
 31
0.0
  0
LINE
  5
259B
330
1D
100
AcDbEntity
  8
0
100
AcDbLine
 10
84.60043
 20
1103.0805
 30
0.0
 11
85.181513167987
 21
1102.98224825194
 31
0.0
  0
LINE
  5
259C
330
1D
100
AcDbEntity
  8
0
100
AcDbLine
 10
84.60043
 20
1103.0805
 30
0.0
 11
85.181513167987
 21
1102.98224825194
 31
0.0
  0
LINE
  5
259D
330
1D
100
AcDbEntity
  8
0
100
AcDbLine
 10
82.741704
 20
1103.4105
 30
0.0
 11
83.299302
 21
1103.3105
 31
0.0
  0
LINE
  5
259E
330
1D
100
AcDbEntity
  8
0
100
AcDbLine
 10
83.299302
 20
1103.3105
 30
0.0
 11
84.60043
 21
1103.0805
 31
0.0
  0
LINE
  5
259F
330
1D
100
AcDbEntity
  8
0
100
AcDbLine
 10
86.458547791668
 20
1102.75702735268
 30
0.0
 11
89.99643753239
 21
1102.13317405167
 31
0.0
  0
LINE
  5
25A0
330
1D
100
AcDbEntity
  8
0
100
AcDbLine
 10
68.490455899261
 20
1105.92542836609
 30
0.0
 11
85.176662230074
 21
1102.98306846694
 31
0.0
  0
LINE
  5
25A1
330
1D
100
AcDbEntity
  8
0
100
AcDbLine
 10
68.490455899261
 20
1105.92542836609
 30
0.0
 11
85.176662230074
 21
1102.98306846694
 31
0.0
  0
LINE
  5
25A2
330
1D
100
AcDbEntity
  8
0
100
AcDbLine
 10
86.458547791668
 20
1102.75702735268
 30
0.0
 11
89.996437532392
 21
1102.13317405167
 31
0.0
  0
LINE
  5
25A3
330
1D
100
AcDbEntity
  8
0
100
AcDbLine
 10
86.458524029562
 20
1102.75689256619
 30
0.0
 11
89.948765068578
 21
1102.1415094634
 31
0.0
  0
LINE
  5
25A4
330
1D
100
AcDbEntity
  8
0
100
AcDbLine
 10
68.490372219734
 20
1105.92495370825
 30
0.0
 11
81.191817440311
 21
1103.68549383073
 31
0.0
  0
LINE
  5
25A5
330
1D
100
AcDbEntity
  8
0
100
AcDbLine
 10
68.490372219734
 20
1105.92495370825
 30
0.0
 11
85.15398704683
 21
1102.986902473
 31
0.0
  0
LINE
  5
25A6
330
1D
100
AcDbEntity
  8
0
100
AcDbLine
 10
3.10075
 20
1117.4605
 30
0.0
 11
4.44565
 21
1117.2205
 31
0.0
  0
LINE
  5
25A7
330
1D
100
AcDbEntity
  8
0
100
AcDbLine
 10
1.48685
 20
1117.7405
 30
0.0
 11
7.373612323952
 21
1116.70245857498
 31
0.0
  0
LINE
  5
25A8
330
1D
100
AcDbEntity
  8
0
100
AcDbLine
 10
1.48685
 20
1117.7405
 30
0.0
 11
7.373612323953
 21
1116.70245857498
 31
0.0
  0
LINE
  5
25A9
330
1D
100
AcDbEntity
  8
0
100
AcDbLine
 10
5.10005
 20
1117.7805
 30
0.0
 11
6.90915
 21
1117.4605
 31
0.0
  0
LINE
  5
25AA
330
1D
100
AcDbEntity
  8
0
100
AcDbLine
 10
6.90915
 20
1117.4605
 30
0.0
 11
8.81755
 21
1117.1205
 31
0.0
  0
LINE
  5
25AB
330
1D
100
AcDbEntity
  8
0
100
AcDbLine
 10
8.81755
 20
1117.1205
 30
0.0
 11
93.70015
 21
1102.1605
 31
0.0
  0
LINE
  5
25AC
330
1D
100
AcDbEntity
  8
0
100
AcDbLine
 10
6.15735
 20
1116.9205
 30
0.0
 11
7.94235
 21
1116.6005
 31
0.0
  0
LINE
  5
25AD
330
1D
100
AcDbEntity
  8
0
100
AcDbLine
 10
4.44565
 20
1117.2205
 30
0.0
 11
6.796903474516
 21
1116.80584615583
 31
0.0
  0
LINE
  5
25AE
330
1D
100
AcDbEntity
  8
0
100
AcDbLine
 10
4.44565
 20
1117.2205
 30
0.0
 11
6.796903474516
 21
1116.80584615583
 31
0.0
  0
LINE
  5
25AF
330
1D
100
AcDbEntity
  8
0
100
AcDbLine
 10
4.44565
 20
1117.2205
 30
0.0
 11
6.796903474516
 21
1116.80584615583
 31
0.0
  0
LINE
  5
25B0
330
1D
100
AcDbEntity
  8
0
100
AcDbLine
 10
1.01075
 20
1118.5005
 30
0.0
 11
2.00215
 21
1118.3305
 31
0.0
  0
LINE
  5
25B1
330
1D
100
AcDbEntity
  8
0
100
AcDbLine
 10
0.36645
 20
1118.6105
 30
0.0
 11
1.01075
 21
1118.5005
 31
0.0
  0
LINE
  5
25B2
330
1D
100
AcDbEntity
  8
0
100
AcDbLine
 10
2.00215
 20
1118.3305
 30
0.0
 11
3.36515
 21
1118.0905
 31
0.0
  0
LINE
  5
25B3
330
1D
100
AcDbEntity
  8
0
100
AcDbLine
 10
3.36515
 20
1118.0905
 30
0.0
 11
5.10005
 21
1117.7805
 31
0.0
  0
LINE
  5
25B4
330
1D
100
AcDbEntity
  8
0
100
AcDbLine
 10
1.26675
 20
1117.7805
 30
0.0
 11
1.48685
 21
1117.7405
 31
0.0
  0
LINE
  5
25B5
330
1D
100
AcDbEntity
  8
0
100
AcDbLine
 10
0.14335
 20
1118.6505
 30
0.0
 11
1.26675
 21
1117.7805
 31
0.0
  0
LINE
  5
25B6
330
1D
100
AcDbEntity
  8
0
100
AcDbLine
 10
0.14335
 20
1118.6505
 30
0.0
 11
0.36645
 21
1118.6105
 31
0.0
  0
LINE
  5
25B7
330
1D
100
AcDbEntity
  8
0
100
AcDbLine
 10
0.14335
 20
1118.6505
 30
0.0
 11
2.11135
 21
1129.8205
 31
0.0
  0
LINE
  5
25B8
330
1D
100
AcDbEntity
  8
0
100
AcDbLine
 10
7.373612323952
 20
1116.70245857498
 30
0.0
 11
7.94235
 21
1116.6005
 31
0.0
  0
LINE
  5
25B9
330
1D
100
AcDbEntity
  8
0
100
AcDbLine
 10
98.206865028355
 20
1098.65619628611
 30
0.0
 11
99.807606139108
 21
1098.3745894476
 31
0.0
  0
LINE
  5
25BA
330
1D
100
AcDbEntity
  8
0
100
AcDbLine
 10
98.206865028354
 20
1098.65619628611
 30
0.0
 11
99.807606139108
 21
1098.3745894476
 31
0.0
  0
LINE
  5
25BB
330
1D
100
AcDbEntity
  8
0
100
AcDbLine
 10
96.40935
 20
1098.9705
 30
0.0
 11
99.38325
 21
1098.4505
 31
0.0
  0
LINE
  5
25BC
330
1D
100
AcDbEntity
  8
0
100
AcDbLine
 10
104.07975
 20
1097.6205
 30
0.0
 11
104.426708731407
 21
1099.58856421213
 31
0.0
  0
LINE
  5
25BD
330
1D
100
AcDbEntity
  8
0
100
AcDbLine
 10
105.62885
 20
1097.3505
 30
0.0
 11
105.97526715991
 21
1099.31549224021
 31
0.0
  0
LINE
  5
25BE
330
1D
100
AcDbEntity
  8
0
100
AcDbLine
 10
105.18275
 20
1097.4205
 30
0.0
 11
105.62885
 21
1097.3505
 31
0.0
  0
LINE
  5
25BF
330
1D
100
AcDbEntity
  8
0
100
AcDbLine
 10
103.52235
 20
1097.7205
 30
0.0
 11
104.07975
 21
1097.6205
 31
0.0
  0
LINE
  5
25C0
330
1D
100
AcDbEntity
  8
0
100
AcDbLine
 10
103.52235
 20
1097.7205
 30
0.0
 11
103.869016634233
 21
1099.68690734074
 31
0.0
  0
LINE
  5
25C1
330
1D
100
AcDbEntity
  8
0
100
AcDbLine
 10
102.22145
 20
1097.9505
 30
0.0
 11
103.52235
 21
1097.7205
 31
0.0
  0
LINE
  5
25C2
330
1D
100
AcDbEntity
  8
0
100
AcDbLine
 10
102.22145
 20
1097.9505
 30
0.0
 11
102.568014049523
 21
1099.91632544647
 31
0.0
  0
LINE
  5
25C3
330
1D
100
AcDbEntity
  8
0
100
AcDbLine
 10
103.99315
 20
1097.6305
 30
0.0
 11
105.18275
 21
1097.4205
 31
0.0
  0
LINE
  5
25C4
330
1D
100
AcDbEntity
  8
0
100
AcDbLine
 10
102.01065
 20
1097.9805
 30
0.0
 11
103.99315
 21
1097.6305
 31
0.0
  0
LINE
  5
25C5
330
1D
100
AcDbEntity
  8
0
100
AcDbLine
 10
100.91955
 20
1098.1805
 30
0.0
 11
102.22145
 21
1097.9505
 31
0.0
  0
LINE
  5
25C6
330
1D
100
AcDbEntity
  8
0
100
AcDbLine
 10
100.91955
 20
1098.1805
 30
0.0
 11
101.266041615172
 21
1100.14591457498
 31
0.0
  0
LINE
  5
25C7
330
1D
100
AcDbEntity
  8
0
100
AcDbLine
 10
100.36215
 20
1098.2705
 30
0.0
 11
100.688150510471
 21
1098.21439277505
 31
0.0
  0
LINE
  5
25C8
330
1D
100
AcDbEntity
  8
0
100
AcDbLine
 10
100.36215
 20
1098.2705
 30
0.0
 11
100.688150510471
 21
1098.21439277505
 31
0.0
  0
LINE
  5
25C9
330
1D
100
AcDbEntity
  8
0
100
AcDbLine
 10
100.36215
 20
1098.2705
 30
0.0
 11
100.632957771344
 21
1098.22389187499
 31
0.0
  0
LINE
  5
25CA
330
1D
100
AcDbEntity
  8
0
100
AcDbLine
 10
100.36215
 20
1098.2705
 30
0.0
 11
100.632957771344
 21
1098.22389187499
 31
0.0
  0
LINE
  5
25CB
330
1D
100
AcDbEntity
  8
0
100
AcDbLine
 10
100.36215
 20
1098.2705
 30
0.0
 11
100.632957771344
 21
1098.22389187499
 31
0.0
  0
LINE
  5
25CC
330
1D
100
AcDbEntity
  8
0
100
AcDbLine
 10
100.36215
 20
1098.2705
 30
0.0
 11
101.083841257587
 21
1098.14629131801
 31
0.0
  0
LINE
  5
25CD
330
1D
100
AcDbEntity
  8
0
100
AcDbLine
 10
100.36215
 20
1098.2705
 30
0.0
 11
102.22145
 21
1097.9505
 31
0.0
  0
LINE
  5
25CE
330
1D
100
AcDbEntity
  8
0
100
AcDbLine
 10
100.36215
 20
1098.2705
 30
0.0
 11
100.91955
 21
1098.1805
 31
0.0
  0
LINE
  5
25CF
330
1D
100
AcDbEntity
  8
0
100
AcDbLine
 10
100.36215
 20
1098.2705
 30
0.0
 11
100.70945
 21
1100.2405
 31
0.0
  0
LINE
  5
25D0
330
1D
100
AcDbEntity
  8
0
100
AcDbLine
 10
99.38325
 20
1098.4505
 30
0.0
 11
100.362985790039
 21
1098.27524087641
 31
0.0
  0
LINE
  5
25D1
330
1D
100
AcDbEntity
  8
0
100
AcDbLine
 10
101.083841257587
 20
1098.14629131801
 30
0.0
 11
102.01065
 21
1097.9805
 31
0.0
  0
LINE
  5
25D2
330
1D
100
AcDbEntity
  8
0
100
AcDbLine
 10
99.729876198833
 20
1100.41667797783
 30
0.0
 11
100.939103224665
 21
1100.20341928558
 31
0.0
  0
LINE
  5
25D3
330
1D
100
AcDbEntity
  8
0
100
AcDbLine
 10
99.729876198833
 20
1100.41667797783
 30
0.0
 11
100.939103224665
 21
1100.20341928558
 31
0.0
  0
LINE
  5
25D4
330
1D
100
AcDbEntity
  8
0
100
AcDbLine
 10
104.426145979011
 20
1099.58537209516
 30
0.0
 11
105.53005
 21
1099.3905
 31
0.0
  0
LINE
  5
25D5
330
1D
100
AcDbEntity
  8
0
100
AcDbLine
 10
100.70945
 20
1100.2405
 30
0.0
 11
100.949014251249
 21
1100.20181901218
 31
0.0
  0
LINE
  5
25D6
330
1D
100
AcDbEntity
  8
0
100
AcDbLine
 10
104.426671570335
 20
1099.58835342229
 30
0.0
 11
118.676331557679
 21
1097.07529029262
 31
0.0
  0
LINE
  5
25D7
330
1D
100
AcDbEntity
  8
0
100
AcDbLine
 10
99.729882012651
 20
1100.41671095572
 30
0.0
 11
100.941836180552
 21
1100.20297801175
 31
0.0
  0
LINE
  5
25D8
330
1D
100
AcDbEntity
  8
0
100
AcDbLine
 10
96.75665
 20
1100.9405
 30
0.0
 11
97.159572746042
 21
1100.87004711727
 31
0.0
  0
LINE
  5
25D9
330
1D
100
AcDbEntity
  8
0
100
AcDbLine
 10
96.75665
 20
1100.9405
 30
0.0
 11
97.159572746042
 21
1100.87004711727
 31
0.0
  0
LINE
  5
25DA
330
1D
100
AcDbEntity
  8
0
100
AcDbLine
 10
99.729882012651
 20
1100.41671095572
 30
0.0
 11
100.941836180552
 21
1100.20297801175
 31
0.0
  0
LINE
  5
25DB
330
1D
100
AcDbEntity
  8
0
100
AcDbLine
 10
93.70015
 20
1102.1605
 30
0.0
 11
178.58265
 21
1087.1905
 31
0.0
  0
LINE
  5
25DC
330
1D
100
AcDbEntity
  8
0
100
AcDbLine
 10
95.66815
 20
1113.3205
 30
0.0
 11
180.55065
 21
1098.3505
 31
0.0
  0
LINE
  5
25DD
330
1D
100
AcDbEntity
  8
0
100
AcDbLine
 10
105.53005
 20
1099.3905
 30
0.0
 11
105.710321915221
 21
1099.36221254413
 31
0.0
  0
LINE
  5
25DE
330
1D
100
AcDbEntity
  8
0
100
AcDbLine
 10
105.53005
 20
1099.3905
 30
0.0
 11
105.710321915221
 21
1099.36221254413
 31
0.0
  0
LINE
  5
25DF
330
1D
100
AcDbEntity
  8
0
100
AcDbLine
 10
104.426681827436
 20
1099.58841160394
 30
0.0
 11
118.676355295307
 21
1097.07542494026
 31
0.0
  0
LINE
  5
25E0
330
1D
100
AcDbEntity
  8
0
100
AcDbLine
 10
104.426681827436
 20
1099.58841160394
 30
0.0
 11
118.676355295307
 21
1097.07542494026
 31
0.0
  0
LINE
  5
25E1
330
1D
100
AcDbEntity
  8
0
100
AcDbLine
 10
104.426671570335
 20
1099.58835342229
 30
0.0
 11
105.697820667688
 21
1099.36417418351
 31
0.0
  0
LINE
  5
25E2
330
1D
100
AcDbEntity
  8
0
100
AcDbLine
 10
104.426671570335
 20
1099.58835342229
 30
0.0
 11
118.676331557679
 21
1097.07529029262
 31
0.0
  0
LINE
  5
25E3
330
1D
100
AcDbEntity
  8
0
100
AcDbLine
 10
105.975224691314
 20
1099.31525134434
 30
0.0
 11
118.676331557679
 21
1097.07529029262
 31
0.0
  0
LINE
  5
25E4
330
1D
100
AcDbEntity
  8
0
100
AcDbLine
 10
109.847311677847
 20
1118.94609219499
 30
0.0
 11
111.301896682034
 21
1118.68970145129
 31
0.0
  0
LINE
  5
25E5
330
1D
100
AcDbEntity
  8
0
100
AcDbLine
 10
109.847311677847
 20
1118.94609219499
 30
0.0
 11
111.301896682034
 21
1118.68970145129
 31
0.0
  0
LINE
  5
25E6
330
1D
100
AcDbEntity
  8
0
100
AcDbLine
 10
103.324203459216
 20
1120.09588032192
 30
0.0
 11
104.959136780445
 21
1119.80770069066
 31
0.0
  0
LINE
  5
25E7
330
1D
100
AcDbEntity
  8
0
100
AcDbLine
 10
103.324203459216
 20
1120.09588032192
 30
0.0
 11
104.959136780445
 21
1119.80770069066
 31
0.0
  0
LINE
  5
25E8
330
1D
100
AcDbEntity
  8
0
100
AcDbLine
 10
103.324203459216
 20
1120.09588032192
 30
0.0
 11
104.38425
 21
1119.9105
 31
0.0
  0
LINE
  5
25E9
330
1D
100
AcDbEntity
  8
0
100
AcDbLine
 10
79.318532815791
 20
1124.32939183646
 30
0.0
 11
93.27685385888
 21
1121.86732932638
 31
0.0
  0
LINE
  5
25EA
330
1D
100
AcDbEntity
  8
0
100
AcDbLine
 10
79.318532815791
 20
1124.32939183646
 30
0.0
 11
93.27685385888
 21
1121.86732932638
 31
0.0
  0
LINE
  5
25EB
330
1D
100
AcDbEntity
  8
0
100
AcDbLine
 10
79.58514
 20
1124.2805
 30
0.0
 11
97.05735
 21
1121.2005
 31
0.0
  0
LINE
  5
25EC
330
1D
100
AcDbEntity
  8
0
100
AcDbLine
 10
78.22207
 20
1124.5205
 30
0.0
 11
79.12720941618
 21
1124.36095563104
 31
0.0
  0
LINE
  5
25ED
330
1D
100
AcDbEntity
  8
0
100
AcDbLine
 10
78.02382
 20
1124.5505
 30
0.0
 11
78.22207
 21
1124.5205
 31
0.0
  0
LINE
  5
25EE
330
1D
100
AcDbEntity
  8
0
100
AcDbLine
 10
78.02382
 20
1124.5505
 30
0.0
 11
79.007251063903
 21
1124.37741103205
 31
0.0
  0
LINE
  5
25EF
330
1D
100
AcDbEntity
  8
0
100
AcDbLine
 10
78.49466
 20
1124.4705
 30
0.0
 11
78.84161
 21
1124.4105
 31
0.0
  0
LINE
  5
25F0
330
1D
100
AcDbEntity
  8
0
100
AcDbLine
 10
78.49466
 20
1124.4705
 30
0.0
 11
79.078845354166
 21
1124.36759001723
 31
0.0
  0
LINE
  5
25F1
330
1D
100
AcDbEntity
  8
0
100
AcDbLine
 10
78.49466
 20
1124.4705
 30
0.0
 11
79.078845354166
 21
1124.36759001723
 31
0.0
  0
LINE
  5
25F2
330
1D
100
AcDbEntity
  8
0
100
AcDbLine
 10
78.84161
 20
1124.4105
 30
0.0
 11
79.20343
 21
1124.3505
 31
0.0
  0
LINE
  5
25F3
330
1D
100
AcDbEntity
  8
0
100
AcDbLine
 10
77.89491
 20
1124.5805
 30
0.0
 11
79.127134897367
 21
1124.36315188812
 31
0.0
  0
LINE
  5
25F4
330
1D
100
AcDbEntity
  8
0
100
AcDbLine
 10
77.89491
 20
1124.5805
 30
0.0
 11
79.127134897367
 21
1124.36315188812
 31
0.0
  0
LINE
  5
25F5
330
1D
100
AcDbEntity
  8
0
100
AcDbLine
 10
79.20343
 20
1124.3505
 30
0.0
 11
82.286259642667
 21
1123.80659068628
 31
0.0
  0
LINE
  5
25F6
330
1D
100
AcDbEntity
  8
0
100
AcDbLine
 10
79.20343
 20
1124.3505
 30
0.0
 11
93.276883020183
 21
1121.86749475445
 31
0.0
  0
LINE
  5
25F7
330
1D
100
AcDbEntity
  8
0
100
AcDbLine
 10
59.23625
 20
1127.1905
 30
0.0
 11
77.89491
 21
1124.5805
 31
0.0
  0
LINE
  5
25F8
330
1D
100
AcDbEntity
  8
0
100
AcDbLine
 10
59.14705
 20
1127.2005
 30
0.0
 11
59.23625
 21
1127.1905
 31
0.0
  0
LINE
  5
25F9
330
1D
100
AcDbEntity
  8
0
100
AcDbLine
 10
47.87885
 20
1128.5105
 30
0.0
 11
59.14705
 21
1127.2005
 31
0.0
  0
LINE
  5
25FA
330
1D
100
AcDbEntity
  8
0
100
AcDbLine
 10
10.78555
 20
1128.2905
 30
0.0
 11
95.66815
 21
1113.3205
 31
0.0
  0
LINE
  5
25FB
330
1D
100
AcDbEntity
  8
0
100
AcDbLine
 10
100.838199506849
 20
1120.5340729338
 30
0.0
 11
115.89275
 21
1117.8805
 31
0.0
  0
LINE
  5
25FC
330
1D
100
AcDbEntity
  8
0
100
AcDbLine
 10
97.05735
 20
1121.2005
 30
0.0
 11
114.52975
 21
1118.1205
 31
0.0
  0
LINE
  5
25FD
330
1D
100
AcDbEntity
  8
0
100
AcDbLine
 10
82.286259642667
 20
1123.80659068628
 30
0.0
 11
83.94747
 21
1133.2305
 31
0.0
  0
LINE
  5
25FE
330
1D
100
AcDbEntity
  8
0
100
AcDbLine
 10
103.260701396629
 20
1120.10698552565
 30
0.0
 11
104.38425
 21
1119.9105
 31
0.0
  0
LINE
  5
25FF
330
1D
100
AcDbEntity
  8
0
100
AcDbLine
 10
104.38425
 20
1119.9105
 30
0.0
 11
104.959136780445
 21
1119.80770069066
 31
0.0
  0
LINE
  5
2600
330
1D
100
AcDbEntity
  8
0
100
AcDbLine
 10
109.87955
 20
1118.9405
 30
0.0
 11
111.29765
 21
1118.6905
 31
0.0
  0
LINE
  5
2601
330
1D
100
AcDbEntity
  8
0
100
AcDbLine
 10
111.830512188601
 20
1118.59652565031
 30
0.0
 11
113.49175
 21
1128.0205
 31
0.0
  0
LINE
  5
2602
330
1D
100
AcDbEntity
  8
0
100
AcDbLine
 10
111.830512188601
 20
1118.59652565031
 30
0.0
 11
115.89275
 21
1117.8805
 31
0.0
  0
LINE
  5
2603
330
1D
100
AcDbEntity
  8
0
100
AcDbLine
 10
112.759064471446
 20
1128.58554804975
 30
0.0
 11
113.21135
 21
1128.5005
 31
0.0
  0
LINE
  5
2604
330
1D
100
AcDbEntity
  8
0
100
AcDbLine
 10
112.759064471446
 20
1128.58554804975
 30
0.0
 11
113.07345
 21
1128.5305
 31
0.0
  0
LINE
  5
2605
330
1D
100
AcDbEntity
  8
0
100
AcDbLine
 10
111.54175
 20
1128.3605
 30
0.0
 11
112.95995
 21
1128.1105
 31
0.0
  0
LINE
  5
2606
330
1D
100
AcDbEntity
  8
0
100
AcDbLine
 10
8.87725
 20
1128.6205
 30
0.0
 11
10.78555
 21
1128.2905
 31
0.0
  0
LINE
  5
2607
330
1D
100
AcDbEntity
  8
0
100
AcDbLine
 10
5.33325
 20
1129.2505
 30
0.0
 11
7.06805
 21
1128.9405
 31
0.0
  0
LINE
  5
2608
330
1D
100
AcDbEntity
  8
0
100
AcDbLine
 10
7.06805
 20
1128.9405
 30
0.0
 11
8.87725
 21
1128.6205
 31
0.0
  0
LINE
  5
2609
330
1D
100
AcDbEntity
  8
0
100
AcDbLine
 10
108.90385
 20
1129.2605
 30
0.0
 11
111.18855
 21
1128.8605
 31
0.0
  0
LINE
  5
260A
330
1D
100
AcDbEntity
  8
0
100
AcDbLine
 10
2.97875
 20
1129.6605
 30
0.0
 11
3.97015
 21
1129.4905
 31
0.0
  0
LINE
  5
260B
330
1D
100
AcDbEntity
  8
0
100
AcDbLine
 10
2.33445
 20
1129.7805
 30
0.0
 11
2.97875
 21
1129.6605
 31
0.0
  0
LINE
  5
260C
330
1D
100
AcDbEntity
  8
0
100
AcDbLine
 10
39.08905
 20
1129.3905
 30
0.0
 11
47.87885
 21
1128.5105
 31
0.0
  0
LINE
  5
260D
330
1D
100
AcDbEntity
  8
0
100
AcDbLine
 10
3.97015
 20
1129.4905
 30
0.0
 11
5.33325
 21
1129.2505
 31
0.0
  0
LINE
  5
260E
330
1D
100
AcDbEntity
  8
0
100
AcDbLine
 10
2.11135
 20
1129.8205
 30
0.0
 11
2.33445
 21
1129.7805
 31
0.0
  0
LINE
  5
260F
330
1D
100
AcDbEntity
  8
0
100
AcDbLine
 10
2.11135
 20
1129.8205
 30
0.0
 11
2.84675
 21
1130.3605
 31
0.0
  0
LINE
  5
2610
330
1D
100
AcDbEntity
  8
0
100
AcDbLine
 10
105.87655
 20
1129.8005
 30
0.0
 11
108.90385
 21
1129.2605
 31
0.0
  0
LINE
  5
2611
330
1D
100
AcDbEntity
  8
0
100
AcDbLine
 10
25.22665
 20
1130.4805
 30
0.0
 11
39.08905
 21
1129.3905
 31
0.0
  0
LINE
  5
2612
330
1D
100
AcDbEntity
  8
0
100
AcDbLine
 10
2.84675
 20
1130.3605
 30
0.0
 11
7.41535
 21
1130.9105
 31
0.0
  0
LINE
  5
2613
330
1D
100
AcDbEntity
  8
0
100
AcDbLine
 10
15.08185
 20
1130.9105
 30
0.0
 11
25.22665
 21
1130.4805
 31
0.0
  0
LINE
  5
2614
330
1D
100
AcDbEntity
  8
0
100
AcDbLine
 10
7.41535
 20
1130.9105
 30
0.0
 11
15.08185
 21
1130.9105
 31
0.0
  0
LINE
  5
2615
330
1D
100
AcDbEntity
  8
0
100
AcDbLine
 10
94.48361785385
 20
1131.80509230477
 30
0.0
 11
95.13815
 21
1131.6905
 31
0.0
  0
LINE
  5
2616
330
1D
100
AcDbEntity
  8
0
100
AcDbLine
 10
95.13815
 20
1131.6905
 30
0.0
 11
98.79375
 21
1131.0505
 31
0.0
  0
LINE
  5
2617
330
1D
100
AcDbEntity
  8
0
100
AcDbLine
 10
95.07125
 20
1131.7005
 30
0.0
 11
98.79375
 21
1131.0505
 31
0.0
  0
LINE
  5
2618
330
1D
100
AcDbEntity
  8
0
100
AcDbLine
 10
94.93795
 20
1131.2905
 30
0.0
 11
98.71955
 21
1130.6205
 31
0.0
  0
LINE
  5
2619
330
1D
100
AcDbEntity
  8
0
100
AcDbLine
 10
91.71105
 20
1132.2905
 30
0.0
 11
95.13815
 21
1131.6905
 31
0.0
  0
LINE
  5
261A
330
1D
100
AcDbEntity
  8
0
100
AcDbLine
 10
88.68375
 20
1132.8305
 30
0.0
 11
91.71105
 21
1132.2905
 31
0.0
  0
LINE
  5
261B
330
1D
100
AcDbEntity
  8
0
100
AcDbLine
 10
91.64408
 20
1132.3105
 30
0.0
 11
95.07125
 21
1131.7005
 31
0.0
  0
LINE
  5
261C
330
1D
100
AcDbEntity
  8
0
100
AcDbLine
 10
91.64408
 20
1132.3105
 30
0.0
 11
91.712451612592
 21
1132.29845074012
 31
0.0
  0
LINE
  5
261D
330
1D
100
AcDbEntity
  8
0
100
AcDbLine
 10
88.63057
 20
1132.8405
 30
0.0
 11
91.64408
 21
1132.3105
 31
0.0
  0
LINE
  5
261E
330
1D
100
AcDbEntity
  8
0
100
AcDbLine
 10
91.39261
 20
1131.9205
 30
0.0
 11
94.93795
 21
1131.2905
 31
0.0
  0
LINE
  5
261F
330
1D
100
AcDbEntity
  8
0
100
AcDbLine
 10
88.26093
 20
1132.4705
 30
0.0
 11
91.39261
 21
1131.9205
 31
0.0
  0
LINE
  5
2620
330
1D
100
AcDbEntity
  8
0
100
AcDbLine
 10
86.39899
 20
1133.2305
 30
0.0
 11
88.68375
 21
1132.8305
 31
0.0
  0
LINE
  5
2621
330
1D
100
AcDbEntity
  8
0
100
AcDbLine
 10
85.89739
 20
1132.8905
 30
0.0
 11
88.26093
 21
1132.4705
 31
0.0
  0
LINE
  5
2622
330
1D
100
AcDbEntity
  8
0
100
AcDbLine
 10
84.47926
 20
1133.1405
 30
0.0
 11
85.89739
 21
1132.8905
 31
0.0
  0
LINE
  5
2623
330
1D
100
AcDbEntity
  8
0
100
AcDbLine
 10
83.525956
 20
1146.4705
 30
0.0
 11
83.94039
 21
1146.3405
 31
0.0
  0
LINE
  5
2624
330
1D
100
AcDbEntity
  8
0
100
AcDbLine
 10
83.228643
 20
1146.5705
 30
0.0
 11
83.525956
 21
1146.4705
 31
0.0
  0
LINE
  5
2625
330
1D
100
AcDbEntity
  8
0
100
AcDbLine
 10
83.94039
 20
1146.3405
 30
0.0
 11
84.68518
 21
1146.1005
 31
0.0
  0
LINE
  5
2626
330
1D
100
AcDbEntity
  8
0
100
AcDbLine
 10
82.921319
 20
1146.7205
 30
0.0
 11
83.059464
 21
1146.6305
 31
0.0
  0
LINE
  5
2627
330
1D
100
AcDbEntity
  8
0
100
AcDbLine
 10
82.883278
 20
1147.0405
 30
0.0
 11
86.11379
 21
1152.7105
 31
0.0
  0
LINE
  5
2628
330
1D
100
AcDbEntity
  8
0
100
AcDbLine
 10
82.85625
 20
1146.8705
 30
0.0
 11
82.883278
 21
1147.0405
 31
0.0
  0
LINE
  5
2629
330
1D
100
AcDbEntity
  8
0
100
AcDbLine
 10
82.85625
 20
1146.8705
 30
0.0
 11
82.921319
 21
1146.7205
 31
0.0
  0
LINE
  5
262A
330
1D
100
AcDbEntity
  8
0
100
AcDbLine
 10
83.059464
 20
1146.6305
 30
0.0
 11
83.147204822399
 21
1146.61024869076
 31
0.0
  0
LINE
  5
262B
330
1D
100
AcDbEntity
  8
0
100
AcDbLine
 10
83.059464
 20
1146.6305
 30
0.0
 11
83.228643
 21
1146.5705
 31
0.0
  0
LINE
  5
262C
330
1D
100
AcDbEntity
  8
0
100
AcDbLine
 10
85.02814
 20
1133.4705
 30
0.0
 11
86.39899
 21
1133.2305
 31
0.0
  0
LINE
  5
262D
330
1D
100
AcDbEntity
  8
0
100
AcDbLine
 10
86.32612
 20
1133.2405
 30
0.0
 11
88.63057
 21
1132.8405
 31
0.0
  0
LINE
  5
262E
330
1D
100
AcDbEntity
  8
0
100
AcDbLine
 10
84.68518
 20
1146.1005
 30
0.0
 11
94.65165
 21
1143.4605
 31
0.0
  0
LINE
  5
262F
330
1D
100
AcDbEntity
  8
0
100
AcDbLine
 10
84.514765202436
 20
1133.5644436239
 30
0.0
 11
86.633698375939
 21
1145.58436053312
 31
0.0
  0
LINE
  5
2630
330
1D
100
AcDbEntity
  8
0
100
AcDbLine
 10
86.372170158081
 20
1145.65363626416
 30
0.0
 11
86.632719124132
 21
1145.57880560317
 31
0.0
  0
LINE
  5
2631
330
1D
100
AcDbEntity
  8
0
100
AcDbLine
 10
86.11379
 20
1152.7105
 30
0.0
 11
88.11473
 21
1155.2405
 31
0.0
  0
LINE
  5
2632
330
1D
100
AcDbEntity
  8
0
100
AcDbLine
 10
94.65165
 20
1143.4605
 30
0.0
 11
104.17375
 21
1141.8105
 31
0.0
  0
LINE
  5
2633
330
1D
100
AcDbEntity
  8
0
100
AcDbLine
 10
88.11473
 20
1155.2405
 30
0.0
 11
93.33235
 21
1160.8405
 31
0.0
  0
LINE
  5
2634
330
1D
100
AcDbEntity
  8
0
100
AcDbLine
 10
84.828189255749
 20
1133.50550606334
 30
0.0
 11
85.02814
 21
1133.4705
 31
0.0
  0
LINE
  5
2635
330
1D
100
AcDbEntity
  8
0
100
AcDbLine
 10
84.90799
 20
1133.4905
 30
0.0
 11
86.32612
 21
1133.2405
 31
0.0
  0
LINE
  5
2636
330
1D
100
AcDbEntity
  8
0
100
AcDbLine
 10
84.3762
 20
1133.5905
 30
0.0
 11
84.90799
 21
1133.4905
 31
0.0
  0
LINE
  5
2637
330
1D
100
AcDbEntity
  8
0
100
AcDbLine
 10
84.3762
 20
1133.5905
 30
0.0
 11
84.5151803811
 21
1133.56601524579
 31
0.0
  0
LINE
  5
2638
330
1D
100
AcDbEntity
  8
0
100
AcDbLine
 10
83.94747
 20
1133.2305
 30
0.0
 11
84.47926
 21
1133.1405
 31
0.0
  0
LINE
  5
2639
330
1D
100
AcDbEntity
  8
0
100
AcDbLine
 10
83.94747
 20
1133.2305
 30
0.0
 11
84.3762
 21
1133.5905
 31
0.0
  0
LINE
  5
263A
330
1D
100
AcDbEntity
  8
0
100
AcDbLine
 10
99.583543901791
 20
1164.33549985111
 30
0.0
 11
102.26445
 21
1165.9305
 31
0.0
  0
LINE
  5
263B
330
1D
100
AcDbEntity
  8
0
100
AcDbLine
 10
99.583543901791
 20
1164.33549985111
 30
0.0
 11
102.26445
 21
1165.9305
 31
0.0
  0
LINE
  5
263C
330
1D
100
AcDbEntity
  8
0
100
AcDbLine
 10
102.26445
 20
1165.9305
 30
0.0
 11
103.75995
 21
1166.6705
 31
0.0
  0
LINE
  5
263D
330
1D
100
AcDbEntity
  8
0
100
AcDbLine
 10
98.79375
 20
1131.0505
 30
0.0
 11
102.51635
 21
1130.3905
 31
0.0
  0
LINE
  5
263E
330
1D
100
AcDbEntity
  8
0
100
AcDbLine
 10
98.71955
 20
1130.6205
 30
0.0
 11
102.50125
 21
1129.9605
 31
0.0
  0
LINE
  5
263F
330
1D
100
AcDbEntity
  8
0
100
AcDbLine
 10
104.365957567633
 20
1130.06495945945
 30
0.0
 11
107.674855058432
 21
1129.47972414972
 31
0.0
  0
LINE
  5
2640
330
1D
100
AcDbEntity
  8
0
100
AcDbLine
 10
103.75995
 20
1166.6705
 30
0.0
 11
114.69505
 21
1169.1305
 31
0.0
  0
LINE
  5
2641
330
1D
100
AcDbEntity
  8
0
100
AcDbLine
 10
104.17375
 20
1141.8105
 30
0.0
 11
108.71555
 21
1141.3105
 31
0.0
  0
LINE
  5
2642
330
1D
100
AcDbEntity
  8
0
100
AcDbLine
 10
103.10809673193
 20
1130.28517319119
 30
0.0
 11
105.87655
 21
1129.8005
 31
0.0
  0
LINE
  5
2643
330
1D
100
AcDbEntity
  8
0
100
AcDbLine
 10
103.10809673193
 20
1130.28517319119
 30
0.0
 11
105.87655
 21
1129.8005
 31
0.0
  0
LINE
  5
2644
330
1D
100
AcDbEntity
  8
0
100
AcDbLine
 10
104.365957567633
 20
1130.06495945945
 30
0.0
 11
107.674855058432
 21
1129.47972414972
 31
0.0
  0
LINE
  5
2645
330
1D
100
AcDbEntity
  8
0
100
AcDbLine
 10
102.51635
 20
1130.3905
 30
0.0
 11
105.94345
 21
1129.7805
 31
0.0
  0
LINE
  5
2646
330
1D
100
AcDbEntity
  8
0
100
AcDbLine
 10
102.50125
 20
1129.9605
 30
0.0
 11
106.04655
 21
1129.3305
 31
0.0
  0
LINE
  5
2647
330
1D
100
AcDbEntity
  8
0
100
AcDbLine
 10
105.94345
 20
1129.7805
 30
0.0
 11
108.95695
 21
1129.2505
 31
0.0
  0
LINE
  5
2648
330
1D
100
AcDbEntity
  8
0
100
AcDbLine
 10
106.04655
 20
1129.3305
 30
0.0
 11
109.17825
 21
1128.7805
 31
0.0
  0
LINE
  5
2649
330
1D
100
AcDbEntity
  8
0
100
AcDbLine
 10
109.596795281511
 20
1141.6559391389
 30
0.0
 11
113.71545
 21
1141.0105
 31
0.0
  0
LINE
  5
264A
330
1D
100
AcDbEntity
  8
0
100
AcDbLine
 10
108.95695
 20
1129.2505
 30
0.0
 11
111.26145
 21
1128.8505
 31
0.0
  0
LINE
  5
264B
330
1D
100
AcDbEntity
  8
0
100
AcDbLine
 10
109.17825
 20
1128.7805
 30
0.0
 11
111.54175
 21
1128.3605
 31
0.0
  0
LINE
  5
264C
330
1D
100
AcDbEntity
  8
0
100
AcDbLine
 10
111.26145
 20
1128.8505
 30
0.0
 11
112.67955
 21
1128.6005
 31
0.0
  0
LINE
  5
264D
330
1D
100
AcDbEntity
  8
0
100
AcDbLine
 10
112.67955
 20
1128.6005
 30
0.0
 11
113.21135
 21
1128.5005
 31
0.0
  0
LINE
  5
264E
330
1D
100
AcDbEntity
  8
0
100
AcDbLine
 10
140.01545
 20
1091.2805
 30
0.0
 11
140.36275
 21
1093.2505
 31
0.0
  0
LINE
  5
264F
330
1D
100
AcDbEntity
  8
0
100
AcDbLine
 10
139.45805
 20
1091.3805
 30
0.0
 11
140.01545
 21
1091.2805
 31
0.0
  0
LINE
  5
2650
330
1D
100
AcDbEntity
  8
0
100
AcDbLine
 10
139.45805
 20
1091.3805
 30
0.0
 11
139.805249699532
 21
1093.3499310627
 31
0.0
  0
LINE
  5
2651
330
1D
100
AcDbEntity
  8
0
100
AcDbLine
 10
136.85515
 20
1091.8405
 30
0.0
 11
138.15705
 21
1091.6105
 31
0.0
  0
LINE
  5
2652
330
1D
100
AcDbEntity
  8
0
100
AcDbLine
 10
136.85515
 20
1091.8405
 30
0.0
 11
137.202177695506
 21
1093.80895539922
 31
0.0
  0
LINE
  5
2653
330
1D
100
AcDbEntity
  8
0
100
AcDbLine
 10
138.15705
 20
1091.6105
 30
0.0
 11
139.45805
 21
1091.3805
 31
0.0
  0
LINE
  5
2654
330
1D
100
AcDbEntity
  8
0
100
AcDbLine
 10
138.15705
 20
1091.6105
 30
0.0
 11
138.504150129857
 21
1093.57936627071
 31
0.0
  0
LINE
  5
2655
330
1D
100
AcDbEntity
  8
0
100
AcDbLine
 10
136.29775
 20
1091.9405
 30
0.0
 11
136.85515
 21
1091.8405
 31
0.0
  0
LINE
  5
2656
330
1D
100
AcDbEntity
  8
0
100
AcDbLine
 10
136.29775
 20
1091.9405
 30
0.0
 11
136.644485598333
 21
1093.90729852783
 31
0.0
  0
LINE
  5
2657
330
1D
100
AcDbEntity
  8
0
100
AcDbLine
 10
118.32995
 20
1095.1105
 30
0.0
 11
118.676331557679
 21
1097.07529029262
 31
0.0
  0
LINE
  5
2658
330
1D
100
AcDbEntity
  8
0
100
AcDbLine
 10
118.32995
 20
1095.1105
 30
0.0
 11
118.676417558165
 21
1097.07577811571
 31
0.0
  0
LINE
  5
2659
330
1D
100
AcDbEntity
  8
0
100
AcDbLine
 10
118.32995
 20
1095.1105
 30
0.0
 11
118.88735
 21
1095.0105
 31
0.0
  0
LINE
  5
265A
330
1D
100
AcDbEntity
  8
0
100
AcDbLine
 10
118.88735
 20
1095.0105
 30
0.0
 11
120.18925
 21
1094.7805
 31
0.0
  0
LINE
  5
265B
330
1D
100
AcDbEntity
  8
0
100
AcDbLine
 10
118.88735
 20
1095.0105
 30
0.0
 11
119.234109655339
 21
1096.9774349871
 31
0.0
  0
LINE
  5
265C
330
1D
100
AcDbEntity
  8
0
100
AcDbLine
 10
139.996750280948
 20
1093.31616195175
 30
0.0
 11
140.36275
 21
1093.2505
 31
0.0
  0
LINE
  5
265D
330
1D
100
AcDbEntity
  8
0
100
AcDbLine
 10
122.04755
 20
1094.4505
 30
0.0
 11
122.394776771574
 21
1096.42008462425
 31
0.0
  0
LINE
  5
265E
330
1D
100
AcDbEntity
  8
0
100
AcDbLine
 10
139.996750280948
 20
1093.31616195175
 30
0.0
 11
140.36275
 21
1093.2505
 31
0.0
  0
LINE
  5
265F
330
1D
100
AcDbEntity
  8
0
100
AcDbLine
 10
121.49015
 20
1094.5505
 30
0.0
 11
122.04755
 21
1094.4505
 31
0.0
  0
LINE
  5
2660
330
1D
100
AcDbEntity
  8
0
100
AcDbLine
 10
121.49015
 20
1094.5505
 30
0.0
 11
121.8370846744
 21
1096.51842775286
 31
0.0
  0
LINE
  5
2661
330
1D
100
AcDbEntity
  8
0
100
AcDbLine
 10
120.18925
 20
1094.7805
 30
0.0
 11
121.49015
 21
1094.5505
 31
0.0
  0
LINE
  5
2662
330
1D
100
AcDbEntity
  8
0
100
AcDbLine
 10
120.18925
 20
1094.7805
 30
0.0
 11
120.53608208969
 21
1096.74784585859
 31
0.0
  0
LINE
  5
2663
330
1D
100
AcDbEntity
  8
0
100
AcDbLine
 10
140.217565324429
 20
1093.27654676634
 30
0.0
 11
154.612402204569
 21
1090.73795995681
 31
0.0
  0
LINE
  5
2664
330
1D
100
AcDbEntity
  8
0
100
AcDbLine
 10
140.302305272238
 20
1093.26134404876
 30
0.0
 11
154.612344470596
 21
1090.7376324707
 31
0.0
  0
LINE
  5
2665
330
1D
100
AcDbEntity
  8
0
100
AcDbLine
 10
140.217565324429
 20
1093.27654676634
 30
0.0
 11
154.612402204569
 21
1090.73795995681
 31
0.0
  0
LINE
  5
2666
330
1D
100
AcDbEntity
  8
0
100
AcDbLine
 10
114.74339422208
 20
1118.07416188906
 30
0.0
 11
115.27325
 21
1117.9805
 31
0.0
  0
LINE
  5
2667
330
1D
100
AcDbEntity
  8
0
100
AcDbLine
 10
114.74339422208
 20
1118.07416188906
 30
0.0
 11
115.27325
 21
1117.9805
 31
0.0
  0
LINE
  5
2668
330
1D
100
AcDbEntity
  8
0
100
AcDbLine
 10
114.52975
 20
1118.1205
 30
0.0
 11
114.91085
 21
1118.0505
 31
0.0
  0
LINE
  5
2669
330
1D
100
AcDbEntity
  8
0
100
AcDbLine
 10
114.956814166643
 20
1118.04065911062
 30
0.0
 11
116.09065
 21
1117.8405
 31
0.0
  0
LINE
  5
266A
330
1D
100
AcDbEntity
  8
0
100
AcDbLine
 10
114.956814166643
 20
1118.04065911062
 30
0.0
 11
116.09065
 21
1117.8405
 31
0.0
  0
LINE
  5
266B
330
1D
100
AcDbEntity
  8
0
100
AcDbLine
 10
114.793355559446
 20
1118.07208124072
 30
0.0
 11
116.21965
 21
1117.8205
 31
0.0
  0
LINE
  5
266C
330
1D
100
AcDbEntity
  8
0
100
AcDbLine
 10
114.793355559446
 20
1118.07208124072
 30
0.0
 11
116.21965
 21
1117.8205
 31
0.0
  0
LINE
  5
266D
330
1D
100
AcDbEntity
  8
0
100
AcDbLine
 10
114.91085
 20
1118.0505
 30
0.0
 11
115.27325
 21
1117.9805
 31
0.0
  0
LINE
  5
266E
330
1D
100
AcDbEntity
  8
0
100
AcDbLine
 10
116.26405
 20
1117.8105
 30
0.0
 11
134.73545
 21
1113.8805
 31
0.0
  0
LINE
  5
266F
330
1D
100
AcDbEntity
  8
0
100
AcDbLine
 10
134.73545
 20
1113.8805
 30
0.0
 11
145.77265
 21
1111.2505
 31
0.0
  0
LINE
  5
2670
330
1D
100
AcDbEntity
  8
0
100
AcDbLine
 10
122.394705282067
 20
1096.41967911222
 30
0.0
 11
136.644378749938
 21
1093.90669244854
 31
0.0
  0
LINE
  5
2671
330
1D
100
AcDbEntity
  8
0
100
AcDbLine
 10
115.89275
 20
1117.8805
 30
0.0
 11
116.09065
 21
1117.8405
 31
0.0
  0
LINE
  5
2672
330
1D
100
AcDbEntity
  8
0
100
AcDbLine
 10
115.196586573033
 20
1117.99530805709
 30
0.0
 11
115.27325
 21
1117.9805
 31
0.0
  0
LINE
  5
2673
330
1D
100
AcDbEntity
  8
0
100
AcDbLine
 10
122.394678026793
 20
1096.41952451132
 30
0.0
 11
136.644338014138
 21
1093.90646138166
 31
0.0
  0
LINE
  5
2674
330
1D
100
AcDbEntity
  8
0
100
AcDbLine
 10
175.95105
 20
1084.9505
 30
0.0
 11
176.297368086278
 21
1086.91493026193
 31
0.0
  0
LINE
  5
2675
330
1D
100
AcDbEntity
  8
0
100
AcDbLine
 10
175.95105
 20
1084.9505
 30
0.0
 11
176.297368086278
 21
1086.91493026193
 31
0.0
  0
LINE
  5
2676
330
1D
100
AcDbEntity
  8
0
100
AcDbLine
 10
175.39365
 20
1085.0405
 30
0.0
 11
175.95105
 21
1084.9505
 31
0.0
  0
LINE
  5
2677
330
1D
100
AcDbEntity
  8
0
100
AcDbLine
 10
175.39365
 20
1085.0405
 30
0.0
 11
175.74095
 21
1087.0105
 31
0.0
  0
LINE
  5
2678
330
1D
100
AcDbEntity
  8
0
100
AcDbLine
 10
175.74095
 20
1087.0105
 30
0.0
 11
175.912287233425
 21
1086.98283521527
 31
0.0
  0
LINE
  5
2679
330
1D
100
AcDbEntity
  8
0
100
AcDbLine
 10
175.74095
 20
1087.0105
 30
0.0
 11
175.912287233425
 21
1086.98283521527
 31
0.0
  0
LINE
  5
267A
330
1D
100
AcDbEntity
  8
0
100
AcDbLine
 10
172.79075
 20
1085.5005
 30
0.0
 11
174.09275
 21
1085.2705
 31
0.0
  0
LINE
  5
267B
330
1D
100
AcDbEntity
  8
0
100
AcDbLine
 10
172.79075
 20
1085.5005
 30
0.0
 11
173.13805
 21
1087.4705
 31
0.0
  0
LINE
  5
267C
330
1D
100
AcDbEntity
  8
0
100
AcDbLine
 10
174.44005
 20
1087.2405
 30
0.0
 11
174.910867715515
 21
1087.1594250019
 31
0.0
  0
LINE
  5
267D
330
1D
100
AcDbEntity
  8
0
100
AcDbLine
 10
174.44005
 20
1087.2405
 30
0.0
 11
174.910867715515
 21
1087.1594250019
 31
0.0
  0
LINE
  5
267E
330
1D
100
AcDbEntity
  8
0
100
AcDbLine
 10
174.44005
 20
1087.2405
 30
0.0
 11
175.74095
 21
1087.0105
 31
0.0
  0
LINE
  5
267F
330
1D
100
AcDbEntity
  8
0
100
AcDbLine
 10
172.23335
 20
1085.6005
 30
0.0
 11
172.79075
 21
1085.5005
 31
0.0
  0
LINE
  5
2680
330
1D
100
AcDbEntity
  8
0
100
AcDbLine
 10
172.23335
 20
1085.6005
 30
0.0
 11
172.580350927054
 21
1087.56880355974
 31
0.0
  0
LINE
  5
2681
330
1D
100
AcDbEntity
  8
0
100
AcDbLine
 10
172.23335
 20
1085.6005
 30
0.0
 11
172.580621678667
 21
1087.57033935207
 31
0.0
  0
LINE
  5
2682
330
1D
100
AcDbEntity
  8
0
100
AcDbLine
 10
174.09275
 20
1085.2705
 30
0.0
 11
175.39365
 21
1085.0405
 31
0.0
  0
LINE
  5
2683
330
1D
100
AcDbEntity
  8
0
100
AcDbLine
 10
174.09275
 20
1085.2705
 30
0.0
 11
174.44005
 21
1087.2405
 31
0.0
  0
LINE
  5
2684
330
1D
100
AcDbEntity
  8
0
100
AcDbLine
 10
176.297084595898
 20
1086.91332221111
 30
0.0
 11
185.04525
 21
1085.3705
 31
0.0
  0
LINE
  5
2685
330
1D
100
AcDbEntity
  8
0
100
AcDbLine
 10
172.634694723684
 20
1087.56080413999
 30
0.0
 11
173.13805
 21
1087.4705
 31
0.0
  0
LINE
  5
2686
330
1D
100
AcDbEntity
  8
0
100
AcDbLine
 10
172.634694723684
 20
1087.56080413999
 30
0.0
 11
173.13805
 21
1087.4705
 31
0.0
  0
LINE
  5
2687
330
1D
100
AcDbEntity
  8
0
100
AcDbLine
 10
154.82295
 20
1088.6705
 30
0.0
 11
156.12485
 21
1088.4405
 31
0.0
  0
LINE
  5
2688
330
1D
100
AcDbEntity
  8
0
100
AcDbLine
 10
154.82295
 20
1088.6705
 30
0.0
 11
155.170245735674
 21
1090.64047581134
 31
0.0
  0
LINE
  5
2689
330
1D
100
AcDbEntity
  8
0
100
AcDbLine
 10
157.42585
 20
1088.2105
 30
0.0
 11
157.98325
 21
1088.1105
 31
0.0
  0
LINE
  5
268A
330
1D
100
AcDbEntity
  8
0
100
AcDbLine
 10
157.42585
 20
1088.2105
 30
0.0
 11
157.77315
 21
1090.1805
 31
0.0
  0
LINE
  5
268B
330
1D
100
AcDbEntity
  8
0
100
AcDbLine
 10
156.12485
 20
1088.4405
 30
0.0
 11
157.42585
 21
1088.2105
 31
0.0
  0
LINE
  5
268C
330
1D
100
AcDbEntity
  8
0
100
AcDbLine
 10
156.12485
 20
1088.4405
 30
0.0
 11
156.47215
 21
1090.4105
 31
0.0
  0
LINE
  5
268D
330
1D
100
AcDbEntity
  8
0
100
AcDbLine
 10
157.98325
 20
1088.1105
 30
0.0
 11
158.33055
 21
1090.0805
 31
0.0
  0
LINE
  5
268E
330
1D
100
AcDbEntity
  8
0
100
AcDbLine
 10
154.26555
 20
1088.7705
 30
0.0
 11
154.82295
 21
1088.6705
 31
0.0
  0
LINE
  5
268F
330
1D
100
AcDbEntity
  8
0
100
AcDbLine
 10
154.26555
 20
1088.7705
 30
0.0
 11
154.612344470596
 21
1090.7376324707
 31
0.0
  0
LINE
  5
2690
330
1D
100
AcDbEntity
  8
0
100
AcDbLine
 10
154.26555
 20
1088.7705
 30
0.0
 11
154.6125536385
 21
1090.73881893995
 31
0.0
  0
LINE
  5
2691
330
1D
100
AcDbEntity
  8
0
100
AcDbLine
 10
173.010790448138
 20
1087.49333092068
 30
0.0
 11
175.832045183876
 21
1086.99579141272
 31
0.0
  0
LINE
  5
2692
330
1D
100
AcDbEntity
  8
0
100
AcDbLine
 10
173.316186472054
 20
1087.43903195962
 30
0.0
 11
174.44005
 21
1087.2405
 31
0.0
  0
LINE
  5
2693
330
1D
100
AcDbEntity
  8
0
100
AcDbLine
 10
173.13805
 20
1087.4705
 30
0.0
 11
174.44005
 21
1087.2405
 31
0.0
  0
LINE
  5
2694
330
1D
100
AcDbEntity
  8
0
100
AcDbLine
 10
173.316186472044
 20
1087.43903195962
 30
0.0
 11
174.44005
 21
1087.2405
 31
0.0
  0
LINE
  5
2695
330
1D
100
AcDbEntity
  8
0
100
AcDbLine
 10
173.316186472042
 20
1087.43903195962
 30
0.0
 11
175.80149408025
 21
1087.00072431428
 31
0.0
  0
LINE
  5
2696
330
1D
100
AcDbEntity
  8
0
100
AcDbLine
 10
173.316186472048
 20
1087.43903195962
 30
0.0
 11
175.80149408025
 21
1087.00072431428
 31
0.0
  0
LINE
  5
2697
330
1D
100
AcDbEntity
  8
0
100
AcDbLine
 10
173.010790448139
 20
1087.49333092068
 30
0.0
 11
175.832045183876
 21
1086.99579141272
 31
0.0
  0
LINE
  5
2698
330
1D
100
AcDbEntity
  8
0
100
AcDbLine
 10
174.146490404259
 20
1087.29259996052
 30
0.0
 11
174.518896656559
 21
1087.22692257434
 31
0.0
  0
LINE
  5
2699
330
1D
100
AcDbEntity
  8
0
100
AcDbLine
 10
177.612842061357
 20
1086.68325087352
 30
0.0
 11
182.380616200605
 21
1085.84252059898
 31
0.0
  0
LINE
  5
269A
330
1D
100
AcDbEntity
  8
0
100
AcDbLine
 10
177.612842061354
 20
1086.68325087352
 30
0.0
 11
182.380616200605
 21
1085.84252059898
 31
0.0
  0
LINE
  5
269B
330
1D
100
AcDbEntity
  8
0
100
AcDbLine
 10
179.22615
 20
1086.4005
 30
0.0
 11
181.01065
 21
1086.0905
 31
0.0
  0
LINE
  5
269C
330
1D
100
AcDbEntity
  8
0
100
AcDbLine
 10
176.297162844165
 20
1086.91376606105
 30
0.0
 11
182.72325
 21
1085.7805
 31
0.0
  0
LINE
  5
269D
330
1D
100
AcDbEntity
  8
0
100
AcDbLine
 10
177.34325
 20
1086.7305
 30
0.0
 11
179.22615
 21
1086.4005
 31
0.0
  0
LINE
  5
269E
330
1D
100
AcDbEntity
  8
0
100
AcDbLine
 10
183.031012405042
 20
1085.72783232652
 30
0.0
 11
184.766540792601
 21
1085.42179617314
 31
0.0
  0
LINE
  5
269F
330
1D
100
AcDbEntity
  8
0
100
AcDbLine
 10
183.031012405042
 20
1085.72783232652
 30
0.0
 11
184.766540792601
 21
1085.42179617314
 31
0.0
  0
LINE
  5
26A0
330
1D
100
AcDbEntity
  8
0
100
AcDbLine
 10
180.544104226368
 20
1086.17154745857
 30
0.0
 11
181.26272392592
 21
1086.04487176396
 31
0.0
  0
LINE
  5
26A1
330
1D
100
AcDbEntity
  8
0
100
AcDbLine
 10
180.544104226368
 20
1086.17154745857
 30
0.0
 11
181.262723925919
 21
1086.04487176396
 31
0.0
  0
LINE
  5
26A2
330
1D
100
AcDbEntity
  8
0
100
AcDbLine
 10
182.72325
 20
1085.7805
 30
0.0
 11
184.06725
 21
1085.5505
 31
0.0
  0
LINE
  5
26A3
330
1D
100
AcDbEntity
  8
0
100
AcDbLine
 10
185.04525
 20
1085.3705
 30
0.0
 11
185.68125
 21
1085.2605
 31
0.0
  0
LINE
  5
26A4
330
1D
100
AcDbEntity
  8
0
100
AcDbLine
 10
475.48425
 20
91.669155
 30
0.0
 11
475.48625
 21
91.326656
 31
0.0
  0
LINE
  5
26A5
330
1D
100
AcDbEntity
  8
0
100
AcDbLine
 10
474.89925
 20
91.138486
 30
0.0
 11
475.48625
 21
91.326656
 31
0.0
  0
LINE
  5
26A6
330
1D
100
AcDbEntity
  8
0
100
AcDbLine
 10
346.85625
 20
151.1305
 30
0.0
 11
347.35525
 21
153.1305
 31
0.0
  0
LINE
  5
26A7
330
1D
100
AcDbEntity
  8
0
100
AcDbLine
 10
472.82925
 20
153.1305
 30
0.0
 11
472.82925
 21
1093.536511260284
 31
0.0
  0
LINE
  5
26A8
330
1D
100
AcDbEntity
  8
0
100
AcDbLine
 10
472.82925
 20
153.1305
 30
0.0
 11
472.82925
 21
1093.536511260284
 31
0.0
  0
LINE
  5
26A9
330
1D
100
AcDbEntity
  8
0
100
AcDbLine
 10
474.83225
 20
950.4825
 30
0.0
 11
475.33225
 21
950.6165
 31
0.0
  0
LINE
  5
26AA
330
1D
100
AcDbEntity
  8
0
100
AcDbLine
 10
475.33225
 20
950.6165
 30
0.0
 11
475.69825
 21
950.9825
 31
0.0
  0
LINE
  5
26AB
330
1D
100
AcDbEntity
  8
0
100
AcDbLine
 10
473.070086734695
 20
950.4825
 30
0.0
 11
474.83225
 21
950.4825
 31
0.0
  0
LINE
  5
26AC
330
1D
100
AcDbEntity
  8
0
100
AcDbLine
 10
472.82925
 20
950.47441712329
 30
0.0
 11
473.070086734657
 21
950.4825
 31
0.0
  0
LINE
  5
26AD
330
1D
100
AcDbEntity
  8
0
100
AcDbLine
 10
475.69825
 20
950.9825
 30
0.0
 11
475.83325
 21
951.4825
 31
0.0
  0
LINE
  5
26AE
330
1D
100
AcDbEntity
  8
0
100
AcDbLine
 10
450.80625
 20
993.5005
 30
0.0
 11
450.90525
 21
993.5005
 31
0.0
  0
LINE
  5
26AF
330
1D
100
AcDbEntity
  8
0
100
AcDbLine
 10
450.08125
 20
1060.5905
 30
0.0
 11
450.80625
 21
993.5005
 31
0.0
  0
LINE
  5
26B0
330
1D
100
AcDbEntity
  8
0
100
AcDbLine
 10
447.19831587862
 20
1069.73786752424
 30
0.0
 11
450.08125
 21
1060.5905
 31
0.0
  0
LINE
  5
26B1
330
1D
100
AcDbEntity
  8
0
100
AcDbLine
 10
185.90225
 20
1085.2205
 30
0.0
 11
187.25725
 21
1085.6605
 31
0.0
  0
LINE
  5
26B2
330
1D
100
AcDbEntity
  8
0
100
AcDbLine
 10
185.39825
 20
1085.9905
 30
0.0
 11
186.38925
 21
1085.8105
 31
0.0
  0
LINE
  5
26B3
330
1D
100
AcDbEntity
  8
0
100
AcDbLine
 10
186.38925
 20
1085.8105
 30
0.0
 11
187.03425
 21
1085.7005
 31
0.0
  0
LINE
  5
26B4
330
1D
100
AcDbEntity
  8
0
100
AcDbLine
 10
435.703928935698
 20
1086.09469512195
 30
0.0
 11
443.23125
 21
1078.4505
 31
0.0
  0
LINE
  5
26B5
330
1D
100
AcDbEntity
  8
0
100
AcDbLine
 10
187.03425
 20
1085.7005
 30
0.0
 11
187.25725
 21
1085.6605
 31
0.0
  0
LINE
  5
26B6
330
1D
100
AcDbEntity
  8
0
100
AcDbLine
 10
187.25725
 20
1085.6605
 30
0.0
 11
189.22525
 21
1096.8205
 31
0.0
  0
LINE
  5
26B7
330
1D
100
AcDbEntity
  8
0
100
AcDbLine
 10
184.03425
 20
1086.2305
 30
0.0
 11
185.39825
 21
1085.9905
 31
0.0
  0
LINE
  5
26B8
330
1D
100
AcDbEntity
  8
0
100
AcDbLine
 10
182.30035
 20
1086.5305
 30
0.0
 11
184.03425
 21
1086.2305
 31
0.0
  0
LINE
  5
26B9
330
1D
100
AcDbEntity
  8
0
100
AcDbLine
 10
180.49125
 20
1086.8505
 30
0.0
 11
182.30035
 21
1086.5305
 31
0.0
  0
LINE
  5
26BA
330
1D
100
AcDbEntity
  8
0
100
AcDbLine
 10
178.58265
 20
1087.1905
 30
0.0
 11
180.49125
 21
1086.8505
 31
0.0
  0
LINE
  5
26BB
330
1D
100
AcDbEntity
  8
0
100
AcDbLine
 10
176.297084595898
 20
1086.91332221111
 30
0.0
 11
185.04525
 21
1085.3705
 31
0.0
  0
LINE
  5
26BC
330
1D
100
AcDbEntity
  8
0
100
AcDbLine
 10
157.77315
 20
1090.1805
 30
0.0
 11
158.33055
 21
1090.0805
 31
0.0
  0
LINE
  5
26BD
330
1D
100
AcDbEntity
  8
0
100
AcDbLine
 10
157.65886859762
 20
1090.20070347621
 30
0.0
 11
172.5804256592
 21
1087.56922746508
 31
0.0
  0
LINE
  5
26BE
330
1D
100
AcDbEntity
  8
0
100
AcDbLine
 10
156.47215
 20
1090.4105
 30
0.0
 11
157.77315
 21
1090.1805
 31
0.0
  0
LINE
  5
26BF
330
1D
100
AcDbEntity
  8
0
100
AcDbLine
 10
155.246894941491
 20
1090.62695953104
 30
0.0
 11
156.47215
 21
1090.4105
 31
0.0
  0
LINE
  5
26C0
330
1D
100
AcDbEntity
  8
0
100
AcDbLine
 10
155.24689494149
 20
1090.62695953104
 30
0.0
 11
156.47215
 21
1090.4105
 31
0.0
  0
LINE
  5
26C1
330
1D
100
AcDbEntity
  8
0
100
AcDbLine
 10
177.41185
 20
1102.2905
 30
0.0
 11
184.61525
 21
1099.6705
 31
0.0
  0
LINE
  5
26C2
330
1D
100
AcDbEntity
  8
0
100
AcDbLine
 10
167.73035
 20
1105.3505
 30
0.0
 11
177.41185
 21
1102.2905
 31
0.0
  0
LINE
  5
26C3
330
1D
100
AcDbEntity
  8
0
100
AcDbLine
 10
154.33115
 20
1109.0705
 30
0.0
 11
167.73035
 21
1105.3505
 31
0.0
  0
LINE
  5
26C4
330
1D
100
AcDbEntity
  8
0
100
AcDbLine
 10
145.77265
 20
1111.2505
 30
0.0
 11
154.33115
 21
1109.0705
 31
0.0
  0
LINE
  5
26C5
330
1D
100
AcDbEntity
  8
0
100
AcDbLine
 10
157.658868597617
 20
1090.20070347621
 30
0.0
 11
172.5804256592
 21
1087.56922746508
 31
0.0
  0
LINE
  5
26C6
330
1D
100
AcDbEntity
  8
0
100
AcDbLine
 10
187.36625
 20
1097.1505
 30
0.0
 11
188.35725
 21
1096.9705
 31
0.0
  0
LINE
  5
26C7
330
1D
100
AcDbEntity
  8
0
100
AcDbLine
 10
188.35725
 20
1096.9705
 30
0.0
 11
189.00225
 21
1096.8605
 31
0.0
  0
LINE
  5
26C8
330
1D
100
AcDbEntity
  8
0
100
AcDbLine
 10
472.90825
 20
1093.5405
 30
0.0
 11
473.04225
 21
1097.7905
 31
0.0
  0
LINE
  5
26C9
330
1D
100
AcDbEntity
  8
0
100
AcDbLine
 10
472.90824671507
 20
1093.53634019767
 30
0.0
 11
475.60525
 21
1093.5305
 31
0.0
  0
LINE
  5
26CA
330
1D
100
AcDbEntity
  8
0
100
AcDbLine
 10
189.00225
 20
1096.8605
 30
0.0
 11
189.22525
 21
1096.8205
 31
0.0
  0
LINE
  5
26CB
330
1D
100
AcDbEntity
  8
0
100
AcDbLine
 10
188.72125
 20
1097.5905
 30
0.0
 11
189.22525
 21
1096.8205
 31
0.0
  0
LINE
  5
26CC
330
1D
100
AcDbEntity
  8
0
100
AcDbLine
 10
186.00225
 20
1097.3905
 30
0.0
 11
187.36625
 21
1097.1505
 31
0.0
  0
LINE
  5
26CD
330
1D
100
AcDbEntity
  8
0
100
AcDbLine
 10
184.26825
 20
1097.7005
 30
0.0
 11
186.00225
 21
1097.3905
 31
0.0
  0
LINE
  5
26CE
330
1D
100
AcDbEntity
  8
0
100
AcDbLine
 10
412.46725
 20
1098.1705
 30
0.0
 11
421.378405017637
 21
1096.09528752169
 31
0.0
  0
LINE
  5
26CF
330
1D
100
AcDbEntity
  8
0
100
AcDbLine
 10
463.949736886792
 20
1110.14536462264
 30
0.0
 11
464.61425
 21
1110.0305
 31
0.0
  0
LINE
  5
26D0
330
1D
100
AcDbEntity
  8
0
100
AcDbLine
 10
463.948572911327
 20
1110.14606893901
 30
0.0
 11
464.61425
 21
1110.0305
 31
0.0
  0
LINE
  5
26D1
330
1D
100
AcDbEntity
  8
0
100
AcDbLine
 10
472.88425
 20
1099.8605
 30
0.0
 11
473.02025
 21
1098.5405
 31
0.0
  0
LINE
  5
26D2
330
1D
100
AcDbEntity
  8
0
100
AcDbLine
 10
473.02025
 20
1098.5405
 30
0.0
 11
473.04225
 21
1097.7905
 31
0.0
  0
LINE
  5
26D3
330
1D
100
AcDbEntity
  8
0
100
AcDbLine
 10
472.45525
 20
1103.2105
 30
0.0
 11
472.88425
 21
1099.8605
 31
0.0
  0
LINE
  5
26D4
330
1D
100
AcDbEntity
  8
0
100
AcDbLine
 10
464.61425
 20
1110.0305
 30
0.0
 11
468.88925
 21
1108.3005
 31
0.0
  0
LINE
  5
26D5
330
1D
100
AcDbEntity
  8
0
100
AcDbLine
 10
468.88925
 20
1108.3005
 30
0.0
 11
472.45525
 21
1103.2105
 31
0.0
  0
LINE
  5
26D6
330
1D
100
AcDbEntity
  8
0
100
AcDbLine
 10
463.949880394182
 20
1110.14527778696
 30
0.0
 11
464.61425
 21
1110.0305
 31
0.0
  0
LINE
  5
26D7
330
1D
100
AcDbEntity
  8
0
100
AcDbLine
 10
463.944523235421
 20
1110.14851937984
 30
0.0
 11
464.61425
 21
1110.0305
 31
0.0
  0
LINE
  5
26D8
330
1D
100
AcDbEntity
  8
0
100
AcDbLine
 10
463.944523235421
 20
1110.14851937984
 30
0.0
 11
464.61425
 21
1110.0305
 31
0.0
  0
LINE
  5
26D9
330
1D
100
AcDbEntity
  8
0
100
AcDbLine
 10
463.94125
 20
1110.1505
 30
0.0
 11
464.61425
 21
1110.0305
 31
0.0
  0
LINE
  5
26DA
330
1D
100
AcDbEntity
  8
0
100
AcDbLine
 10
184.61525
 20
1099.6705
 30
0.0
 11
188.72125
 21
1097.5905
 31
0.0
  0
LINE
  5
26DB
330
1D
100
AcDbEntity
  8
0
100
AcDbLine
 10
182.45925
 20
1098.0105
 30
0.0
 11
184.26825
 21
1097.7005
 31
0.0
  0
LINE
  5
26DC
330
1D
100
AcDbEntity
  8
0
100
AcDbLine
 10
180.55065
 20
1098.3505
 30
0.0
 11
182.45925
 21
1098.0105
 31
0.0
  0
LINE
  5
26DD
330
1D
100
AcDbEntity
  8
0
100
AcDbLine
 10
157.873535719066
 20
1090.16249036256
 30
0.0
 11
172.580350927054
 21
1087.56880355974
 31
0.0
  0
LINE
  5
26DE
330
1D
100
AcDbEntity
  8
0
100
AcDbLine
 10
140.302305272239
 20
1093.26134404876
 30
0.0
 11
154.612344470596
 21
1090.7376324707
 31
0.0
  0
LINE
  5
26DF
330
1D
100
AcDbEntity
  8
0
100
AcDbLine
 10
115.237969365945
 20
1140.80310119395
 30
0.0
 11
116.60295
 21
1140.7005
 31
0.0
  0
LINE
  5
26E0
330
1D
100
AcDbEntity
  8
0
100
AcDbLine
 10
116.60295
 20
1140.7005
 30
0.0
 11
121.37355
 21
1145.8605
 31
0.0
  0
LINE
  5
26E1
330
1D
100
AcDbEntity
  8
0
100
AcDbLine
 10
113.71545
 20
1141.0105
 30
0.0
 11
116.60295
 21
1140.7005
 31
0.0
  0
LINE
  5
26E2
330
1D
100
AcDbEntity
  8
0
100
AcDbLine
 10
133.68005
 20
1147.1405
 30
0.0
 11
412.46725
 21
1098.1705
 31
0.0
  0
LINE
  5
26E3
330
1D
100
AcDbEntity
  8
0
100
AcDbLine
 10
121.37355
 20
1145.8605
 30
0.0
 11
133.68005
 21
1147.1405
 31
0.0
  0
LINE
  5
26E4
330
1D
100
AcDbEntity
  8
0
100
AcDbLine
 10
123.57995
 20
1169.1205
 30
0.0
 11
137.97745
 21
1167.5905
 31
0.0
  0
LINE
  5
26E5
330
1D
100
AcDbEntity
  8
0
100
AcDbLine
 10
114.69505
 20
1169.1305
 30
0.0
 11
123.57995
 21
1169.1205
 31
0.0
  0
LINE
  5
26E6
330
1D
100
AcDbEntity
  8
0
100
AcDbLine
 10
113.07345
 20
1128.5305
 30
0.0
 11
115.245575430395
 21
1140.84622679362
 31
0.0
  0
LINE
  5
26E7
330
1D
100
AcDbEntity
  8
0
100
AcDbLine
 10
113.21135
 20
1128.5005
 30
0.0
 11
113.49175
 21
1128.0205
 31
0.0
  0
LINE
  5
26E8
330
1D
100
AcDbEntity
  8
0
100
AcDbLine
 10
112.95995
 20
1128.1105
 30
0.0
 11
113.49175
 21
1128.0205
 31
0.0
  0
LINE
  5
26E9
330
1D
100
AcDbEntity
  8
0
100
AcDbLine
 10
108.71555
 20
1141.3105
 30
0.0
 11
109.596795281511
 21
1141.6559391389
 31
0.0
  0
LINE
  5
26EA
330
1D
100
AcDbEntity
  8
0
100
AcDbLine
 10
93.33235
 20
1160.8405
 30
0.0
 11
99.583543901791
 21
1164.33549985111
 31
0.0
  0
LINE
  5
26EB
330
1D
100
AcDbEntity
  8
0
100
AcDbLine
 10
137.97745
 20
1167.5905
 30
0.0
 11
463.94125
 21
1110.1505
 31
0.0
  0
LINE
  5
26EC
330
1D
100
AcDbEntity
  8
0
100
AcDbLine
 10
447.19831587862
 20
1069.73786752424
 30
0.0
 11
443.23125
 21
1078.4505
 31
0.0
  0
LINE
  5
26ED
330
1D
100
AcDbEntity
  8
0
100
AcDbLine
 10
435.703928935698
 20
1086.09469512195
 30
0.0
 11
430.155539659714
 21
1091.908215015301
 31
0.0
  0
LINE
  5
26EE
330
1D
100
AcDbEntity
  8
0
100
AcDbLine
 10
430.155539659714
 20
1091.908215015301
 30
0.0
 11
421.378405017637
 21
1096.09528752169
 31
0.0
  0
LINE
  5
26EF
330
1D
100
AcDbEntity
  8
0
100
AcDbLine
 10
475.60525
 20
1093.5305
 30
0.0
 11
475.83325
 21
951.4825
 31
0.0
  0
LINE
  5
26F0
330
1D
100
AcDbEntity
  8
0
100
AcDbLine
 10
407.98345
 20
89.949365118347
 30
0.0
 11
407.98345
 21
91.135470525381
 31
0.0
  0
LINE
  5
26F1
330
1D
100
AcDbEntity
  8
0
100
AcDbLine
 10
408.14915
 20
89.9478
 30
0.0
 11
409.74915
 21
89.9326
 31
0.0
  0
LINE
  5
26F2
330
1D
100
AcDbEntity
  8
0
100
AcDbLine
 10
407.56505
 20
59.952
 30
0.0
 11
407.86505
 21
59.9491
 31
0.0
  0
LINE
  5
26F3
330
1D
100
AcDbEntity
  8
0
100
AcDbLine
 10
407.98345
 20
91.135470525381
 30
0.0
 11
407.98345
 21
89.949365118347
 31
0.0
  0
LINE
  5
26F4
330
1D
100
AcDbEntity
  8
0
100
AcDbLine
 10
406.84925
 20
89.9601
 30
0.0
 11
407.24925
 21
89.9563
 31
0.0
  0
LINE
  5
26F5
330
1D
100
AcDbEntity
  8
0
100
AcDbLine
 10
407.24925
 20
89.9563
 30
0.0
 11
407.98345
 21
89.949365118347
 31
0.0
  0
LINE
  5
26F6
330
1D
100
AcDbEntity
  8
0
100
AcDbLine
 10
407.24925
 20
89.9563
 30
0.0
 11
408.14915
 21
89.9478
 31
0.0
  0
LINE
  5
26F7
330
1D
100
AcDbEntity
  8
0
100
AcDbLine
 10
405.83035
 20
87.9696
 30
0.0
 11
407.56505
 21
59.952
 31
0.0
  0
LINE
  5
26F8
330
1D
100
AcDbEntity
  8
0
100
AcDbLine
 10
405.83035
 20
87.9696
 30
0.0
 11
406.84925
 21
89.9601
 31
0.0
  0
LINE
  5
26F9
330
1D
100
AcDbEntity
  8
0
100
AcDbLine
 10
407.86505
 20
59.9491
 30
0.0
 11
408.76505
 21
59.9406
 31
0.0
  0
LINE
  5
26FA
330
1D
100
AcDbEntity
  8
0
100
AcDbLine
 10
408.53715
 20
4.2025
 30
0.0
 11
408.81835
 21
2.2125
 31
0.0
  0
LINE
  5
26FB
330
1D
100
AcDbEntity
  8
0
100
AcDbLine
 10
408.53715
 20
4.2025
 30
0.0
 11
409.065049524537
 21
59.937749800931
 31
0.0
  0
LINE
  5
26FC
330
1D
100
AcDbEntity
  8
0
100
AcDbLine
 10
408.53715
 20
4.2025
 30
0.0
 11
408.84995
 21
5.5485
 31
0.0
  0
LINE
  5
26FD
330
1D
100
AcDbEntity
  8
0
100
AcDbLine
 10
408.84995
 20
5.5485
 30
0.0
 11
409.56125
 21
6.7415
 31
0.0
  0
LINE
  5
26FE
330
1D
100
AcDbEntity
  8
0
100
AcDbLine
 10
408.81835
 20
2.2125
 30
0.0
 11
409.50765
 21
1.0815
 31
0.0
  0
LINE
  5
26FF
330
1D
100
AcDbEntity
  8
0
100
AcDbLine
 10
409.56125
 20
6.7415
 30
0.0
 11
410.77255
 21
7.9295
 31
0.0
  0
LINE
  5
2700
330
1D
100
AcDbEntity
  8
0
100
AcDbLine
 10
409.50765
 20
1.0815
 30
0.0
 11
410.70115
 21
0.3955
 31
0.0
  0
LINE
  5
2701
330
1D
100
AcDbEntity
  8
0
100
AcDbLine
 10
409.74915
 20
89.9326
 30
0.0
 11
411.84905
 21
89.9127
 31
0.0
  0
LINE
  5
2702
330
1D
100
AcDbEntity
  8
0
100
AcDbLine
 10
410.16495
 20
59.9273
 30
0.0
 11
412.06485
 21
59.9093
 31
0.0
  0
LINE
  5
2703
330
1D
100
AcDbEntity
  8
0
100
AcDbLine
 10
408.76505
 20
59.9406
 30
0.0
 11
409.065049524537
 21
59.937749800931
 31
0.0
  0
LINE
  5
2704
330
1D
100
AcDbEntity
  8
0
100
AcDbLine
 10
408.76505
 20
59.9406
 30
0.0
 11
410.16495
 21
59.9273
 31
0.0
  0
LINE
  5
2705
330
1D
100
AcDbEntity
  8
0
100
AcDbLine
 10
410.77255
 20
7.9295
 30
0.0
 11
412.38245
 21
8.9635
 31
0.0
  0
LINE
  5
2706
330
1D
100
AcDbEntity
  8
0
100
AcDbLine
 10
410.70115
 20
0.3955
 30
0.0
 11
412.29755
 21
0.0055
 31
0.0
  0
LINE
  5
2707
330
1D
100
AcDbEntity
  8
0
100
AcDbLine
 10
346.85625
 20
151.1305
 30
0.0
 11
347.35525
 21
153.1305
 31
0.0
  0
LINE
  5
2708
330
1D
100
AcDbEntity
  8
0
100
AcDbLine
 10
346.85625
 20
151.1305
 30
0.0
 11
347.35525
 21
153.1305
 31
0.0
  0
LINE
  5
2709
330
1D
100
AcDbEntity
  8
0
100
AcDbLine
 10
347.35525
 20
153.1305
 30
0.0
 11
347.84425
 21
153.1305
 31
0.0
  0
LINE
  5
270A
330
1D
100
AcDbEntity
  8
0
100
AcDbLine
 10
411.84905
 20
89.9127
 30
0.0
 11
414.24895
 21
89.89
 31
0.0
  0
LINE
  5
270B
330
1D
100
AcDbEntity
  8
0
100
AcDbLine
 10
412.38245
 20
8.9635
 30
0.0
 11
414.18905
 21
9.6585
 31
0.0
  0
LINE
  5
270C
330
1D
100
AcDbEntity
  8
0
100
AcDbLine
 10
412.29755
 20
0.0055
 30
0.0
 11
414.09675
 21
-0.0865
 31
0.0
  0
LINE
  5
270D
330
1D
100
AcDbEntity
  8
0
100
AcDbLine
 10
414.09675
 20
-0.0865
 30
0.0
 11
415.99645
 21
-0.1305
 31
0.0
  0
LINE
  5
270E
330
1D
100
AcDbEntity
  8
0
100
AcDbLine
 10
412.06485
 20
59.9093
 30
0.0
 11
414.26475
 21
59.8885
 31
0.0
  0
LINE
  5
270F
330
1D
100
AcDbEntity
  8
0
100
AcDbLine
 10
415.99645
 20
-0.1305
 30
0.0
 11
417.89665
 21
-0.1225
 31
0.0
  0
LINE
  5
2710
330
1D
100
AcDbEntity
  8
0
100
AcDbLine
 10
416.09115
 20
9.8685
 30
0.0
 11
417.98885
 21
9.6225
 31
0.0
  0
LINE
  5
2711
330
1D
100
AcDbEntity
  8
0
100
AcDbLine
 10
414.274410240613
 20
59.888408433738
 30
0.0
 11
414.66475
 21
59.8847
 31
0.0
  0
LINE
  5
2712
330
1D
100
AcDbEntity
  8
0
100
AcDbLine
 10
414.66475
 20
59.8847
 30
0.0
 11
416.56465
 21
59.8667
 31
0.0
  0
LINE
  5
2713
330
1D
100
AcDbEntity
  8
0
100
AcDbLine
 10
414.18905
 20
9.6585
 30
0.0
 11
416.09115
 21
9.8685
 31
0.0
  0
LINE
  5
2714
330
1D
100
AcDbEntity
  8
0
100
AcDbLine
 10
414.24895
 20
89.89
 30
0.0
 11
416.84875
 21
89.8654
 31
0.0
  0
LINE
  5
2715
330
1D
100
AcDbEntity
  8
0
100
AcDbLine
 10
414.26475
 20
59.8885
 30
0.0
 11
416.56465
 21
59.8667
 31
0.0
  0
LINE
  5
2716
330
1D
100
AcDbEntity
  8
0
100
AcDbLine
 10
419.69725
 20
-0.0645
 30
0.0
 11
421.30075
 21
0.2955
 31
0.0
  0
LINE
  5
2717
330
1D
100
AcDbEntity
  8
0
100
AcDbLine
 10
417.89665
 20
-0.1225
 30
0.0
 11
419.69725
 21
-0.0645
 31
0.0
  0
LINE
  5
2718
330
1D
100
AcDbEntity
  8
0
100
AcDbLine
 10
422.50705
 20
0.9585
 30
0.0
 11
423.21765
 21
2.0765
 31
0.0
  0
LINE
  5
2719
330
1D
100
AcDbEntity
  8
0
100
AcDbLine
 10
421.30075
 20
0.2955
 30
0.0
 11
422.50705
 21
0.9585
 31
0.0
  0
LINE
  5
271A
330
1D
100
AcDbEntity
  8
0
100
AcDbLine
 10
423.21765
 20
2.0765
 30
0.0
 11
423.53645
 21
4.0595
 31
0.0
  0
LINE
  5
271B
330
1D
100
AcDbEntity
  8
0
100
AcDbLine
 10
423.24925
 20
5.4125
 30
0.0
 11
423.53645
 21
4.0595
 31
0.0
  0
LINE
  5
271C
330
1D
100
AcDbEntity
  8
0
100
AcDbLine
 10
423.53645
 20
4.0595
 30
0.0
 11
424.06435
 21
59.7957
 31
0.0
  0
LINE
  5
271D
330
1D
100
AcDbEntity
  8
0
100
AcDbLine
 10
422.56065
 20
6.6185
 30
0.0
 11
423.24925
 21
5.4125
 31
0.0
  0
LINE
  5
271E
330
1D
100
AcDbEntity
  8
0
100
AcDbLine
 10
421.37205
 20
7.8285
 30
0.0
 11
422.56065
 21
6.6185
 31
0.0
  0
LINE
  5
271F
330
1D
100
AcDbEntity
  8
0
100
AcDbLine
 10
419.78205
 20
8.8935
 30
0.0
 11
421.37205
 21
7.8285
 31
0.0
  0
LINE
  5
2720
330
1D
100
AcDbEntity
  8
0
100
AcDbLine
 10
417.98885
 20
9.6225
 30
0.0
 11
419.78205
 21
8.8935
 31
0.0
  0
LINE
  5
2721
330
1D
100
AcDbEntity
  8
0
100
AcDbLine
 10
425.56425
 20
59.7815
 30
0.0
 11
427.82935
 21
87.7613
 31
0.0
  0
LINE
  5
2722
330
1D
100
AcDbEntity
  8
0
100
AcDbLine
 10
423.76435
 20
59.7985
 30
0.0
 11
424.06435
 21
59.7957
 31
0.0
  0
LINE
  5
2723
330
1D
100
AcDbEntity
  8
0
100
AcDbLine
 10
423.36435
 20
59.802328571429
 30
0.0
 11
424.36435
 21
59.7929
 31
0.0
  0
LINE
  5
2724
330
1D
100
AcDbEntity
  8
0
100
AcDbLine
 10
421.86445
 20
59.8165
 30
0.0
 11
422.228511517118
 21
59.813071468336
 31
0.0
  0
LINE
  5
2725
330
1D
100
AcDbEntity
  8
0
100
AcDbLine
 10
421.082436098489
 20
59.823929596414
 30
0.0
 11
421.86445
 21
59.8165
 31
0.0
  0
LINE
  5
2726
330
1D
100
AcDbEntity
  8
0
100
AcDbLine
 10
422.96435
 20
59.8061
 30
0.0
 11
424.36435
 21
59.7929
 31
0.0
  0
LINE
  5
2727
330
1D
100
AcDbEntity
  8
0
100
AcDbLine
 10
421.06445
 20
59.8241
 30
0.0
 11
422.96435
 21
59.8061
 31
0.0
  0
LINE
  5
2728
330
1D
100
AcDbEntity
  8
0
100
AcDbLine
 10
423.94845
 20
89.7981
 30
0.0
 11
425.54845
 21
89.783
 31
0.0
  0
LINE
  5
2729
330
1D
100
AcDbEntity
  8
0
100
AcDbLine
 10
421.84855
 20
89.818
 30
0.0
 11
423.94845
 21
89.7981
 31
0.0
  0
LINE
  5
272A
330
1D
100
AcDbEntity
  8
0
100
AcDbLine
 10
419.44865
 20
89.8408
 30
0.0
 11
421.84855
 21
89.818
 31
0.0
  0
LINE
  5
272B
330
1D
100
AcDbEntity
  8
0
100
AcDbLine
 10
416.84875
 20
89.8654
 30
0.0
 11
419.44865
 21
89.8408
 31
0.0
  0
LINE
  5
272C
330
1D
100
AcDbEntity
  8
0
100
AcDbLine
 10
418.86455
 20
59.8449
 30
0.0
 11
421.06445
 21
59.8241
 31
0.0
  0
LINE
  5
272D
330
1D
100
AcDbEntity
  8
0
100
AcDbLine
 10
416.56465
 20
59.8667
 30
0.0
 11
418.86455
 21
59.8449
 31
0.0
  0
LINE
  5
272E
330
1D
100
AcDbEntity
  8
0
100
AcDbLine
 10
423.364350000001
 20
59.802328571429
 30
0.0
 11
424.36435
 21
59.7929
 31
0.0
  0
LINE
  5
272F
330
1D
100
AcDbEntity
  8
0
100
AcDbLine
 10
423.364350000001
 20
59.802328571429
 30
0.0
 11
423.76435
 21
59.7985
 31
0.0
  0
LINE
  5
2730
330
1D
100
AcDbEntity
  8
0
100
AcDbLine
 10
425.98345
 20
89.778891210134
 30
0.0
 11
425.98345
 21
91.150465
 31
0.0
  0
LINE
  5
2731
330
1D
100
AcDbEntity
  8
0
100
AcDbLine
 10
425.54845
 20
89.783
 30
0.0
 11
426.44835
 21
89.7745
 31
0.0
  0
LINE
  5
2732
330
1D
100
AcDbEntity
  8
0
100
AcDbLine
 10
426.44835
 20
89.7745
 30
0.0
 11
426.84835
 21
89.7707
 31
0.0
  0
LINE
  5
2733
330
1D
100
AcDbEntity
  8
0
100
AcDbLine
 10
426.84835
 20
89.7707
 30
0.0
 11
427.82935
 21
87.7613
 31
0.0
  0
LINE
  5
2734
330
1D
100
AcDbEntity
  8
0
100
AcDbLine
 10
424.36435
 20
59.7929
 30
0.0
 11
425.26425
 21
59.7843
 31
0.0
  0
LINE
  5
2735
330
1D
100
AcDbEntity
  8
0
100
AcDbLine
 10
425.26425
 20
59.7843
 30
0.0
 11
425.56425
 21
59.7815
 31
0.0
  0
LINE
  5
2736
330
1D
100
AcDbEntity
  8
0
100
AcDbLine
 10
425.98345
 20
91.150465
 30
0.0
 11
425.98345
 21
89.778891210134
 31
0.0
  0
LINE
  5
2737
330
1D
100
AcDbEntity
  8
0
100
AcDbLine
 10
363.68825
 20
112.9594
 30
0.0
 11
365.16525
 21
110.3975
 31
0.0
  0
LINE
  5
2738
330
1D
100
AcDbEntity
  8
0
100
AcDbLine
 10
366.97225
 20
107.4332
 30
0.0
 11
368.77825
 21
104.6871
 31
0.0
  0
LINE
  5
2739
330
1D
100
AcDbEntity
  8
0
100
AcDbLine
 10
365.16525
 20
110.3975
 30
0.0
 11
366.97225
 21
107.4332
 31
0.0
  0
LINE
  5
273A
330
1D
100
AcDbEntity
  8
0
100
AcDbLine
 10
357.82395
 20
124.1631
 30
0.0
 11
359.36025
 21
121.0903
 31
0.0
  0
LINE
  5
273B
330
1D
100
AcDbEntity
  8
0
100
AcDbLine
 10
359.36025
 20
121.0903
 30
0.0
 11
360.93125
 21
118.0395
 31
0.0
  0
LINE
  5
273C
330
1D
100
AcDbEntity
  8
0
100
AcDbLine
 10
360.93125
 20
118.0395
 30
0.0
 11
362.62425
 21
114.8811
 31
0.0
  0
LINE
  5
273D
330
1D
100
AcDbEntity
  8
0
100
AcDbLine
 10
362.62425
 20
114.8811
 30
0.0
 11
363.68825
 21
112.9594
 31
0.0
  0
LINE
  5
273E
330
1D
100
AcDbEntity
  8
0
100
AcDbLine
 10
368.77825
 20
104.6871
 30
0.0
 11
370.62125
 21
102.1441
 31
0.0
  0
LINE
  5
273F
330
1D
100
AcDbEntity
  8
0
100
AcDbLine
 10
370.62125
 20
102.1441
 30
0.0
 11
373.050415683151
 21
99.384691351922
 31
0.0
  0
LINE
  5
2740
330
1D
100
AcDbEntity
  8
0
100
AcDbLine
 10
373.050415683151
 20
99.384691351922
 30
0.0
 11
373.18625
 21
99.2166
 31
0.0
  0
LINE
  5
2741
330
1D
100
AcDbEntity
  8
0
100
AcDbLine
 10
373.18625
 20
99.2166
 30
0.0
 11
373.84525
 21
98.4818
 31
0.0
  0
LINE
  5
2742
330
1D
100
AcDbEntity
  8
0
100
AcDbLine
 10
373.84525
 20
98.4818
 30
0.0
 11
375.58125
 21
96.9733
 31
0.0
  0
LINE
  5
2743
330
1D
100
AcDbEntity
  8
0
100
AcDbLine
 10
375.58125
 20
96.9733
 30
0.0
 11
377.46125
 21
95.6421
 31
0.0
  0
LINE
  5
2744
330
1D
100
AcDbEntity
  8
0
100
AcDbLine
 10
374.07725
 20
117.3894
 30
0.0
 11
374.60825
 21
114.7147
 31
0.0
  0
LINE
  5
2745
330
1D
100
AcDbEntity
  8
0
100
AcDbLine
 10
374.07725
 20
122.8716
 30
0.0
 11
374.60825
 21
125.5463
 31
0.0
  0
LINE
  5
2746
330
1D
100
AcDbEntity
  8
0
100
AcDbLine
 10
373.85625
 20
120.1305
 30
0.0
 11
374.07725
 21
117.3894
 31
0.0
  0
LINE
  5
2747
330
1D
100
AcDbEntity
  8
0
100
AcDbLine
 10
373.85625
 20
120.1305
 30
0.0
 11
374.07725
 21
122.8716
 31
0.0
  0
LINE
  5
2748
330
1D
100
AcDbEntity
  8
0
100
AcDbLine
 10
374.60825
 20
114.7147
 30
0.0
 11
375.49225
 21
112.1063
 31
0.0
  0
LINE
  5
2749
330
1D
100
AcDbEntity
  8
0
100
AcDbLine
 10
375.49225
 20
112.1063
 30
0.0
 11
376.66325
 21
109.6747
 31
0.0
  0
LINE
  5
274A
330
1D
100
AcDbEntity
  8
0
100
AcDbLine
 10
374.60825
 20
125.5463
 30
0.0
 11
375.49225
 21
128.1547
 31
0.0
  0
LINE
  5
274B
330
1D
100
AcDbEntity
  8
0
100
AcDbLine
 10
375.49225
 20
128.1547
 30
0.0
 11
376.66325
 21
130.5863
 31
0.0
  0
LINE
  5
274C
330
1D
100
AcDbEntity
  8
0
100
AcDbLine
 10
354.85555
 20
130.3445
 30
0.0
 11
356.32675
 21
127.2438
 31
0.0
  0
LINE
  5
274D
330
1D
100
AcDbEntity
  8
0
100
AcDbLine
 10
353.41525
 20
133.4451
 30
0.0
 11
354.85555
 21
130.3445
 31
0.0
  0
LINE
  5
274E
330
1D
100
AcDbEntity
  8
0
100
AcDbLine
 10
356.32675
 20
127.2438
 30
0.0
 11
357.82395
 21
124.1631
 31
0.0
  0
LINE
  5
274F
330
1D
100
AcDbEntity
  8
0
100
AcDbLine
 10
384.74825
 20
92.4777
 30
0.0
 11
388.24225
 21
91.7378
 31
0.0
  0
LINE
  5
2750
330
1D
100
AcDbEntity
  8
0
100
AcDbLine
 10
382.07925
 20
103.5073
 30
0.0
 11
384.40025
 21
101.9379
 31
0.0
  0
LINE
  5
2751
330
1D
100
AcDbEntity
  8
0
100
AcDbLine
 10
384.40025
 20
101.9379
 30
0.0
 11
386.83225
 21
100.7663
 31
0.0
  0
LINE
  5
2752
330
1D
100
AcDbEntity
  8
0
100
AcDbLine
 10
379.07925
 20
94.6991
 30
0.0
 11
381.83025
 21
93.4375
 31
0.0
  0
LINE
  5
2753
330
1D
100
AcDbEntity
  8
0
100
AcDbLine
 10
377.46125
 20
95.6421
 30
0.0
 11
379.07925
 21
94.6991
 31
0.0
  0
LINE
  5
2754
330
1D
100
AcDbEntity
  8
0
100
AcDbLine
 10
381.83025
 20
93.4375
 30
0.0
 11
384.74825
 21
92.4777
 31
0.0
  0
LINE
  5
2755
330
1D
100
AcDbEntity
  8
0
100
AcDbLine
 10
380.02325
 20
105.2979
 30
0.0
 11
382.07925
 21
103.5073
 31
0.0
  0
LINE
  5
2756
330
1D
100
AcDbEntity
  8
0
100
AcDbLine
 10
381.647939527865
 20
103.882934499711
 30
0.0
 11
381.864361854105
 21
103.69444917998
 31
0.0
  0
LINE
  5
2757
330
1D
100
AcDbEntity
  8
0
100
AcDbLine
 10
381.647939527865
 20
103.882934499711
 30
0.0
 11
381.864361854105
 21
103.69444917998
 31
0.0
  0
LINE
  5
2758
330
1D
100
AcDbEntity
  8
0
100
AcDbLine
 10
378.23325
 20
107.3537
 30
0.0
 11
380.02325
 21
105.2979
 31
0.0
  0
LINE
  5
2759
330
1D
100
AcDbEntity
  8
0
100
AcDbLine
 10
376.66325
 20
109.6747
 30
0.0
 11
378.23325
 21
107.3537
 31
0.0
  0
LINE
  5
275A
330
1D
100
AcDbEntity
  8
0
100
AcDbLine
 10
378.23325
 20
132.9073
 30
0.0
 11
380.02325
 21
134.9631
 31
0.0
  0
LINE
  5
275B
330
1D
100
AcDbEntity
  8
0
100
AcDbLine
 10
376.66325
 20
130.5863
 30
0.0
 11
378.23325
 21
132.9073
 31
0.0
  0
LINE
  5
275C
330
1D
100
AcDbEntity
  8
0
100
AcDbLine
 10
380.02325
 20
134.9631
 30
0.0
 11
382.07925
 21
136.7537
 31
0.0
  0
LINE
  5
275D
330
1D
100
AcDbEntity
  8
0
100
AcDbLine
 10
382.07925
 20
136.7537
 30
0.0
 11
384.40025
 21
138.3231
 31
0.0
  0
LINE
  5
275E
330
1D
100
AcDbEntity
  8
0
100
AcDbLine
 10
350.59485
 20
139.6842
 30
0.0
 11
351.75205
 21
137.0964
 31
0.0
  0
LINE
  5
275F
330
1D
100
AcDbEntity
  8
0
100
AcDbLine
 10
384.40025
 20
138.3231
 30
0.0
 11
386.83225
 21
139.4947
 31
0.0
  0
LINE
  5
2760
330
1D
100
AcDbEntity
  8
0
100
AcDbLine
 10
351.75205
 20
137.0964
 30
0.0
 11
353.41525
 21
133.4451
 31
0.0
  0
LINE
  5
2761
330
1D
100
AcDbEntity
  8
0
100
AcDbLine
 10
399.50725
 20
91.1415
 30
0.0
 11
403.19325
 21
91.1305
 31
0.0
  0
LINE
  5
2762
330
1D
100
AcDbEntity
  8
0
100
AcDbLine
 10
395.84225
 20
91.1873
 30
0.0
 11
399.50725
 21
91.1415
 31
0.0
  0
LINE
  5
2763
330
1D
100
AcDbEntity
  8
0
100
AcDbLine
 10
393.17525
 20
91.2719
 30
0.0
 11
395.84225
 21
91.1873
 31
0.0
  0
LINE
  5
2764
330
1D
100
AcDbEntity
  8
0
100
AcDbLine
 10
403.19325
 20
91.1305
 30
0.0
 11
405.66325
 21
91.1325
 31
0.0
  0
LINE
  5
2765
330
1D
100
AcDbEntity
  8
0
100
AcDbLine
 10
388.85625
 20
106.1305
 30
0.0
 11
388.85625
 21
134.1305
 31
0.0
  0
LINE
  5
2766
330
1D
100
AcDbEntity
  8
0
100
AcDbLine
 10
388.85625
 20
106.1305
 30
0.0
 11
389.06825
 21
104.5952
 31
0.0
  0
LINE
  5
2767
330
1D
100
AcDbEntity
  8
0
100
AcDbLine
 10
389.06825
 20
104.5952
 30
0.0
 11
389.66825
 21
103.1481
 31
0.0
  0
LINE
  5
2768
330
1D
100
AcDbEntity
  8
0
100
AcDbLine
 10
389.33325
 20
104.6481
 30
0.0
 11
389.89725
 21
103.2717
 31
0.0
  0
LINE
  5
2769
330
1D
100
AcDbEntity
  8
0
100
AcDbLine
 10
389.12125
 20
106.1305
 30
0.0
 11
389.12125
 21
134.1305
 31
0.0
  0
LINE
  5
276A
330
1D
100
AcDbEntity
  8
0
100
AcDbLine
 10
389.12125
 20
106.1305
 30
0.0
 11
389.33325
 21
104.6481
 31
0.0
  0
LINE
  5
276B
330
1D
100
AcDbEntity
  8
0
100
AcDbLine
 10
389.33325
 20
135.6129
 30
0.0
 11
389.89725
 21
136.9893
 31
0.0
  0
LINE
  5
276C
330
1D
100
AcDbEntity
  8
0
100
AcDbLine
 10
389.06825
 20
135.6658
 30
0.0
 11
389.66825
 21
137.1129
 31
0.0
  0
LINE
  5
276D
330
1D
100
AcDbEntity
  8
0
100
AcDbLine
 10
389.12125
 20
134.1305
 30
0.0
 11
389.12125
 21
106.1305
 31
0.0
  0
LINE
  5
276E
330
1D
100
AcDbEntity
  8
0
100
AcDbLine
 10
389.12125
 20
134.1305
 30
0.0
 11
389.33325
 21
135.6129
 31
0.0
  0
LINE
  5
276F
330
1D
100
AcDbEntity
  8
0
100
AcDbLine
 10
388.85625
 20
134.1305
 30
0.0
 11
388.85625
 21
106.1305
 31
0.0
  0
LINE
  5
2770
330
1D
100
AcDbEntity
  8
0
100
AcDbLine
 10
388.85625
 20
134.1305
 30
0.0
 11
389.06825
 21
135.6658
 31
0.0
  0
LINE
  5
2771
330
1D
100
AcDbEntity
  8
0
100
AcDbLine
 10
386.83225
 20
100.7663
 30
0.0
 11
389.44025
 21
99.8821
 31
0.0
  0
LINE
  5
2772
330
1D
100
AcDbEntity
  8
0
100
AcDbLine
 10
389.44025
 20
99.8821
 30
0.0
 11
389.85625
 21
99.799599813084
 31
0.0
  0
LINE
  5
2773
330
1D
100
AcDbEntity
  8
0
100
AcDbLine
 10
386.83225
 20
139.4947
 30
0.0
 11
389.44025
 21
140.3789
 31
0.0
  0
LINE
  5
2774
330
1D
100
AcDbEntity
  8
0
100
AcDbLine
 10
389.66825
 20
137.1129
 30
0.0
 11
390.62125
 21
138.3658
 31
0.0
  0
LINE
  5
2775
330
1D
100
AcDbEntity
  8
0
100
AcDbLine
 10
389.66825
 20
103.1481
 30
0.0
 11
389.85625
 21
102.900938195173
 31
0.0
  0
LINE
  5
2776
330
1D
100
AcDbEntity
  8
0
100
AcDbLine
 10
389.44025
 20
140.3789
 30
0.0
 11
392.11525
 21
140.9094
 31
0.0
  0
LINE
  5
2777
330
1D
100
AcDbEntity
  8
0
100
AcDbLine
 10
388.24225
 20
91.7378
 30
0.0
 11
389.71225
 21
91.5388
 31
0.0
  0
LINE
  5
2778
330
1D
100
AcDbEntity
  8
0
100
AcDbLine
 10
392.15025
 20
95.1305
 30
0.0
 11
392.95025
 21
95.1305
 31
0.0
  0
LINE
  5
2779
330
1D
100
AcDbEntity
  8
0
100
AcDbLine
 10
392.95025
 20
95.1305
 30
0.0
 11
393.86825
 21
95.1305
 31
0.0
  0
LINE
  5
277A
330
1D
100
AcDbEntity
  8
0
100
AcDbLine
 10
393.86825
 20
95.1305
 30
0.0
 11
394.85625
 21
95.1305
 31
0.0
  0
LINE
  5
277B
330
1D
100
AcDbEntity
  8
0
100
AcDbLine
 10
391.55025
 20
95.1305
 30
0.0
 11
392.15025
 21
95.1305
 31
0.0
  0
LINE
  5
277C
330
1D
100
AcDbEntity
  8
0
100
AcDbLine
 10
391.17425
 20
95.1305
 30
0.0
 11
391.55025
 21
95.1305
 31
0.0
  0
LINE
  5
277D
330
1D
100
AcDbEntity
  8
0
100
AcDbLine
 10
391.03225
 20
95.1305
 30
0.0
 11
391.17425
 21
95.1305
 31
0.0
  0
LINE
  5
277E
330
1D
100
AcDbEntity
  8
0
100
AcDbLine
 10
390.91525
 20
95.2843
 30
0.0
 11
391.03225
 21
95.1305
 31
0.0
  0
LINE
  5
277F
330
1D
100
AcDbEntity
  8
0
100
AcDbLine
 10
390.85625
 20
95.592
 30
0.0
 11
390.91525
 21
95.2843
 31
0.0
  0
LINE
  5
2780
330
1D
100
AcDbEntity
  8
0
100
AcDbLine
 10
390.85625
 20
95.592
 30
0.0
 11
390.85625
 21
99.1305
 31
0.0
  0
LINE
  5
2781
330
1D
100
AcDbEntity
  8
0
100
AcDbLine
 10
391.39725
 20
99.1305
 30
0.0
 11
392.03225
 21
99.1305
 31
0.0
  0
LINE
  5
2782
330
1D
100
AcDbEntity
  8
0
100
AcDbLine
 10
390.99725
 20
99.1305
 30
0.0
 11
391.39725
 21
99.1305
 31
0.0
  0
LINE
  5
2783
330
1D
100
AcDbEntity
  8
0
100
AcDbLine
 10
390.85625
 20
99.1305
 30
0.0
 11
390.85625
 21
95.592
 31
0.0
  0
LINE
  5
2784
330
1D
100
AcDbEntity
  8
0
100
AcDbLine
 10
390.85625
 20
99.1305
 30
0.0
 11
390.99725
 21
99.1305
 31
0.0
  0
LINE
  5
2785
330
1D
100
AcDbEntity
  8
0
100
AcDbLine
 10
392.03225
 20
99.1305
 30
0.0
 11
392.86825
 21
99.1305
 31
0.0
  0
LINE
  5
2786
330
1D
100
AcDbEntity
  8
0
100
AcDbLine
 10
392.86825
 20
99.1305
 30
0.0
 11
393.83325
 21
99.1305
 31
0.0
  0
LINE
  5
2787
330
1D
100
AcDbEntity
  8
0
100
AcDbLine
 10
391.47425
 20
99.1305
 30
0.0
 11
392.47425
 21
99.1305
 31
0.0
  0
LINE
  5
2788
330
1D
100
AcDbEntity
  8
0
100
AcDbLine
 10
392.47425
 20
99.1305
 30
0.0
 11
393.62125
 21
99.1305
 31
0.0
  0
LINE
  5
2789
330
1D
100
AcDbEntity
  8
0
100
AcDbLine
 10
393.83325
 20
99.1305
 30
0.0
 11
394.85625
 21
99.1305
 31
0.0
  0
LINE
  5
278A
330
1D
100
AcDbEntity
  8
0
100
AcDbLine
 10
393.62125
 20
99.1305
 30
0.0
 11
394.85625
 21
99.1305
 31
0.0
  0
LINE
  5
278B
330
1D
100
AcDbEntity
  8
0
100
AcDbLine
 10
390.72425
 20
99.1305
 30
0.0
 11
390.85625
 21
99.1305
 31
0.0
  0
LINE
  5
278C
330
1D
100
AcDbEntity
  8
0
100
AcDbLine
 10
390.72425
 20
99.1305
 30
0.0
 11
391.47425
 21
99.1305
 31
0.0
  0
LINE
  5
278D
330
1D
100
AcDbEntity
  8
0
100
AcDbLine
 10
390.25325
 20
99.1305
 30
0.0
 11
390.72425
 21
99.1305
 31
0.0
  0
LINE
  5
278E
330
1D
100
AcDbEntity
  8
0
100
AcDbLine
 10
389.93025
 20
99.3228
 30
0.0
 11
390.07725
 21
99.1305
 31
0.0
  0
LINE
  5
278F
330
1D
100
AcDbEntity
  8
0
100
AcDbLine
 10
390.07725
 20
99.1305
 30
0.0
 11
390.25325
 21
99.1305
 31
0.0
  0
LINE
  5
2790
330
1D
100
AcDbEntity
  8
0
100
AcDbLine
 10
389.85625
 20
99.7074
 30
0.0
 11
389.93025
 21
99.3228
 31
0.0
  0
LINE
  5
2791
330
1D
100
AcDbEntity
  8
0
100
AcDbLine
 10
389.85625
 20
99.7074
 30
0.0
 11
389.85625
 21
102.900938195173
 31
0.0
  0
LINE
  5
2792
330
1D
100
AcDbEntity
  8
0
100
AcDbLine
 10
390.79725
 20
102.0717
 30
0.0
 11
391.99725
 21
101.1717
 31
0.0
  0
LINE
  5
2793
330
1D
100
AcDbEntity
  8
0
100
AcDbLine
 10
391.99725
 20
101.1717
 30
0.0
 11
393.37425
 21
100.607
 31
0.0
  0
LINE
  5
2794
330
1D
100
AcDbEntity
  8
0
100
AcDbLine
 10
393.37425
 20
100.607
 30
0.0
 11
394.85625
 21
100.3952
 31
0.0
  0
LINE
  5
2795
330
1D
100
AcDbEntity
  8
0
100
AcDbLine
 10
389.89725
 20
136.9893
 30
0.0
 11
390.79725
 21
138.1893
 31
0.0
  0
LINE
  5
2796
330
1D
100
AcDbEntity
  8
0
100
AcDbLine
 10
390.79725
 20
138.1893
 30
0.0
 11
391.99725
 21
139.0893
 31
0.0
  0
LINE
  5
2797
330
1D
100
AcDbEntity
  8
0
100
AcDbLine
 10
391.99725
 20
139.0893
 30
0.0
 11
393.37425
 21
139.654
 31
0.0
  0
LINE
  5
2798
330
1D
100
AcDbEntity
  8
0
100
AcDbLine
 10
390.62125
 20
138.3658
 30
0.0
 11
391.87425
 21
139.3187
 31
0.0
  0
LINE
  5
2799
330
1D
100
AcDbEntity
  8
0
100
AcDbLine
 10
393.37425
 20
139.654
 30
0.0
 11
394.85625
 21
139.8658
 31
0.0
  0
LINE
  5
279A
330
1D
100
AcDbEntity
  8
0
100
AcDbLine
 10
391.87425
 20
139.3187
 30
0.0
 11
393.32125
 21
139.9187
 31
0.0
  0
LINE
  5
279B
330
1D
100
AcDbEntity
  8
0
100
AcDbLine
 10
389.89725
 20
103.2717
 30
0.0
 11
390.79725
 21
102.0717
 31
0.0
  0
LINE
  5
279C
330
1D
100
AcDbEntity
  8
0
100
AcDbLine
 10
389.85625
 20
102.900938195173
 30
0.0
 11
389.85625
 21
99.7074
 31
0.0
  0
LINE
  5
279D
330
1D
100
AcDbEntity
  8
0
100
AcDbLine
 10
393.32125
 20
139.9187
 30
0.0
 11
394.85625
 21
140.1305
 31
0.0
  0
LINE
  5
279E
330
1D
100
AcDbEntity
  8
0
100
AcDbLine
 10
389.71225
 20
91.5388
 30
0.0
 11
390.77425
 21
91.4372
 31
0.0
  0
LINE
  5
279F
330
1D
100
AcDbEntity
  8
0
100
AcDbLine
 10
390.77425
 20
91.4372
 30
0.0
 11
393.17525
 21
91.2719
 31
0.0
  0
LINE
  5
27A0
330
1D
100
AcDbEntity
  8
0
100
AcDbLine
 10
405.66325
 20
91.1325
 30
0.0
 11
408.77825
 21
91.1365
 31
0.0
  0
LINE
  5
27A1
330
1D
100
AcDbEntity
  8
0
100
AcDbLine
 10
408.77825
 20
91.1365
 30
0.0
 11
413.36425
 21
91.1435
 31
0.0
  0
LINE
  5
27A2
330
1D
100
AcDbEntity
  8
0
100
AcDbLine
 10
348.87155
 20
143.5935
 30
0.0
 11
349.73075
 21
141.6345
 31
0.0
  0
LINE
  5
27A3
330
1D
100
AcDbEntity
  8
0
100
AcDbLine
 10
347.31435
 20
149.1305
 30
0.0
 11
348.00145
 21
149.1305
 31
0.0
  0
LINE
  5
27A4
330
1D
100
AcDbEntity
  8
0
100
AcDbLine
 10
346.97025
 20
149.1305
 30
0.0
 11
347.31435
 21
149.1305
 31
0.0
  0
LINE
  5
27A5
330
1D
100
AcDbEntity
  8
0
100
AcDbLine
 10
349.73075
 20
141.6345
 30
0.0
 11
350.59485
 21
139.6842
 31
0.0
  0
LINE
  5
27A6
330
1D
100
AcDbEntity
  8
0
100
AcDbLine
 10
392.11525
 20
140.9094
 30
0.0
 11
394.85625
 21
141.1305
 31
0.0
  0
LINE
  5
27A7
330
1D
100
AcDbEntity
  8
0
100
AcDbLine
 10
357.48295
 20
149.1305
 30
0.0
 11
444.55049482195
 21
149.1305
 31
0.0
  0
LINE
  5
27A8
330
1D
100
AcDbEntity
  8
0
100
AcDbLine
 10
355.63265
 20
149.1305
 30
0.0
 11
357.48295
 21
149.1305
 31
0.0
  0
LINE
  5
27A9
330
1D
100
AcDbEntity
  8
0
100
AcDbLine
 10
354.08635
 20
149.1305
 30
0.0
 11
355.63265
 21
149.1305
 31
0.0
  0
LINE
  5
27AA
330
1D
100
AcDbEntity
  8
0
100
AcDbLine
 10
352.61015
 20
149.1305
 30
0.0
 11
354.08635
 21
149.1305
 31
0.0
  0
LINE
  5
27AB
330
1D
100
AcDbEntity
  8
0
100
AcDbLine
 10
351.24695
 20
149.1305
 30
0.0
 11
352.61015
 21
149.1305
 31
0.0
  0
LINE
  5
27AC
330
1D
100
AcDbEntity
  8
0
100
AcDbLine
 10
350.02875
 20
149.1305
 30
0.0
 11
351.24695
 21
149.1305
 31
0.0
  0
LINE
  5
27AD
330
1D
100
AcDbEntity
  8
0
100
AcDbLine
 10
348.97055
 20
149.1305
 30
0.0
 11
350.02875
 21
149.1305
 31
0.0
  0
LINE
  5
27AE
330
1D
100
AcDbEntity
  8
0
100
AcDbLine
 10
348.00145
 20
149.1305
 30
0.0
 11
348.97055
 21
149.1305
 31
0.0
  0
LINE
  5
27AF
330
1D
100
AcDbEntity
  8
0
100
AcDbLine
 10
346.90925
 20
148.1345
 30
0.0
 11
348.87155
 21
143.5935
 31
0.0
  0
LINE
  5
27B0
330
1D
100
AcDbEntity
  8
0
100
AcDbLine
 10
346.85625
 20
151.1305
 30
0.0
 11
347.35525
 21
149.1305
 31
0.0
  0
LINE
  5
27B1
330
1D
100
AcDbEntity
  8
0
100
AcDbLine
 10
346.85625
 20
151.1305
 30
0.0
 11
347.35525
 21
153.1305
 31
0.0
  0
LINE
  5
27B2
330
1D
100
AcDbEntity
  8
0
100
AcDbLine
 10
349.26325
 20
153.1305
 30
0.0
 11
351.47325
 21
153.1305
 31
0.0
  0
LINE
  5
27B3
330
1D
100
AcDbEntity
  8
0
100
AcDbLine
 10
347.84425
 20
153.1305
 30
0.0
 11
349.26325
 21
153.1305
 31
0.0
  0
LINE
  5
27B4
330
1D
100
AcDbEntity
  8
0
100
AcDbLine
 10
351.47325
 20
153.1305
 30
0.0
 11
354.25825
 21
153.1305
 31
0.0
  0
LINE
  5
27B5
330
1D
100
AcDbEntity
  8
0
100
AcDbLine
 10
354.25825
 20
153.1305
 30
0.0
 11
357.34425
 21
153.1305
 31
0.0
  0
LINE
  5
27B6
330
1D
100
AcDbEntity
  8
0
100
AcDbLine
 10
357.34425
 20
153.1305
 30
0.0
 11
444.89735095041
 21
153.1305
 31
0.0
  0
LINE
  5
27B7
330
1D
100
AcDbEntity
  8
0
100
AcDbLine
 10
357.34425
 20
153.1305
 30
0.0
 11
444.89735095041
 21
153.1305
 31
0.0
  0
LINE
  5
27B8
330
1D
100
AcDbEntity
  8
0
100
AcDbLine
 10
347.35525
 20
153.1305
 30
0.0
 11
347.84425
 21
153.1305
 31
0.0
  0
LINE
  5
27B9
330
1D
100
AcDbEntity
  8
0
100
AcDbLine
 10
346.85625
 20
149.1305
 30
0.0
 11
346.90925
 21
148.1345
 31
0.0
  0
LINE
  5
27BA
330
1D
100
AcDbEntity
  8
0
100
AcDbLine
 10
346.85625
 20
149.1305
 30
0.0
 11
346.97025
 21
149.1305
 31
0.0
  0
LINE
  5
27BB
330
1D
100
AcDbEntity
  8
0
100
AcDbLine
 10
413.36425
 20
91.1435
 30
0.0
 11
419.03025
 21
91.1495
 31
0.0
  0
LINE
  5
27BC
330
1D
100
AcDbEntity
  8
0
100
AcDbLine
 10
431.88425
 20
91.1485
 30
0.0
 11
434.41425
 21
91.1465
 31
0.0
  0
LINE
  5
27BD
330
1D
100
AcDbEntity
  8
0
100
AcDbLine
 10
434.41425
 20
91.1465
 30
0.0
 11
439.522208241697
 21
91.1435
 31
0.0
  0
LINE
  5
27BE
330
1D
100
AcDbEntity
  8
0
100
AcDbLine
 10
455.78625
 20
91.1365
 30
0.0
 11
458.96525
 21
91.1365
 31
0.0
  0
LINE
  5
27BF
330
1D
100
AcDbEntity
  8
0
100
AcDbLine
 10
462.24125
 20
91.1375
 30
0.0
 11
464.93325
 21
91.1375
 31
0.0
  0
LINE
  5
27C0
330
1D
100
AcDbEntity
  8
0
100
AcDbLine
 10
458.96525
 20
91.1365
 30
0.0
 11
462.24125
 21
91.1375
 31
0.0
  0
LINE
  5
27C1
330
1D
100
AcDbEntity
  8
0
100
AcDbLine
 10
468.31325
 20
91.1365
 30
0.0
 11
471.07025
 21
91.1355
 31
0.0
  0
LINE
  5
27C2
330
1D
100
AcDbEntity
  8
0
100
AcDbLine
 10
464.93325
 20
91.1375
 30
0.0
 11
468.31325
 21
91.1365
 31
0.0
  0
LINE
  5
27C3
330
1D
100
AcDbEntity
  8
0
100
AcDbLine
 10
471.07025
 20
91.1355
 30
0.0
 11
474.89925
 21
91.1385
 31
0.0
  0
LINE
  5
27C4
330
1D
100
AcDbEntity
  8
0
100
AcDbLine
 10
428.71925
 20
91.1505
 30
0.0
 11
431.88425
 21
91.1485
 31
0.0
  0
LINE
  5
27C5
330
1D
100
AcDbEntity
  8
0
100
AcDbLine
 10
425.86625
 20
91.1505
 30
0.0
 11
428.71925
 21
91.1505
 31
0.0
  0
LINE
  5
27C6
330
1D
100
AcDbEntity
  8
0
100
AcDbLine
 10
419.03025
 20
91.1495
 30
0.0
 11
422.44625
 21
91.1505
 31
0.0
  0
LINE
  5
27C7
330
1D
100
AcDbEntity
  8
0
100
AcDbLine
 10
422.44625
 20
91.1505
 30
0.0
 11
425.86625
 21
91.1505
 31
0.0
  0
LINE
  5
27C8
330
1D
100
AcDbEntity
  8
0
100
AcDbLine
 10
475.48625
 20
91.3267
 30
0.0
 11
475.84725
 21
91.8136
 31
0.0
  0
LINE
  5
27C9
330
1D
100
AcDbEntity
  8
0
100
AcDbLine
 10
474.89925
 20
91.1385
 30
0.0
 11
475.48625
 21
91.3267
 31
0.0
  0
LINE
  5
27CA
330
1D
100
AcDbEntity
  8
0
100
AcDbLine
 10
475.49525
 20
149.1305
 30
0.0
 11
475.85425
 21
149.1305
 31
0.0
  0
LINE
  5
27CB
330
1D
100
AcDbEntity
  8
0
100
AcDbLine
 10
474.89925
 20
149.1305
 30
0.0
 11
475.49525
 21
149.1305
 31
0.0
  0
LINE
  5
27CC
330
1D
100
AcDbEntity
  8
0
100
AcDbLine
 10
473.73225
 20
153.1305
 30
0.0
 11
474.65525
 21
153.1305
 31
0.0
  0
LINE
  5
27CD
330
1D
100
AcDbEntity
  8
0
100
AcDbLine
 10
473.59525
 20
153.1305
 30
0.0
 11
473.73225
 21
153.1305
 31
0.0
  0
LINE
  5
27CE
330
1D
100
AcDbEntity
  8
0
100
AcDbLine
 10
475.04825
 20
153.1305
 30
0.0
 11
475.34125
 21
153.1305
 31
0.0
  0
LINE
  5
27CF
330
1D
100
AcDbEntity
  8
0
100
AcDbLine
 10
474.65525
 20
153.1305
 30
0.0
 11
475.04825
 21
153.1305
 31
0.0
  0
LINE
  5
27D0
330
1D
100
AcDbEntity
  8
0
100
AcDbLine
 10
475.84725
 20
91.8136
 30
0.0
 11
475.84725
 21
149.1305
 31
0.0
  0
LINE
  5
27D1
330
1D
100
AcDbEntity
  8
0
100
AcDbLine
 10
475.84725
 20
149.1305
 30
0.0
 11
475.84725
 21
152.888659858163
 31
0.0
  0
LINE
  5
27D2
330
1D
100
AcDbEntity
  8
0
100
AcDbLine
 10
475.84725
 20
152.888659858163
 30
0.0
 11
475.700925346827
 21
153.127465630881
 31
0.0
  0
LINE
  5
27D3
330
1D
100
AcDbEntity
  8
0
100
AcDbLine
 10
475.700925346827
 20
153.127465630881
 30
0.0
 11
475.34125
 21
153.1305
 31
0.0
  0
LINE
  5
27D4
330
1D
100
AcDbEntity
  8
0
100
AcDbLine
 10
400.59125
 20
134.1305
 30
0.0
 11
400.37925
 21
135.6129
 31
0.0
  0
LINE
  5
27D5
330
1D
100
AcDbEntity
  8
0
100
AcDbLine
 10
400.85625
 20
134.1305
 30
0.0
 11
400.64425
 21
135.6658
 31
0.0
  0
LINE
  5
27D6
330
1D
100
AcDbEntity
  8
0
100
AcDbLine
 10
395.84425
 20
95.1305
 30
0.0
 11
394.85625
 21
95.1305
 31
0.0
  0
LINE
  5
27D7
330
1D
100
AcDbEntity
  8
0
100
AcDbLine
 10
395.87925
 20
99.1305
 30
0.0
 11
394.85625
 21
99.1305
 31
0.0
  0
LINE
  5
27D8
330
1D
100
AcDbEntity
  8
0
100
AcDbLine
 10
396.09125
 20
99.1305
 30
0.0
 11
394.85625
 21
99.1305
 31
0.0
  0
LINE
  5
27D9
330
1D
100
AcDbEntity
  8
0
100
AcDbLine
 10
396.33825
 20
100.607
 30
0.0
 11
394.85625
 21
100.3952
 31
0.0
  0
LINE
  5
27DA
330
1D
100
AcDbEntity
  8
0
100
AcDbLine
 10
400.85625
 20
106.1305
 30
0.0
 11
400.85625
 21
134.1305
 31
0.0
  0
LINE
  5
27DB
330
1D
100
AcDbEntity
  8
0
100
AcDbLine
 10
400.59125
 20
106.1305
 30
0.0
 11
400.59125
 21
134.1305
 31
0.0
  0
LINE
  5
27DC
330
1D
100
AcDbEntity
  8
0
100
AcDbLine
 10
400.59125
 20
134.1305
 30
0.0
 11
400.59125
 21
106.1305
 31
0.0
  0
LINE
  5
27DD
330
1D
100
AcDbEntity
  8
0
100
AcDbLine
 10
400.85625
 20
134.1305
 30
0.0
 11
400.85625
 21
106.1305
 31
0.0
  0
LINE
  5
27DE
330
1D
100
AcDbEntity
  8
0
100
AcDbLine
 10
402.88025
 20
100.7663
 30
0.0
 11
400.27225
 21
99.8821
 31
0.0
  0
LINE
  5
27DF
330
1D
100
AcDbEntity
  8
0
100
AcDbLine
 10
405.31225
 20
101.9379
 30
0.0
 11
402.88025
 21
100.7663
 31
0.0
  0
LINE
  5
27E0
330
1D
100
AcDbEntity
  8
0
100
AcDbLine
 10
399.85625
 20
99.7074
 30
0.0
 11
399.85625
 21
102.900938195173
 31
0.0
  0
LINE
  5
27E1
330
1D
100
AcDbEntity
  8
0
100
AcDbLine
 10
397.71525
 20
101.1717
 30
0.0
 11
396.33825
 21
100.607
 31
0.0
  0
LINE
  5
27E2
330
1D
100
AcDbEntity
  8
0
100
AcDbLine
 10
399.85625
 20
102.900938195173
 30
0.0
 11
399.85625
 21
99.7074
 31
0.0
  0
LINE
  5
27E3
330
1D
100
AcDbEntity
  8
0
100
AcDbLine
 10
398.53825
 20
95.1305
 30
0.0
 11
398.16225
 21
95.1305
 31
0.0
  0
LINE
  5
27E4
330
1D
100
AcDbEntity
  8
0
100
AcDbLine
 10
398.31525
 20
99.1305
 30
0.0
 11
397.68025
 21
99.1305
 31
0.0
  0
LINE
  5
27E5
330
1D
100
AcDbEntity
  8
0
100
AcDbLine
 10
398.23825
 20
99.1305
 30
0.0
 11
397.23825
 21
99.1305
 31
0.0
  0
LINE
  5
27E6
330
1D
100
AcDbEntity
  8
0
100
AcDbLine
 10
400.27225
 20
99.8821
 30
0.0
 11
399.85625
 21
99.799599813084
 31
0.0
  0
LINE
  5
27E7
330
1D
100
AcDbEntity
  8
0
100
AcDbLine
 10
398.68025
 20
95.1305
 30
0.0
 11
398.53825
 21
95.1305
 31
0.0
  0
LINE
  5
27E8
330
1D
100
AcDbEntity
  8
0
100
AcDbLine
 10
398.79725
 20
95.2843
 30
0.0
 11
398.68025
 21
95.1305
 31
0.0
  0
LINE
  5
27E9
330
1D
100
AcDbEntity
  8
0
100
AcDbLine
 10
398.85625
 20
95.592
 30
0.0
 11
398.79725
 21
95.2843
 31
0.0
  0
LINE
  5
27EA
330
1D
100
AcDbEntity
  8
0
100
AcDbLine
 10
398.85625
 20
95.592
 30
0.0
 11
398.85625
 21
99.1305
 31
0.0
  0
LINE
  5
27EB
330
1D
100
AcDbEntity
  8
0
100
AcDbLine
 10
398.71525
 20
99.1305
 30
0.0
 11
398.31525
 21
99.1305
 31
0.0
  0
LINE
  5
27EC
330
1D
100
AcDbEntity
  8
0
100
AcDbLine
 10
398.85625
 20
99.1305
 30
0.0
 11
398.85625
 21
95.592
 31
0.0
  0
LINE
  5
27ED
330
1D
100
AcDbEntity
  8
0
100
AcDbLine
 10
398.85625
 20
99.1305
 30
0.0
 11
398.71525
 21
99.1305
 31
0.0
  0
LINE
  5
27EE
330
1D
100
AcDbEntity
  8
0
100
AcDbLine
 10
398.98825
 20
99.1305
 30
0.0
 11
398.85625
 21
99.1305
 31
0.0
  0
LINE
  5
27EF
330
1D
100
AcDbEntity
  8
0
100
AcDbLine
 10
398.98825
 20
99.1305
 30
0.0
 11
398.23825
 21
99.1305
 31
0.0
  0
LINE
  5
27F0
330
1D
100
AcDbEntity
  8
0
100
AcDbLine
 10
399.45925
 20
99.1305
 30
0.0
 11
398.98825
 21
99.1305
 31
0.0
  0
LINE
  5
27F1
330
1D
100
AcDbEntity
  8
0
100
AcDbLine
 10
399.78225
 20
99.3228
 30
0.0
 11
399.63525
 21
99.1305
 31
0.0
  0
LINE
  5
27F2
330
1D
100
AcDbEntity
  8
0
100
AcDbLine
 10
399.63525
 20
99.1305
 30
0.0
 11
399.45925
 21
99.1305
 31
0.0
  0
LINE
  5
27F3
330
1D
100
AcDbEntity
  8
0
100
AcDbLine
 10
399.85625
 20
99.7074
 30
0.0
 11
399.78225
 21
99.3228
 31
0.0
  0
LINE
  5
27F4
330
1D
100
AcDbEntity
  8
0
100
AcDbLine
 10
397.56225
 20
95.1305
 30
0.0
 11
396.76225
 21
95.1305
 31
0.0
  0
LINE
  5
27F5
330
1D
100
AcDbEntity
  8
0
100
AcDbLine
 10
396.76225
 20
95.1305
 30
0.0
 11
395.84425
 21
95.1305
 31
0.0
  0
LINE
  5
27F6
330
1D
100
AcDbEntity
  8
0
100
AcDbLine
 10
398.16225
 20
95.1305
 30
0.0
 11
397.56225
 21
95.1305
 31
0.0
  0
LINE
  5
27F7
330
1D
100
AcDbEntity
  8
0
100
AcDbLine
 10
397.68025
 20
99.1305
 30
0.0
 11
396.84425
 21
99.1305
 31
0.0
  0
LINE
  5
27F8
330
1D
100
AcDbEntity
  8
0
100
AcDbLine
 10
396.84425
 20
99.1305
 30
0.0
 11
395.87925
 21
99.1305
 31
0.0
  0
LINE
  5
27F9
330
1D
100
AcDbEntity
  8
0
100
AcDbLine
 10
397.23825
 20
99.1305
 30
0.0
 11
396.09125
 21
99.1305
 31
0.0
  0
LINE
  5
27FA
330
1D
100
AcDbEntity
  8
0
100
AcDbLine
 10
400.85625
 20
106.1305
 30
0.0
 11
400.64425
 21
104.5952
 31
0.0
  0
LINE
  5
27FB
330
1D
100
AcDbEntity
  8
0
100
AcDbLine
 10
400.64425
 20
104.5952
 30
0.0
 11
400.04425
 21
103.1481
 31
0.0
  0
LINE
  5
27FC
330
1D
100
AcDbEntity
  8
0
100
AcDbLine
 10
400.37925
 20
104.6481
 30
0.0
 11
399.81525
 21
103.2717
 31
0.0
  0
LINE
  5
27FD
330
1D
100
AcDbEntity
  8
0
100
AcDbLine
 10
400.59125
 20
106.1305
 30
0.0
 11
400.37925
 21
104.6481
 31
0.0
  0
LINE
  5
27FE
330
1D
100
AcDbEntity
  8
0
100
AcDbLine
 10
400.04425
 20
103.1481
 30
0.0
 11
399.85625
 21
102.900938195173
 31
0.0
  0
LINE
  5
27FF
330
1D
100
AcDbEntity
  8
0
100
AcDbLine
 10
398.91525
 20
102.0717
 30
0.0
 11
397.71525
 21
101.1717
 31
0.0
  0
LINE
  5
2800
330
1D
100
AcDbEntity
  8
0
100
AcDbLine
 10
399.81525
 20
103.2717
 30
0.0
 11
398.91525
 21
102.0717
 31
0.0
  0
LINE
  5
2801
330
1D
100
AcDbEntity
  8
0
100
AcDbLine
 10
396.33825
 20
139.654
 30
0.0
 11
394.85625
 21
139.8658
 31
0.0
  0
LINE
  5
2802
330
1D
100
AcDbEntity
  8
0
100
AcDbLine
 10
396.39125
 20
139.9187
 30
0.0
 11
394.85625
 21
140.1305
 31
0.0
  0
LINE
  5
2803
330
1D
100
AcDbEntity
  8
0
100
AcDbLine
 10
397.59725
 20
140.9094
 30
0.0
 11
394.85625
 21
141.1305
 31
0.0
  0
LINE
  5
2804
330
1D
100
AcDbEntity
  8
0
100
AcDbLine
 10
405.31225
 20
138.3231
 30
0.0
 11
402.88025
 21
139.4947
 31
0.0
  0
LINE
  5
2805
330
1D
100
AcDbEntity
  8
0
100
AcDbLine
 10
400.37925
 20
135.6129
 30
0.0
 11
399.81525
 21
136.9893
 31
0.0
  0
LINE
  5
2806
330
1D
100
AcDbEntity
  8
0
100
AcDbLine
 10
400.64425
 20
135.6658
 30
0.0
 11
400.04425
 21
137.1129
 31
0.0
  0
LINE
  5
2807
330
1D
100
AcDbEntity
  8
0
100
AcDbLine
 10
402.88025
 20
139.4947
 30
0.0
 11
400.27225
 21
140.3789
 31
0.0
  0
LINE
  5
2808
330
1D
100
AcDbEntity
  8
0
100
AcDbLine
 10
400.04425
 20
137.1129
 30
0.0
 11
399.09125
 21
138.3658
 31
0.0
  0
LINE
  5
2809
330
1D
100
AcDbEntity
  8
0
100
AcDbLine
 10
400.27225
 20
140.3789
 30
0.0
 11
397.59725
 21
140.9094
 31
0.0
  0
LINE
  5
280A
330
1D
100
AcDbEntity
  8
0
100
AcDbLine
 10
399.81525
 20
136.9893
 30
0.0
 11
398.91525
 21
138.1893
 31
0.0
  0
LINE
  5
280B
330
1D
100
AcDbEntity
  8
0
100
AcDbLine
 10
398.91525
 20
138.1893
 30
0.0
 11
397.71525
 21
139.0893
 31
0.0
  0
LINE
  5
280C
330
1D
100
AcDbEntity
  8
0
100
AcDbLine
 10
397.71525
 20
139.0893
 30
0.0
 11
396.33825
 21
139.654
 31
0.0
  0
LINE
  5
280D
330
1D
100
AcDbEntity
  8
0
100
AcDbLine
 10
399.09125
 20
138.3658
 30
0.0
 11
397.83825
 21
139.3187
 31
0.0
  0
LINE
  5
280E
330
1D
100
AcDbEntity
  8
0
100
AcDbLine
 10
397.83825
 20
139.3187
 30
0.0
 11
396.39125
 21
139.9187
 31
0.0
  0
LINE
  5
280F
330
1D
100
AcDbEntity
  8
0
100
AcDbLine
 10
411.47925
 20
132.9073
 30
0.0
 11
409.68925
 21
134.9631
 31
0.0
  0
LINE
  5
2810
330
1D
100
AcDbEntity
  8
0
100
AcDbLine
 10
413.04925
 20
109.6747
 30
0.0
 11
411.47925
 21
107.3537
 31
0.0
  0
LINE
  5
2811
330
1D
100
AcDbEntity
  8
0
100
AcDbLine
 10
409.68925
 20
105.2979
 30
0.0
 11
407.63325
 21
103.5073
 31
0.0
  0
LINE
  5
2812
330
1D
100
AcDbEntity
  8
0
100
AcDbLine
 10
411.47925
 20
107.3537
 30
0.0
 11
409.68925
 21
105.2979
 31
0.0
  0
LINE
  5
2813
330
1D
100
AcDbEntity
  8
0
100
AcDbLine
 10
407.63325
 20
103.5073
 30
0.0
 11
405.31225
 21
101.9379
 31
0.0
  0
LINE
  5
2814
330
1D
100
AcDbEntity
  8
0
100
AcDbLine
 10
408.064560472135
 20
103.882934499711
 30
0.0
 11
407.848138145895
 21
103.69444917998
 31
0.0
  0
LINE
  5
2815
330
1D
100
AcDbEntity
  8
0
100
AcDbLine
 10
408.064560472135
 20
103.882934499711
 30
0.0
 11
407.848138145895
 21
103.69444917998
 31
0.0
  0
LINE
  5
2816
330
1D
100
AcDbEntity
  8
0
100
AcDbLine
 10
414.22025
 20
112.1063
 30
0.0
 11
413.04925
 21
109.6747
 31
0.0
  0
LINE
  5
2817
330
1D
100
AcDbEntity
  8
0
100
AcDbLine
 10
414.22025
 20
128.1547
 30
0.0
 11
413.04925
 21
130.5863
 31
0.0
  0
LINE
  5
2818
330
1D
100
AcDbEntity
  8
0
100
AcDbLine
 10
413.04925
 20
130.5863
 30
0.0
 11
411.47925
 21
132.9073
 31
0.0
  0
LINE
  5
2819
330
1D
100
AcDbEntity
  8
0
100
AcDbLine
 10
409.68925
 20
134.9631
 30
0.0
 11
407.63325
 21
136.7537
 31
0.0
  0
LINE
  5
281A
330
1D
100
AcDbEntity
  8
0
100
AcDbLine
 10
407.63325
 20
136.7537
 30
0.0
 11
405.31225
 21
138.3231
 31
0.0
  0
LINE
  5
281B
330
1D
100
AcDbEntity
  8
0
100
AcDbLine
 10
415.85625
 20
120.1305
 30
0.0
 11
415.63525
 21
122.8716
 31
0.0
  0
LINE
  5
281C
330
1D
100
AcDbEntity
  8
0
100
AcDbLine
 10
415.63525
 20
117.3894
 30
0.0
 11
415.10425
 21
114.7147
 31
0.0
  0
LINE
  5
281D
330
1D
100
AcDbEntity
  8
0
100
AcDbLine
 10
415.10425
 20
114.7147
 30
0.0
 11
414.22025
 21
112.1063
 31
0.0
  0
LINE
  5
281E
330
1D
100
AcDbEntity
  8
0
100
AcDbLine
 10
415.85625
 20
120.1305
 30
0.0
 11
415.63525
 21
117.3894
 31
0.0
  0
LINE
  5
281F
330
1D
100
AcDbEntity
  8
0
100
AcDbLine
 10
415.63525
 20
122.8716
 30
0.0
 11
415.10425
 21
125.5463
 31
0.0
  0
LINE
  5
2820
330
1D
100
AcDbEntity
  8
0
100
AcDbLine
 10
415.10425
 20
125.5463
 30
0.0
 11
414.22025
 21
128.1547
 31
0.0
  0
LINE
  5
2821
330
1D
100
AcDbEntity
  8
0
100
AcDbLine
 10
426.23999187313
 20
425.300533063739
 30
0.0
 11
435.821327147961
 21
392.348407626508
 31
0.0
  0
LINE
  5
2822
330
1D
100
AcDbEntity
  8
0
100
AcDbLine
 10
435.821327147961
 20
392.348407626508
 30
0.0
 11
437.471327147962
 21
392.706407626508
 31
0.0
  0
LINE
  5
2823
330
1D
100
AcDbEntity
  8
0
100
AcDbLine
 10
435.821327147961
 20
392.348407626508
 30
0.0
 11
436.912327147961
 21
392.574407626508
 31
0.0
  0
LINE
  5
2824
330
1D
100
AcDbEntity
  8
0
100
AcDbLine
 10
472.326327147962
 20
450.342407626508
 30
0.0
 11
472.326327147962
 21
400.342407626508
 31
0.0
  0
LINE
  5
2825
330
1D
100
AcDbEntity
  8
0
100
AcDbLine
 10
452.486327147961
 20
395.963407626508
 30
0.0
 11
454.347327147962
 21
396.367407626508
 31
0.0
  0
LINE
  5
2826
330
1D
100
AcDbEntity
  8
0
100
AcDbLine
 10
454.347327147962
 20
396.367407626508
 30
0.0
 11
455.435327147961
 21
396.603407626508
 31
0.0
  0
LINE
  5
2827
330
1D
100
AcDbEntity
  8
0
100
AcDbLine
 10
455.435327147961
 20
396.603407626508
 30
0.0
 11
455.573199382278
 21
396.633420629896
 31
0.0
  0
LINE
  5
2828
330
1D
100
AcDbEntity
  8
0
100
AcDbLine
 10
472.326327147962
 20
400.342407626508
 30
0.0
 11
472.326327147962
 21
450.342407626508
 31
0.0
  0
LINE
  5
2829
330
1D
100
AcDbEntity
  8
0
100
AcDbLine
 10
456.18174966408
 20
396.791732269411
 30
0.0
 11
462.434327147961
 21
372.912407626508
 31
0.0
  0
LINE
  5
282A
330
1D
100
AcDbEntity
  8
0
100
AcDbLine
 10
443.801327147961
 20
394.079407626508
 30
0.0
 11
472.326327147962
 21
400.342407626508
 31
0.0
  0
LINE
  5
282B
330
1D
100
AcDbEntity
  8
0
100
AcDbLine
 10
446.837176604135
 20
394.745964160917
 30
0.0
 11
447.218327147962
 21
394.820407626508
 31
0.0
  0
LINE
  5
282C
330
1D
100
AcDbEntity
  8
0
100
AcDbLine
 10
447.218327147962
 20
394.820407626508
 30
0.0
 11
450.050327147962
 21
395.435407626508
 31
0.0
  0
LINE
  5
282D
330
1D
100
AcDbEntity
  8
0
100
AcDbLine
 10
450.050327147962
 20
395.435407626508
 30
0.0
 11
452.486327147961
 21
395.963407626508
 31
0.0
  0
LINE
  5
282E
330
1D
100
AcDbEntity
  8
0
100
AcDbLine
 10
442.686327147961
 20
393.833407626508
 30
0.0
 11
443.801327147961
 21
394.079407626508
 31
0.0
  0
LINE
  5
282F
330
1D
100
AcDbEntity
  8
0
100
AcDbLine
 10
429.014327147961
 20
440.309407626508
 30
0.0
 11
472.326327147962
 21
450.342407626508
 31
0.0
  0
LINE
  5
2830
330
1D
100
AcDbEntity
  8
0
100
AcDbLine
 10
437.471327147962
 20
392.706407626508
 30
0.0
 11
439.495327147961
 21
393.166407626508
 31
0.0
  0
LINE
  5
2831
330
1D
100
AcDbEntity
  8
0
100
AcDbLine
 10
437.471327147962
 20
392.706407626508
 30
0.0
 11
438.250327147962
 21
392.880407626508
 31
0.0
  0
LINE
  5
2832
330
1D
100
AcDbEntity
  8
0
100
AcDbLine
 10
438.250327147962
 20
392.880407626508
 30
0.0
 11
438.669754893621
 21
392.978777568703
 31
0.0
  0
LINE
  5
2833
330
1D
100
AcDbEntity
  8
0
100
AcDbLine
 10
439.495327147961
 20
393.166407626508
 30
0.0
 11
441.430327147962
 21
393.565407626508
 31
0.0
  0
LINE
  5
2834
330
1D
100
AcDbEntity
  8
0
100
AcDbLine
 10
441.430327147962
 20
393.565407626508
 30
0.0
 11
442.686327147961
 21
393.833407626508
 31
0.0
  0
LINE
  5
2835
330
1D
100
AcDbEntity
  8
0
100
AcDbLine
 10
440.985327147962
 20
393.458407626508
 30
0.0
 11
442.14470452107
 21
393.717838467267
 31
0.0
  0
LINE
  5
2836
330
1D
100
AcDbEntity
  8
0
100
AcDbLine
 10
440.761096749853
 20
393.41443023608
 30
0.0
 11
442.006327147961
 21
389.546407626508
 31
0.0
  0
LINE
  5
2837
330
1D
100
AcDbEntity
  8
0
100
AcDbLine
 10
439.488019727467
 20
393.164746849123
 30
0.0
 11
440.985327147962
 21
393.458407626508
 31
0.0
  0
LINE
  5
2838
330
1D
100
AcDbEntity
  8
0
100
AcDbLine
 10
436.912327147961
 20
392.574407626508
 30
0.0
 11
438.250327147962
 21
392.880407626508
 31
0.0
  0
LINE
  5
2839
330
1D
100
AcDbEntity
  8
0
100
AcDbLine
 10
427.905327147961
 20
440.070407626508
 30
0.0
 11
429.014327147961
 21
440.309407626508
 31
0.0
  0
LINE
  5
283A
330
1D
100
AcDbEntity
  8
0
100
AcDbLine
 10
442.006327147961
 20
389.546407626508
 30
0.0
 11
447.891327147962
 21
366.154407626508
 31
0.0
  0
LINE
  5
283B
330
1D
100
AcDbEntity
  8
0
100
AcDbLine
 10
447.891327147962
 20
366.154407626508
 30
0.0
 11
451.941327147961
 21
341.306407626508
 31
0.0
  0
LINE
  5
283C
330
1D
100
AcDbEntity
  8
0
100
AcDbLine
 10
462.434327147961
 20
372.912407626508
 30
0.0
 11
466.968327147962
 21
346.707407626508
 31
0.0
  0
LINE
  5
283D
330
1D
100
AcDbEntity
  8
0
100
AcDbLine
 10
451.941327147961
 20
341.306407626508
 30
0.0
 11
454.412327147961
 21
316.788407626508
 31
0.0
  0
LINE
  5
283E
330
1D
100
AcDbEntity
  8
0
100
AcDbLine
 10
466.968327147962
 20
346.707407626508
 30
0.0
 11
469.835327147961
 21
320.969407626508
 31
0.0
  0
LINE
  5
283F
330
1D
100
AcDbEntity
  8
0
100
AcDbLine
 10
454.412327147961
 20
316.788407626508
 30
0.0
 11
455.409327147961
 21
294.923407626508
 31
0.0
  0
LINE
  5
2840
330
1D
100
AcDbEntity
  8
0
100
AcDbLine
 10
469.835327147961
 20
320.969407626508
 30
0.0
 11
471.395327147962
 21
296.339407626508
 31
0.0
  0
LINE
  5
2841
330
1D
100
AcDbEntity
  8
0
100
AcDbLine
 10
454.449327147962
 20
263.285407626508
 30
0.0
 11
455.409327147961
 21
294.923407626508
 31
0.0
  0
LINE
  5
2842
330
1D
100
AcDbEntity
  8
0
100
AcDbLine
 10
470.389327147961
 20
261.894407626508
 30
0.0
 11
471.395327147962
 21
296.339407626508
 31
0.0
  0
LINE
  5
2843
330
1D
100
AcDbEntity
  8
0
100
AcDbLine
 10
443.226327147961
 20
36.242307626508
 30
0.0
 11
446.260327147962
 21
36.342307626508
 31
0.0
  0
LINE
  5
2844
330
1D
100
AcDbEntity
  8
0
100
AcDbLine
 10
446.260327147962
 20
36.342307626508
 30
0.0
 11
448.768327147961
 21
36.974307626508
 31
0.0
  0
LINE
  5
2845
330
1D
100
AcDbEntity
  8
0
100
AcDbLine
 10
448.768327147961
 20
36.974307626508
 30
0.0
 11
450.493327147962
 21
38.023307626508
 31
0.0
  0
LINE
  5
2846
330
1D
100
AcDbEntity
  8
0
100
AcDbLine
 10
450.493327147962
 20
38.023307626508
 30
0.0
 11
451.055327147961
 21
39.395307626508
 31
0.0
  0
LINE
  5
2847
330
1D
100
AcDbEntity
  8
0
100
AcDbLine
 10
451.055327147961
 20
39.395307626508
 30
0.0
 11
470.389327147961
 21
261.894407626508
 31
0.0
  0
LINE
  5
2848
330
1D
100
AcDbEntity
  8
0
100
AcDbLine
 10
451.055327147961
 20
39.395307626508
 30
0.0
 11
470.389327147961
 21
261.894407626508
 31
0.0
  0
LINE
  5
2849
330
1D
100
AcDbEntity
  8
0
100
AcDbLine
 10
448.611327147961
 20
42.093307626508
 30
0.0
 11
450.377327147961
 21
40.825307626508
 31
0.0
  0
LINE
  5
284A
330
1D
100
AcDbEntity
  8
0
100
AcDbLine
 10
450.377327147961
 20
40.825307626508
 30
0.0
 11
451.055327147961
 21
39.395307626508
 31
0.0
  0
LINE
  5
284B
330
1D
100
AcDbEntity
  8
0
100
AcDbLine
 10
442.961327147962
 20
43.533307626508
 30
0.0
 11
446.051327147961
 21
43.060307626508
 31
0.0
  0
LINE
  5
284C
330
1D
100
AcDbEntity
  8
0
100
AcDbLine
 10
446.051327147961
 20
43.060307626508
 30
0.0
 11
448.611327147961
 21
42.093307626508
 31
0.0
  0
LINE
  5
284D
330
1D
100
AcDbEntity
  8
0
100
AcDbLine
 10
435.120327147962
 20
40.380307626508
 30
0.0
 11
435.684327147961
 21
41.753307626508
 31
0.0
  0
LINE
  5
284E
330
1D
100
AcDbEntity
  8
0
100
AcDbLine
 10
435.120327147962
 20
40.380307626508
 30
0.0
 11
454.449327147962
 21
263.285407626508
 31
0.0
  0
LINE
  5
284F
330
1D
100
AcDbEntity
  8
0
100
AcDbLine
 10
435.120327147962
 20
40.380307626508
 30
0.0
 11
435.801327147961
 21
38.948307626508
 31
0.0
  0
LINE
  5
2850
330
1D
100
AcDbEntity
  8
0
100
AcDbLine
 10
435.684327147961
 20
41.753307626508
 30
0.0
 11
437.412327147961
 21
42.803307626508
 31
0.0
  0
LINE
  5
2851
330
1D
100
AcDbEntity
  8
0
100
AcDbLine
 10
437.412327147961
 20
42.803307626508
 30
0.0
 11
439.924327147961
 21
43.435307626508
 31
0.0
  0
LINE
  5
2852
330
1D
100
AcDbEntity
  8
0
100
AcDbLine
 10
439.924327147961
 20
43.435307626508
 30
0.0
 11
442.961327147962
 21
43.533307626508
 31
0.0
  0
LINE
  5
2853
330
1D
100
AcDbEntity
  8
0
100
AcDbLine
 10
435.801327147961
 20
38.948307626508
 30
0.0
 11
437.570327147961
 21
37.679307626508
 31
0.0
  0
LINE
  5
2854
330
1D
100
AcDbEntity
  8
0
100
AcDbLine
 10
437.570327147961
 20
37.679307626508
 30
0.0
 11
440.135327147962
 21
36.712307626508
 31
0.0
  0
LINE
  5
2855
330
1D
100
AcDbEntity
  8
0
100
AcDbLine
 10
440.135327147962
 20
36.712307626508
 30
0.0
 11
443.226327147961
 21
36.242307626508
 31
0.0
  0
LINE
  5
2856
330
1D
100
AcDbEntity
  8
0
100
AcDbLine
 10
422.326327147962
 20
438.760407626508
 30
0.0
 11
435.821327147961
 21
392.348407626508
 31
0.0
  0
LINE
  5
2857
330
1D
100
AcDbEntity
  8
0
100
AcDbLine
 10
424.348327147962
 20
439.230407626508
 30
0.0
 11
427.905327147961
 21
440.070407626508
 31
0.0
  0
LINE
  5
2858
330
1D
100
AcDbEntity
  8
0
100
AcDbLine
 10
420.262327147962
 20
437.463407626508
 30
0.0
 11
421.258327147961
 21
437.928407626508
 31
0.0
  0
LINE
  5
2859
330
1D
100
AcDbEntity
  8
0
100
AcDbLine
 10
420.262327147962
 20
437.463407626508
 30
0.0
 11
421.043937929725
 21
437.828316274621
 31
0.0
  0
LINE
  5
285A
330
1D
100
AcDbEntity
  8
0
100
AcDbLine
 10
421.258327147961
 20
437.928407626508
 30
0.0
 11
422.411919979125
 21
438.46603678694
 31
0.0
  0
LINE
  5
285B
330
1D
100
AcDbEntity
  8
0
100
AcDbLine
 10
419.899327147961
 20
437.294407626508
 30
0.0
 11
426.23999187313
 21
425.300533063739
 31
0.0
  0
LINE
  5
285C
330
1D
100
AcDbEntity
  8
0
100
AcDbLine
 10
419.899327147961
 20
437.294407626508
 30
0.0
 11
420.262327147962
 21
437.463407626508
 31
0.0
  0
LINE
  5
285D
330
1D
100
AcDbEntity
  8
0
100
AcDbLine
 10
363.731561890536
 20
608.703395195927
 30
0.0
 11
362.975788521464
 21
609.022105494792
 31
0.0
  0
LINE
  5
285E
330
1D
100
AcDbEntity
  8
0
100
AcDbLine
 10
359.194714062578
 20
618.920361919515
 30
0.0
 11
358.562546368464
 21
619.287608809729
 31
0.0
  0
LINE
  5
285F
330
1D
100
AcDbEntity
  8
0
100
AcDbLine
 10
359.933001124515
 20
618.378031450942
 30
0.0
 11
359.194714062578
 21
618.920361919515
 31
0.0
  0
LINE
  5
2860
330
1D
100
AcDbEntity
  8
0
100
AcDbLine
 10
354.975437576528
 20
629.797283191213
 30
0.0
 11
354.49141086231
 21
630.061781262893
 31
0.0
  0
LINE
  5
2861
330
1D
100
AcDbEntity
  8
0
100
AcDbLine
 10
369.690229377024
 20
606.91027234864
 30
0.0
 11
365.561173327612
 21
614.050075507047
 31
0.0
  0
LINE
  5
2862
330
1D
100
AcDbEntity
  8
0
100
AcDbLine
 10
369.814651989919
 20
595.230789401222
 30
0.0
 11
368.555575335526
 21
597.619679684158
 31
0.0
  0
LINE
  5
2863
330
1D
100
AcDbEntity
  8
0
100
AcDbLine
 10
365.270336024515
 20
603.916506676751
 30
0.0
 11
366.074843293637
 21
602.416818808427
 31
0.0
  0
LWPOLYLINE
  5
2864
330
1D
100
AcDbEntity
  8
0
100
AcDbPolyline
 90
        2
 70
     0
 43
0.0
 10
367.071134834037
 20
599.668983524499
 10
367.299727980672
 20
599.144541078241
  0
LWPOLYLINE
  5
2865
330
1D
100
AcDbEntity
  8
0
100
AcDbPolyline
 90
        2
 70
     0
 43
0.0
 10
366.672649327102
 20
600.486973170467
 10
366.938902389545
 20
599.939917783198
  0
LINE
  5
2866
330
1D
100
AcDbEntity
  8
0
100
AcDbLine
 10
366.19979913476
 20
601.683879760641
 30
0.0
 11
366.272741996018
 21
601.937209484502
 31
0.0
  0
LINE
  5
2867
330
1D
100
AcDbEntity
  8
0
100
AcDbLine
 10
366.434787387649
 20
601.123727744663
 30
0.0
 11
366.19979913476
 21
601.683879760641
 31
0.0
  0
LINE
  5
2868
330
1D
100
AcDbEntity
  8
0
100
AcDbLine
 10
368.223102815359
 20
597.558051240686
 30
0.0
 11
367.932435045479
 21
598.027794455169
 31
0.0
  0
LINE
  5
2869
330
1D
100
AcDbEntity
  8
0
100
AcDbLine
 10
378.707079801762
 20
583.185552177942
 30
0.0
 11
378.610065244613
 21
584.105194317962
 31
0.0
  0
LINE
  5
286A
330
1D
100
AcDbEntity
  8
0
100
AcDbLine
 10
352.519246439624
 20
640.079165731027
 30
0.0
 11
353.2584697789
 21
639.251691340976
 31
0.0
  0
LINE
  5
286B
330
1D
100
AcDbEntity
  8
0
100
AcDbLine
 10
351.048323592079
 20
641.573636269906
 30
0.0
 11
352.519246439624
 21
640.079165731027
 31
0.0
  0
LINE
  5
286C
330
1D
100
AcDbEntity
  8
0
100
AcDbLine
 10
367.545902291877
 20
615.04981518431
 30
0.0
 11
363.190395025625
 21
622.804041709356
 31
0.0
  0
LINE
  5
286D
330
1D
100
AcDbEntity
  8
0
100
AcDbLine
 10
378.045722513153
 20
591.890780469449
 30
0.0
 11
376.228706808509
 21
594.967745702799
 31
0.0
  0
LINE
  5
286E
330
1D
100
AcDbEntity
  8
0
100
AcDbLine
 10
379.470186080814
 20
588.941408838898
 30
0.0
 11
378.045722513153
 21
591.890780469449
 31
0.0
  0
LINE
  5
286F
330
1D
100
AcDbEntity
  8
0
100
AcDbLine
 10
386.768887451386
 20
571.892703789226
 30
0.0
 11
387.528770073256
 21
572.276109080145
 31
0.0
  0
LINE
  5
2870
330
1D
100
AcDbEntity
  8
0
100
AcDbLine
 10
387.444026168454
 20
570.705714208419
 30
0.0
 11
386.700136279462
 21
572.008175699574
 31
0.0
  0
LINE
  5
2871
330
1D
100
AcDbEntity
  8
0
100
AcDbLine
 10
384.593013869422
 20
572.026469110272
 30
0.0
 11
384.761030638599
 21
572.833685069774
 31
0.0
  0
LINE
  5
2872
330
1D
100
AcDbEntity
  8
0
100
AcDbLine
 10
386.35915272082
 20
581.190045312148
 30
0.0
 11
385.60905934844
 21
582.488924345281
 31
0.0
  0
LINE
  5
2873
330
1D
100
AcDbEntity
  8
0
100
AcDbLine
 10
388.984918389623
 20
576.087035636061
 30
0.0
 11
386.35915272082
 21
581.190045312148
 31
0.0
  0
LINE
  5
2874
330
1D
100
AcDbEntity
  8
0
100
AcDbLine
 10
389.460869991179
 20
575.013131966083
 30
0.0
 11
388.984918389623
 21
576.087035636061
 31
0.0
  0
LINE
  5
2875
330
1D
100
AcDbEntity
  8
0
100
AcDbLine
 10
390.327903077696
 20
572.899317457499
 30
0.0
 11
389.460869991179
 21
575.013131966083
 31
0.0
  0
LINE
  5
2876
330
1D
100
AcDbEntity
  8
0
100
AcDbLine
 10
390.868835581663
 20
571.371736325313
 30
0.0
 11
390.327903077696
 21
572.899317457499
 31
0.0
  0
LINE
  5
2877
330
1D
100
AcDbEntity
  8
0
100
AcDbLine
 10
391.443990739102
 20
569.126008571414
 30
0.0
 11
390.868835581663
 21
571.371736325313
 31
0.0
  0
LINE
  5
2878
330
1D
100
AcDbEntity
  8
0
100
AcDbLine
 10
391.869184634798
 20
566.601489222202
 30
0.0
 11
391.443990739102
 21
569.126008571414
 31
0.0
  0
LINE
  5
2879
330
1D
100
AcDbEntity
  8
0
100
AcDbLine
 10
391.752179641142
 20
564.628009865199
 30
0.0
 11
391.869184634798
 21
566.601489222202
 31
0.0
  0
LINE
  5
287A
330
1D
100
AcDbEntity
  8
0
100
AcDbLine
 10
391.403861669168
 20
563.039362922217
 30
0.0
 11
391.752179641142
 21
564.628009865199
 31
0.0
  0
LINE
  5
287B
330
1D
100
AcDbEntity
  8
0
100
AcDbLine
 10
390.582736873956
 20
561.191430401575
 30
0.0
 11
391.403861669168
 21
563.039362922217
 31
0.0
  0
LINE
  5
287C
330
1D
100
AcDbEntity
  8
0
100
AcDbLine
 10
349.751695656676
 20
649.504392250594
 30
0.0
 11
349.878100185438
 21
648.640032057614
 31
0.0
  0
LINE
  5
287D
330
1D
100
AcDbEntity
  8
0
100
AcDbLine
 10
397.176331213528
 20
550.191937745767
 30
0.0
 11
397.321240206845
 21
549.81994185378
 31
0.0
  0
LINE
  5
287E
330
1D
100
AcDbEntity
  8
0
100
AcDbLine
 10
402.056122521386
 20
590.408293862175
 30
0.0
 11
407.121892573685
 21
582.705141534249
 31
0.0
  0
LINE
  5
287F
330
1D
100
AcDbEntity
  8
0
100
AcDbLine
 10
379.846005158173
 20
627.785082832146
 30
0.0
 11
388.646197864784
 21
611.868996976106
 31
0.0
  0
LINE
  5
2880
330
1D
100
AcDbEntity
  8
0
100
AcDbLine
 10
364.130991740557
 20
654.6256278835
 30
0.0
 11
379.846005158173
 21
627.785082832146
 31
0.0
  0
LINE
  5
2881
330
1D
100
AcDbEntity
  8
0
100
AcDbLine
 10
361.523267730204
 20
659.045078339454
 30
0.0
 11
364.130991740557
 21
654.6256278835
 31
0.0
  0
LINE
  5
2882
330
1D
100
AcDbEntity
  8
0
100
AcDbLine
 10
358.252822838553
 20
664.980137128384
 30
0.0
 11
361.523267730204
 21
659.045078339454
 31
0.0
  0
LINE
  5
2883
330
1D
100
AcDbEntity
  8
0
100
AcDbLine
 10
398.659331415639
 20
595.696717672046
 30
0.0
 11
395.252106936841
 21
601.112975545216
 31
0.0
  0
LINE
  5
2884
330
1D
100
AcDbEntity
  8
0
100
AcDbLine
 10
352.282603091296
 20
650.745097601724
 30
0.0
 11
348.851555633701
 21
656.050442470319
 31
0.0
  0
LINE
  5
2885
330
1D
100
AcDbEntity
  8
0
100
AcDbLine
 10
359.733007461469
 20
638.038748439115
 30
0.0
 11
352.282603091296
 21
650.745097601724
 31
0.0
  0
LINE
  5
2886
330
1D
100
AcDbEntity
  8
0
100
AcDbLine
 10
366.272595954129
 20
625.979374746805
 30
0.0
 11
359.733007461469
 21
638.038748439115
 31
0.0
  0
LINE
  5
2887
330
1D
100
AcDbEntity
  8
0
100
AcDbLine
 10
369.53628714104
 20
620.287657999463
 30
0.0
 11
366.272595954129
 21
625.979374746805
 31
0.0
  0
LINE
  5
2888
330
1D
100
AcDbEntity
  8
0
100
AcDbLine
 10
377.490639924751
 20
606.252770269259
 30
0.0
 11
369.53628714104
 21
620.287657999463
 31
0.0
  0
LINE
  5
2889
330
1D
100
AcDbEntity
  8
0
100
AcDbLine
 10
381.571429962583
 20
599.03234354131
 30
0.0
 11
377.490639924751
 21
606.252770269259
 31
0.0
  0
LINE
  5
288A
330
1D
100
AcDbEntity
  8
0
100
AcDbLine
 10
384.081282093041
 20
594.520364209062
 30
0.0
 11
381.571429962583
 21
599.03234354131
 31
0.0
  0
LINE
  5
288B
330
1D
100
AcDbEntity
  8
0
100
AcDbLine
 10
389.051602648555
 20
585.720350517152
 30
0.0
 11
384.081282093041
 21
594.520364209062
 31
0.0
  0
LINE
  5
288C
330
1D
100
AcDbEntity
  8
0
100
AcDbLine
 10
392.757378901623
 20
579.527127046488
 30
0.0
 11
389.051602648555
 21
585.720350517152
 31
0.0
  0
LINE
  5
288D
330
1D
100
AcDbEntity
  8
0
100
AcDbLine
 10
396.431210543057
 20
572.934857217041
 30
0.0
 11
392.757378901623
 21
579.527127046488
 31
0.0
  0
LINE
  5
288E
330
1D
100
AcDbEntity
  8
0
100
AcDbLine
 10
397.623747883302
 20
570.766901526107
 30
0.0
 11
396.431210543057
 21
572.934857217041
 31
0.0
  0
LINE
  5
288F
330
1D
100
AcDbEntity
  8
0
100
AcDbLine
 10
398.681547383501
 20
568.758075769543
 30
0.0
 11
397.623747883302
 21
570.766901526107
 31
0.0
  0
LINE
  5
2890
330
1D
100
AcDbEntity
  8
0
100
AcDbLine
 10
399.525088703496
 20
566.992367669768
 30
0.0
 11
398.681547383501
 21
568.758075769543
 31
0.0
  0
LINE
  5
2891
330
1D
100
AcDbEntity
  8
0
100
AcDbLine
 10
400.220386744059
 20
565.191283485634
 30
0.0
 11
399.525088703496
 21
566.992367669768
 31
0.0
  0
LINE
  5
2892
330
1D
100
AcDbEntity
  8
0
100
AcDbLine
 10
400.519277115503
 20
564.184109423619
 30
0.0
 11
400.220386744059
 21
565.191283485634
 31
0.0
  0
LINE
  5
2893
330
1D
100
AcDbEntity
  8
0
100
AcDbLine
 10
400.888866369825
 20
562.868377578575
 30
0.0
 11
400.519277115503
 21
564.184109423619
 31
0.0
  0
LINE
  5
2894
330
1D
100
AcDbEntity
  8
0
100
AcDbLine
 10
401.068827291194
 20
561.671575183605
 30
0.0
 11
400.888866369825
 21
562.868377578575
 31
0.0
  0
LINE
  5
2895
330
1D
100
AcDbEntity
  8
0
100
AcDbLine
 10
401.159294032247
 20
560.457435625104
 30
0.0
 11
401.068827291194
 21
561.671575183605
 31
0.0
  0
LINE
  5
2896
330
1D
100
AcDbEntity
  8
0
100
AcDbLine
 10
401.112089978366
 20
558.910757881411
 30
0.0
 11
401.159294032247
 21
560.457435625104
 31
0.0
  0
LINE
  5
2897
330
1D
100
AcDbEntity
  8
0
100
AcDbLine
 10
400.853923694305
 20
557.607232047744
 30
0.0
 11
401.112089978366
 21
558.910757881411
 31
0.0
  0
LINE
  5
2898
330
1D
100
AcDbEntity
  8
0
100
AcDbLine
 10
400.487575837642
 20
556.32644429263
 30
0.0
 11
400.853923694305
 21
557.607232047744
 31
0.0
  0
LINE
  5
2899
330
1D
100
AcDbEntity
  8
0
100
AcDbLine
 10
400.143898864703
 20
555.429600523198
 30
0.0
 11
400.487575837642
 21
556.32644429263
 31
0.0
  0
LINE
  5
289A
330
1D
100
AcDbEntity
  8
0
100
AcDbLine
 10
399.315666887515
 20
553.597169982061
 30
0.0
 11
400.143898864703
 21
555.429600523198
 31
0.0
  0
LINE
  5
289B
330
1D
100
AcDbEntity
  8
0
100
AcDbLine
 10
398.059071586079
 20
551.19785377419
 30
0.0
 11
399.315666887515
 21
553.597169982061
 31
0.0
  0
LINE
  5
289C
330
1D
100
AcDbEntity
  8
0
100
AcDbLine
 10
397.321240206845
 20
549.81994185378
 30
0.0
 11
398.059071586079
 21
551.19785377419
 31
0.0
  0
LINE
  5
289D
330
1D
100
AcDbEntity
  8
0
100
AcDbLine
 10
397.32106056904
 20
549.790210258964
 30
0.0
 11
397.321240206845
 21
549.81994185378
 31
0.0
  0
LINE
  5
289E
330
1D
100
AcDbEntity
  8
0
100
AcDbLine
 10
407.219928670789
 20
522.178313581435
 30
0.0
 11
406.833902844716
 21
524.858777192088
 31
0.0
  0
LINE
  5
289F
330
1D
100
AcDbEntity
  8
0
100
AcDbLine
 10
407.328510406964
 20
520.735331394974
 30
0.0
 11
407.378009877631
 21
519.819580905305
 31
0.0
  0
LINE
  5
28A0
330
1D
100
AcDbEntity
  8
0
100
AcDbLine
 10
401.589548569096
 20
541.030300063467
 30
0.0
 11
401.657446838091
 21
540.922809080175
 31
0.0
  0
LINE
  5
28A1
330
1D
100
AcDbEntity
  8
0
100
AcDbLine
 10
401.323746540448
 20
541.473385807104
 30
0.0
 11
401.465982319047
 21
541.231510793723
 31
0.0
  0
LINE
  5
28A2
330
1D
100
AcDbEntity
  8
0
100
AcDbLine
 10
400.908450807824
 20
542.063398769632
 30
0.0
 11
401.076606903915
 21
541.828491395781
 31
0.0
  0
LINE
  5
28A3
330
1D
100
AcDbEntity
  8
0
100
AcDbLine
 10
400.589535580799
 20
542.406323082991
 30
0.0
 11
400.5738158278
 21
542.478678940193
 31
0.0
  0
LINE
  5
28A4
330
1D
100
AcDbEntity
  8
0
100
AcDbLine
 10
400.454720227168
 20
542.604742261904
 30
0.0
 11
400.5738158278
 21
542.478678940193
 31
0.0
  0
LINE
  5
28A5
330
1D
100
AcDbEntity
  8
0
100
AcDbLine
 10
400.231147777304
 20
542.83473535208
 30
0.0
 11
400.33551931946
 21
542.729704017765
 31
0.0
  0
LINE
  5
28A6
330
1D
100
AcDbEntity
  8
0
100
AcDbLine
 10
402.345701200435
 20
531.458791770148
 30
0.0
 11
402.870523681956
 21
529.890823184833
 31
0.0
  0
LINE
  5
28A7
330
1D
100
AcDbEntity
  8
0
100
AcDbLine
 10
401.573209258153
 20
534.352267911434
 30
0.0
 11
402.345701200435
 21
531.458791770148
 31
0.0
  0
LINE
  5
28A8
330
1D
100
AcDbEntity
  8
0
100
AcDbLine
 10
403.449075875527
 20
526.932398281672
 30
0.0
 11
402.870523681956
 21
529.890823184833
 31
0.0
  0
LINE
  5
28A9
330
1D
100
AcDbEntity
  8
0
100
AcDbLine
 10
403.812117034151
 20
523.788226714497
 30
0.0
 11
403.449075875527
 21
526.932398281672
 31
0.0
  0
LINE
  5
28AA
330
1D
100
AcDbEntity
  8
0
100
AcDbLine
 10
406.505403780504
 20
513.996422433095
 30
0.0
 11
406.17112063307
 21
513.191009572705
 31
0.0
  0
LINE
  5
28AB
330
1D
100
AcDbEntity
  8
0
100
AcDbLine
 10
406.810664080045
 20
514.982107658607
 30
0.0
 11
407.038628044628
 21
515.831761384385
 31
0.0
  0
LINE
  5
28AC
330
1D
100
AcDbEntity
  8
0
100
AcDbLine
 10
406.080811214432
 20
517.582183761501
 30
0.0
 11
406.117559757813
 21
518.026014975251
 31
0.0
  0
LINE
  5
28AD
330
1D
100
AcDbEntity
  8
0
100
AcDbLine
 10
444.855988513886
 20
444.080920885539
 30
0.0
 11
446.277186838551
 21
444.415453521434
 31
0.0
  0
LINE
  5
28AE
330
1D
100
AcDbEntity
  8
0
100
AcDbLine
 10
422.358503669049
 20
439.299748946339
 30
0.0
 11
444.855988513886
 21
444.080920885539
 31
0.0
  0
LINE
  5
28AF
330
1D
100
AcDbEntity
  8
0
100
AcDbLine
 10
420.302575314425
 20
438.962117472669
 30
0.0
 11
422.358503669049
 21
439.299748946339
 31
0.0
  0
LINE
  5
28B0
330
1D
100
AcDbEntity
  8
0
100
AcDbLine
 10
421.956539578608
 20
563.68431610659
 30
0.0
 11
424.162482118985
 21
561.893841704863
 31
0.0
  0
LINE
  5
28B1
330
1D
100
AcDbEntity
  8
0
100
AcDbLine
 10
419.298259828347
 20
566.425815151085
 30
0.0
 11
421.956539578608
 21
563.68431610659
 31
0.0
  0
LINE
  5
28B2
330
1D
100
AcDbEntity
  8
0
100
AcDbLine
 10
414.842938239448
 20
571.844405885721
 30
0.0
 11
415.965585879064
 21
570.410992366438
 31
0.0
  0
LINE
  5
28B3
330
1D
100
AcDbEntity
  8
0
100
AcDbLine
 10
382.523377855878
 20
582.670223232359
 30
0.0
 11
383.705867112336
 21
579.70921759772
 31
0.0
  0
LINE
  5
28B4
330
1D
100
AcDbEntity
  8
0
100
AcDbLine
 10
387.687300306435
 20
583.383046222048
 30
0.0
 11
388.017543684526
 21
582.774389864793
 31
0.0
  0
LINE
  5
28B5
330
1D
100
AcDbEntity
  8
0
100
AcDbLine
 10
388.017543684526
 20
582.774389864793
 30
0.0
 11
388.280440154223
 21
582.085956355861
 31
0.0
  0
LINE
  5
28B6
330
1D
100
AcDbEntity
  8
0
100
AcDbLine
 10
413.462228111332
 20
573.670780423465
 30
0.0
 11
414.842938239448
 21
571.844405885721
 31
0.0
  0
LINE
  5
28B7
330
1D
100
AcDbEntity
  8
0
100
AcDbLine
 10
415.292538812318
 20
581.157267723786
 30
0.0
 11
424.029536183994
 21
562.44665033212
 31
0.0
  0
LINE
  5
28B8
330
1D
100
AcDbEntity
  8
0
100
AcDbLine
 10
402.10788481904
 20
606.682015623178
 30
0.0
 11
408.894135297475
 21
594.025712808614
 31
0.0
  0
LINE
  5
28B9
330
1D
100
AcDbEntity
  8
0
100
AcDbLine
 10
408.894135297475
 20
594.025712808614
 30
0.0
 11
415.292538812318
 21
581.157267723786
 31
0.0
  0
LINE
  5
28BA
330
1D
100
AcDbEntity
  8
0
100
AcDbLine
 10
398.649742406599
 20
595.723915699137
 30
0.0
 11
402.056122521386
 21
590.408293862175
 31
0.0
  0
LINE
  5
28BB
330
1D
100
AcDbEntity
  8
0
100
AcDbLine
 10
407.121892573685
 20
582.705141534249
 30
0.0
 11
408.781017204848
 21
580.25811365164
 31
0.0
  0
LINE
  5
28BC
330
1D
100
AcDbEntity
  8
0
100
AcDbLine
 10
410.399071020325
 20
577.920746145187
 30
0.0
 11
411.958360844128
 21
575.723954893068
 31
0.0
  0
LINE
  5
28BD
330
1D
100
AcDbEntity
  8
0
100
AcDbLine
 10
411.958360844128
 20
575.723954893068
 30
0.0
 11
413.462228111332
 21
573.670780423465
 31
0.0
  0
LINE
  5
28BE
330
1D
100
AcDbEntity
  8
0
100
AcDbLine
 10
408.781017204848
 20
580.25811365164
 30
0.0
 11
410.399071020325
 21
577.920746145187
 31
0.0
  0
LINE
  5
28BF
330
1D
100
AcDbEntity
  8
0
100
AcDbLine
 10
388.280440154223
 20
582.085956355861
 30
0.0
 11
388.228170711568
 21
581.246189414761
 31
0.0
  0
LINE
  5
28C0
330
1D
100
AcDbEntity
  8
0
100
AcDbLine
 10
387.682663288267
 20
581.332999213304
 30
0.0
 11
388.228170711568
 21
581.246189414761
 31
0.0
  0
LINE
  5
28C1
330
1D
100
AcDbEntity
  8
0
100
AcDbLine
 10
415.965585879064
 20
570.410992366438
 30
0.0
 11
416.383440469916
 21
569.906009616892
 31
0.0
  0
LINE
  5
28C2
330
1D
100
AcDbEntity
  8
0
100
AcDbLine
 10
416.394448576556
 20
569.892014489549
 30
0.0
 11
417.76495676896
 21
568.236429063015
 31
0.0
  0
LINE
  5
28C3
330
1D
100
AcDbEntity
  8
0
100
AcDbLine
 10
387.170150773984
 20
581.658250668383
 30
0.0
 11
387.682663288267
 21
581.332999213304
 31
0.0
  0
LINE
  5
28C4
330
1D
100
AcDbEntity
  8
0
100
AcDbLine
 10
385.208026031643
 20
585.307038922231
 30
0.0
 11
385.499583554121
 21
585.449938261232
 31
0.0
  0
LINE
  5
28C5
330
1D
100
AcDbEntity
  8
0
100
AcDbLine
 10
385.208026031643
 20
585.307038922231
 30
0.0
 11
385.147699299631
 21
584.84160263722
 31
0.0
  0
LINE
  5
28C6
330
1D
100
AcDbEntity
  8
0
100
AcDbLine
 10
397.210505360406
 20
615.1273330055
 30
0.0
 11
402.10788481904
 21
606.682015623178
 31
0.0
  0
LINE
  5
28C7
330
1D
100
AcDbEntity
  8
0
100
AcDbLine
 10
385.499583554121
 20
585.449938261232
 30
0.0
 11
386.647978545363
 21
584.730794357629
 31
0.0
  0
LINE
  5
28C8
330
1D
100
AcDbEntity
  8
0
100
AcDbLine
 10
392.445765650823
 20
605.638737645283
 30
0.0
 11
395.25210693684
 21
601.112975545217
 31
0.0
  0
LINE
  5
28C9
330
1D
100
AcDbEntity
  8
0
100
AcDbLine
 10
386.519048422203
 20
584.811532529398
 30
0.0
 11
386.561246067601
 21
584.770528864337
 31
0.0
  0
LINE
  5
28CA
330
1D
100
AcDbEntity
  8
0
100
AcDbLine
 10
387.273124422574
 20
583.990326179916
 30
0.0
 11
387.687300306435
 21
583.383046222048
 31
0.0
  0
LINE
  5
28CB
330
1D
100
AcDbEntity
  8
0
100
AcDbLine
 10
386.647978545363
 20
584.730794357629
 30
0.0
 11
387.273124422574
 21
583.990326179916
 31
0.0
  0
LINE
  5
28CC
330
1D
100
AcDbEntity
  8
0
100
AcDbLine
 10
385.147699299631
 20
584.84160263722
 30
0.0
 11
385.406768875714
 21
584.104049731424
 31
0.0
  0
LINE
  5
28CD
330
1D
100
AcDbEntity
  8
0
100
AcDbLine
 10
384.858965976061
 20
583.787803378414
 30
0.0
 11
386.573359577034
 21
584.777521987562
 31
0.0
  0
LINE
  5
28CE
330
1D
100
AcDbEntity
  8
0
100
AcDbLine
 10
384.858965976061
 20
583.787803378414
 30
0.0
 11
385.084128170287
 21
583.398303665588
 31
0.0
  0
LINE
  5
28CF
330
1D
100
AcDbEntity
  8
0
100
AcDbLine
 10
386.134084495856
 20
581.579510822959
 30
0.0
 11
386.35915272082
 21
581.190045312148
 31
0.0
  0
LINE
  5
28D0
330
1D
100
AcDbEntity
  8
0
100
AcDbLine
 10
385.084128170287
 20
583.398303665588
 30
0.0
 11
385.60905934844
 21
582.488924345281
 31
0.0
  0
LINE
  5
28D1
330
1D
100
AcDbEntity
  8
0
100
AcDbLine
 10
391.93044648278
 20
606.483721137049
 30
0.0
 11
392.445765650823
 21
605.638737645283
 31
0.0
  0
LINE
  5
28D2
330
1D
100
AcDbEntity
  8
0
100
AcDbLine
 10
386.35915272082
 20
581.190045312148
 30
0.0
 11
388.213704042675
 21
582.260714790228
 31
0.0
  0
LINE
  5
28D3
330
1D
100
AcDbEntity
  8
0
100
AcDbLine
 10
380.592974039348
 20
594.986204792719
 30
0.0
 11
380.989272214553
 21
594.566342009979
 31
0.0
  0
LINE
  5
28D4
330
1D
100
AcDbEntity
  8
0
100
AcDbLine
 10
392.058114820789
 20
623.419641765265
 30
0.0
 11
397.210505360406
 21
615.1273330055
 31
0.0
  0
LINE
  5
28D5
330
1D
100
AcDbEntity
  8
0
100
AcDbLine
 10
388.646197864784
 20
611.868996976106
 30
0.0
 11
391.93044648278
 21
606.483721137049
 31
0.0
  0
LINE
  5
28D6
330
1D
100
AcDbEntity
  8
0
100
AcDbLine
 10
380.493722933475
 20
591.604577098068
 30
0.0
 11
384.985010634392
 21
583.885829215164
 31
0.0
  0
LINE
  5
28D7
330
1D
100
AcDbEntity
  8
0
100
AcDbLine
 10
381.555549822784
 20
593.786641996887
 30
0.0
 11
381.946289443595
 21
592.914398453645
 31
0.0
  0
LINE
  5
28D8
330
1D
100
AcDbEntity
  8
0
100
AcDbLine
 10
381.946289443595
 20
592.914398453645
 30
0.0
 11
382.077105844665
 21
592.441114068511
 31
0.0
  0
LINE
  5
28D9
330
1D
100
AcDbEntity
  8
0
100
AcDbLine
 10
382.077105844665
 20
592.441114068511
 30
0.0
 11
382.037907738217
 21
591.80304003797
 31
0.0
  0
LINE
  5
28DA
330
1D
100
AcDbEntity
  8
0
100
AcDbLine
 10
381.240261015899
 20
592.035568427162
 30
0.0
 11
382.037907738217
 21
591.80304003797
 31
0.0
  0
LINE
  5
28DB
330
1D
100
AcDbEntity
  8
0
100
AcDbLine
 10
381.348417551021
 20
588.912541158579
 30
0.0
 11
381.605359491509
 21
587.964487189009
 31
0.0
  0
LINE
  5
28DC
330
1D
100
AcDbEntity
  8
0
100
AcDbLine
 10
380.540841200466
 20
590.379198817347
 30
0.0
 11
381.348417551021
 21
588.912541158579
 31
0.0
  0
LINE
  5
28DD
330
1D
100
AcDbEntity
  8
0
100
AcDbLine
 10
379.588627616565
 20
589.314676492248
 30
0.0
 11
380.113558794718
 21
588.405297171941
 31
0.0
  0
LINE
  5
28DE
330
1D
100
AcDbEntity
  8
0
100
AcDbLine
 10
379.546760857314
 20
591.534891090991
 30
0.0
 11
379.999692791006
 21
591.080580994865
 31
0.0
  0
LINE
  5
28DF
330
1D
100
AcDbEntity
  8
0
100
AcDbLine
 10
380.989272214553
 20
594.566342009979
 30
0.0
 11
381.555549822784
 21
593.786641996887
 31
0.0
  0
LINE
  5
28E0
330
1D
100
AcDbEntity
  8
0
100
AcDbLine
 10
380.103089113684
 20
591.898546740148
 30
0.0
 11
380.32825130791
 21
591.509047027322
 31
0.0
  0
LINE
  5
28E1
330
1D
100
AcDbEntity
  8
0
100
AcDbLine
 10
380.32825130791
 20
591.509047027322
 30
0.0
 11
382.058613120076
 21
592.508019423765
 31
0.0
  0
LINE
  5
28E2
330
1D
100
AcDbEntity
  8
0
100
AcDbLine
 10
379.999692791006
 20
591.080580994865
 30
0.0
 11
380.540841200466
 21
590.379198817347
 31
0.0
  0
LINE
  5
28E3
330
1D
100
AcDbEntity
  8
0
100
AcDbLine
 10
379.063602469149
 20
590.224090014569
 30
0.0
 11
379.588627616565
 21
589.314676492248
 31
0.0
  0
LINE
  5
28E4
330
1D
100
AcDbEntity
  8
0
100
AcDbLine
 10
375.254774339958
 20
590.546212308555
 30
0.0
 11
375.881071487649
 21
589.334958527222
 31
0.0
  0
LINE
  5
28E5
330
1D
100
AcDbEntity
  8
0
100
AcDbLine
 10
380.076051835245
 20
595.35738766531
 30
0.0
 11
380.592974039348
 21
594.986204792719
 31
0.0
  0
LINE
  5
28E6
330
1D
100
AcDbEntity
  8
0
100
AcDbLine
 10
378.811951633671
 20
591.789569642991
 30
0.0
 11
378.730552937357
 21
591.486108702772
 31
0.0
  0
LINE
  5
28E7
330
1D
100
AcDbEntity
  8
0
100
AcDbLine
 10
378.811951633671
 20
591.789569642991
 30
0.0
 11
379.093427535624
 21
591.815886303487
 31
0.0
  0
LINE
  5
28E8
330
1D
100
AcDbEntity
  8
0
100
AcDbLine
 10
379.578157935531
 20
592.807926060455
 30
0.0
 11
380.103089113684
 21
591.898546740148
 31
0.0
  0
LINE
  5
28E9
330
1D
100
AcDbEntity
  8
0
100
AcDbLine
 10
379.093427535624
 20
591.815886303487
 30
0.0
 11
379.546760857314
 21
591.534891090991
 31
0.0
  0
LINE
  5
28EA
330
1D
100
AcDbEntity
  8
0
100
AcDbLine
 10
378.844267677231
 20
590.847716191902
 30
0.0
 11
378.928863345052
 21
590.665702472281
 31
0.0
  0
LINE
  5
28EB
330
1D
100
AcDbEntity
  8
0
100
AcDbLine
 10
378.838534244186
 20
590.613555525381
 30
0.0
 11
379.871042935361
 21
591.209622300936
 31
0.0
  0
LINE
  5
28EC
330
1D
100
AcDbEntity
  8
0
100
AcDbLine
 10
378.838534244186
 20
590.613555525381
 30
0.0
 11
379.063602469149
 21
590.224090014569
 31
0.0
  0
LINE
  5
28ED
330
1D
100
AcDbEntity
  8
0
100
AcDbLine
 10
378.730552937357
 20
591.486108702772
 30
0.0
 11
378.844267677231
 21
590.847716191902
 31
0.0
  0
LINE
  5
28EE
330
1D
100
AcDbEntity
  8
0
100
AcDbLine
 10
378.832272382911
 20
594.324494193575
 30
0.0
 11
378.923635442089
 21
594.161978116471
 31
0.0
  0
LINE
  5
28EF
330
1D
100
AcDbEntity
  8
0
100
AcDbLine
 10
378.832272382911
 20
594.324494193575
 30
0.0
 11
378.923635442089
 21
594.161978116471
 31
0.0
  0
LINE
  5
28F0
330
1D
100
AcDbEntity
  8
0
100
AcDbLine
 10
379.611994401576
 20
595.226192626317
 30
0.0
 11
380.076051835245
 21
595.35738766531
 31
0.0
  0
LINE
  5
28F1
330
1D
100
AcDbEntity
  8
0
100
AcDbLine
 10
379.611994401576
 20
595.226192626317
 30
0.0
 11
379.658917607159
 21
594.586456160097
 31
0.0
  0
LINE
  5
28F2
330
1D
100
AcDbEntity
  8
0
100
AcDbLine
 10
379.053226757378
 20
593.717305380762
 30
0.0
 11
379.578157935531
 21
592.807926060455
 31
0.0
  0
LINE
  5
28F3
330
1D
100
AcDbEntity
  8
0
100
AcDbLine
 10
378.828064563152
 20
594.106805093588
 30
0.0
 11
380.485296332124
 21
595.063524204353
 31
0.0
  0
LINE
  5
28F4
330
1D
100
AcDbEntity
  8
0
100
AcDbLine
 10
378.828064563152
 20
594.106805093588
 30
0.0
 11
379.053226757378
 21
593.717305380762
 31
0.0
  0
LINE
  5
28F5
330
1D
100
AcDbEntity
  8
0
100
AcDbLine
 10
375.905232706503
 20
591.334268019397
 30
0.0
 11
377.31358055808
 21
588.230398445952
 31
0.0
  0
LINE
  5
28F6
330
1D
100
AcDbEntity
  8
0
100
AcDbLine
 10
374.797712517887
 20
591.249978982109
 30
0.0
 11
375.254774339958
 21
590.546212308555
 31
0.0
  0
LINE
  5
28F7
330
1D
100
AcDbEntity
  8
0
100
AcDbLine
 10
378.711124243978
 20
586.616053437596
 30
0.0
 11
379.145924824005
 21
586.561024212555
 31
0.0
  0
LINE
  5
28F8
330
1D
100
AcDbEntity
  8
0
100
AcDbLine
 10
378.711124243978
 20
586.616053437596
 30
0.0
 11
378.867112745946
 21
585.86224182502
 31
0.0
  0
LINE
  5
28F9
330
1D
100
AcDbEntity
  8
0
100
AcDbLine
 10
378.867112745946
 20
585.86224182502
 30
0.0
 11
378.937182777181
 21
585.708848314519
 31
0.0
  0
LINE
  5
28FA
330
1D
100
AcDbEntity
  8
0
100
AcDbLine
 10
381.457608842154
 20
587.623454073879
 30
0.0
 11
381.605359491509
 21
587.964487189009
 31
0.0
  0
LINE
  5
28FB
330
1D
100
AcDbEntity
  8
0
100
AcDbLine
 10
380.65394615796
 20
586.484644265336
 30
0.0
 11
381.705344571306
 21
584.428014902419
 31
0.0
  0
LINE
  5
28FC
330
1D
100
AcDbEntity
  8
0
100
AcDbLine
 10
381.175793671885
 20
587.634507118989
 30
0.0
 11
381.457608842154
 21
587.623454073879
 31
0.0
  0
LINE
  5
28FD
330
1D
100
AcDbEntity
  8
0
100
AcDbLine
 10
380.686623505172
 20
587.956214498447
 30
0.0
 11
381.175793671885
 21
587.634507118989
 31
0.0
  0
LINE
  5
28FE
330
1D
100
AcDbEntity
  8
0
100
AcDbLine
 10
380.537289096588
 20
588.13043478927
 30
0.0
 11
380.686623505172
 21
587.956214498447
 31
0.0
  0
LINE
  5
28FF
330
1D
100
AcDbEntity
  8
0
100
AcDbLine
 10
380.113558794718
 20
588.405297171941
 30
0.0
 11
380.338720988944
 21
588.015797459115
 31
0.0
  0
LINE
  5
2900
330
1D
100
AcDbEntity
  8
0
100
AcDbLine
 10
380.338720988944
 20
588.015797459115
 30
0.0
 11
381.421963340915
 21
588.641174880571
 31
0.0
  0
LINE
  5
2901
330
1D
100
AcDbEntity
  8
0
100
AcDbLine
 10
379.145924824005
 20
586.561024212555
 30
0.0
 11
379.648905066386
 21
586.077856244066
 31
0.0
  0
LINE
  5
2902
330
1D
100
AcDbEntity
  8
0
100
AcDbLine
 10
379.648905066386
 20
586.077856244066
 30
0.0
 11
380.348206540989
 21
585.212493281131
 31
0.0
  0
LINE
  5
2903
330
1D
100
AcDbEntity
  8
0
100
AcDbLine
 10
381.083387561077
 20
582.538803329453
 30
0.0
 11
381.489155744244
 21
582.62417072094
 31
0.0
  0
LINE
  5
2904
330
1D
100
AcDbEntity
  8
0
100
AcDbLine
 10
381.705344571306
 20
584.428014902419
 30
0.0
 11
382.523377855878
 21
582.670223232359
 31
0.0
  0
LINE
  5
2905
330
1D
100
AcDbEntity
  8
0
100
AcDbLine
 10
380.348206540989
 20
585.212493281131
 30
0.0
 11
380.911906964554
 21
584.240050931954
 31
0.0
  0
LINE
  5
2906
330
1D
100
AcDbEntity
  8
0
100
AcDbLine
 10
380.911906964554
 20
584.240050931954
 30
0.0
 11
381.328649116244
 21
583.382819330224
 31
0.0
  0
LINE
  5
2907
330
1D
100
AcDbEntity
  8
0
100
AcDbLine
 10
378.391501541199
 20
585.129899268793
 30
0.0
 11
378.610065244613
 21
584.105194317962
 31
0.0
  0
LINE
  5
2908
330
1D
100
AcDbEntity
  8
0
100
AcDbLine
 10
378.502209012124
 20
584.938327394435
 30
0.0
 11
379.02723415954
 21
584.028913872114
 31
0.0
  0
LINE
  5
2909
330
1D
100
AcDbEntity
  8
0
100
AcDbLine
 10
378.277140787161
 20
585.327792905247
 30
0.0
 11
379.621671354533
 21
586.10401722639
 31
0.0
  0
LINE
  5
290A
330
1D
100
AcDbEntity
  8
0
100
AcDbLine
 10
378.277140787161
 20
585.327792905247
 30
0.0
 11
378.502209012124
 21
584.938327394435
 31
0.0
  0
LINE
  5
290B
330
1D
100
AcDbEntity
  8
0
100
AcDbLine
 10
380.488255231703
 20
583.134261069796
 30
0.0
 11
381.083387561077
 21
582.538803329453
 31
0.0
  0
LINE
  5
290C
330
1D
100
AcDbEntity
  8
0
100
AcDbLine
 10
381.328649116244
 20
583.382819330224
 30
0.0
 11
381.489155744244
 21
582.62417072094
 31
0.0
  0
LINE
  5
290D
330
1D
100
AcDbEntity
  8
0
100
AcDbLine
 10
379.02723415954
 20
584.028913872114
 30
0.0
 11
379.552165337693
 21
583.119534551806
 31
0.0
  0
LINE
  5
290E
330
1D
100
AcDbEntity
  8
0
100
AcDbLine
 10
378.707079801762
 20
583.185552177942
 30
0.0
 11
378.690099944759
 21
582.390406477799
 31
0.0
  0
LINE
  5
290F
330
1D
100
AcDbEntity
  8
0
100
AcDbLine
 10
379.552165337693
 20
583.119534551806
 30
0.0
 11
379.777233562657
 21
582.730069040995
 31
0.0
  0
LINE
  5
2910
330
1D
100
AcDbEntity
  8
0
100
AcDbLine
 10
379.777233562657
 20
582.730069040995
 30
0.0
 11
381.236449000708
 21
583.572473418249
 31
0.0
  0
LINE
  5
2911
330
1D
100
AcDbEntity
  8
0
100
AcDbLine
 10
379.468677365145
 20
588.943305482092
 30
0.0
 11
380.65394615796
 21
586.484644265336
 31
0.0
  0
LINE
  5
2912
330
1D
100
AcDbEntity
  8
0
100
AcDbLine
 10
375.881071487649
 20
589.334958527222
 30
0.0
 11
376.112245053294
 21
588.61550410021
 31
0.0
  0
LINE
  5
2913
330
1D
100
AcDbEntity
  8
0
100
AcDbLine
 10
374.212842487284
 20
588.663002544778
 30
0.0
 11
374.395849700362
 21
588.588944122154
 31
0.0
  0
LINE
  5
2914
330
1D
100
AcDbEntity
  8
0
100
AcDbLine
 10
374.212842487284
 20
588.663002544778
 30
0.0
 11
374.450707178565
 21
588.064557368808
 31
0.0
  0
LINE
  5
2915
330
1D
100
AcDbEntity
  8
0
100
AcDbLine
 10
376.017006574766
 20
588.459680250278
 30
0.0
 11
376.112245053294
 21
588.61550410021
 31
0.0
  0
LINE
  5
2916
330
1D
100
AcDbEntity
  8
0
100
AcDbLine
 10
377.31358055808
 20
588.230398445952
 30
0.0
 11
377.968686345113
 21
586.525522468705
 31
0.0
  0
LINE
  5
2917
330
1D
100
AcDbEntity
  8
0
100
AcDbLine
 10
375.704447719881
 20
588.76734402522
 30
0.0
 11
376.007281515665
 21
588.942169831264
 31
0.0
  0
LINE
  5
2918
330
1D
100
AcDbEntity
  8
0
100
AcDbLine
 10
375.704447719881
 20
588.76734402522
 30
0.0
 11
376.017006574766
 21
588.459680250278
 31
0.0
  0
LINE
  5
2919
330
1D
100
AcDbEntity
  8
0
100
AcDbLine
 10
374.544157353576
 20
588.616906239351
 30
0.0
 11
374.76922557854
 21
588.22744072854
 31
0.0
  0
LINE
  5
291A
330
1D
100
AcDbEntity
  8
0
100
AcDbLine
 10
374.395849700362
 20
588.588944122154
 30
0.0
 11
374.789031732249
 21
588.031872412407
 31
0.0
  0
LINE
  5
291B
330
1D
100
AcDbEntity
  8
0
100
AcDbLine
 10
377.968686345113
 20
586.525522468705
 30
0.0
 11
378.327442511313
 21
585.356833094164
 31
0.0
  0
LINE
  5
291C
330
1D
100
AcDbEntity
  8
0
100
AcDbLine
 10
376.621201008331
 20
584.725856456035
 30
0.0
 11
376.661277613167
 21
584.402658210767
 31
0.0
  0
LINE
  5
291D
330
1D
100
AcDbEntity
  8
0
100
AcDbLine
 10
374.450707178565
 20
588.064557368808
 30
0.0
 11
374.591997401737
 21
587.78762298543
 31
0.0
  0
LINE
  5
291E
330
1D
100
AcDbEntity
  8
0
100
AcDbLine
 10
374.789031732249
 20
588.031872412407
 30
0.0
 11
375.209267956865
 21
587.376627026677
 31
0.0
  0
LINE
  5
291F
330
1D
100
AcDbEntity
  8
0
100
AcDbLine
 10
374.76922557854
 20
588.22744072854
 30
0.0
 11
376.007281515665
 21
588.942169831264
 31
0.0
  0
LINE
  5
2920
330
1D
100
AcDbEntity
  8
0
100
AcDbLine
 10
375.209267956865
 20
587.376627026677
 30
0.0
 11
375.826959947035
 21
586.362185621134
 31
0.0
  0
LINE
  5
2921
330
1D
100
AcDbEntity
  8
0
100
AcDbLine
 10
376.292413431918
 20
585.432951477653
 30
0.0
 11
376.621201008331
 21
584.725856456035
 31
0.0
  0
LINE
  5
2922
330
1D
100
AcDbEntity
  8
0
100
AcDbLine
 10
375.826959947035
 20
586.362185621134
 30
0.0
 11
376.292413431918
 21
585.432951477653
 31
0.0
  0
LINE
  5
2923
330
1D
100
AcDbEntity
  8
0
100
AcDbLine
 10
376.072864956946
 20
585.178028418803
 30
0.0
 11
376.425030542346
 21
584.663170267164
 31
0.0
  0
LINE
  5
2924
330
1D
100
AcDbEntity
  8
0
100
AcDbLine
 10
376.425030542346
 20
584.663170267164
 30
0.0
 11
376.661277613167
 21
584.402658210767
 31
0.0
  0
LINE
  5
2925
330
1D
100
AcDbEntity
  8
0
100
AcDbLine
 10
376.301575864718
 20
584.054698942801
 30
0.0
 11
377.943917441677
 21
581.190236838917
 31
0.0
  0
LINE
  5
2926
330
1D
100
AcDbEntity
  8
0
100
AcDbLine
 10
376.201908289321
 20
584.234638972851
 30
0.0
 11
376.301575864718
 21
584.054698942801
 31
0.0
  0
LINE
  5
2927
330
1D
100
AcDbEntity
  8
0
100
AcDbLine
 10
376.178821008497
 20
584.27610523657
 30
0.0
 11
376.203795276016
 21
584.230759632545
 31
0.0
  0
LINE
  5
2928
330
1D
100
AcDbEntity
  8
0
100
AcDbLine
 10
376.203795276016
 20
584.230759632545
 30
0.0
 11
376.301575864718
 21
584.054698942801
 31
0.0
  0
LINE
  5
2929
330
1D
100
AcDbEntity
  8
0
100
AcDbLine
 10
375.77302938514
 20
585.004933486034
 30
0.0
 11
376.201908289321
 21
584.234638972851
 31
0.0
  0
LINE
  5
292A
330
1D
100
AcDbEntity
  8
0
100
AcDbLine
 10
374.410425811387
 20
584.737700381882
 30
0.0
 11
374.635494036351
 21
584.348234871071
 31
0.0
  0
LINE
  5
292B
330
1D
100
AcDbEntity
  8
0
100
AcDbLine
 10
374.966147193267
 20
584.539120781044
 30
0.0
 11
375.189333664136
 21
584.153038798635
 31
0.0
  0
LINE
  5
292C
330
1D
100
AcDbEntity
  8
0
100
AcDbLine
 10
375.189333664136
 20
584.153038798635
 30
0.0
 11
375.989983419255
 21
584.615269875951
 31
0.0
  0
LINE
  5
292D
330
1D
100
AcDbEntity
  8
0
100
AcDbLine
 10
374.635494036351
 20
584.348234871071
 30
0.0
 11
376.339400936542
 21
585.331899512853
 31
0.0
  0
LINE
  5
292E
330
1D
100
AcDbEntity
  8
0
100
AcDbLine
 10
374.594462010033
 20
587.789045852971
 30
0.0
 11
374.850110346605
 21
587.93663673809
 31
0.0
  0
LINE
  5
292F
330
1D
100
AcDbEntity
  8
0
100
AcDbLine
 10
373.885494633234
 20
585.64707970219
 30
0.0
 11
374.410425811387
 21
584.737700381882
 31
0.0
  0
LINE
  5
2930
330
1D
100
AcDbEntity
  8
0
100
AcDbLine
 10
373.360469485819
 20
586.556493224511
 30
0.0
 11
373.885494633234
 21
585.64707970219
 31
0.0
  0
LINE
  5
2931
330
1D
100
AcDbEntity
  8
0
100
AcDbLine
 10
417.76495676896
 20
568.236429063015
 30
0.0
 11
419.298259828347
 21
566.425815151085
 31
0.0
  0
LINE
  5
2932
330
1D
100
AcDbEntity
  8
0
100
AcDbLine
 10
385.046459333684
 20
579.920446729377
 30
0.0
 11
385.577226778421
 21
579.622973756473
 31
0.0
  0
LINE
  5
2933
330
1D
100
AcDbEntity
  8
0
100
AcDbLine
 10
386.197104828064
 20
578.952530288633
 30
0.0
 11
386.601840928827
 21
578.406151730544
 31
0.0
  0
LINE
  5
2934
330
1D
100
AcDbEntity
  8
0
100
AcDbLine
 10
385.577226778421
 20
579.622973756473
 30
0.0
 11
386.197104828064
 21
578.952530288633
 31
0.0
  0
LINE
  5
2935
330
1D
100
AcDbEntity
  8
0
100
AcDbLine
 10
384.829146482998
 20
579.838851294907
 30
0.0
 11
385.046459333684
 21
579.920446729377
 31
0.0
  0
LINE
  5
2936
330
1D
100
AcDbEntity
  8
0
100
AcDbLine
 10
384.829146482998
 20
579.838851294907
 30
0.0
 11
384.901075307058
 21
579.202897480335
 31
0.0
  0
LINE
  5
2937
330
1D
100
AcDbEntity
  8
0
100
AcDbLine
 10
385.396281467537
 20
579.377575245837
 30
0.0
 11
385.66218085951
 21
579.531089701593
 31
0.0
  0
LINE
  5
2938
330
1D
100
AcDbEntity
  8
0
100
AcDbLine
 10
378.690099944759
 20
582.390406477799
 30
0.0
 11
378.572025717961
 21
581.717190340911
 31
0.0
  0
LINE
  5
2939
330
1D
100
AcDbEntity
  8
0
100
AcDbLine
 10
378.572025717961
 20
581.717190340911
 30
0.0
 11
378.410125860331
 21
581.140802939852
 31
0.0
  0
LINE
  5
293A
330
1D
100
AcDbEntity
  8
0
100
AcDbLine
 10
383.705867112336
 20
579.70921759772
 30
0.0
 11
384.28919218019
 21
577.86764846646
 31
0.0
  0
LINE
  5
293B
330
1D
100
AcDbEntity
  8
0
100
AcDbLine
 10
383.71152807242
 20
579.6975795768
 30
0.0
 11
384.28919218019
 21
577.86764846646
 31
0.0
  0
LINE
  5
293C
330
1D
100
AcDbEntity
  8
0
100
AcDbLine
 10
384.901075307058
 20
579.202897480335
 30
0.0
 11
384.943609970325
 21
579.116229712044
 31
0.0
  0
LINE
  5
293D
330
1D
100
AcDbEntity
  8
0
100
AcDbLine
 10
386.259633048242
 20
632.087579968404
 30
0.0
 11
392.058114820789
 21
623.419641765265
 31
0.0
  0
LINE
  5
293E
330
1D
100
AcDbEntity
  8
0
100
AcDbLine
 10
376.817654115196
 20
597.917200951075
 30
0.0
 11
378.832272382911
 21
594.324494193575
 31
0.0
  0
LINE
  5
293F
330
1D
100
AcDbEntity
  8
0
100
AcDbLine
 10
373.605021499057
 20
602.669590156908
 30
0.0
 11
373.942917236942
 21
601.791039947575
 31
0.0
  0
LINE
  5
2940
330
1D
100
AcDbEntity
  8
0
100
AcDbLine
 10
372.903760383852
 20
603.871946546795
 30
0.0
 11
373.605021499057
 21
602.669590156908
 31
0.0
  0
LINE
  5
2941
330
1D
100
AcDbEntity
  8
0
100
AcDbLine
 10
373.882499847248
 20
606.204891746064
 30
0.0
 11
374.839153288428
 21
605.666210547693
 31
0.0
  0
LINE
  5
2942
330
1D
100
AcDbEntity
  8
0
100
AcDbLine
 10
375.127243272334
 20
602.475869407498
 30
0.0
 11
375.690587752708
 21
601.865810652545
 31
0.0
  0
LINE
  5
2943
330
1D
100
AcDbEntity
  8
0
100
AcDbLine
 10
376.323877961833
 20
603.016614615445
 30
0.0
 11
376.308827339622
 21
601.897256688431
 31
0.0
  0
LINE
  5
2944
330
1D
100
AcDbEntity
  8
0
100
AcDbLine
 10
374.839153288428
 20
605.666210547693
 30
0.0
 11
375.712051335999
 21
604.393934178917
 31
0.0
  0
LINE
  5
2945
330
1D
100
AcDbEntity
  8
0
100
AcDbLine
 10
375.712051335999
 20
604.393934178917
 30
0.0
 11
376.323877961833
 21
603.016614615445
 31
0.0
  0
LINE
  5
2946
330
1D
100
AcDbEntity
  8
0
100
AcDbLine
 10
374.194235027742
 20
602.457262326385
 30
0.0
 11
374.418961232563
 21
602.066857122953
 31
0.0
  0
LINE
  5
2947
330
1D
100
AcDbEntity
  8
0
100
AcDbLine
 10
373.668961829446
 20
603.365701954072
 30
0.0
 11
374.194235027742
 21
602.457262326385
 31
0.0
  0
LINE
  5
2948
330
1D
100
AcDbEntity
  8
0
100
AcDbLine
 10
373.14393668203
 20
604.275115476393
 30
0.0
 11
373.668961829446
 21
603.365701954072
 31
0.0
  0
LINE
  5
2949
330
1D
100
AcDbEntity
  8
0
100
AcDbLine
 10
373.581008628182
 20
605.751675534057
 30
0.0
 11
373.882499847248
 21
606.204891746064
 31
0.0
  0
LINE
  5
294A
330
1D
100
AcDbEntity
  8
0
100
AcDbLine
 10
373.581008628182
 20
605.751675534057
 30
0.0
 11
373.694399898117
 21
605.113037163234
 31
0.0
  0
LINE
  5
294B
330
1D
100
AcDbEntity
  8
0
100
AcDbLine
 10
372.91921047721
 20
604.665520679825
 30
0.0
 11
374.744718643094
 21
605.719385674364
 31
0.0
  0
LINE
  5
294C
330
1D
100
AcDbEntity
  8
0
100
AcDbLine
 10
372.91921047721
 20
604.665520679825
 30
0.0
 11
373.14393668203
 21
604.275115476393
 31
0.0
  0
LINE
  5
294D
330
1D
100
AcDbEntity
  8
0
100
AcDbLine
 10
373.942917236942
 20
601.791039947575
 30
0.0
 11
374.024370114111
 21
601.177159927701
 31
0.0
  0
LINE
  5
294E
330
1D
100
AcDbEntity
  8
0
100
AcDbLine
 10
374.453911301935
 20
602.084556298989
 30
0.0
 11
376.817654115196
 21
597.917200951075
 31
0.0
  0
LINE
  5
294F
330
1D
100
AcDbEntity
  8
0
100
AcDbLine
 10
375.690587752708
 20
601.865810652545
 30
0.0
 11
376.308827339622
 21
601.897256688431
 31
0.0
  0
LINE
  5
2950
330
1D
100
AcDbEntity
  8
0
100
AcDbLine
 10
374.418961232563
 20
602.066857122953
 30
0.0
 11
376.270751010177
 21
603.136211878419
 31
0.0
  0
LINE
  5
2951
330
1D
100
AcDbEntity
  8
0
100
AcDbLine
 10
373.284573858644
 20
601.33248506507
 30
0.0
 11
373.64022110938
 21
600.989211977023
 31
0.0
  0
LINE
  5
2952
330
1D
100
AcDbEntity
  8
0
100
AcDbLine
 10
373.64022110938
 20
600.989211977023
 30
0.0
 11
374.024370114111
 21
601.177159927701
 31
0.0
  0
LINE
  5
2953
330
1D
100
AcDbEntity
  8
0
100
AcDbLine
 10
371.625043945474
 20
602.106844657322
 30
0.0
 11
372.149975123627
 21
601.197465337015
 31
0.0
  0
LINE
  5
2954
330
1D
100
AcDbEntity
  8
0
100
AcDbLine
 10
373.301578265361
 20
600.261125674313
 30
0.0
 11
376.228670279332
 21
594.967773018222
 31
0.0
  0
LINE
  5
2955
330
1D
100
AcDbEntity
  8
0
100
AcDbLine
 10
372.854561079798
 20
601.084165187983
 30
0.0
 11
373.301578265361
 21
600.261125674313
 31
0.0
  0
LINE
  5
2956
330
1D
100
AcDbEntity
  8
0
100
AcDbLine
 10
372.149975123627
 20
601.197465337015
 30
0.0
 11
372.374701328447
 21
600.807060133582
 31
0.0
  0
LINE
  5
2957
330
1D
100
AcDbEntity
  8
0
100
AcDbLine
 10
372.374701328447
 20
600.807060133582
 30
0.0
 11
373.952577055669
 21
601.718237489045
 31
0.0
  0
LINE
  5
2958
330
1D
100
AcDbEntity
  8
0
100
AcDbLine
 10
370.85358686985
 20
599.651631016828
 30
0.0
 11
371.00137514386
 21
598.99019497603
 31
0.0
  0
LINE
  5
2959
330
1D
100
AcDbEntity
  8
0
100
AcDbLine
 10
374.243943689309
 20
597.045916902282
 30
0.0
 11
374.971585265002
 21
595.923349742899
 31
0.0
  0
LINE
  5
295A
330
1D
100
AcDbEntity
  8
0
100
AcDbLine
 10
373.823476060486
 20
597.495860202167
 30
0.0
 11
374.243943689309
 21
597.045916902282
 31
0.0
  0
LINE
  5
295B
330
1D
100
AcDbEntity
  8
0
100
AcDbLine
 10
373.502986268095
 20
597.688065568829
 30
0.0
 11
373.823476060486
 21
597.495860202167
 31
0.0
  0
LINE
  5
295C
330
1D
100
AcDbEntity
  8
0
100
AcDbLine
 10
373.343889450446
 20
597.577831986768
 30
0.0
 11
373.447597839822
 21
596.962236689537
 31
0.0
  0
LINE
  5
295D
330
1D
100
AcDbEntity
  8
0
100
AcDbLine
 10
373.343889450446
 20
597.577831986768
 30
0.0
 11
373.502986268095
 21
597.688065568829
 31
0.0
  0
LINE
  5
295E
330
1D
100
AcDbEntity
  8
0
100
AcDbLine
 10
373.447597839822
 20
596.962236689537
 30
0.0
 11
373.489170809659
 21
596.867400020229
 31
0.0
  0
LINE
  5
295F
330
1D
100
AcDbEntity
  8
0
100
AcDbLine
 10
373.489170809659
 20
596.867400020229
 30
0.0
 11
373.628135974671
 21
596.947624543791
 31
0.0
  0
LINE
  5
2960
330
1D
100
AcDbEntity
  8
0
100
AcDbLine
 10
375.047996325516
 20
594.302770279766
 30
0.0
 11
375.525707298176
 21
594.136040935684
 31
0.0
  0
LINE
  5
2961
330
1D
100
AcDbEntity
  8
0
100
AcDbLine
 10
375.535307230104
 20
594.560346310746
 30
0.0
 11
375.525707298176
 21
594.136040935684
 31
0.0
  0
LINE
  5
2962
330
1D
100
AcDbEntity
  8
0
100
AcDbLine
 10
375.31206648827
 20
595.207741870806
 30
0.0
 11
375.535307230104
 21
594.560346310746
 31
0.0
  0
LINE
  5
2963
330
1D
100
AcDbEntity
  8
0
100
AcDbLine
 10
374.559192243359
 20
594.020573931055
 30
0.0
 11
375.905232706503
 21
591.334268019397
 31
0.0
  0
LINE
  5
2964
330
1D
100
AcDbEntity
  8
0
100
AcDbLine
 10
374.971585265002
 20
595.923349742899
 30
0.0
 11
375.31206648827
 21
595.207741870806
 31
0.0
  0
LINE
  5
2965
330
1D
100
AcDbEntity
  8
0
100
AcDbLine
 10
373.3953971269
 20
595.080614693606
 30
0.0
 11
373.920328305053
 21
594.171235373299
 31
0.0
  0
LINE
  5
2966
330
1D
100
AcDbEntity
  8
0
100
AcDbLine
 10
372.870371979484
 20
595.990028215928
 30
0.0
 11
373.3953971269
 21
595.080614693606
 31
0.0
  0
LINE
  5
2967
330
1D
100
AcDbEntity
  8
0
100
AcDbLine
 10
372.645645774664
 20
596.38043341936
 30
0.0
 11
374.087811064808
 21
597.212994754349
 31
0.0
  0
LINE
  5
2968
330
1D
100
AcDbEntity
  8
0
100
AcDbLine
 10
372.645645774664
 20
596.38043341936
 30
0.0
 11
372.870371979484
 21
595.990028215928
 31
0.0
  0
LINE
  5
2969
330
1D
100
AcDbEntity
  8
0
100
AcDbLine
 10
373.920328305053
 20
594.171235373299
 30
0.0
 11
374.145490499279
 21
593.781735660473
 31
0.0
  0
LINE
  5
296A
330
1D
100
AcDbEntity
  8
0
100
AcDbLine
 10
372.382793288969
 20
597.826545493428
 30
0.0
 11
373.024968955701
 21
596.599416511074
 31
0.0
  0
LINE
  5
296B
330
1D
100
AcDbEntity
  8
0
100
AcDbLine
 10
371.852616030251
 20
595.547429269025
 30
0.0
 11
372.418591159845
 21
594.263419085
 31
0.0
  0
LINE
  5
296C
330
1D
100
AcDbEntity
  8
0
100
AcDbLine
 10
374.471089776068
 20
591.678535669756
 30
0.0
 11
374.797712517887
 21
591.249978982109
 31
0.0
  0
LINE
  5
296D
330
1D
100
AcDbEntity
  8
0
100
AcDbLine
 10
374.497809029253
 20
591.643477747648
 30
0.0
 11
374.554747770504
 21
591.568118000255
 31
0.0
  0
LINE
  5
296E
330
1D
100
AcDbEntity
  8
0
100
AcDbLine
 10
373.135743280998
 20
586.946898427943
 30
0.0
 11
374.850110346605
 21
587.93663673809
 31
0.0
  0
LINE
  5
296F
330
1D
100
AcDbEntity
  8
0
100
AcDbLine
 10
373.135743280998
 20
586.946898427943
 30
0.0
 11
374.288053511947
 21
587.612150113899
 31
0.0
  0
LINE
  5
2970
330
1D
100
AcDbEntity
  8
0
100
AcDbLine
 10
373.135743280998
 20
586.946898427943
 30
0.0
 11
373.360469485819
 21
586.556493224511
 31
0.0
  0
LINE
  5
2971
330
1D
100
AcDbEntity
  8
0
100
AcDbLine
 10
374.019226175423
 20
589.526285559659
 30
0.0
 11
374.544157353576
 21
588.616906239351
 31
0.0
  0
LINE
  5
2972
330
1D
100
AcDbEntity
  8
0
100
AcDbLine
 10
373.494201028008
 20
590.43569908198
 30
0.0
 11
374.019226175423
 21
589.526285559659
 31
0.0
  0
LINE
  5
2973
330
1D
100
AcDbEntity
  8
0
100
AcDbLine
 10
372.586127733234
 20
590.602327354849
 30
0.0
 11
372.659819687235
 21
590.527617677326
 31
0.0
  0
LINE
  5
2974
330
1D
100
AcDbEntity
  8
0
100
AcDbLine
 10
373.930539828825
 20
592.062575048642
 30
0.0
 11
374.471089776068
 21
591.678535669756
 31
0.0
  0
LINE
  5
2975
330
1D
100
AcDbEntity
  8
0
100
AcDbLine
 10
373.930539828825
 20
592.062575048642
 30
0.0
 11
374.151838611785
 21
591.335510504524
 31
0.0
  0
LINE
  5
2976
330
1D
100
AcDbEntity
  8
0
100
AcDbLine
 10
374.145490499279
 20
593.781735660473
 30
0.0
 11
375.528474854547
 21
594.580160120557
 31
0.0
  0
LINE
  5
2977
330
1D
100
AcDbEntity
  8
0
100
AcDbLine
 10
373.269474823187
 20
590.826104285413
 30
0.0
 11
374.555092481582
 21
591.568317008838
 31
0.0
  0
LINE
  5
2978
330
1D
100
AcDbEntity
  8
0
100
AcDbLine
 10
373.269474823187
 20
590.826104285413
 30
0.0
 11
373.494201028008
 21
590.43569908198
 31
0.0
  0
LINE
  5
2979
330
1D
100
AcDbEntity
  8
0
100
AcDbLine
 10
373.033859709595
 20
591.926022590673
 30
0.0
 11
372.93917417504
 21
591.182571355187
 31
0.0
  0
LINE
  5
297A
330
1D
100
AcDbEntity
  8
0
100
AcDbLine
 10
372.753858670448
 20
590.700904952209
 30
0.0
 11
372.93917417504
 21
591.182571355187
 31
0.0
  0
LINE
  5
297B
330
1D
100
AcDbEntity
  8
0
100
AcDbLine
 10
372.261971087061
 20
590.73095250302
 30
0.0
 11
372.354840371979
 21
590.646070314554
 31
0.0
  0
LINE
  5
297C
330
1D
100
AcDbEntity
  8
0
100
AcDbLine
 10
372.906524185872
 20
592.817326082419
 30
0.0
 11
373.033859709595
 21
591.926022590673
 31
0.0
  0
LINE
  5
297D
330
1D
100
AcDbEntity
  8
0
100
AcDbLine
 10
372.418591159845
 20
594.263419085
 30
0.0
 11
372.906524185872
 21
592.817326082419
 31
0.0
  0
LINE
  5
297E
330
1D
100
AcDbEntity
  8
0
100
AcDbLine
 10
372.659819687235
 20
590.527617677326
 30
0.0
 11
374.27588097589
 21
587.633346238551
 31
0.0
  0
LINE
  5
297F
330
1D
100
AcDbEntity
  8
0
100
AcDbLine
 10
372.659819687235
 20
590.527617677326
 30
0.0
 11
372.753858670448
 21
590.700904952209
 31
0.0
  0
LINE
  5
2980
330
1D
100
AcDbEntity
  8
0
100
AcDbLine
 10
372.47267712736
 20
590.629785687404
 30
0.0
 11
372.586127733234
 21
590.602327354849
 31
0.0
  0
LINE
  5
2981
330
1D
100
AcDbEntity
  8
0
100
AcDbLine
 10
372.354840371979
 20
590.646070314554
 30
0.0
 11
372.461382161911
 21
590.628575829762
 31
0.0
  0
LINE
  5
2982
330
1D
100
AcDbEntity
  8
0
100
AcDbLine
 10
370.345417500303
 20
598.211590082738
 30
0.0
 11
371.137223446852
 21
596.989397165824
 31
0.0
  0
LINE
  5
2983
330
1D
100
AcDbEntity
  8
0
100
AcDbLine
 10
370.716244139936
 20
598.882202797603
 30
0.0
 11
371.00137514386
 21
598.99019497603
 31
0.0
  0
LINE
  5
2984
330
1D
100
AcDbEntity
  8
0
100
AcDbLine
 10
370.363289667905
 20
599.282985758836
 30
0.0
 11
370.716244139936
 21
598.882202797603
 31
0.0
  0
LINE
  5
2985
330
1D
100
AcDbEntity
  8
0
100
AcDbLine
 10
370.003156278039
 20
594.860558375079
 30
0.0
 11
372.261971087061
 21
590.73095250302
 31
0.0
  0
LINE
  5
2986
330
1D
100
AcDbEntity
  8
0
100
AcDbLine
 10
371.13722344685
 20
596.989397165828
 30
0.0
 11
371.852616030251
 21
595.547429269025
 31
0.0
  0
LINE
  5
2987
330
1D
100
AcDbEntity
  8
0
100
AcDbLine
 10
370.338486130705
 20
595.218452465435
 30
0.0
 11
370.419564257938
 21
595.419869017099
 31
0.0
  0
LINE
  5
2988
330
1D
100
AcDbEntity
  8
0
100
AcDbLine
 10
369.913152806814
 20
595.740402466476
 30
0.0
 11
370.338486130705
 21
595.218452465435
 31
0.0
  0
LINE
  5
2989
330
1D
100
AcDbEntity
  8
0
100
AcDbLine
 10
370.182864460564
 20
596.173260161142
 30
0.0
 11
370.419564257938
 21
595.419869017099
 31
0.0
  0
LINE
  5
298A
330
1D
100
AcDbEntity
  8
0
100
AcDbLine
 10
369.947347491113
 20
594.969197867446
 30
0.0
 11
370.003156278039
 21
594.860558375079
 31
0.0
  0
LINE
  5
298B
330
1D
100
AcDbEntity
  8
0
100
AcDbLine
 10
369.814651989919
 20
595.230789401222
 30
0.0
 11
369.947347491113
 21
594.969197867446
 31
0.0
  0
LINE
  5
298C
330
1D
100
AcDbEntity
  8
0
100
AcDbLine
 10
386.601840928827
 20
578.406151730544
 30
0.0
 11
387.111220171488
 21
577.57479694037
 31
0.0
  0
LINE
  5
298D
330
1D
100
AcDbEntity
  8
0
100
AcDbLine
 10
378.03737679762
 20
581.107268237706
 30
0.0
 11
378.346663496025
 21
580.993632907859
 31
0.0
  0
LINE
  5
298E
330
1D
100
AcDbEntity
  8
0
100
AcDbLine
 10
378.346663496025
 20
580.993632907859
 30
0.0
 11
378.410125860331
 21
581.140802939852
 31
0.0
  0
LINE
  5
298F
330
1D
100
AcDbEntity
  8
0
100
AcDbLine
 10
378.346663496025
 20
580.993632907859
 30
0.0
 11
380.452023996804
 21
577.389234809408
 31
0.0
  0
LINE
  5
2990
330
1D
100
AcDbEntity
  8
0
100
AcDbLine
 10
387.266744443791
 20
576.993648164146
 30
0.0
 11
387.357012927428
 21
576.65634120865
 31
0.0
  0
LINE
  5
2991
330
1D
100
AcDbEntity
  8
0
100
AcDbLine
 10
387.111220171488
 20
577.57479694037
 30
0.0
 11
387.357012927428
 21
576.65634120865
 31
0.0
  0
LINE
  5
2992
330
1D
100
AcDbEntity
  8
0
100
AcDbLine
 10
380.491993546329
 20
580.049977427684
 30
0.0
 11
380.756742310839
 21
579.819530358511
 31
0.0
  0
LINE
  5
2993
330
1D
100
AcDbEntity
  8
0
100
AcDbLine
 10
384.156642084306
 20
578.661881374416
 30
0.0
 11
385.66218085951
 21
579.531089701593
 31
0.0
  0
LINE
  5
2994
330
1D
100
AcDbEntity
  8
0
100
AcDbLine
 10
384.156642084306
 20
578.661881374416
 30
0.0
 11
384.38171030927
 21
578.272415863605
 31
0.0
  0
LINE
  5
2995
330
1D
100
AcDbEntity
  8
0
100
AcDbLine
 10
384.28919218019
 20
577.86764846646
 30
0.0
 11
384.608522989458
 21
576.294562186482
 31
0.0
  0
LINE
  5
2996
330
1D
100
AcDbEntity
  8
0
100
AcDbLine
 10
380.397526175163
 20
579.872589362174
 30
0.0
 11
380.491993546329
 21
580.049977427684
 31
0.0
  0
LINE
  5
2997
330
1D
100
AcDbEntity
  8
0
100
AcDbLine
 10
380.397526175163
 20
579.872589362174
 30
0.0
 11
380.61435964876
 21
579.363795427504
 31
0.0
  0
LINE
  5
2998
330
1D
100
AcDbEntity
  8
0
100
AcDbLine
 10
380.756742310839
 20
579.819530358511
 30
0.0
 11
381.120118086677
 21
579.386110082642
 31
0.0
  0
LINE
  5
2999
330
1D
100
AcDbEntity
  8
0
100
AcDbLine
 10
381.120118086677
 20
579.386110082642
 30
0.0
 11
381.912693121732
 21
578.213304632532
 31
0.0
  0
LINE
  5
299A
330
1D
100
AcDbEntity
  8
0
100
AcDbLine
 10
384.38171030927
 20
578.272415863605
 30
0.0
 11
384.906641487423
 21
577.363036543297
 31
0.0
  0
LINE
  5
299B
330
1D
100
AcDbEntity
  8
0
100
AcDbLine
 10
380.61435964876
 20
579.363795427504
 30
0.0
 11
380.967739063023
 21
579.567861764675
 31
0.0
  0
LINE
  5
299C
330
1D
100
AcDbEntity
  8
0
100
AcDbLine
 10
393.26976145457
 20
571.945993377037
 30
0.0
 11
393.579213151431
 21
572.276060123787
 31
0.0
  0
LINE
  5
299D
330
1D
100
AcDbEntity
  8
0
100
AcDbLine
 10
424.029536183994
 20
562.44665033212
 30
0.0
 11
424.162482118985
 21
561.893841704863
 31
0.0
  0
LINE
  5
299E
330
1D
100
AcDbEntity
  8
0
100
AcDbLine
 10
424.162482118985
 20
561.893841704863
 30
0.0
 11
424.099519443245
 21
561.326139580978
 31
0.0
  0
LINE
  5
299F
330
1D
100
AcDbEntity
  8
0
100
AcDbLine
 10
424.099519443245
 20
561.326139580978
 30
0.0
 11
423.857034244761
 21
560.104394137558
 31
0.0
  0
LINE
  5
29A0
330
1D
100
AcDbEntity
  8
0
100
AcDbLine
 10
392.701267287917
 20
572.16585835148
 30
0.0
 11
393.26976145457
 21
571.945993377037
 31
0.0
  0
LINE
  5
29A1
330
1D
100
AcDbEntity
  8
0
100
AcDbLine
 10
392.683859765606
 20
574.002400053955
 30
0.0
 11
393.109826716678
 21
573.398277742999
 31
0.0
  0
LINE
  5
29A2
330
1D
100
AcDbEntity
  8
0
100
AcDbLine
 10
393.379638160001
 20
572.894622677451
 30
0.0
 11
393.579213151431
 21
572.276060123787
 31
0.0
  0
LINE
  5
29A3
330
1D
100
AcDbEntity
  8
0
100
AcDbLine
 10
393.109826716678
 20
573.398277742999
 30
0.0
 11
393.379638160001
 21
572.894622677451
 31
0.0
  0
LINE
  5
29A4
330
1D
100
AcDbEntity
  8
0
100
AcDbLine
 10
392.148147793493
 20
572.365933319513
 30
0.0
 11
392.373216018457
 21
571.976467808701
 31
0.0
  0
LINE
  5
29A5
330
1D
100
AcDbEntity
  8
0
100
AcDbLine
 10
392.373216018457
 20
571.976467808701
 30
0.0
 11
393.471330584827
 21
572.610431256244
 31
0.0
  0
LINE
  5
29A6
330
1D
100
AcDbEntity
  8
0
100
AcDbLine
 10
423.857034244761
 20
560.104394137558
 30
0.0
 11
423.778124765108
 21
558.478318403153
 31
0.0
  0
LINE
  5
29A7
330
1D
100
AcDbEntity
  8
0
100
AcDbLine
 10
423.778124765108
 20
558.478318403153
 30
0.0
 11
424.544304547702
 21
551.496195979367
 31
0.0
  0
LINE
  5
29A8
330
1D
100
AcDbEntity
  8
0
100
AcDbLine
 10
391.762401085123
 20
572.902207770687
 30
0.0
 11
391.907656657482
 21
572.782496015916
 31
0.0
  0
LINE
  5
29A9
330
1D
100
AcDbEntity
  8
0
100
AcDbLine
 10
390.679659840369
 20
574.768051214524
 30
0.0
 11
391.120339996235
 21
573.820165203325
 31
0.0
  0
LINE
  5
29AA
330
1D
100
AcDbEntity
  8
0
100
AcDbLine
 10
392.139902676801
 20
574.595194196586
 30
0.0
 11
392.683859765606
 21
574.002400053955
 31
0.0
  0
LINE
  5
29AB
330
1D
100
AcDbEntity
  8
0
100
AcDbLine
 10
391.535947635309
 20
575.084252830961
 30
0.0
 11
392.139902676801
 21
574.595194196586
 31
0.0
  0
LINE
  5
29AC
330
1D
100
AcDbEntity
  8
0
100
AcDbLine
 10
391.090053787495
 20
575.329550785461
 30
0.0
 11
391.535947635309
 21
575.084252830961
 31
0.0
  0
LINE
  5
29AD
330
1D
100
AcDbEntity
  8
0
100
AcDbLine
 10
391.120339996235
 20
573.820165203325
 30
0.0
 11
391.762401085123
 21
572.902207770687
 31
0.0
  0
LINE
  5
29AE
330
1D
100
AcDbEntity
  8
0
100
AcDbLine
 10
391.623122646078
 20
573.275346841835
 30
0.0
 11
392.148147793493
 21
572.365933319513
 31
0.0
  0
LINE
  5
29AF
330
1D
100
AcDbEntity
  8
0
100
AcDbLine
 10
390.873123242961
 20
574.574191672953
 30
0.0
 11
391.098191467924
 21
574.184726162142
 31
0.0
  0
LINE
  5
29B0
330
1D
100
AcDbEntity
  8
0
100
AcDbLine
 10
390.873123242961
 20
574.574191672953
 30
0.0
 11
391.627794837253
 21
575.009878640719
 31
0.0
  0
LINE
  5
29B1
330
1D
100
AcDbEntity
  8
0
100
AcDbLine
 10
390.873123242961
 20
574.574191672953
 30
0.0
 11
390.940782337719
 21
574.457112134492
 31
0.0
  0
LINE
  5
29B2
330
1D
100
AcDbEntity
  8
0
100
AcDbLine
 10
391.098191467924
 20
574.184726162142
 30
0.0
 11
391.623122646078
 21
573.275346841835
 31
0.0
  0
LINE
  5
29B3
330
1D
100
AcDbEntity
  8
0
100
AcDbLine
 10
390.691512936789
 20
575.271349837714
 30
0.0
 11
390.679659840369
 21
574.768051214524
 31
0.0
  0
LINE
  5
29B4
330
1D
100
AcDbEntity
  8
0
100
AcDbLine
 10
390.691512936789
 20
575.271349837714
 30
0.0
 11
391.090053787495
 21
575.329550785461
 31
0.0
  0
LINE
  5
29B5
330
1D
100
AcDbEntity
  8
0
100
AcDbLine
 10
387.117188258171
 20
576.460558962224
 30
0.0
 11
387.357012927428
 21
576.65634120865
 31
0.0
  0
LINE
  5
29B6
330
1D
100
AcDbEntity
  8
0
100
AcDbLine
 10
386.764562313525
 20
576.703728401356
 30
0.0
 11
387.117188258171
 21
576.460558962224
 31
0.0
  0
LINE
  5
29B7
330
1D
100
AcDbEntity
  8
0
100
AcDbLine
 10
386.636414990308
 20
573.068422227818
 30
0.0
 11
386.939407146686
 21
572.903869035284
 31
0.0
  0
LINE
  5
29B8
330
1D
100
AcDbEntity
  8
0
100
AcDbLine
 10
386.565542385589
 20
572.273736683782
 30
0.0
 11
386.700136279462
 21
572.008175699574
 31
0.0
  0
LINE
  5
29B9
330
1D
100
AcDbEntity
  8
0
100
AcDbLine
 10
388.030823043913
 20
571.77234347248
 30
0.0
 11
388.654233309459
 21
570.853725139976
 31
0.0
  0
LINE
  5
29BA
330
1D
100
AcDbEntity
  8
0
100
AcDbLine
 10
386.939407146686
 20
572.903869035284
 30
0.0
 11
388.030823043913
 21
571.77234347248
 31
0.0
  0
LINE
  5
29BB
330
1D
100
AcDbEntity
  8
0
100
AcDbLine
 10
386.4262106459
 20
572.958699242113
 30
0.0
 11
386.636414990308
 21
573.068422227818
 31
0.0
  0
LINE
  5
29BC
330
1D
100
AcDbEntity
  8
0
100
AcDbLine
 10
386.4262106459
 20
572.958699242113
 30
0.0
 11
386.565542385589
 21
572.273736683782
 31
0.0
  0
LINE
  5
29BD
330
1D
100
AcDbEntity
  8
0
100
AcDbLine
 10
388.654233309459
 20
570.853725139976
 30
0.0
 11
389.130307373519
 21
569.985540265925
 31
0.0
  0
LINE
  5
29BE
330
1D
100
AcDbEntity
  8
0
100
AcDbLine
 10
389.130307373519
 20
569.985540265925
 30
0.0
 11
389.332510752459
 21
569.327710657634
 31
0.0
  0
LINE
  5
29BF
330
1D
100
AcDbEntity
  8
0
100
AcDbLine
 10
387.444026168454
 20
570.705714208419
 30
0.0
 11
387.968957346607
 21
569.796334888112
 31
0.0
  0
LINE
  5
29C0
330
1D
100
AcDbEntity
  8
0
100
AcDbLine
 10
387.444026168454
 20
570.705714208419
 30
0.0
 11
387.486833502354
 21
570.631555717123
 31
0.0
  0
LINE
  5
29C1
330
1D
100
AcDbEntity
  8
0
100
AcDbLine
 10
384.593013869422
 20
572.026469110272
 30
0.0
 11
384.372433681336
 21
571.410781469805
 31
0.0
  0
LINE
  5
29C2
330
1D
100
AcDbEntity
  8
0
100
AcDbLine
 10
385.431666634839
 20
576.453623020976
 30
0.0
 11
385.656734859803
 21
576.064157510164
 31
0.0
  0
LINE
  5
29C3
330
1D
100
AcDbEntity
  8
0
100
AcDbLine
 10
385.656734859803
 20
576.064157510164
 30
0.0
 11
387.266744443791
 21
576.993648164146
 31
0.0
  0
LINE
  5
29C4
330
1D
100
AcDbEntity
  8
0
100
AcDbLine
 10
384.824083334905
 20
574.98165842098
 30
0.0
 11
384.851560029323
 21
573.824474083347
 31
0.0
  0
LINE
  5
29C5
330
1D
100
AcDbEntity
  8
0
100
AcDbLine
 10
384.608522989458
 20
576.294562186482
 30
0.0
 11
384.824083334905
 21
574.98165842098
 31
0.0
  0
LINE
  5
29C6
330
1D
100
AcDbEntity
  8
0
100
AcDbLine
 10
384.906641487423
 20
577.363036543297
 30
0.0
 11
385.431666634839
 21
576.453623020976
 31
0.0
  0
LINE
  5
29C7
330
1D
100
AcDbEntity
  8
0
100
AcDbLine
 10
384.851560029323
 20
573.824474083347
 30
0.0
 11
384.761030638599
 21
572.833685069774
 31
0.0
  0
LINE
  5
29C8
330
1D
100
AcDbEntity
  8
0
100
AcDbLine
 10
384.245631184764
 20
571.328168293718
 30
0.0
 11
384.330513082405
 21
571.24619327647
 31
0.0
  0
LINE
  5
29C9
330
1D
100
AcDbEntity
  8
0
100
AcDbLine
 10
384.372433681336
 20
571.410781469805
 30
0.0
 11
384.330513082405
 21
571.24619327647
 31
0.0
  0
LINE
  5
29CA
330
1D
100
AcDbEntity
  8
0
100
AcDbLine
 10
384.129425763744
 20
571.342794985945
 30
0.0
 11
384.245631184764
 21
571.328168293718
 31
0.0
  0
LINE
  5
29CB
330
1D
100
AcDbEntity
  8
0
100
AcDbLine
 10
383.927116844675
 20
571.439841321608
 30
0.0
 11
384.01950868183
 21
571.358325443233
 31
0.0
  0
LINE
  5
29CC
330
1D
100
AcDbEntity
  8
0
100
AcDbLine
 10
393.536334863713
 20
567.791258744412
 30
0.0
 11
394.340042954961
 21
567.345491322922
 31
0.0
  0
LINE
  5
29CD
330
1D
100
AcDbEntity
  8
0
100
AcDbLine
 10
394.340042954961
 20
567.345491322922
 30
0.0
 11
395.070900056415
 21
566.726174072029
 31
0.0
  0
LINE
  5
29CE
330
1D
100
AcDbEntity
  8
0
100
AcDbLine
 10
395.070900056415
 20
566.726174072029
 30
0.0
 11
395.885186050896
 21
565.820024344229
 31
0.0
  0
LINE
  5
29CF
330
1D
100
AcDbEntity
  8
0
100
AcDbLine
 10
396.381214056889
 20
564.99672154011
 30
0.0
 11
396.56512999322
 21
564.527522415682
 31
0.0
  0
LINE
  5
29D0
330
1D
100
AcDbEntity
  8
0
100
AcDbLine
 10
395.885186050896
 20
565.820024344229
 30
0.0
 11
396.381214056889
 21
564.99672154011
 31
0.0
  0
LINE
  5
29D1
330
1D
100
AcDbEntity
  8
0
100
AcDbLine
 10
393.360918341564
 20
566.587513267395
 30
0.0
 11
393.387430650001
 21
566.541097606288
 31
0.0
  0
LINE
  5
29D2
330
1D
100
AcDbEntity
  8
0
100
AcDbLine
 10
393.450482057183
 20
566.058099863752
 30
0.0
 11
393.975507204598
 21
565.14868634143
 31
0.0
  0
LINE
  5
29D3
330
1D
100
AcDbEntity
  8
0
100
AcDbLine
 10
393.225413832219
 20
566.447565374563
 30
0.0
 11
394.518644677334
 21
567.194146925386
 31
0.0
  0
LINE
  5
29D4
330
1D
100
AcDbEntity
  8
0
100
AcDbLine
 10
393.225413832219
 20
566.447565374563
 30
0.0
 11
393.450482057183
 21
566.058099863752
 31
0.0
  0
LINE
  5
29D5
330
1D
100
AcDbEntity
  8
0
100
AcDbLine
 10
396.56512999322
 20
564.527522415682
 30
0.0
 11
396.625644980413
 21
563.979792942014
 31
0.0
  0
LINE
  5
29D6
330
1D
100
AcDbEntity
  8
0
100
AcDbLine
 10
396.31663337808
 20
563.780459879971
 30
0.0
 11
396.625644980413
 21
563.979792942014
 31
0.0
  0
LINE
  5
29D7
330
1D
100
AcDbEntity
  8
0
100
AcDbLine
 10
395.307615605475
 20
564.185816195974
 30
0.0
 11
395.894232590288
 21
563.845874438542
 31
0.0
  0
LINE
  5
29D8
330
1D
100
AcDbEntity
  8
0
100
AcDbLine
 10
393.975507204598
 20
565.14868634143
 30
0.0
 11
394.500438382752
 21
564.239307021123
 31
0.0
  0
LINE
  5
29D9
330
1D
100
AcDbEntity
  8
0
100
AcDbLine
 10
395.894232590288
 20
563.845874438542
 30
0.0
 11
396.31663337808
 21
563.780459879971
 31
0.0
  0
LINE
  5
29DA
330
1D
100
AcDbEntity
  8
0
100
AcDbLine
 10
394.500438382752
 20
564.239307021123
 30
0.0
 11
394.725600576977
 21
563.849807308297
 31
0.0
  0
LINE
  5
29DB
330
1D
100
AcDbEntity
  8
0
100
AcDbLine
 10
393.10580095298
 20
567.684044185187
 30
0.0
 11
393.536334863713
 21
567.791258744412
 31
0.0
  0
LINE
  5
29DC
330
1D
100
AcDbEntity
  8
0
100
AcDbLine
 10
393.10580095298
 20
567.684044185187
 30
0.0
 11
393.177953670268
 21
566.967131369436
 31
0.0
  0
LINE
  5
29DD
330
1D
100
AcDbEntity
  8
0
100
AcDbLine
 10
393.177953670268
 20
566.967131369436
 30
0.0
 11
393.384190779774
 21
566.539227230749
 31
0.0
  0
LINE
  5
29DE
330
1D
100
AcDbEntity
  8
0
100
AcDbLine
 10
424.544304547702
 20
551.496195979367
 30
0.0
 11
425.526478407121
 21
546.00512035524
 31
0.0
  0
LINE
  5
29DF
330
1D
100
AcDbEntity
  8
0
100
AcDbLine
 10
394.951213379241
 20
560.902924400299
 30
0.0
 11
395.487447778326
 21
560.109683132311
 31
0.0
  0
LINE
  5
29E0
330
1D
100
AcDbEntity
  8
0
100
AcDbLine
 10
393.093842229762
 20
562.476054074891
 30
0.0
 11
393.041055098572
 21
562.169628621019
 31
0.0
  0
LINE
  5
29E1
330
1D
100
AcDbEntity
  8
0
100
AcDbLine
 10
393.093842229762
 20
562.476054074891
 30
0.0
 11
393.626302474511
 21
562.269484261602
 31
0.0
  0
LINE
  5
29E2
330
1D
100
AcDbEntity
  8
0
100
AcDbLine
 10
394.725600576977
 20
563.849807308297
 30
0.0
 11
396.442296593441
 21
564.840890168237
 31
0.0
  0
LINE
  5
29E3
330
1D
100
AcDbEntity
  8
0
100
AcDbLine
 10
393.626302474511
 20
562.269484261602
 30
0.0
 11
394.293614249708
 21
561.656268773634
 31
0.0
  0
LINE
  5
29E4
330
1D
100
AcDbEntity
  8
0
100
AcDbLine
 10
394.293614249708
 20
561.656268773634
 30
0.0
 11
394.951213379241
 21
560.902924400299
 31
0.0
  0
LINE
  5
29E5
330
1D
100
AcDbEntity
  8
0
100
AcDbLine
 10
393.156136475251
 20
561.732932471801
 30
0.0
 11
393.271554343349
 21
561.464540887683
 31
0.0
  0
LINE
  5
29E6
330
1D
100
AcDbEntity
  8
0
100
AcDbLine
 10
393.041055098572
 20
562.169628621019
 30
0.0
 11
393.156136475251
 21
561.732932471801
 31
0.0
  0
LINE
  5
29E7
330
1D
100
AcDbEntity
  8
0
100
AcDbLine
 10
395.487447778326
 20
560.109683132311
 30
0.0
 11
395.772715834584
 21
559.436518942771
 31
0.0
  0
LINE
  5
29E8
330
1D
100
AcDbEntity
  8
0
100
AcDbLine
 10
392.684480118141
 20
561.125623217139
 30
0.0
 11
394.027407938212
 21
561.900894807929
 31
0.0
  0
LINE
  5
29E9
330
1D
100
AcDbEntity
  8
0
100
AcDbLine
 10
392.684480118141
 20
561.125623217139
 30
0.0
 11
392.909300292224
 21
560.735183811692
 31
0.0
  0
LINE
  5
29EA
330
1D
100
AcDbEntity
  8
0
100
AcDbLine
 10
392.909300292224
 20
560.735183811692
 30
0.0
 11
393.434231470377
 21
559.825804491385
 31
0.0
  0
LINE
  5
29EB
330
1D
100
AcDbEntity
  8
0
100
AcDbLine
 10
395.772715834584
 20
559.436518942771
 30
0.0
 11
395.86098076137
 21
558.919128072442
 31
0.0
  0
LINE
  5
29EC
330
1D
100
AcDbEntity
  8
0
100
AcDbLine
 10
395.381743818163
 20
558.854116056123
 30
0.0
 11
395.86098076137
 21
558.919128072442
 31
0.0
  0
LINE
  5
29ED
330
1D
100
AcDbEntity
  8
0
100
AcDbLine
 10
395.104459033017
 20
559.058294997843
 30
0.0
 11
395.381743818163
 21
558.854116056123
 31
0.0
  0
LINE
  5
29EE
330
1D
100
AcDbEntity
  8
0
100
AcDbLine
 10
393.434231470377
 20
559.825804491385
 30
0.0
 11
393.959504668674
 21
558.917364863698
 31
0.0
  0
LINE
  5
29EF
330
1D
100
AcDbEntity
  8
0
100
AcDbLine
 10
393.959504668674
 20
558.917364863698
 30
0.0
 11
394.184324842756
 21
558.526925458251
 31
0.0
  0
LINE
  5
29F0
330
1D
100
AcDbEntity
  8
0
100
AcDbLine
 10
392.21588901816
 20
559.874434925546
 30
0.0
 11
392.758093848625
 21
559.307818819332
 31
0.0
  0
LINE
  5
29F1
330
1D
100
AcDbEntity
  8
0
100
AcDbLine
 10
394.397822872996
 20
554.764927099721
 30
0.0
 11
394.481796093917
 21
554.618475951768
 31
0.0
  0
LINE
  5
29F2
330
1D
100
AcDbEntity
  8
0
100
AcDbLine
 10
425.526478407121
 20
546.00512035524
 30
0.0
 11
426.918914870451
 21
539.065360294864
 31
0.0
  0
LINE
  5
29F3
330
1D
100
AcDbEntity
  8
0
100
AcDbLine
 10
392.758093848625
 20
559.307818819332
 30
0.0
 11
393.451518815872
 21
558.360524686131
 31
0.0
  0
LINE
  5
29F4
330
1D
100
AcDbEntity
  8
0
100
AcDbLine
 10
393.986758259604
 20
557.525078441377
 30
0.0
 11
394.766903232322
 21
555.920484277252
 31
0.0
  0
LINE
  5
29F5
330
1D
100
AcDbEntity
  8
0
100
AcDbLine
 10
394.535852959876
 20
555.667235345167
 30
0.0
 11
394.829842021828
 21
555.537884344194
 31
0.0
  0
LINE
  5
29F6
330
1D
100
AcDbEntity
  8
0
100
AcDbLine
 10
394.766903232322
 20
555.920484277252
 30
0.0
 11
394.829842021828
 21
555.537884344194
 31
0.0
  0
LINE
  5
29F7
330
1D
100
AcDbEntity
  8
0
100
AcDbLine
 10
394.161328026324
 20
556.137709182974
 30
0.0
 11
394.535852959876
 21
555.667235345167
 31
0.0
  0
LINE
  5
29F8
330
1D
100
AcDbEntity
  8
0
100
AcDbLine
 10
394.394841323618
 20
554.769312810401
 30
0.0
 11
394.481796093917
 21
554.618475951768
 31
0.0
  0
LINE
  5
29F9
330
1D
100
AcDbEntity
  8
0
100
AcDbLine
 10
393.989041109925
 20
555.473576984249
 30
0.0
 11
394.394841323618
 21
554.769312810401
 31
0.0
  0
LINE
  5
29FA
330
1D
100
AcDbEntity
  8
0
100
AcDbLine
 10
393.741382725729
 20
555.895266382652
 30
0.0
 11
393.989041109925
 21
555.473576984249
 31
0.0
  0
LINE
  5
29FB
330
1D
100
AcDbEntity
  8
0
100
AcDbLine
 10
393.451518815872
 20
558.360524686131
 30
0.0
 11
393.986758259604
 21
557.525078441377
 31
0.0
  0
LINE
  5
29FC
330
1D
100
AcDbEntity
  8
0
100
AcDbLine
 10
392.515075014197
 20
558.797138355526
 30
0.0
 11
392.575932056422
 21
558.686185811219
 31
0.0
  0
LINE
  5
29FD
330
1D
100
AcDbEntity
  8
0
100
AcDbLine
 10
394.184324842756
 20
558.526925458251
 30
0.0
 11
395.770098224082
 21
559.442695875707
 31
0.0
  0
LINE
  5
29FE
330
1D
100
AcDbEntity
  8
0
100
AcDbLine
 10
392.546749063904
 20
555.967667202718
 30
0.0
 11
393.071680242057
 21
555.058287882411
 31
0.0
  0
LINE
  5
29FF
330
1D
100
AcDbEntity
  8
0
100
AcDbLine
 10
393.051030890635
 20
556.016114382507
 30
0.0
 11
393.276099115598
 21
555.626648871695
 31
0.0
  0
LINE
  5
2A00
330
1D
100
AcDbEntity
  8
0
100
AcDbLine
 10
393.276099115598
 20
555.626648871695
 30
0.0
 11
394.551712665643
 21
556.363086023778
 31
0.0
  0
LINE
  5
2A01
330
1D
100
AcDbEntity
  8
0
100
AcDbLine
 10
392.021723916489
 20
556.877080725039
 30
0.0
 11
392.546749063904
 21
555.967667202718
 31
0.0
  0
LINE
  5
2A02
330
1D
100
AcDbEntity
  8
0
100
AcDbLine
 10
392.526005743219
 20
556.925527904828
 30
0.0
 11
393.051030890635
 21
556.016114382507
 31
0.0
  0
LINE
  5
2A03
330
1D
100
AcDbEntity
  8
0
100
AcDbLine
 10
434.132878340824
 20
505.879912063929
 30
0.0
 11
440.57617097097
 21
475.977329828738
 31
0.0
  0
LINE
  5
2A04
330
1D
100
AcDbEntity
  8
0
100
AcDbLine
 10
440.57617097097
 20
475.977329828738
 30
0.0
 11
446.827836127132
 21
446.033606966255
 31
0.0
  0
LINE
  5
2A05
330
1D
100
AcDbEntity
  8
0
100
AcDbLine
 10
426.918914870451
 20
539.065360294864
 30
0.0
 11
434.132878340824
 21
505.879912063929
 31
0.0
  0
LINE
  5
2A06
330
1D
100
AcDbEntity
  8
0
100
AcDbLine
 10
405.744959593526
 20
512.470407617133
 30
0.0
 11
406.17112063307
 21
513.191009572705
 31
0.0
  0
LINE
  5
2A07
330
1D
100
AcDbEntity
  8
0
100
AcDbLine
 10
406.810664080045
 20
514.982107658607
 30
0.0
 11
406.505403780504
 21
513.996422433095
 31
0.0
  0
LINE
  5
2A08
330
1D
100
AcDbEntity
  8
0
100
AcDbLine
 10
407.31067669861
 20
517.815978179462
 30
0.0
 11
407.038628044628
 21
515.831761384385
 31
0.0
  0
LINE
  5
2A09
330
1D
100
AcDbEntity
  8
0
100
AcDbLine
 10
405.372645620602
 20
512.000082415208
 30
0.0
 11
405.744959593526
 21
512.470407617133
 31
0.0
  0
LINE
  5
2A0A
330
1D
100
AcDbEntity
  8
0
100
AcDbLine
 10
405.675636700219
 20
507.543381404856
 30
0.0
 11
407.234147227
 21
499.516137360483
 31
0.0
  0
LINE
  5
2A0B
330
1D
100
AcDbEntity
  8
0
100
AcDbLine
 10
407.234147227
 20
499.516137360483
 30
0.0
 11
413.212500545063
 21
469.099257812371
 31
0.0
  0
LINE
  5
2A0C
330
1D
100
AcDbEntity
  8
0
100
AcDbLine
 10
405.094905085028
 20
511.690186247276
 30
0.0
 11
405.372645620602
 21
512.000082415208
 31
0.0
  0
LINE
  5
2A0D
330
1D
100
AcDbEntity
  8
0
100
AcDbLine
 10
405.002464251394
 20
511.576549755439
 30
0.0
 11
405.675636700219
 21
507.543381404856
 31
0.0
  0
LINE
  5
2A0E
330
1D
100
AcDbEntity
  8
0
100
AcDbLine
 10
405.002464251394
 20
511.576549755439
 30
0.0
 11
405.094905085028
 21
511.690186247276
 31
0.0
  0
LINE
  5
2A0F
330
1D
100
AcDbEntity
  8
0
100
AcDbLine
 10
446.718111559325
 20
444.673724000989
 30
0.0
 11
446.913193655205
 21
445.130764935553
 31
0.0
  0
LINE
  5
2A10
330
1D
100
AcDbEntity
  8
0
100
AcDbLine
 10
446.827836127132
 20
446.033606966255
 30
0.0
 11
446.924740041202
 21
445.405164135571
 31
0.0
  0
LINE
  5
2A11
330
1D
100
AcDbEntity
  8
0
100
AcDbLine
 10
446.924740041202
 20
445.405164135571
 30
0.0
 11
446.913193655205
 21
445.130764935553
 31
0.0
  0
LINE
  5
2A12
330
1D
100
AcDbEntity
  8
0
100
AcDbLine
 10
446.277186838551
 20
444.415453521434
 30
0.0
 11
446.718111559325
 21
444.673724000989
 31
0.0
  0
LINE
  5
2A13
330
1D
100
AcDbEntity
  8
0
100
AcDbLine
 10
413.212500545063
 20
469.099257812371
 30
0.0
 11
419.424222532339
 21
440.209466146578
 31
0.0
  0
LINE
  5
2A14
330
1D
100
AcDbEntity
  8
0
100
AcDbLine
 10
419.424222532339
 20
440.209466146578
 30
0.0
 11
419.959252328098
 21
439.086033926215
 31
0.0
  0
LINE
  5
2A15
330
1D
100
AcDbEntity
  8
0
100
AcDbLine
 10
413.212500545063
 20
469.099257812371
 30
0.0
 11
419.424222532339
 21
440.209466146578
 31
0.0
  0
LINE
  5
2A16
330
1D
100
AcDbEntity
  8
0
100
AcDbLine
 10
419.959252328098
 20
439.086033926215
 30
0.0
 11
420.302575314425
 21
438.962117472669
 31
0.0
  0
LINE
  5
2A17
330
1D
100
AcDbEntity
  8
0
100
AcDbLine
 10
403.110603805817
 20
537.98620098798
 30
0.0
 11
403.449983344473
 21
537.156169314643
 31
0.0
  0
LINE
  5
2A18
330
1D
100
AcDbEntity
  8
0
100
AcDbLine
 10
402.805940764525
 20
538.684728232453
 30
0.0
 11
403.110603805817
 21
537.98620098798
 31
0.0
  0
LINE
  5
2A19
330
1D
100
AcDbEntity
  8
0
100
AcDbLine
 10
398.938523276853
 20
546.346313014732
 30
0.0
 11
400.231147777304
 21
542.83473535208
 31
0.0
  0
LINE
  5
2A1A
330
1D
100
AcDbEntity
  8
0
100
AcDbLine
 10
400.988913116067
 20
540.434193983686
 30
0.0
 11
401.086255582209
 21
540.28051396482
 31
0.0
  0
LINE
  5
2A1B
330
1D
100
AcDbEntity
  8
0
100
AcDbLine
 10
400.470291084412
 20
542.197407980421
 30
0.0
 11
400.589535580799
 21
542.406323082991
 31
0.0
  0
LINE
  5
2A1C
330
1D
100
AcDbEntity
  8
0
100
AcDbLine
 10
400.470291084412
 20
542.197407980421
 30
0.0
 11
400.988913116067
 21
540.434193983686
 31
0.0
  0
LINE
  5
2A1D
330
1D
100
AcDbEntity
  8
0
100
AcDbLine
 10
401.657446838091
 20
540.922809080175
 30
0.0
 11
401.977408860085
 21
540.360461941407
 31
0.0
  0
LINE
  5
2A1E
330
1D
100
AcDbEntity
  8
0
100
AcDbLine
 10
401.465982319047
 20
541.231510793723
 30
0.0
 11
401.589548569096
 21
541.030300063467
 31
0.0
  0
LINE
  5
2A1F
330
1D
100
AcDbEntity
  8
0
100
AcDbLine
 10
400.5738158278
 20
542.478678940193
 30
0.0
 11
400.908450807824
 21
542.063398769632
 31
0.0
  0
LINE
  5
2A20
330
1D
100
AcDbEntity
  8
0
100
AcDbLine
 10
401.076606903915
 20
541.828491395781
 30
0.0
 11
401.323746540448
 21
541.473385807104
 31
0.0
  0
LINE
  5
2A21
330
1D
100
AcDbEntity
  8
0
100
AcDbLine
 10
401.977408860085
 20
540.360461941407
 30
0.0
 11
402.234675402397
 21
539.875845664125
 31
0.0
  0
LINE
  5
2A22
330
1D
100
AcDbEntity
  8
0
100
AcDbLine
 10
400.33551931946
 20
542.729704017765
 30
0.0
 11
400.454720227168
 21
542.604742261904
 31
0.0
  0
LINE
  5
2A23
330
1D
100
AcDbEntity
  8
0
100
AcDbLine
 10
402.504364214288
 20
539.332967072964
 30
0.0
 11
402.805940764525
 21
538.684728232453
 31
0.0
  0
LINE
  5
2A24
330
1D
100
AcDbEntity
  8
0
100
AcDbLine
 10
402.234675402397
 20
539.875845664125
 30
0.0
 11
402.504364214288
 21
539.332967072964
 31
0.0
  0
LINE
  5
2A25
330
1D
100
AcDbEntity
  8
0
100
AcDbLine
 10
401.664968318706
 20
539.368713128399
 30
0.0
 11
402.057481231433
 21
538.599581492499
 31
0.0
  0
LINE
  5
2A26
330
1D
100
AcDbEntity
  8
0
100
AcDbLine
 10
402.057481231433
 20
538.599581492499
 30
0.0
 11
402.58299326218
 21
537.342111045315
 31
0.0
  0
LINE
  5
2A27
330
1D
100
AcDbEntity
  8
0
100
AcDbLine
 10
399.806246550898
 20
539.229753098615
 30
0.0
 11
401.213885237244
 21
540.073609510861
 31
0.0
  0
LINE
  5
2A28
330
1D
100
AcDbEntity
  8
0
100
AcDbLine
 10
399.806246550898
 20
539.229753098615
 30
0.0
 11
399.735905511392
 21
538.998139200253
 31
0.0
  0
LINE
  5
2A29
330
1D
100
AcDbEntity
  8
0
100
AcDbLine
 10
401.078476566454
 20
540.293155838652
 30
0.0
 11
401.205723434576
 21
540.086363758163
 31
0.0
  0
LINE
  5
2A2A
330
1D
100
AcDbEntity
  8
0
100
AcDbLine
 10
401.205723434576
 20
540.086363758163
 30
0.0
 11
401.664968318706
 21
539.368713128399
 31
0.0
  0
LINE
  5
2A2B
330
1D
100
AcDbEntity
  8
0
100
AcDbLine
 10
399.735905511392
 20
538.998139200253
 30
0.0
 11
399.624015820863
 21
538.66300030327
 31
0.0
  0
LINE
  5
2A2C
330
1D
100
AcDbEntity
  8
0
100
AcDbLine
 10
397.339450236394
 20
549.716473767764
 30
0.0
 11
398.938523276853
 21
546.346313014732
 31
0.0
  0
LINE
  5
2A2D
330
1D
100
AcDbEntity
  8
0
100
AcDbLine
 10
397.32106056904
 20
549.790210258964
 30
0.0
 11
397.339450236394
 21
549.716473767764
 31
0.0
  0
LINE
  5
2A2E
330
1D
100
AcDbEntity
  8
0
100
AcDbLine
 10
403.655233236989
 20
514.029671226917
 30
0.0
 11
404.991941962542
 21
514.781029228278
 31
0.0
  0
LINE
  5
2A2F
330
1D
100
AcDbEntity
  8
0
100
AcDbLine
 10
404.674467174419
 20
514.327216888608
 30
0.0
 11
404.808647252679
 21
514.540911990559
 31
0.0
  0
LINE
  5
2A30
330
1D
100
AcDbEntity
  8
0
100
AcDbLine
 10
404.674467174419
 20
514.327216888608
 30
0.0
 11
405.002464251394
 21
511.576549755439
 31
0.0
  0
LINE
  5
2A31
330
1D
100
AcDbEntity
  8
0
100
AcDbLine
 10
407.378009877631
 20
519.819580905305
 30
0.0
 11
407.31067669861
 21
517.815978179462
 31
0.0
  0
LINE
  5
2A32
330
1D
100
AcDbEntity
  8
0
100
AcDbLine
 10
407.219928670789
 20
522.178313581435
 30
0.0
 11
407.328510406964
 21
520.735331394974
 31
0.0
  0
LINE
  5
2A33
330
1D
100
AcDbEntity
  8
0
100
AcDbLine
 10
405.229683566107
 20
515.092472243637
 30
0.0
 11
405.640773596157
 21
515.81260020254
 31
0.0
  0
LINE
  5
2A34
330
1D
100
AcDbEntity
  8
0
100
AcDbLine
 10
405.859205932385
 20
516.532614094413
 30
0.0
 11
405.640773596157
 21
515.81260020254
 31
0.0
  0
LINE
  5
2A35
330
1D
100
AcDbEntity
  8
0
100
AcDbLine
 10
405.988195133414
 20
517.106294341605
 30
0.0
 11
405.859205932385
 21
516.532614094413
 31
0.0
  0
LINE
  5
2A36
330
1D
100
AcDbEntity
  8
0
100
AcDbLine
 10
406.080811214432
 20
517.582183761501
 30
0.0
 11
405.988195133414
 21
517.106294341605
 31
0.0
  0
LINE
  5
2A37
330
1D
100
AcDbEntity
  8
0
100
AcDbLine
 10
404.808647252679
 20
514.540911990559
 30
0.0
 11
405.229683566107
 21
515.092472243637
 31
0.0
  0
LINE
  5
2A38
330
1D
100
AcDbEntity
  8
0
100
AcDbLine
 10
406.189998953357
 20
519.265914395748
 30
0.0
 11
406.117559757813
 21
518.026014975251
 31
0.0
  0
LINE
  5
2A39
330
1D
100
AcDbEntity
  8
0
100
AcDbLine
 10
403.449983344473
 20
537.156169314643
 30
0.0
 11
403.785077968275
 21
536.281618325222
 31
0.0
  0
LINE
  5
2A3A
330
1D
100
AcDbEntity
  8
0
100
AcDbLine
 10
403.785077968275
 20
536.281618325222
 30
0.0
 11
404.113514260877
 21
535.368307090372
 31
0.0
  0
LINE
  5
2A3B
330
1D
100
AcDbEntity
  8
0
100
AcDbLine
 10
399.830813276314
 20
537.804115357263
 30
0.0
 11
402.013413496433
 21
521.880361186374
 31
0.0
  0
LINE
  5
2A3C
330
1D
100
AcDbEntity
  8
0
100
AcDbLine
 10
399.832957414115
 20
537.793287999914
 30
0.0
 11
399.929866687084
 21
537.704594184951
 31
0.0
  0
LINE
  5
2A3D
330
1D
100
AcDbEntity
  8
0
100
AcDbLine
 10
402.58299326218
 20
537.342111045315
 30
0.0
 11
403.043475130568
 21
536.038712415238
 31
0.0
  0
LINE
  5
2A3E
330
1D
100
AcDbEntity
  8
0
100
AcDbLine
 10
399.624015820863
 20
538.66300030327
 30
0.0
 11
399.830813276314
 21
537.804115357263
 31
0.0
  0
LINE
  5
2A3F
330
1D
100
AcDbEntity
  8
0
100
AcDbLine
 10
400.187012569099
 20
537.506179227444
 30
0.0
 11
400.507558059804
 21
537.068234940589
 31
0.0
  0
LINE
  5
2A40
330
1D
100
AcDbEntity
  8
0
100
AcDbLine
 10
399.929866687084
 20
537.704594184951
 30
0.0
 11
400.187012569099
 21
537.506179227444
 31
0.0
  0
LINE
  5
2A41
330
1D
100
AcDbEntity
  8
0
100
AcDbLine
 10
400.890490594221
 20
536.317808019373
 30
0.0
 11
401.084714823272
 21
535.835705054386
 31
0.0
  0
LINE
  5
2A42
330
1D
100
AcDbEntity
  8
0
100
AcDbLine
 10
400.507558059804
 20
537.068234940589
 30
0.0
 11
400.707237301397
 21
536.71631739275
 31
0.0
  0
LINE
  5
2A43
330
1D
100
AcDbEntity
  8
0
100
AcDbLine
 10
400.707237301397
 20
536.71631739275
 30
0.0
 11
400.890490594221
 21
536.317808019373
 31
0.0
  0
LINE
  5
2A44
330
1D
100
AcDbEntity
  8
0
100
AcDbLine
 10
403.043475130568
 20
536.038712415238
 30
0.0
 11
403.61156197506
 21
534.209074610339
 31
0.0
  0
LINE
  5
2A45
330
1D
100
AcDbEntity
  8
0
100
AcDbLine
 10
404.113514260877
 20
535.368307090372
 30
0.0
 11
404.434293797737
 21
534.420217211335
 31
0.0
  0
LINE
  5
2A46
330
1D
100
AcDbEntity
  8
0
100
AcDbLine
 10
405.562591989741
 20
525.377046581522
 30
0.0
 11
406.079887351321
 21
521.54832072572
 31
0.0
  0
LINE
  5
2A47
330
1D
100
AcDbEntity
  8
0
100
AcDbLine
 10
404.184350826413
 20
519.593606155456
 30
0.0
 11
404.183665520397
 21
519.475097033391
 31
0.0
  0
LINE
  5
2A48
330
1D
100
AcDbEntity
  8
0
100
AcDbLine
 10
404.190435969976
 20
519.009863452585
 30
0.0
 11
404.141066060898
 21
518.297061753598
 31
0.0
  0
LINE
  5
2A49
330
1D
100
AcDbEntity
  8
0
100
AcDbLine
 10
406.079887351321
 20
521.54832072572
 30
0.0
 11
406.189998953357
 21
519.265914395748
 31
0.0
  0
LINE
  5
2A4A
330
1D
100
AcDbEntity
  8
0
100
AcDbLine
 10
404.141066060898
 20
518.297061753598
 30
0.0
 11
404.074772775133
 21
517.357364727817
 31
0.0
  0
LINE
  5
2A4B
330
1D
100
AcDbEntity
  8
0
100
AcDbLine
 10
404.176099823627
 20
519.994976276026
 30
0.0
 11
404.190435969976
 21
519.009863452585
 31
0.0
  0
LINE
  5
2A4C
330
1D
100
AcDbEntity
  8
0
100
AcDbLine
 10
404.143960765565
 20
520.609849897957
 30
0.0
 11
404.176099823627
 21
519.994976276026
 31
0.0
  0
LINE
  5
2A4D
330
1D
100
AcDbEntity
  8
0
100
AcDbLine
 10
404.180497109315
 20
519.692815401366
 30
0.0
 11
404.184245335203
 21
519.598737776549
 31
0.0
  0
LINE
  5
2A4E
330
1D
100
AcDbEntity
  8
0
100
AcDbLine
 10
403.278143924315
 20
514.14063532141
 30
0.0
 11
403.655233236989
 21
514.029671226917
 31
0.0
  0
LINE
  5
2A4F
330
1D
100
AcDbEntity
  8
0
100
AcDbLine
 10
404.074772775133
 20
517.357364727817
 30
0.0
 11
403.798269260008
 21
516.345938004755
 31
0.0
  0
LINE
  5
2A50
330
1D
100
AcDbEntity
  8
0
100
AcDbLine
 10
403.473868612481
 20
515.675986543913
 30
0.0
 11
403.798269260008
 21
516.345938004755
 31
0.0
  0
LINE
  5
2A51
330
1D
100
AcDbEntity
  8
0
100
AcDbLine
 10
403.146895429563
 20
514.307487359532
 30
0.0
 11
403.278143924315
 21
514.14063532141
 31
0.0
  0
LINE
  5
2A52
330
1D
100
AcDbEntity
  8
0
100
AcDbLine
 10
403.177675599653
 20
515.226801338066
 30
0.0
 11
403.473868612481
 21
515.675986543913
 31
0.0
  0
LINE
  5
2A53
330
1D
100
AcDbEntity
  8
0
100
AcDbLine
 10
403.009533239128
 20
515.007802144924
 30
0.0
 11
403.146895429563
 21
514.307487359532
 31
0.0
  0
LINE
  5
2A54
330
1D
100
AcDbEntity
  8
0
100
AcDbLine
 10
403.120857389924
 20
515.157239200066
 30
0.0
 11
403.177675599653
 21
515.226801338066
 31
0.0
  0
LINE
  5
2A55
330
1D
100
AcDbEntity
  8
0
100
AcDbLine
 10
403.009533239128
 20
515.007802144924
 30
0.0
 11
403.120857389924
 21
515.157239200066
 31
0.0
  0
LINE
  5
2A56
330
1D
100
AcDbEntity
  8
0
100
AcDbLine
 10
404.015672908149
 20
522.154053820902
 30
0.0
 11
404.143960765565
 21
520.609849897957
 31
0.0
  0
LINE
  5
2A57
330
1D
100
AcDbEntity
  8
0
100
AcDbLine
 10
404.434293797737
 20
534.420217211335
 30
0.0
 11
404.846896260964
 21
533.112748868568
 31
0.0
  0
LINE
  5
2A58
330
1D
100
AcDbEntity
  8
0
100
AcDbLine
 10
403.61156197506
 20
534.209074610339
 30
0.0
 11
404.097136215041
 21
532.38371583534
 31
0.0
  0
LINE
  5
2A59
330
1D
100
AcDbEntity
  8
0
100
AcDbLine
 10
401.084714823272
 20
535.835705054386
 30
0.0
 11
401.379529800329
 21
534.972409288555
 31
0.0
  0
LINE
  5
2A5A
330
1D
100
AcDbEntity
  8
0
100
AcDbLine
 10
404.83072683176
 20
529.184049581328
 30
0.0
 11
405.137419787988
 21
527.69143897886
 31
0.0
  0
LINE
  5
2A5B
330
1D
100
AcDbEntity
  8
0
100
AcDbLine
 10
405.959269288932
 20
528.937815602437
 30
0.0
 11
406.833902844716
 21
524.858777192088
 31
0.0
  0
LINE
  5
2A5C
330
1D
100
AcDbEntity
  8
0
100
AcDbLine
 10
403.812117034151
 20
523.788226714497
 30
0.0
 11
404.015672908149
 21
522.154053820902
 31
0.0
  0
LINE
  5
2A5D
330
1D
100
AcDbEntity
  8
0
100
AcDbLine
 10
405.137419787988
 20
527.69143897886
 30
0.0
 11
405.562591989741
 21
525.377046581522
 31
0.0
  0
LINE
  5
2A5E
330
1D
100
AcDbEntity
  8
0
100
AcDbLine
 10
401.379529800329
 20
534.972409288555
 30
0.0
 11
401.573209258153
 21
534.352267911434
 31
0.0
  0
LINE
  5
2A5F
330
1D
100
AcDbEntity
  8
0
100
AcDbLine
 10
402.013413496433
 20
521.880361186374
 30
0.0
 11
403.009533239128
 21
515.007802144924
 31
0.0
  0
LINE
  5
2A60
330
1D
100
AcDbEntity
  8
0
100
AcDbLine
 10
405.156140474964
 20
532.06812255336
 30
0.0
 11
405.959269288932
 21
528.937815602437
 31
0.0
  0
LINE
  5
2A61
330
1D
100
AcDbEntity
  8
0
100
AcDbLine
 10
404.846896260964
 20
533.112748868568
 30
0.0
 11
405.156140474964
 21
532.068122553359
 31
0.0
  0
LINE
  5
2A62
330
1D
100
AcDbEntity
  8
0
100
AcDbLine
 10
404.516267611561
 20
530.618190233019
 30
0.0
 11
404.83072683176
 21
529.184049581328
 31
0.0
  0
LINE
  5
2A63
330
1D
100
AcDbEntity
  8
0
100
AcDbLine
 10
404.097136215041
 20
532.38371583534
 30
0.0
 11
404.516267611561
 21
530.618190233019
 31
0.0
  0
LINE
  5
2A64
330
1D
100
AcDbEntity
  8
0
100
AcDbLine
 10
394.481796093917
 20
554.618475951768
 30
0.0
 11
396.518627062186
 21
550.936806921735
 31
0.0
  0
LINE
  5
2A65
330
1D
100
AcDbEntity
  8
0
100
AcDbLine
 10
393.071680242057
 20
555.058287882411
 30
0.0
 11
393.296748467021
 21
554.668822371599
 31
0.0
  0
LINE
  5
2A66
330
1D
100
AcDbEntity
  8
0
100
AcDbLine
 10
393.296748467021
 20
554.668822371599
 30
0.0
 11
394.164187109927
 21
555.169612006333
 31
0.0
  0
LINE
  5
2A67
330
1D
100
AcDbEntity
  8
0
100
AcDbLine
 10
396.518627062186
 20
550.936806921735
 30
0.0
 11
397.176331213528
 21
550.191937745767
 31
0.0
  0
LINE
  5
2A68
330
1D
100
AcDbEntity
  8
0
100
AcDbLine
 10
392.165843597008
 20
559.50741761557
 30
0.0
 11
392.515075014197
 21
558.797138355526
 31
0.0
  0
LINE
  5
2A69
330
1D
100
AcDbEntity
  8
0
100
AcDbLine
 10
392.001074565066
 20
557.834907225135
 30
0.0
 11
392.526005743219
 21
556.925527904828
 31
0.0
  0
LINE
  5
2A6A
330
1D
100
AcDbEntity
  8
0
100
AcDbLine
 10
392.001074565066
 20
557.834907225135
 30
0.0
 11
392.196054977765
 21
557.497127412174
 31
0.0
  0
LINE
  5
2A6B
330
1D
100
AcDbEntity
  8
0
100
AcDbLine
 10
391.796655691525
 20
557.266546235851
 30
0.0
 11
392.196054977765
 21
557.497127412174
 31
0.0
  0
LINE
  5
2A6C
330
1D
100
AcDbEntity
  8
0
100
AcDbLine
 10
391.796655691525
 20
557.266546235851
 30
0.0
 11
392.021723916489
 21
556.877080725039
 31
0.0
  0
LINE
  5
2A6D
330
1D
100
AcDbEntity
  8
0
100
AcDbLine
 10
391.776006340102
 20
558.224372735947
 30
0.0
 11
393.023844419976
 21
558.944774554955
 31
0.0
  0
LINE
  5
2A6E
330
1D
100
AcDbEntity
  8
0
100
AcDbLine
 10
391.776006340102
 20
558.224372735947
 30
0.0
 11
392.201059689592
 21
558.469764514806
 31
0.0
  0
LINE
  5
2A6F
330
1D
100
AcDbEntity
  8
0
100
AcDbLine
 10
391.776006340102
 20
558.224372735947
 30
0.0
 11
392.001074565066
 21
557.834907225135
 31
0.0
  0
LINE
  5
2A70
330
1D
100
AcDbEntity
  8
0
100
AcDbLine
 10
390.177844729486
 20
561.382430378922
 30
0.0
 11
390.271142402357
 21
561.301648981082
 31
0.0
  0
LINE
  5
2A71
330
1D
100
AcDbEntity
  8
0
100
AcDbLine
 10
390.582736873956
 20
561.191430401575
 30
0.0
 11
392.201059689592
 21
558.469764514806
 31
0.0
  0
LINE
  5
2A72
330
1D
100
AcDbEntity
  8
0
100
AcDbLine
 10
390.271142402357
 20
561.301648981082
 30
0.0
 11
390.39213265429
 21
561.288473286144
 31
0.0
  0
LINE
  5
2A73
330
1D
100
AcDbEntity
  8
0
100
AcDbLine
 10
390.39213265429
 20
561.288473286144
 30
0.0
 11
390.506823514571
 21
561.265884426764
 31
0.0
  0
LINE
  5
2A74
330
1D
100
AcDbEntity
  8
0
100
AcDbLine
 10
390.506823514571
 20
561.265884426764
 30
0.0
 11
390.582736873956
 21
561.191430401575
 31
0.0
  0
LINE
  5
2A75
330
1D
100
AcDbEntity
  8
0
100
AcDbLine
 10
392.095294695807
 20
559.839578514141
 30
0.0
 11
392.165843597008
 21
559.50741761557
 31
0.0
  0
LINE
  5
2A76
330
1D
100
AcDbEntity
  8
0
100
AcDbLine
 10
392.095294695807
 20
559.839578514141
 30
0.0
 11
392.21588901816
 21
559.874434925546
 31
0.0
  0
LINE
  5
2A77
330
1D
100
AcDbEntity
  8
0
100
AcDbLine
 10
384.330513082405
 20
571.24619327647
 30
0.0
 11
385.958602391369
 21
568.492272173381
 31
0.0
  0
LINE
  5
2A78
330
1D
100
AcDbEntity
  8
0
100
AcDbLine
 10
388.813669284234
 20
569.071727199476
 30
0.0
 11
389.299782630247
 21
568.929914277539
 31
0.0
  0
LINE
  5
2A79
330
1D
100
AcDbEntity
  8
0
100
AcDbLine
 10
389.332510752459
 20
569.327710657634
 30
0.0
 11
389.299782630247
 21
568.929914277539
 31
0.0
  0
LINE
  5
2A7A
330
1D
100
AcDbEntity
  8
0
100
AcDbLine
 10
388.377021523621
 20
569.512512853243
 30
0.0
 11
388.813669284234
 21
569.071727199476
 31
0.0
  0
LINE
  5
2A7B
330
1D
100
AcDbEntity
  8
0
100
AcDbLine
 10
387.968957346607
 20
569.796334888112
 30
0.0
 11
388.194025571571
 21
569.4068693773
 31
0.0
  0
LINE
  5
2A7C
330
1D
100
AcDbEntity
  8
0
100
AcDbLine
 10
388.194025571571
 20
569.4068693773
 30
0.0
 11
389.140268159909
 21
569.953134772782
 31
0.0
  0
LINE
  5
2A7D
330
1D
100
AcDbEntity
  8
0
100
AcDbLine
 10
386.48612690326
 20
569.163317126685
 30
0.0
 11
386.899321590905
 21
568.70537918318
 31
0.0
  0
LINE
  5
2A7E
330
1D
100
AcDbEntity
  8
0
100
AcDbLine
 10
384.01950868183
 20
571.358325443233
 30
0.0
 11
384.128519928028
 21
571.342060505411
 31
0.0
  0
LINE
  5
2A7F
330
1D
100
AcDbEntity
  8
0
100
AcDbLine
 10
386.351372445914
 20
569.160490574388
 30
0.0
 11
386.434784300115
 21
569.163067012406
 31
0.0
  0
LINE
  5
2A80
330
1D
100
AcDbEntity
  8
0
100
AcDbLine
 10
386.899321590905
 20
568.70537918318
 30
0.0
 11
387.594935505164
 21
567.706207805343
 31
0.0
  0
LINE
  5
2A81
330
1D
100
AcDbEntity
  8
0
100
AcDbLine
 10
386.350523055159
 20
569.16265653574
 30
0.0
 11
386.575734286851
 21
568.588363937125
 31
0.0
  0
LINE
  5
2A82
330
1D
100
AcDbEntity
  8
0
100
AcDbLine
 10
386.350523055159
 20
569.16265653574
 30
0.0
 11
386.48612690326
 21
569.163317126685
 31
0.0
  0
LINE
  5
2A83
330
1D
100
AcDbEntity
  8
0
100
AcDbLine
 10
385.958602391369
 20
568.492272173381
 30
0.0
 11
386.009121944901
 21
568.410033893299
 31
0.0
  0
LINE
  5
2A84
330
1D
100
AcDbEntity
  8
0
100
AcDbLine
 10
386.575734286851
 20
568.588363937125
 30
0.0
 11
386.85791324467
 21
568.751271479199
 31
0.0
  0
LINE
  5
2A85
330
1D
100
AcDbEntity
  8
0
100
AcDbLine
 10
386.009121944901
 20
568.410033893299
 30
0.0
 11
386.076206709955
 21
568.299976700956
 31
0.0
  0
LINE
  5
2A86
330
1D
100
AcDbEntity
  8
0
100
AcDbLine
 10
388.151411348096
 20
566.744908410652
 30
0.0
 11
388.535042462628
 21
565.900792418645
 31
0.0
  0
LINE
  5
2A87
330
1D
100
AcDbEntity
  8
0
100
AcDbLine
 10
388.535042462628
 20
565.900792418645
 30
0.0
 11
388.498510615246
 21
565.641659413941
 31
0.0
  0
LINE
  5
2A88
330
1D
100
AcDbEntity
  8
0
100
AcDbLine
 10
388.141740515145
 20
566.0286768581
 30
0.0
 11
388.498510615246
 21
565.641659413941
 31
0.0
  0
LINE
  5
2A89
330
1D
100
AcDbEntity
  8
0
100
AcDbLine
 10
387.745432783939
 20
565.511369775082
 30
0.0
 11
388.269724831257
 21
564.607543968236
 31
0.0
  0
LINE
  5
2A8A
330
1D
100
AcDbEntity
  8
0
100
AcDbLine
 10
387.594935505164
 20
567.706207805343
 30
0.0
 11
388.151411348096
 21
566.744908410652
 31
0.0
  0
LINE
  5
2A8B
330
1D
100
AcDbEntity
  8
0
100
AcDbLine
 10
387.618604659311
 20
565.726670777736
 30
0.0
 11
387.745432783939
 21
565.511369775082
 31
0.0
  0
LINE
  5
2A8C
330
1D
100
AcDbEntity
  8
0
100
AcDbLine
 10
386.065527186719
 20
567.774409311729
 30
0.0
 11
386.590552334135
 21
566.864995789408
 31
0.0
  0
LINE
  5
2A8D
330
1D
100
AcDbEntity
  8
0
100
AcDbLine
 10
386.065527186719
 20
567.774409311729
 30
0.0
 11
386.294909078315
 21
567.377089307117
 31
0.0
  0
LINE
  5
2A8E
330
1D
100
AcDbEntity
  8
0
100
AcDbLine
 10
386.467971868826
 20
565.744336769221
 30
0.0
 11
386.992903046979
 21
564.834957448914
 31
0.0
  0
LINE
  5
2A8F
330
1D
100
AcDbEntity
  8
0
100
AcDbLine
 10
387.115483512288
 20
565.9556164691
 30
0.0
 11
387.340551737252
 21
565.566150958289
 31
0.0
  0
LINE
  5
2A90
330
1D
100
AcDbEntity
  8
0
100
AcDbLine
 10
387.340551737252
 20
565.566150958289
 30
0.0
 11
388.407258267628
 21
566.181960130123
 31
0.0
  0
LINE
  5
2A91
330
1D
100
AcDbEntity
  8
0
100
AcDbLine
 10
385.942946721411
 20
566.653750291543
 30
0.0
 11
386.467971868826
 21
565.744336769221
 31
0.0
  0
LINE
  5
2A92
330
1D
100
AcDbEntity
  8
0
100
AcDbLine
 10
385.71822051659
 20
567.044155494975
 30
0.0
 11
386.294909078315
 21
567.377089307117
 31
0.0
  0
LINE
  5
2A93
330
1D
100
AcDbEntity
  8
0
100
AcDbLine
 10
385.71822051659
 20
567.044155494975
 30
0.0
 11
385.942946721411
 21
566.653750291543
 31
0.0
  0
LINE
  5
2A94
330
1D
100
AcDbEntity
  8
0
100
AcDbLine
 10
386.590552334135
 20
566.864995789408
 30
0.0
 11
387.115483512288
 21
565.9556164691
 31
0.0
  0
LINE
  5
2A95
330
1D
100
AcDbEntity
  8
0
100
AcDbLine
 10
388.269724831257
 20
564.607543968236
 30
0.0
 11
388.500702067185
 21
564.20741433114
 31
0.0
  0
LINE
  5
2A96
330
1D
100
AcDbEntity
  8
0
100
AcDbLine
 10
388.500702067185
 20
564.20741433114
 30
0.0
 11
390.177844729486
 21
561.382430378922
 31
0.0
  0
LINE
  5
2A97
330
1D
100
AcDbEntity
  8
0
100
AcDbLine
 10
386.992903046979
 20
564.834957448914
 30
0.0
 11
387.217971271943
 21
564.445491938102
 31
0.0
  0
LINE
  5
2A98
330
1D
100
AcDbEntity
  8
0
100
AcDbLine
 10
387.217971271943
 20
564.445491938102
 30
0.0
 11
388.076292989935
 21
564.941000657017
 31
0.0
  0
LINE
  5
2A99
330
1D
100
AcDbEntity
  8
0
100
AcDbLine
 10
385.840458961756
 20
568.163874822541
 30
0.0
 11
386.85791324467
 21
568.751271479199
 31
0.0
  0
LINE
  5
2A9A
330
1D
100
AcDbEntity
  8
0
100
AcDbLine
 10
385.840458961756
 20
568.163874822541
 30
0.0
 11
386.065527186719
 21
567.774409311729
 31
0.0
  0
LINE
  5
2A9B
330
1D
100
AcDbEntity
  8
0
100
AcDbLine
 10
385.840458961756
 20
568.163874822541
 30
0.0
 11
386.076206709955
 21
568.299976700956
 31
0.0
  0
LINE
  5
2A9C
330
1D
100
AcDbEntity
  8
0
100
AcDbLine
 10
382.304950281293
 20
576.66369168706
 30
0.0
 11
382.573772182446
 21
576.483906828241
 31
0.0
  0
LINE
  5
2A9D
330
1D
100
AcDbEntity
  8
0
100
AcDbLine
 10
382.470454873024
 20
577.092974717375
 30
0.0
 11
382.60136039373
 21
576.661160828473
 31
0.0
  0
LINE
  5
2A9E
330
1D
100
AcDbEntity
  8
0
100
AcDbLine
 10
381.912693121732
 20
578.213304632532
 30
0.0
 11
382.470454873024
 21
577.092974717375
 31
0.0
  0
LINE
  5
2A9F
330
1D
100
AcDbEntity
  8
0
100
AcDbLine
 10
382.60136039373
 20
576.661160828473
 30
0.0
 11
382.573772182446
 21
576.483906828241
 31
0.0
  0
LINE
  5
2AA0
330
1D
100
AcDbEntity
  8
0
100
AcDbLine
 10
382.187667894197
 20
576.808140414906
 30
0.0
 11
382.304950281293
 21
576.66369168706
 31
0.0
  0
LINE
  5
2AA1
330
1D
100
AcDbEntity
  8
0
100
AcDbLine
 10
380.511734628293
 20
577.423706948248
 30
0.0
 11
380.644013588103
 21
577.500074230831
 31
0.0
  0
LINE
  5
2AA2
330
1D
100
AcDbEntity
  8
0
100
AcDbLine
 10
380.626262541251
 20
577.63863285525
 30
0.0
 11
381.151193719404
 21
576.729253534943
 31
0.0
  0
LINE
  5
2AA3
330
1D
100
AcDbEntity
  8
0
100
AcDbLine
 10
380.101237393835
 20
578.548046377572
 30
0.0
 11
380.626262541251
 21
577.63863285525
 31
0.0
  0
LINE
  5
2AA4
330
1D
100
AcDbEntity
  8
0
100
AcDbLine
 10
379.876169168872
 20
578.937511888383
 30
0.0
 11
380.967739063023
 21
579.567861764675
 31
0.0
  0
LINE
  5
2AA5
330
1D
100
AcDbEntity
  8
0
100
AcDbLine
 10
379.876169168872
 20
578.937511888383
 30
0.0
 11
380.101237393835
 21
578.548046377572
 31
0.0
  0
LINE
  5
2AA6
330
1D
100
AcDbEntity
  8
0
100
AcDbLine
 10
381.965291445576
 20
574.798505899664
 30
0.0
 11
383.927116844675
 21
571.439841321608
 31
0.0
  0
LINE
  5
2AA7
330
1D
100
AcDbEntity
  8
0
100
AcDbLine
 10
382.326114051105
 20
574.581906226249
 30
0.0
 11
382.519877406689
 21
574.130406489778
 31
0.0
  0
LINE
  5
2AA8
330
1D
100
AcDbEntity
  8
0
100
AcDbLine
 10
382.037989781178
 20
574.840488559939
 30
0.0
 11
382.152294425432
 21
574.906498503743
 31
0.0
  0
LINE
  5
2AA9
330
1D
100
AcDbEntity
  8
0
100
AcDbLine
 10
382.313918844068
 20
574.367124297481
 30
0.0
 11
382.519877406689
 21
574.130406489778
 31
0.0
  0
LINE
  5
2AAA
330
1D
100
AcDbEntity
  8
0
100
AcDbLine
 10
380.893060066001
 20
577.112662855358
 30
0.0
 11
381.67278761284
 21
575.801933687032
 31
0.0
  0
LINE
  5
2AAB
330
1D
100
AcDbEntity
  8
0
100
AcDbLine
 10
381.67278761284
 20
575.801933687032
 30
0.0
 11
382.326114051105
 21
574.581906226249
 31
0.0
  0
LINE
  5
2AAC
330
1D
100
AcDbEntity
  8
0
100
AcDbLine
 10
381.965291445576
 20
574.798505899664
 30
0.0
 11
383.927116844675
 21
571.439841321608
 31
0.0
  0
LINE
  5
2AAD
330
1D
100
AcDbEntity
  8
0
100
AcDbLine
 10
381.199901626024
 20
574.356499896271
 30
0.0
 11
381.965291445576
 21
574.798505899664
 31
0.0
  0
LINE
  5
2AAE
330
1D
100
AcDbEntity
  8
0
100
AcDbLine
 10
380.975175421204
 20
574.746905099703
 30
0.0
 11
381.199901626024
 21
574.356499896271
 31
0.0
  0
LINE
  5
2AAF
330
1D
100
AcDbEntity
  8
0
100
AcDbLine
 10
380.450150273788
 20
575.656318622025
 30
0.0
 11
380.975175421204
 21
574.746905099703
 31
0.0
  0
LINE
  5
2AB0
330
1D
100
AcDbEntity
  8
0
100
AcDbLine
 10
381.151193719404
 20
576.729253534943
 30
0.0
 11
381.37635591363
 21
576.339753822117
 31
0.0
  0
LINE
  5
2AB1
330
1D
100
AcDbEntity
  8
0
100
AcDbLine
 10
381.37635591363
 20
576.339753822117
 30
0.0
 11
382.501821257667
 21
576.989507419279
 31
0.0
  0
LINE
  5
2AB2
330
1D
100
AcDbEntity
  8
0
100
AcDbLine
 10
379.925219095635
 20
576.565697942332
 30
0.0
 11
380.450150273788
 21
575.656318622025
 31
0.0
  0
LINE
  5
2AB3
330
1D
100
AcDbEntity
  8
0
100
AcDbLine
 10
379.700150870671
 20
576.955163453143
 30
0.0
 11
380.644013588103
 21
577.500074230831
 31
0.0
  0
LINE
  5
2AB4
330
1D
100
AcDbEntity
  8
0
100
AcDbLine
 10
379.700150870671
 20
576.955163453143
 30
0.0
 11
380.452023996804
 21
577.389234809408
 31
0.0
  0
LINE
  5
2AB5
330
1D
100
AcDbEntity
  8
0
100
AcDbLine
 10
379.700150870671
 20
576.955163453143
 30
0.0
 11
379.925219095635
 21
576.565697942332
 31
0.0
  0
LINE
  5
2AB6
330
1D
100
AcDbEntity
  8
0
100
AcDbLine
 10
377.943917441677
 20
581.190236838917
 30
0.0
 11
378.03737679762
 21
581.107268237706
 31
0.0
  0
LINE
  5
2AB7
330
1D
100
AcDbEntity
  8
0
100
AcDbLine
 10
362.893345809987
 20
608.683906678525
 30
0.0
 11
365.016414486339
 21
604.389808625907
 31
0.0
  0
LINE
  5
2AB8
330
1D
100
AcDbEntity
  8
0
100
AcDbLine
 10
362.87497754846
 20
608.801266667313
 30
0.0
 11
362.924492402152
 21
608.904561000478
 31
0.0
  0
LINE
  5
2AB9
330
1D
100
AcDbEntity
  8
0
100
AcDbLine
 10
362.87497754846
 20
608.801266667313
 30
0.0
 11
362.893345809987
 21
608.683906678525
 31
0.0
  0
LINE
  5
2ABA
330
1D
100
AcDbEntity
  8
0
100
AcDbLine
 10
366.282654912488
 20
609.044437353656
 30
0.0
 11
366.547208693319
 21
608.568049691583
 31
0.0
  0
LINE
  5
2ABB
330
1D
100
AcDbEntity
  8
0
100
AcDbLine
 10
366.878224132196
 20
609.988685835008
 30
0.0
 11
367.411800301514
 21
609.655072703468
 31
0.0
  0
LINE
  5
2ABC
330
1D
100
AcDbEntity
  8
0
100
AcDbLine
 10
366.878224132196
 20
609.988685835008
 30
0.0
 11
366.813292951578
 21
609.380197255178
 31
0.0
  0
LINE
  5
2ABD
330
1D
100
AcDbEntity
  8
0
100
AcDbLine
 10
369.627752285827
 20
612.789315411331
 30
0.0
 11
369.816294257443
 21
612.604563389316
 31
0.0
  0
LINE
  5
2ABE
330
1D
100
AcDbEntity
  8
0
100
AcDbLine
 10
370.095376265293
 20
614.044979437857
 30
0.0
 11
370.289212229549
 21
613.405093808263
 31
0.0
  0
LINE
  5
2ABF
330
1D
100
AcDbEntity
  8
0
100
AcDbLine
 10
380.137330537217
 20
640.545612527664
 30
0.0
 11
386.259633048242
 21
632.087579968404
 31
0.0
  0
LINE
  5
2AC0
330
1D
100
AcDbEntity
  8
0
100
AcDbLine
 10
370.289212229549
 20
613.405093808263
 30
0.0
 11
370.271199364693
 21
612.728447824975
 31
0.0
  0
LINE
  5
2AC1
330
1D
100
AcDbEntity
  8
0
100
AcDbLine
 10
370.70141719788
 20
609.416574244053
 30
0.0
 11
373.218882479992
 21
604.838521184275
 31
0.0
  0
LINE
  5
2AC2
330
1D
100
AcDbEntity
  8
0
100
AcDbLine
 10
369.816294257443
 20
612.604563389316
 30
0.0
 11
370.271199364693
 21
612.728447824975
 31
0.0
  0
LINE
  5
2AC3
330
1D
100
AcDbEntity
  8
0
100
AcDbLine
 10
368.931189916663
 20
612.666327835211
 30
0.0
 11
370.70141719788
 21
609.416574244053
 31
0.0
  0
LINE
  5
2AC4
330
1D
100
AcDbEntity
  8
0
100
AcDbLine
 10
368.931189916663
 20
612.666327835211
 30
0.0
 11
370.70141719788
 21
609.416574244053
 31
0.0
  0
LINE
  5
2AC5
330
1D
100
AcDbEntity
  8
0
100
AcDbLine
 10
369.183245238446
 20
615.719960330244
 30
0.0
 11
369.723862335943
 21
614.926188068261
 31
0.0
  0
LINE
  5
2AC6
330
1D
100
AcDbEntity
  8
0
100
AcDbLine
 10
369.723862335943
 20
614.926188068261
 30
0.0
 11
370.095376265293
 21
614.044979437857
 31
0.0
  0
LINE
  5
2AC7
330
1D
100
AcDbEntity
  8
0
100
AcDbLine
 10
368.827079181513
 20
612.846484499497
 30
0.0
 11
369.052147406476
 21
612.457018988685
 31
0.0
  0
LINE
  5
2AC8
330
1D
100
AcDbEntity
  8
0
100
AcDbLine
 10
368.302054034097
 20
613.755898021819
 30
0.0
 11
368.827079181513
 21
612.846484499497
 31
0.0
  0
LINE
  5
2AC9
330
1D
100
AcDbEntity
  8
0
100
AcDbLine
 10
369.052147406476
 20
612.457018988685
 30
0.0
 11
370.282887953066
 21
613.167524919938
 31
0.0
  0
LINE
  5
2ACA
330
1D
100
AcDbEntity
  8
0
100
AcDbLine
 10
367.411800301514
 20
609.655072703468
 30
0.0
 11
368.063538825864
 21
608.786801861002
 31
0.0
  0
LINE
  5
2ACB
330
1D
100
AcDbEntity
  8
0
100
AcDbLine
 10
368.063538825864
 20
608.786801861002
 30
0.0
 11
368.585024945664
 21
607.812697417497
 31
0.0
  0
LINE
  5
2ACC
330
1D
100
AcDbEntity
  8
0
100
AcDbLine
 10
366.813292951578
 20
609.380197255178
 30
0.0
 11
366.996304220573
 21
608.827321499329
 31
0.0
  0
LINE
  5
2ACD
330
1D
100
AcDbEntity
  8
0
100
AcDbLine
 10
367.078522707547
 20
608.874787872193
 30
0.0
 11
367.719660568376
 21
609.244929550528
 31
0.0
  0
LINE
  5
2ACE
330
1D
100
AcDbEntity
  8
0
100
AcDbLine
 10
367.078522707547
 20
608.874787872193
 30
0.0
 11
367.719660568376
 21
609.244929550528
 31
0.0
  0
LINE
  5
2ACF
330
1D
100
AcDbEntity
  8
0
100
AcDbLine
 10
368.576987927415
 20
616.282221010731
 30
0.0
 11
368.858609001476
 21
616.0764940785
 31
0.0
  0
LINE
  5
2AD0
330
1D
100
AcDbEntity
  8
0
100
AcDbLine
 10
368.858609001476
 20
616.0764940785
 30
0.0
 11
369.183245238446
 21
615.719960330244
 31
0.0
  0
LINE
  5
2AD1
330
1D
100
AcDbEntity
  8
0
100
AcDbLine
 10
368.185456697578
 20
615.420418502927
 30
0.0
 11
369.018226531341
 21
615.90119314247
 31
0.0
  0
LINE
  5
2AD2
330
1D
100
AcDbEntity
  8
0
100
AcDbLine
 10
366.953666242936
 20
614.400976819058
 30
0.0
 11
366.970740476331
 21
613.893534575493
 31
0.0
  0
LINE
  5
2AD3
330
1D
100
AcDbEntity
  8
0
100
AcDbLine
 10
368.129802984242
 20
615.596833334594
 30
0.0
 11
368.185456697578
 21
615.420418502927
 31
0.0
  0
LINE
  5
2AD4
330
1D
100
AcDbEntity
  8
0
100
AcDbLine
 10
368.20609889668
 20
616.26929286776
 30
0.0
 11
368.576987927415
 21
616.282221010731
 31
0.0
  0
LINE
  5
2AD5
330
1D
100
AcDbEntity
  8
0
100
AcDbLine
 10
368.20609889668
 20
616.26929286776
 30
0.0
 11
368.129802984242
 21
615.596833334594
 31
0.0
  0
LINE
  5
2AD6
330
1D
100
AcDbEntity
  8
0
100
AcDbLine
 10
367.777122855944
 20
614.665277342126
 30
0.0
 11
368.302054034097
 21
613.755898021819
 31
0.0
  0
LINE
  5
2AD7
330
1D
100
AcDbEntity
  8
0
100
AcDbLine
 10
367.55205463098
 20
615.054742852937
 30
0.0
 11
369.018226531341
 21
615.90119314247
 31
0.0
  0
LINE
  5
2AD8
330
1D
100
AcDbEntity
  8
0
100
AcDbLine
 10
367.55205463098
 20
615.054742852937
 30
0.0
 11
369.018226531341
 21
615.90119314247
 31
0.0
  0
LINE
  5
2AD9
330
1D
100
AcDbEntity
  8
0
100
AcDbLine
 10
367.55205463098
 20
615.054742852937
 30
0.0
 11
367.777122855944
 21
614.665277342126
 31
0.0
  0
LINE
  5
2ADA
330
1D
100
AcDbEntity
  8
0
100
AcDbLine
 10
366.77766483831
 20
613.634977429
 30
0.0
 11
366.970740476331
 21
613.893534575493
 31
0.0
  0
LINE
  5
2ADB
330
1D
100
AcDbEntity
  8
0
100
AcDbLine
 10
366.788550316705
 20
615.058077831769
 30
0.0
 11
366.953666242936
 21
614.400976819058
 31
0.0
  0
LINE
  5
2ADC
330
1D
100
AcDbEntity
  8
0
100
AcDbLine
 10
366.372673175687
 20
613.894121005431
 30
0.0
 11
366.77766483831
 21
613.634977429
 31
0.0
  0
LINE
  5
2ADD
330
1D
100
AcDbEntity
  8
0
100
AcDbLine
 10
366.554319321568
 20
615.694575028084
 30
0.0
 11
366.788550316705
 21
615.058077831769
 31
0.0
  0
LINE
  5
2ADE
330
1D
100
AcDbEntity
  8
0
100
AcDbLine
 10
366.024659998285
 20
614.302794552844
 30
0.0
 11
366.372673175687
 21
613.894121005431
 31
0.0
  0
LINE
  5
2ADF
330
1D
100
AcDbEntity
  8
0
100
AcDbLine
 10
365.000465194412
 20
611.29148565907
 30
0.0
 11
366.282654912488
 21
609.044437353656
 31
0.0
  0
LINE
  5
2AE0
330
1D
100
AcDbEntity
  8
0
100
AcDbLine
 10
364.578598133038
 20
610.356378850985
 30
0.0
 11
364.763109734522
 21
609.676255723222
 31
0.0
  0
LINE
  5
2AE1
330
1D
100
AcDbEntity
  8
0
100
AcDbLine
 10
364.763109734522
 20
609.676255723222
 30
0.0
 11
364.753399885923
 21
609.429708042559
 31
0.0
  0
LINE
  5
2AE2
330
1D
100
AcDbEntity
  8
0
100
AcDbLine
 10
364.244804879453
 20
609.987137571258
 30
0.0
 11
364.515114543852
 21
609.586672547318
 31
0.0
  0
LINE
  5
2AE3
330
1D
100
AcDbEntity
  8
0
100
AcDbLine
 10
369.690229377024
 20
606.91027234864
 30
0.0
 11
371.422092238275
 21
603.721599489734
 31
0.0
  0
LINE
  5
2AE4
330
1D
100
AcDbEntity
  8
0
100
AcDbLine
 10
369.690229377024
 20
606.91027234864
 30
0.0
 11
371.42335211503
 21
603.72232684172
 31
0.0
  0
LINE
  5
2AE5
330
1D
100
AcDbEntity
  8
0
100
AcDbLine
 10
364.515114543852
 20
609.586672547318
 30
0.0
 11
364.753399885923
 21
609.429708042559
 31
0.0
  0
LINE
  5
2AE6
330
1D
100
AcDbEntity
  8
0
100
AcDbLine
 10
368.585024945664
 20
607.812697417497
 30
0.0
 11
368.87438549183
 21
607.168904838849
 31
0.0
  0
LINE
  5
2AE7
330
1D
100
AcDbEntity
  8
0
100
AcDbLine
 10
366.233113285024
 20
608.386716145888
 30
0.0
 11
367.719660568376
 21
609.244929550528
 31
0.0
  0
LINE
  5
2AE8
330
1D
100
AcDbEntity
  8
0
100
AcDbLine
 10
366.233113285024
 20
608.386716145888
 30
0.0
 11
367.719660568376
 21
609.244929550528
 31
0.0
  0
LINE
  5
2AE9
330
1D
100
AcDbEntity
  8
0
100
AcDbLine
 10
366.233113285024
 20
608.386716145888
 30
0.0
 11
366.458181509988
 21
607.997250635076
 31
0.0
  0
LINE
  5
2AEA
330
1D
100
AcDbEntity
  8
0
100
AcDbLine
 10
368.87438549183
 20
607.168904838849
 30
0.0
 11
369.083942630867
 21
606.590340369253
 31
0.0
  0
LINE
  5
2AEB
330
1D
100
AcDbEntity
  8
0
100
AcDbLine
 10
366.458181509988
 20
607.997250635076
 30
0.0
 11
366.983206657403
 21
607.087837112755
 31
0.0
  0
LINE
  5
2AEC
330
1D
100
AcDbEntity
  8
0
100
AcDbLine
 10
364.22450327881
 20
608.335619737629
 30
0.0
 11
364.973655184854
 21
607.629780341206
 31
0.0
  0
LINE
  5
2AED
330
1D
100
AcDbEntity
  8
0
100
AcDbLine
 10
369.083942630867
 20
606.590340369253
 30
0.0
 11
369.22242239904
 21
606.000399724945
 31
0.0
  0
LINE
  5
2AEE
330
1D
100
AcDbEntity
  8
0
100
AcDbLine
 10
363.731561890536
 20
608.703395195927
 30
0.0
 11
364.22450327881
 21
608.335619737629
 31
0.0
  0
LINE
  5
2AEF
330
1D
100
AcDbEntity
  8
0
100
AcDbLine
 10
366.196370168833
 20
616.451658573048
 30
0.0
 11
366.554319321568
 21
615.694575028084
 31
0.0
  0
LINE
  5
2AF0
330
1D
100
AcDbEntity
  8
0
100
AcDbLine
 10
365.561173327612
 20
614.050075507047
 30
0.0
 11
366.854254969745
 21
614.796597337197
 31
0.0
  0
LINE
  5
2AF1
330
1D
100
AcDbEntity
  8
0
100
AcDbLine
 10
364.176054294671
 20
611.296769444405
 30
0.0
 11
364.578598133038
 21
610.356378850985
 31
0.0
  0
LINE
  5
2AF2
330
1D
100
AcDbEntity
  8
0
100
AcDbLine
 10
365.336105102648
 20
614.439541017859
 30
0.0
 11
365.561173327612
 21
614.050075507047
 31
0.0
  0
LINE
  5
2AF3
330
1D
100
AcDbEntity
  8
0
100
AcDbLine
 10
363.484098439676
 20
609.547966566794
 30
0.0
 11
364.620005481709
 21
610.203748364531
 31
0.0
  0
LINE
  5
2AF4
330
1D
100
AcDbEntity
  8
0
100
AcDbLine
 10
362.932107363474
 20
608.913495336719
 30
0.0
 11
362.975788521464
 21
609.022105494792
 31
0.0
  0
LINE
  5
2AF5
330
1D
100
AcDbEntity
  8
0
100
AcDbLine
 10
365.232074540193
 20
617.874260495789
 30
0.0
 11
366.196370168833
 21
616.451658573048
 31
0.0
  0
LINE
  5
2AF6
330
1D
100
AcDbEntity
  8
0
100
AcDbLine
 10
364.811079955233
 20
615.34895454018
 30
0.0
 11
365.336105102648
 21
614.439541017859
 31
0.0
  0
LINE
  5
2AF7
330
1D
100
AcDbEntity
  8
0
100
AcDbLine
 10
364.932230331476
 20
618.110032017604
 30
0.0
 11
365.232074540193
 21
617.874260495789
 31
0.0
  0
LINE
  5
2AF8
330
1D
100
AcDbEntity
  8
0
100
AcDbLine
 10
364.625385706772
 20
617.407618331597
 30
0.0
 11
364.725158546796
 21
617.031927084152
 31
0.0
  0
LINE
  5
2AF9
330
1D
100
AcDbEntity
  8
0
100
AcDbLine
 10
364.286148777079
 20
616.258333860488
 30
0.0
 11
364.811079955233
 21
615.34895454018
 31
0.0
  0
LINE
  5
2AFA
330
1D
100
AcDbEntity
  8
0
100
AcDbLine
 10
363.95923848811
 20
617.04455893829
 30
0.0
 11
364.149668952732
 21
616.699685459963
 31
0.0
  0
LINE
  5
2AFB
330
1D
100
AcDbEntity
  8
0
100
AcDbLine
 10
364.709291730907
 20
618.130516899249
 30
0.0
 11
364.932230331476
 21
618.110032017604
 31
0.0
  0
LINE
  5
2AFC
330
1D
100
AcDbEntity
  8
0
100
AcDbLine
 10
364.594908425072
 20
617.892270263709
 30
0.0
 11
364.625385706772
 21
617.407618331597
 31
0.0
  0
LINE
  5
2AFD
330
1D
100
AcDbEntity
  8
0
100
AcDbLine
 10
364.594908425072
 20
617.892270263709
 30
0.0
 11
364.709291730907
 21
618.130516899249
 31
0.0
  0
LINE
  5
2AFE
330
1D
100
AcDbEntity
  8
0
100
AcDbLine
 10
363.231200151665
 20
614.242582881885
 30
0.0
 11
365.000465194412
 21
611.29148565907
 31
0.0
  0
LINE
  5
2AFF
330
1D
100
AcDbEntity
  8
0
100
AcDbLine
 10
364.061422572259
 20
616.64873906392
 30
0.0
 11
365.499872384855
 21
617.479184839105
 31
0.0
  0
LINE
  5
2B00
330
1D
100
AcDbEntity
  8
0
100
AcDbLine
 10
364.061422572259
 20
616.64873906392
 30
0.0
 11
364.286148777079
 21
616.258333860488
 31
0.0
  0
LINE
  5
2B01
330
1D
100
AcDbEntity
  8
0
100
AcDbLine
 10
358.547959681779
 20
619.394014817884
 30
0.0
 11
358.562546368464
 21
619.287608809729
 31
0.0
  0
LINE
  5
2B02
330
1D
100
AcDbEntity
  8
0
100
AcDbLine
 10
362.474328690158
 20
626.165487284788
 30
0.0
 11
362.530518463195
 21
625.944130658718
 31
0.0
  0
LINE
  5
2B03
330
1D
100
AcDbEntity
  8
0
100
AcDbLine
 10
362.448703831
 20
626.752814158331
 30
0.0
 11
362.48665120438
 21
626.116943394586
 31
0.0
  0
LINE
  5
2B04
330
1D
100
AcDbEntity
  8
0
100
AcDbLine
 10
362.994068211699
 20
627.004313297587
 30
0.0
 11
363.315170225443
 21
626.686312123424
 31
0.0
  0
LINE
  5
2B05
330
1D
100
AcDbEntity
  8
0
100
AcDbLine
 10
362.732648476424
 20
627.137772699686
 30
0.0
 11
362.994068211699
 21
627.004313297587
 31
0.0
  0
LINE
  5
2B06
330
1D
100
AcDbEntity
  8
0
100
AcDbLine
 10
373.684514064282
 20
648.752544288475
 30
0.0
 11
380.137330537217
 21
640.545612527664
 31
0.0
  0
LINE
  5
2B07
330
1D
100
AcDbEntity
  8
0
100
AcDbLine
 10
363.315170225443
 20
626.686312123424
 30
0.0
 11
363.662121432948
 21
626.210981901777
 31
0.0
  0
LINE
  5
2B08
330
1D
100
AcDbEntity
  8
0
100
AcDbLine
 10
364.012188174979
 20
625.61000891892
 30
0.0
 11
364.467629805709
 21
624.626953192627
 31
0.0
  0
LINE
  5
2B09
330
1D
100
AcDbEntity
  8
0
100
AcDbLine
 10
363.662121432948
 20
626.210981901777
 30
0.0
 11
364.012188174979
 21
625.61000891892
 31
0.0
  0
LINE
  5
2B0A
330
1D
100
AcDbEntity
  8
0
100
AcDbLine
 10
362.531501789908
 20
627.061999218153
 30
0.0
 11
362.732648476424
 21
627.137772699686
 31
0.0
  0
LINE
  5
2B0B
330
1D
100
AcDbEntity
  8
0
100
AcDbLine
 10
362.531501789908
 20
627.061999218153
 30
0.0
 11
362.434904276029
 21
626.701283706548
 31
0.0
  0
LINE
  5
2B0C
330
1D
100
AcDbEntity
  8
0
100
AcDbLine
 10
362.977498354086
 20
623.025495864693
 30
0.0
 11
363.019835710133
 21
622.94786662642
 31
0.0
  0
LINE
  5
2B0D
330
1D
100
AcDbEntity
  8
0
100
AcDbLine
 10
364.786613091179
 20
622.976308423577
 30
0.0
 11
364.668471759363
 21
622.568096976264
 31
0.0
  0
LINE
  5
2B0E
330
1D
100
AcDbEntity
  8
0
100
AcDbLine
 10
363.96707273613
 20
622.868080809509
 30
0.0
 11
364.423978288311
 21
622.53257652282
 31
0.0
  0
LINE
  5
2B0F
330
1D
100
AcDbEntity
  8
0
100
AcDbLine
 10
364.749859876213
 20
623.560084785885
 30
0.0
 11
364.786613091179
 21
622.976308423577
 31
0.0
  0
LINE
  5
2B10
330
1D
100
AcDbEntity
  8
0
100
AcDbLine
 10
364.467629805709
 20
624.626953192627
 30
0.0
 11
364.749859876213
 21
623.560084785885
 31
0.0
  0
LINE
  5
2B11
330
1D
100
AcDbEntity
  8
0
100
AcDbLine
 10
363.753778580649
 20
623.185941964955
 30
0.0
 11
363.96707273613
 21
622.868080809509
 31
0.0
  0
LINE
  5
2B12
330
1D
100
AcDbEntity
  8
0
100
AcDbLine
 10
364.423978288311
 20
622.53257652282
 30
0.0
 11
364.668471759363
 21
622.568096976264
 31
0.0
  0
LINE
  5
2B13
330
1D
100
AcDbEntity
  8
0
100
AcDbLine
 10
363.10184741754
 20
622.80947067327
 30
0.0
 11
364.703718700303
 21
623.734504764383
 31
0.0
  0
LINE
  5
2B14
330
1D
100
AcDbEntity
  8
0
100
AcDbLine
 10
362.877121212719
 20
623.199875876702
 30
0.0
 11
363.10184741754
 21
622.80947067327
 31
0.0
  0
LINE
  5
2B15
330
1D
100
AcDbEntity
  8
0
100
AcDbLine
 10
362.351848014423
 20
624.108315504389
 30
0.0
 11
362.877121212719
 21
623.199875876702
 31
0.0
  0
LINE
  5
2B16
330
1D
100
AcDbEntity
  8
0
100
AcDbLine
 10
361.826822867007
 20
625.017729026711
 30
0.0
 11
362.351848014423
 21
624.108315504389
 31
0.0
  0
LINE
  5
2B17
330
1D
100
AcDbEntity
  8
0
100
AcDbLine
 10
361.602096662187
 20
625.408134230143
 30
0.0
 11
363.463673465866
 21
626.482859659045
 31
0.0
  0
LINE
  5
2B18
330
1D
100
AcDbEntity
  8
0
100
AcDbLine
 10
361.602096662187
 20
625.408134230143
 30
0.0
 11
361.826822867007
 21
625.017729026711
 31
0.0
  0
LINE
  5
2B19
330
1D
100
AcDbEntity
  8
0
100
AcDbLine
 10
351.19648933919
 20
641.995395812517
 30
0.0
 11
351.194462400193
 21
641.88971578073
 31
0.0
  0
LINE
  5
2B1A
330
1D
100
AcDbEntity
  8
0
100
AcDbLine
 10
368.973049522424
 20
654.322893211192
 30
0.0
 11
373.684514064282
 21
648.752544288475
 31
0.0
  0
LINE
  5
2B1B
330
1D
100
AcDbEntity
  8
0
100
AcDbLine
 10
364.08281197841
 20
659.752923875296
 30
0.0
 11
368.973049522424
 21
654.322893211192
 31
0.0
  0
LINE
  5
2B1C
330
1D
100
AcDbEntity
  8
0
100
AcDbLine
 10
353.48174634421
 20
644.248681647448
 30
0.0
 11
353.882958760116
 21
643.625900628371
 31
0.0
  0
LINE
  5
2B1D
330
1D
100
AcDbEntity
  8
0
100
AcDbLine
 10
351.314522266299
 20
647.028563315096
 30
0.0
 11
351.547851318992
 21
646.314709421593
 31
0.0
  0
LINE
  5
2B1E
330
1D
100
AcDbEntity
  8
0
100
AcDbLine
 10
358.983527730003
 20
665.003638651977
 30
0.0
 11
359.191429078844
 21
664.856668838579
 31
0.0
  0
LINE
  5
2B1F
330
1D
100
AcDbEntity
  8
0
100
AcDbLine
 10
359.191429078844
 20
664.856668838579
 30
0.0
 11
364.08281197841
 21
659.752923875296
 31
0.0
  0
LINE
  5
2B20
330
1D
100
AcDbEntity
  8
0
100
AcDbLine
 10
358.252822838553
 20
664.980137128384
 30
0.0
 11
358.745177051627
 21
665.072300182091
 31
0.0
  0
LINE
  5
2B21
330
1D
100
AcDbEntity
  8
0
100
AcDbLine
 10
358.745177051627
 20
665.072300182091
 30
0.0
 11
358.983527730003
 21
665.003638651977
 31
0.0
  0
LINE
  5
2B22
330
1D
100
AcDbEntity
  8
0
100
AcDbLine
 10
351.547851318992
 20
646.314709421593
 30
0.0
 11
351.732452040112
 21
645.676056790061
 31
0.0
  0
LINE
  5
2B23
330
1D
100
AcDbEntity
  8
0
100
AcDbLine
 10
351.087970139352
 20
647.030144035106
 30
0.0
 11
351.115219100081
 21
646.804426006268
 31
0.0
  0
LINE
  5
2B24
330
1D
100
AcDbEntity
  8
0
100
AcDbLine
 10
351.732452040112
 20
645.676056790061
 30
0.0
 11
351.939009015569
 21
644.83786073645
 31
0.0
  0
LINE
  5
2B25
330
1D
100
AcDbEntity
  8
0
100
AcDbLine
 10
351.939009015569
 20
644.83786073645
 30
0.0
 11
352.176895059153
 21
643.570039969989
 31
0.0
  0
LINE
  5
2B26
330
1D
100
AcDbEntity
  8
0
100
AcDbLine
 10
349.878100185438
 20
648.640032057614
 30
0.0
 11
349.934588057172
 21
648.349805320763
 31
0.0
  0
LINE
  5
2B27
330
1D
100
AcDbEntity
  8
0
100
AcDbLine
 10
350.118443454348
 20
648.482318528742
 30
0.0
 11
350.323163224806
 21
647.541565919134
 31
0.0
  0
LINE
  5
2B28
330
1D
100
AcDbEntity
  8
0
100
AcDbLine
 10
350.323163224806
 20
647.541565919134
 30
0.0
 11
350.541024683043
 21
646.472935632437
 31
0.0
  0
LINE
  5
2B29
330
1D
100
AcDbEntity
  8
0
100
AcDbLine
 10
351.104735820853
 20
647.322011602375
 30
0.0
 11
351.087970139352
 21
647.030144035106
 31
0.0
  0
LINE
  5
2B2A
330
1D
100
AcDbEntity
  8
0
100
AcDbLine
 10
351.104735820853
 20
647.322011602375
 30
0.0
 11
351.314522266299
 21
647.028563315096
 31
0.0
  0
LINE
  5
2B2B
330
1D
100
AcDbEntity
  8
0
100
AcDbLine
 10
350.063320171853
 20
645.676989776861
 30
0.0
 11
350.588288937712
 21
644.767596775748
 31
0.0
  0
LINE
  5
2B2C
330
1D
100
AcDbEntity
  8
0
100
AcDbLine
 10
349.838575173181
 20
646.067401820696
 30
0.0
 11
351.344515260776
 21
646.936801849313
 31
0.0
  0
LINE
  5
2B2D
330
1D
100
AcDbEntity
  8
0
100
AcDbLine
 10
349.838575173181
 20
646.067401820696
 30
0.0
 11
350.063320171853
 21
645.676989776861
 31
0.0
  0
LINE
  5
2B2E
330
1D
100
AcDbEntity
  8
0
100
AcDbLine
 10
349.421371516993
 20
646.321412599333
 30
0.0
 11
349.946349679777
 21
645.412016178019
 31
0.0
  0
LINE
  5
2B2F
330
1D
100
AcDbEntity
  8
0
100
AcDbLine
 10
349.908629056737
 20
649.338727031417
 30
0.0
 11
350.118443454348
 21
648.482318528742
 31
0.0
  0
LINE
  5
2B30
330
1D
100
AcDbEntity
  8
0
100
AcDbLine
 10
353.333013077489
 20
644.18256404109
 30
0.0
 11
353.307405470457
 21
643.800267027549
 31
0.0
  0
LINE
  5
2B31
330
1D
100
AcDbEntity
  8
0
100
AcDbLine
 10
353.333013077489
 20
644.18256404109
 30
0.0
 11
353.48174634421
 21
644.248681647448
 31
0.0
  0
LINE
  5
2B32
330
1D
100
AcDbEntity
  8
0
100
AcDbLine
 10
349.946349679777
 20
645.412016178019
 30
0.0
 11
350.171436698594
 21
645.022543826805
 31
0.0
  0
LINE
  5
2B33
330
1D
100
AcDbEntity
  8
0
100
AcDbLine
 10
350.373705073683
 20
645.139316155624
 30
0.0
 11
350.48001336169
 21
644.955160412729
 31
0.0
  0
LINE
  5
2B34
330
1D
100
AcDbEntity
  8
0
100
AcDbLine
 10
353.882958760116
 20
643.625900628371
 30
0.0
 11
354.389134485916
 21
642.334922847497
 31
0.0
  0
LINE
  5
2B35
330
1D
100
AcDbEntity
  8
0
100
AcDbLine
 10
353.307405470457
 20
643.800267027549
 30
0.0
 11
353.398305195383
 21
643.071209970174
 31
0.0
  0
LINE
  5
2B36
330
1D
100
AcDbEntity
  8
0
100
AcDbLine
 10
353.398305195383
 20
643.071209970174
 30
0.0
 11
353.421565107928
 21
642.963963731823
 31
0.0
  0
LINE
  5
2B37
330
1D
100
AcDbEntity
  8
0
100
AcDbLine
 10
354.389134485916
 20
642.334922847497
 30
0.0
 11
354.703741257419
 21
641.236050907631
 31
0.0
  0
LINE
  5
2B38
330
1D
100
AcDbEntity
  8
0
100
AcDbLine
 10
350.48001336169
 20
644.955160412729
 30
0.0
 11
351.19648933919
 21
641.995395812517
 31
0.0
  0
LINE
  5
2B39
330
1D
100
AcDbEntity
  8
0
100
AcDbLine
 10
352.176895059153
 20
643.570039969989
 30
0.0
 11
352.198549163939
 21
643.139679944725
 31
0.0
  0
LINE
  5
2B3A
330
1D
100
AcDbEntity
  8
0
100
AcDbLine
 10
352.045776689479
 20
643.233594977852
 30
0.0
 11
352.198549163939
 21
643.139679944725
 31
0.0
  0
LINE
  5
2B3B
330
1D
100
AcDbEntity
  8
0
100
AcDbLine
 10
351.836114970855
 20
643.756091206381
 30
0.0
 11
352.045776689479
 21
643.233594977852
 31
0.0
  0
LINE
  5
2B3C
330
1D
100
AcDbEntity
  8
0
100
AcDbLine
 10
350.588288937712
 20
644.767596775748
 30
0.0
 11
351.113609120639
 21
643.859140047054
 31
0.0
  0
LINE
  5
2B3D
330
1D
100
AcDbEntity
  8
0
100
AcDbLine
 10
350.171436698594
 20
645.022543826805
 30
0.0
 11
350.373705073683
 21
645.139316155624
 31
0.0
  0
LINE
  5
2B3E
330
1D
100
AcDbEntity
  8
0
100
AcDbLine
 10
351.113609120639
 20
643.859140047054
 30
0.0
 11
351.338354119312
 21
643.468728003219
 31
0.0
  0
LINE
  5
2B3F
330
1D
100
AcDbEntity
  8
0
100
AcDbLine
 10
351.338354119312
 20
643.468728003219
 30
0.0
 11
352.112090952202
 21
643.915415391378
 31
0.0
  0
LINE
  5
2B40
330
1D
100
AcDbEntity
  8
0
100
AcDbLine
 10
349.236857250352
 20
651.107134543346
 30
0.0
 11
349.431423558735
 21
649.99448815925
 31
0.0
  0
LINE
  5
2B41
330
1D
100
AcDbEntity
  8
0
100
AcDbLine
 10
348.875546928303
 20
653.720303311319
 30
0.0
 11
349.236857250352
 21
651.107134543346
 31
0.0
  0
LINE
  5
2B42
330
1D
100
AcDbEntity
  8
0
100
AcDbLine
 10
353.252325175879
 20
661.740004125992
 30
0.0
 11
358.252822838553
 21
664.980137128384
 31
0.0
  0
LINE
  5
2B43
330
1D
100
AcDbEntity
  8
0
100
AcDbLine
 10
353.252325175879
 20
661.740004125992
 30
0.0
 11
358.252822838553
 21
664.980137128384
 31
0.0
  0
LINE
  5
2B44
330
1D
100
AcDbEntity
  8
0
100
AcDbLine
 10
351.213298560426
 20
660.294199620683
 30
0.0
 11
353.252325175879
 21
661.740004125992
 31
0.0
  0
LINE
  5
2B45
330
1D
100
AcDbEntity
  8
0
100
AcDbLine
 10
350.398075440755
 20
659.529931331371
 30
0.0
 11
351.213298560426
 21
660.294199620683
 31
0.0
  0
LINE
  5
2B46
330
1D
100
AcDbEntity
  8
0
100
AcDbLine
 10
348.839056300113
 20
655.946185951646
 30
0.0
 11
348.875546928303
 21
653.720303311319
 31
0.0
  0
LINE
  5
2B47
330
1D
100
AcDbEntity
  8
0
100
AcDbLine
 10
348.829292637675
 20
656.017671462731
 30
0.0
 11
348.838794720192
 21
655.946105610092
 31
0.0
  0
LINE
  5
2B48
330
1D
100
AcDbEntity
  8
0
100
AcDbLine
 10
349.48576717994
 20
658.259332657434
 30
0.0
 11
350.398075440755
 21
659.529931331371
 31
0.0
  0
LINE
  5
2B49
330
1D
100
AcDbEntity
  8
0
100
AcDbLine
 10
349.054031344075
 20
657.18947467909
 30
0.0
 11
348.829292637675
 21
656.017671462731
 31
0.0
  0
LINE
  5
2B4A
330
1D
100
AcDbEntity
  8
0
100
AcDbLine
 10
349.054031344075
 20
657.18947467909
 30
0.0
 11
349.48576717994
 21
658.259332657434
 31
0.0
  0
LINE
  5
2B4B
330
1D
100
AcDbEntity
  8
0
100
AcDbLine
 10
349.853488941539
 20
649.516808157324
 30
0.0
 11
349.869975785599
 21
649.458972842804
 31
0.0
  0
LINE
  5
2B4C
330
1D
100
AcDbEntity
  8
0
100
AcDbLine
 10
349.749316605486
 20
649.853244286013
 30
0.0
 11
349.908629056737
 21
649.338727031417
 31
0.0
  0
LINE
  5
2B4D
330
1D
100
AcDbEntity
  8
0
100
AcDbLine
 10
349.749316605486
 20
649.853244286013
 30
0.0
 11
349.751695656676
 21
649.504392250594
 31
0.0
  0
LINE
  5
2B4E
330
1D
100
AcDbEntity
  8
0
100
AcDbLine
 10
349.431423558735
 20
649.99448815925
 30
0.0
 11
349.4518907859
 21
649.888070164944
 31
0.0
  0
LINE
  5
2B4F
330
1D
100
AcDbEntity
  8
0
100
AcDbLine
 10
349.431423558735
 20
649.99448815925
 30
0.0
 11
349.45583432352
 21
649.86428710141
 31
0.0
  0
LINE
  5
2B50
330
1D
100
AcDbEntity
  8
0
100
AcDbLine
 10
349.45583432352
 20
649.86428710141
 30
0.0
 11
349.482273371281
 21
649.725903421767
 31
0.0
  0
LINE
  5
2B51
330
1D
100
AcDbEntity
  8
0
100
AcDbLine
 10
349.4518907859
 20
649.888070164944
 30
0.0
 11
349.533840815803
 21
649.450662706504
 31
0.0
  0
LINE
  5
2B52
330
1D
100
AcDbEntity
  8
0
100
AcDbLine
 10
349.533840815803
 20
649.450662706504
 30
0.0
 11
349.76963928368
 21
648.254550178121
 31
0.0
  0
LINE
  5
2B53
330
1D
100
AcDbEntity
  8
0
100
AcDbLine
 10
348.896393354209
 20
647.230809020648
 30
0.0
 11
349.421371516993
 21
646.321412599333
 31
0.0
  0
LINE
  5
2B54
330
1D
100
AcDbEntity
  8
0
100
AcDbLine
 10
348.589677691071
 20
648.200171677029
 30
0.0
 11
348.861149707199
 21
647.729912726362
 31
0.0
  0
LINE
  5
2B55
330
1D
100
AcDbEntity
  8
0
100
AcDbLine
 10
348.589677691071
 20
648.200171677029
 30
0.0
 11
348.861149707199
 21
647.729912726362
 31
0.0
  0
LINE
  5
2B56
330
1D
100
AcDbEntity
  8
0
100
AcDbLine
 10
348.671306335393
 20
647.620281371862
 30
0.0
 11
350.123535435101
 21
648.458919253867
 31
0.0
  0
LINE
  5
2B57
330
1D
100
AcDbEntity
  8
0
100
AcDbLine
 10
348.671306335393
 20
647.620281371862
 30
0.0
 11
348.896393354209
 21
647.230809020648
 31
0.0
  0
LINE
  5
2B58
330
1D
100
AcDbEntity
  8
0
100
AcDbLine
 10
348.671306335393
 20
647.620281371862
 30
0.0
 11
348.861149707199
 21
647.729912726362
 31
0.0
  0
LINE
  5
2B59
330
1D
100
AcDbEntity
  8
0
100
AcDbLine
 10
348.364600069181
 20
648.589640608042
 30
0.0
 11
349.566725748486
 21
649.283850426798
 31
0.0
  0
LINE
  5
2B5A
330
1D
100
AcDbEntity
  8
0
100
AcDbLine
 10
348.364600069181
 20
648.589640608042
 30
0.0
 11
348.589677691071
 21
648.200171677029
 31
0.0
  0
LINE
  5
2B5B
330
1D
100
AcDbEntity
  8
0
100
AcDbLine
 10
354.703741257419
 20
641.236050907631
 30
0.0
 11
354.896892572596
 21
640.331434204577
 31
0.0
  0
LINE
  5
2B5C
330
1D
100
AcDbEntity
  8
0
100
AcDbLine
 10
352.405326414915
 20
641.857641586258
 30
0.0
 11
352.930304577699
 21
640.948245164944
 31
0.0
  0
LINE
  5
2B5D
330
1D
100
AcDbEntity
  8
0
100
AcDbLine
 10
352.180239396099
 20
642.247113937473
 30
0.0
 11
354.009395906383
 21
643.303428533825
 31
0.0
  0
LINE
  5
2B5E
330
1D
100
AcDbEntity
  8
0
100
AcDbLine
 10
352.180239396099
 20
642.247113937473
 30
0.0
 11
352.405326414915
 21
641.857641586258
 31
0.0
  0
LINE
  5
2B5F
330
1D
100
AcDbEntity
  8
0
100
AcDbLine
 10
358.730613786239
 20
634.899647505334
 30
0.0
 11
358.95151980016
 21
634.273321094416
 31
0.0
  0
LINE
  5
2B60
330
1D
100
AcDbEntity
  8
0
100
AcDbLine
 10
357.567385184542
 20
636.539383285939
 30
0.0
 11
357.872345146533
 21
636.442221248174
 31
0.0
  0
LINE
  5
2B61
330
1D
100
AcDbEntity
  8
0
100
AcDbLine
 10
357.567385184542
 20
636.539383285939
 30
0.0
 11
357.496882073004
 21
636.273459610304
 31
0.0
  0
LINE
  5
2B62
330
1D
100
AcDbEntity
  8
0
100
AcDbLine
 10
357.872345146533
 20
636.442221248174
 30
0.0
 11
358.320079808768
 21
635.804635871747
 31
0.0
  0
LINE
  5
2B63
330
1D
100
AcDbEntity
  8
0
100
AcDbLine
 10
357.496882073004
 20
636.273459610304
 30
0.0
 11
357.542724390341
 21
635.764908874007
 31
0.0
  0
LINE
  5
2B64
330
1D
100
AcDbEntity
  8
0
100
AcDbLine
 10
358.320079808768
 20
635.804635871747
 30
0.0
 11
358.730613786239
 21
634.899647505334
 31
0.0
  0
LINE
  5
2B65
330
1D
100
AcDbEntity
  8
0
100
AcDbLine
 10
356.902032803049
 20
635.394928110564
 30
0.0
 11
358.115646145622
 21
636.095754529884
 31
0.0
  0
LINE
  5
2B66
330
1D
100
AcDbEntity
  8
0
100
AcDbLine
 10
356.902032803049
 20
635.394928110564
 30
0.0
 11
358.115646145622
 21
636.095754529884
 31
0.0
  0
LINE
  5
2B67
330
1D
100
AcDbEntity
  8
0
100
AcDbLine
 10
356.902032803049
 20
635.394928110564
 30
0.0
 11
357.127194997275
 21
635.005428397738
 31
0.0
  0
LINE
  5
2B68
330
1D
100
AcDbEntity
  8
0
100
AcDbLine
 10
355.375128225622
 20
636.305047125547
 30
0.0
 11
356.119188865992
 21
635.147771115491
 31
0.0
  0
LINE
  5
2B69
330
1D
100
AcDbEntity
  8
0
100
AcDbLine
 10
358.95151980016
 20
634.273321094416
 30
0.0
 11
359.152583142114
 21
633.515873715041
 31
0.0
  0
LINE
  5
2B6A
330
1D
100
AcDbEntity
  8
0
100
AcDbLine
 10
359.152583142114
 20
633.515873715041
 30
0.0
 11
359.179480682344
 21
632.799469770098
 31
0.0
  0
LINE
  5
2B6B
330
1D
100
AcDbEntity
  8
0
100
AcDbLine
 10
357.652126175428
 20
634.096049077431
 30
0.0
 11
358.177057353581
 21
633.186669757124
 31
0.0
  0
LINE
  5
2B6C
330
1D
100
AcDbEntity
  8
0
100
AcDbLine
 10
358.177057353581
 20
633.186669757124
 30
0.0
 11
358.402219547807
 21
632.797170044298
 31
0.0
  0
LINE
  5
2B6D
330
1D
100
AcDbEntity
  8
0
100
AcDbLine
 10
358.852952090734
 20
632.649079481645
 30
0.0
 11
359.179480682344
 21
632.799469770098
 31
0.0
  0
LINE
  5
2B6E
330
1D
100
AcDbEntity
  8
0
100
AcDbLine
 10
358.633073146863
 20
632.930446432771
 30
0.0
 11
358.852952090734
 21
632.649079481645
 31
0.0
  0
LINE
  5
2B6F
330
1D
100
AcDbEntity
  8
0
100
AcDbLine
 10
358.402219547807
 20
632.797170044298
 30
0.0
 11
359.163075025713
 21
633.236427091447
 31
0.0
  0
LINE
  5
2B70
330
1D
100
AcDbEntity
  8
0
100
AcDbLine
 10
356.119188865992
 20
635.147771115491
 30
0.0
 11
356.938612899786
 21
633.818336896419
 31
0.0
  0
LINE
  5
2B71
330
1D
100
AcDbEntity
  8
0
100
AcDbLine
 10
357.127194997275
 20
635.005428397738
 30
0.0
 11
357.652126175428
 21
634.096049077431
 31
0.0
  0
LINE
  5
2B72
330
1D
100
AcDbEntity
  8
0
100
AcDbLine
 10
355.216138979945
 20
634.676192709168
 30
0.0
 11
355.626891346989
 21
633.613626545125
 31
0.0
  0
LINE
  5
2B73
330
1D
100
AcDbEntity
  8
0
100
AcDbLine
 10
354.512548866666
 20
635.252596077041
 30
0.0
 11
354.629871330443
 21
634.679046917074
 31
0.0
  0
LINE
  5
2B74
330
1D
100
AcDbEntity
  8
0
100
AcDbLine
 10
354.87161432658
 20
635.354961869651
 30
0.0
 11
355.216138979945
 21
634.676192709168
 31
0.0
  0
LINE
  5
2B75
330
1D
100
AcDbEntity
  8
0
100
AcDbLine
 10
355.626891346989
 20
633.613626545125
 30
0.0
 11
355.901826980015
 21
632.784596384219
 31
0.0
  0
LINE
  5
2B76
330
1D
100
AcDbEntity
  8
0
100
AcDbLine
 10
355.901826980015
 20
632.784596384219
 30
0.0
 11
356.243127897373
 21
631.342920927047
 31
0.0
  0
LINE
  5
2B77
330
1D
100
AcDbEntity
  8
0
100
AcDbLine
 10
356.938612899786
 20
633.818336896419
 30
0.0
 11
358.220063968873
 21
631.644985703551
 31
0.0
  0
LINE
  5
2B78
330
1D
100
AcDbEntity
  8
0
100
AcDbLine
 10
353.972626277729
 20
633.504859037908
 30
0.0
 11
353.971019890762
 21
633.272388782777
 31
0.0
  0
LINE
  5
2B79
330
1D
100
AcDbEntity
  8
0
100
AcDbLine
 10
354.182180348282
 20
633.901082524737
 30
0.0
 11
354.707205495697
 21
632.991669002415
 31
0.0
  0
LINE
  5
2B7A
330
1D
100
AcDbEntity
  8
0
100
AcDbLine
 10
354.896892572596
 20
640.331434204577
 30
0.0
 11
354.997177354682
 21
639.550009088214
 31
0.0
  0
LINE
  5
2B7B
330
1D
100
AcDbEntity
  8
0
100
AcDbLine
 10
352.930304577699
 20
640.948245164944
 30
0.0
 11
353.455282740484
 21
640.03884874363
 31
0.0
  0
LINE
  5
2B7C
330
1D
100
AcDbEntity
  8
0
100
AcDbLine
 10
354.997177354682
 20
639.550009088214
 30
0.0
 11
354.874633971188
 21
639.163619234359
 31
0.0
  0
LINE
  5
2B7D
330
1D
100
AcDbEntity
  8
0
100
AcDbLine
 10
354.321029738428
 20
640.019246783256
 30
0.0
 11
354.560413818669
 21
639.496142460241
 31
0.0
  0
LINE
  5
2B7E
330
1D
100
AcDbEntity
  8
0
100
AcDbLine
 10
354.560413818669
 20
639.496142460241
 30
0.0
 11
354.874633971188
 21
639.163619234359
 31
0.0
  0
LINE
  5
2B7F
330
1D
100
AcDbEntity
  8
0
100
AcDbLine
 10
353.455282740484
 20
640.03884874363
 30
0.0
 11
353.680350965447
 21
639.649383232818
 31
0.0
  0
LINE
  5
2B80
330
1D
100
AcDbEntity
  8
0
100
AcDbLine
 10
353.680350965447
 20
639.649383232818
 30
0.0
 11
354.89304181425
 21
640.349469082136
 31
0.0
  0
LINE
  5
2B81
330
1D
100
AcDbEntity
  8
0
100
AcDbLine
 10
353.782741137913
 20
633.644929451832
 30
0.0
 11
353.971019890762
 21
633.272388782777
 31
0.0
  0
LINE
  5
2B82
330
1D
100
AcDbEntity
  8
0
100
AcDbLine
 10
353.436430223282
 20
635.413344655144
 30
0.0
 11
353.819633085572
 21
634.130943291946
 31
0.0
  0
LINE
  5
2B83
330
1D
100
AcDbEntity
  8
0
100
AcDbLine
 10
354.639650592445
 20
637.393220154571
 30
0.0
 11
355.375128225622
 21
636.305047125547
 31
0.0
  0
LINE
  5
2B84
330
1D
100
AcDbEntity
  8
0
100
AcDbLine
 10
354.584973430596
 20
635.77641559991
 30
0.0
 11
354.87161432658
 21
635.354961869651
 31
0.0
  0
LINE
  5
2B85
330
1D
100
AcDbEntity
  8
0
100
AcDbLine
 10
353.819633085572
 20
634.130943291946
 30
0.0
 11
353.972626277729
 21
633.504859037908
 31
0.0
  0
LINE
  5
2B86
330
1D
100
AcDbEntity
  8
0
100
AcDbLine
 10
354.491287520072
 20
635.612577417031
 30
0.0
 11
354.512548866666
 21
635.252596077041
 31
0.0
  0
LINE
  5
2B87
330
1D
100
AcDbEntity
  8
0
100
AcDbLine
 10
354.491287520072
 20
635.612577417031
 30
0.0
 11
354.584973430596
 21
635.77641559991
 31
0.0
  0
LINE
  5
2B88
330
1D
100
AcDbEntity
  8
0
100
AcDbLine
 10
353.957112123318
 20
634.290548035548
 30
0.0
 11
355.082129558192
 21
634.940212894113
 31
0.0
  0
LINE
  5
2B89
330
1D
100
AcDbEntity
  8
0
100
AcDbLine
 10
353.957112123318
 20
634.290548035548
 30
0.0
 11
354.182180348282
 21
633.901082524737
 31
0.0
  0
LINE
  5
2B8A
330
1D
100
AcDbEntity
  8
0
100
AcDbLine
 10
353.123904203354
 20
633.783971632516
 30
0.0
 11
353.348972428318
 21
633.394506121704
 31
0.0
  0
LINE
  5
2B8B
330
1D
100
AcDbEntity
  8
0
100
AcDbLine
 10
353.908798904172
 20
638.37861258896
 30
0.0
 11
354.639650592445
 21
637.393220154571
 31
0.0
  0
LINE
  5
2B8C
330
1D
100
AcDbEntity
  8
0
100
AcDbLine
 10
353.2584697789
 20
639.251691340976
 30
0.0
 11
353.908798904172
 21
638.37861258896
 31
0.0
  0
LINE
  5
2B8D
330
1D
100
AcDbEntity
  8
0
100
AcDbLine
 10
351.88564805446
 20
638.548836702728
 30
0.0
 11
351.982226441257
 21
638.207201846187
 31
0.0
  0
LINE
  5
2B8E
330
1D
100
AcDbEntity
  8
0
100
AcDbLine
 10
351.88564805446
 20
638.548836702728
 30
0.0
 11
351.952876838037
 21
638.320479951636
 31
0.0
  0
LINE
  5
2B8F
330
1D
100
AcDbEntity
  8
0
100
AcDbLine
 10
352.706139372572
 20
637.083863446828
 30
0.0
 11
352.82771655243
 21
636.557540914718
 31
0.0
  0
LINE
  5
2B90
330
1D
100
AcDbEntity
  8
0
100
AcDbLine
 10
352.739016117984
 20
637.261320933599
 30
0.0
 11
352.974826590607
 21
636.737051698376
 31
0.0
  0
LINE
  5
2B91
330
1D
100
AcDbEntity
  8
0
100
AcDbLine
 10
352.739016117984
 20
637.261320933599
 30
0.0
 11
352.706139372572
 21
637.083863446828
 31
0.0
  0
LINE
  5
2B92
330
1D
100
AcDbEntity
  8
0
100
AcDbLine
 10
352.134304914948
 20
637.703830966279
 30
0.0
 11
352.342024848985
 21
637.022709940686
 31
0.0
  0
LINE
  5
2B93
330
1D
100
AcDbEntity
  8
0
100
AcDbLine
 10
351.982226441257
 20
638.207201846187
 30
0.0
 11
352.134304914948
 21
637.703830966279
 31
0.0
  0
LINE
  5
2B94
330
1D
100
AcDbEntity
  8
0
100
AcDbLine
 10
352.974826590607
 20
636.737051698376
 30
0.0
 11
353.436430223282
 21
635.413344655144
 31
0.0
  0
LINE
  5
2B95
330
1D
100
AcDbEntity
  8
0
100
AcDbLine
 10
352.598879055939
 20
634.693385154838
 30
0.0
 11
353.123904203354
 21
633.783971632516
 31
0.0
  0
LINE
  5
2B96
330
1D
100
AcDbEntity
  8
0
100
AcDbLine
 10
352.342024848985
 20
637.022709940686
 30
0.0
 11
352.537055797651
 21
636.389690404667
 31
0.0
  0
LINE
  5
2B97
330
1D
100
AcDbEntity
  8
0
100
AcDbLine
 10
351.537208751277
 20
636.579228025757
 30
0.0
 11
351.869666798264
 21
636.004287208304
 31
0.0
  0
LINE
  5
2B98
330
1D
100
AcDbEntity
  8
0
100
AcDbLine
 10
351.848823271264
 20
635.992250507165
 30
0.0
 11
353.002273586116
 21
636.658343952815
 31
0.0
  0
LINE
  5
2B99
330
1D
100
AcDbEntity
  8
0
100
AcDbLine
 10
351.848823271264
 20
635.992250507165
 30
0.0
 11
352.073947877785
 21
635.602764475145
 31
0.0
  0
LINE
  5
2B9A
330
1D
100
AcDbEntity
  8
0
100
AcDbLine
 10
352.073947877785
 20
635.602764475145
 30
0.0
 11
352.598879055939
 21
634.693385154838
 31
0.0
  0
LINE
  5
2B9B
330
1D
100
AcDbEntity
  8
0
100
AcDbLine
 10
351.312463752604
 20
636.969640069593
 30
0.0
 11
352.201657756984
 21
637.482978610162
 31
0.0
  0
LINE
  5
2B9C
330
1D
100
AcDbEntity
  8
0
100
AcDbLine
 10
351.312463752604
 20
636.969640069593
 30
0.0
 11
351.537208751277
 21
636.579228025757
 31
0.0
  0
LINE
  5
2B9D
330
1D
100
AcDbEntity
  8
0
100
AcDbLine
 10
357.775260653474
 20
624.57792126203
 30
0.0
 11
358.3372870215
 21
623.230433465557
 31
0.0
  0
LINE
  5
2B9E
330
1D
100
AcDbEntity
  8
0
100
AcDbLine
 10
359.91048478989
 20
623.869934788099
 30
0.0
 11
361.213719427074
 21
621.774853424418
 31
0.0
  0
LINE
  5
2B9F
330
1D
100
AcDbEntity
  8
0
100
AcDbLine
 10
361.15305669309
 20
626.370768920019
 30
0.0
 11
361.659867738354
 21
625.441486624999
 31
0.0
  0
LINE
  5
2BA0
330
1D
100
AcDbEntity
  8
0
100
AcDbLine
 10
358.986551733759
 20
625.243792247149
 30
0.0
 11
359.91048478989
 21
623.869934788099
 31
0.0
  0
LINE
  5
2BA1
330
1D
100
AcDbEntity
  8
0
100
AcDbLine
 10
360.015349838407
 20
625.438675468262
 30
0.0
 11
360.341013443867
 21
625.321207787264
 31
0.0
  0
LINE
  5
2BA2
330
1D
100
AcDbEntity
  8
0
100
AcDbLine
 10
360.353073832076
 20
625.803147406964
 30
0.0
 11
360.341013443867
 21
625.321207787264
 31
0.0
  0
LINE
  5
2BA3
330
1D
100
AcDbEntity
  8
0
100
AcDbLine
 10
359.916053283199
 20
625.592831036795
 30
0.0
 11
360.015349838407
 21
625.438675468262
 31
0.0
  0
LINE
  5
2BA4
330
1D
100
AcDbEntity
  8
0
100
AcDbLine
 10
360.224449084609
 20
626.407592139209
 30
0.0
 11
360.353073832076
 21
625.803147406964
 31
0.0
  0
LINE
  5
2BA5
330
1D
100
AcDbEntity
  8
0
100
AcDbLine
 10
359.951648489159
 20
627.233716854444
 30
0.0
 11
360.224449084609
 21
626.407592139209
 31
0.0
  0
LINE
  5
2BA6
330
1D
100
AcDbEntity
  8
0
100
AcDbLine
 10
359.357580860792
 20
625.789822463248
 30
0.0
 11
359.582649085756
 21
625.400356952436
 31
0.0
  0
LINE
  5
2BA7
330
1D
100
AcDbEntity
  8
0
100
AcDbLine
 10
359.582649085756
 20
625.400356952436
 30
0.0
 11
360.345118807294
 21
625.840530359459
 31
0.0
  0
LINE
  5
2BA8
330
1D
100
AcDbEntity
  8
0
100
AcDbLine
 10
359.595427029981
 20
629.18524320887
 30
0.0
 11
361.15305669309
 21
626.370768920019
 31
0.0
  0
LINE
  5
2BA9
330
1D
100
AcDbEntity
  8
0
100
AcDbLine
 10
359.420501444861
 20
628.387991097132
 30
0.0
 11
359.951648489159
 21
627.233716854444
 31
0.0
  0
LINE
  5
2BAA
330
1D
100
AcDbEntity
  8
0
100
AcDbLine
 10
358.832649682639
 20
626.699201783555
 30
0.0
 11
359.357580860792
 21
625.789822463248
 31
0.0
  0
LINE
  5
2BAB
330
1D
100
AcDbEntity
  8
0
100
AcDbLine
 10
358.3372870215
 20
623.230433465557
 30
0.0
 11
358.783145276504
 21
621.908200560035
 31
0.0
  0
LINE
  5
2BAC
330
1D
100
AcDbEntity
  8
0
100
AcDbLine
 10
358.031507949693
 20
626.60556117414
 30
0.0
 11
358.986551733759
 21
625.243792247149
 31
0.0
  0
LINE
  5
2BAD
330
1D
100
AcDbEntity
  8
0
100
AcDbLine
 10
358.891793586729
 20
629.122091506306
 30
0.0
 11
359.420501444861
 21
628.387991097132
 31
0.0
  0
LINE
  5
2BAE
330
1D
100
AcDbEntity
  8
0
100
AcDbLine
 10
357.012618281386
 20
623.534855769218
 30
0.0
 11
357.220927564564
 21
622.954617126466
 31
0.0
  0
LINE
  5
2BAF
330
1D
100
AcDbEntity
  8
0
100
AcDbLine
 10
358.220063968873
 20
631.644985703551
 30
0.0
 11
359.595427029981
 21
629.18524320887
 31
0.0
  0
LINE
  5
2BB0
330
1D
100
AcDbEntity
  8
0
100
AcDbLine
 10
358.645936185463
 20
629.067912282956
 30
0.0
 11
358.891793586729
 21
629.122091506306
 31
0.0
  0
LINE
  5
2BB1
330
1D
100
AcDbEntity
  8
0
100
AcDbLine
 10
358.645936185463
 20
629.067912282956
 30
0.0
 11
358.656152715287
 21
628.627880883488
 31
0.0
  0
LINE
  5
2BB2
330
1D
100
AcDbEntity
  8
0
100
AcDbLine
 10
356.243127897373
 20
631.342920927047
 30
0.0
 11
356.156129751865
 21
630.998930908764
 31
0.0
  0
LINE
  5
2BB3
330
1D
100
AcDbEntity
  8
0
100
AcDbLine
 10
355.645979535559
 20
631.801719082969
 30
0.0
 11
355.794996787239
 21
631.476230334555
 31
0.0
  0
LINE
  5
2BB4
330
1D
100
AcDbEntity
  8
0
100
AcDbLine
 10
355.794996787239
 20
631.476230334555
 30
0.0
 11
356.156129751865
 21
630.998930908764
 31
0.0
  0
LINE
  5
2BB5
330
1D
100
AcDbEntity
  8
0
100
AcDbLine
 10
355.457298868076
 20
631.692789969282
 30
0.0
 11
356.075771038711
 21
632.049846292468
 31
0.0
  0
LINE
  5
2BB6
330
1D
100
AcDbEntity
  8
0
100
AcDbLine
 10
353.458285637389
 20
633.457614818199
 30
0.0
 11
354.546384188684
 21
630.278020073904
 31
0.0
  0
LINE
  5
2BB7
330
1D
100
AcDbEntity
  8
0
100
AcDbLine
 10
354.550319845145
 20
630.26807418992
 30
0.0
 11
354.548909652185
 21
630.150463725437
 31
0.0
  0
LINE
  5
2BB8
330
1D
100
AcDbEntity
  8
0
100
AcDbLine
 10
355.23213667385
 20
632.082289682108
 30
0.0
 11
355.457298868076
 21
631.692789969282
 31
0.0
  0
LINE
  5
2BB9
330
1D
100
AcDbEntity
  8
0
100
AcDbLine
 10
354.707205495697
 20
632.991669002415
 30
0.0
 11
355.23213667385
 21
632.082289682108
 31
0.0
  0
LINE
  5
2BBA
330
1D
100
AcDbEntity
  8
0
100
AcDbLine
 10
353.348972428318
 20
633.394506121704
 30
0.0
 11
353.919153336345
 21
633.723682935533
 31
0.0
  0
LINE
  5
2BBB
330
1D
100
AcDbEntity
  8
0
100
AcDbLine
 10
357.257001946958
 20
625.602995734017
 30
0.0
 11
357.775260653474
 21
624.57792126203
 31
0.0
  0
LINE
  5
2BBC
330
1D
100
AcDbEntity
  8
0
100
AcDbLine
 10
357.264321735537
 20
627.581844799906
 30
0.0
 11
358.031507949693
 21
626.60556117414
 31
0.0
  0
LINE
  5
2BBD
330
1D
100
AcDbEntity
  8
0
100
AcDbLine
 10
358.656152715287
 20
628.627880883488
 30
0.0
 11
358.697666467802
 21
628.397807203219
 31
0.0
  0
LINE
  5
2BBE
330
1D
100
AcDbEntity
  8
0
100
AcDbLine
 10
358.307624535224
 20
627.608615305877
 30
0.0
 11
358.832649682639
 21
626.699201783555
 31
0.0
  0
LINE
  5
2BBF
330
1D
100
AcDbEntity
  8
0
100
AcDbLine
 10
358.08255631026
 20
627.998080816688
 30
0.0
 11
359.22591801648
 21
628.658166340788
 31
0.0
  0
LINE
  5
2BC0
330
1D
100
AcDbEntity
  8
0
100
AcDbLine
 10
358.08255631026
 20
627.998080816688
 30
0.0
 11
358.307624535224
 21
627.608615305877
 31
0.0
  0
LINE
  5
2BC1
330
1D
100
AcDbEntity
  8
0
100
AcDbLine
 10
356.951302591476
 20
625.945187776675
 30
0.0
 11
356.975887418413
 21
625.556328166681
 31
0.0
  0
LINE
  5
2BC2
330
1D
100
AcDbEntity
  8
0
100
AcDbLine
 10
356.951302591476
 20
625.945187776675
 30
0.0
 11
357.257001946958
 21
625.602995734017
 31
0.0
  0
LINE
  5
2BC3
330
1D
100
AcDbEntity
  8
0
100
AcDbLine
 10
356.743741278857
 20
624.246414456153
 30
0.0
 11
357.012618281386
 21
623.534855769218
 31
0.0
  0
LINE
  5
2BC4
330
1D
100
AcDbEntity
  8
0
100
AcDbLine
 10
356.810499217694
 20
624.130932378465
 30
0.0
 11
357.335430395847
 21
623.221553058158
 31
0.0
  0
LINE
  5
2BC5
330
1D
100
AcDbEntity
  8
0
100
AcDbLine
 10
356.374191361724
 20
625.187901490984
 30
0.0
 11
356.626794297788
 21
624.544365356006
 31
0.0
  0
LINE
  5
2BC6
330
1D
100
AcDbEntity
  8
0
100
AcDbLine
 10
356.975887418413
 20
625.556328166681
 30
0.0
 11
357.183524622896
 21
624.86576550748
 31
0.0
  0
LINE
  5
2BC7
330
1D
100
AcDbEntity
  8
0
100
AcDbLine
 10
355.809820636292
 20
624.20569324205
 30
0.0
 11
356.334845783708
 21
623.296279719728
 31
0.0
  0
LINE
  5
2BC8
330
1D
100
AcDbEntity
  8
0
100
AcDbLine
 10
356.585337023468
 20
624.520432091291
 30
0.0
 11
357.528920537563
 21
625.065162404479
 31
0.0
  0
LINE
  5
2BC9
330
1D
100
AcDbEntity
  8
0
100
AcDbLine
 10
356.585337023468
 20
624.520432091291
 30
0.0
 11
356.810499217694
 21
624.130932378465
 31
0.0
  0
LINE
  5
2BCA
330
1D
100
AcDbEntity
  8
0
100
AcDbLine
 10
356.343730430759
 20
628.625640790536
 30
0.0
 11
357.264321735537
 21
627.581844799906
 31
0.0
  0
LINE
  5
2BCB
330
1D
100
AcDbEntity
  8
0
100
AcDbLine
 10
355.669310149283
 20
629.26698382974
 30
0.0
 11
356.343730430759
 21
628.625640790536
 31
0.0
  0
LINE
  5
2BCC
330
1D
100
AcDbEntity
  8
0
100
AcDbLine
 10
355.178409130057
 20
629.658492743204
 30
0.0
 11
355.669310149283
 21
629.26698382974
 31
0.0
  0
LINE
  5
2BCD
330
1D
100
AcDbEntity
  8
0
100
AcDbLine
 10
354.975437576528
 20
629.797283191213
 30
0.0
 11
355.178409130057
 21
629.658492743204
 31
0.0
  0
LINE
  5
2BCE
330
1D
100
AcDbEntity
  8
0
100
AcDbLine
 10
354.49141086231
 20
630.061781262893
 30
0.0
 11
354.548909652185
 21
630.150463725437
 31
0.0
  0
LINE
  5
2BCF
330
1D
100
AcDbEntity
  8
0
100
AcDbLine
 10
354.49141086231
 20
630.061781262893
 30
0.0
 11
354.427363975871
 21
629.844588246575
 31
0.0
  0
LINE
  5
2BD0
330
1D
100
AcDbEntity
  8
0
100
AcDbLine
 10
354.427363975871
 20
629.844588246575
 30
0.0
 11
355.896020780197
 21
625.98750746546
 31
0.0
  0
LINE
  5
2BD1
330
1D
100
AcDbEntity
  8
0
100
AcDbLine
 10
355.7035178275
 20
626.714340910186
 30
0.0
 11
355.910999296815
 21
626.31105707727
 31
0.0
  0
LINE
  5
2BD2
330
1D
100
AcDbEntity
  8
0
100
AcDbLine
 10
355.910999296815
 20
626.31105707727
 30
0.0
 11
356.374191361724
 21
625.187901490984
 31
0.0
  0
LINE
  5
2BD3
330
1D
100
AcDbEntity
  8
0
100
AcDbLine
 10
355.929458913582
 20
626.00681701527
 30
0.0
 11
356.015885987901
 21
626.056726137807
 31
0.0
  0
LINE
  5
2BD4
330
1D
100
AcDbEntity
  8
0
100
AcDbLine
 10
355.929458913582
 20
626.00681701527
 30
0.0
 11
356.015885987901
 21
626.056726137807
 31
0.0
  0
LINE
  5
2BD5
330
1D
100
AcDbEntity
  8
0
100
AcDbLine
 10
355.284889458139
 20
625.115072562357
 30
0.0
 11
355.809820636292
 21
624.20569324205
 31
0.0
  0
LINE
  5
2BD6
330
1D
100
AcDbEntity
  8
0
100
AcDbLine
 10
355.059727263913
 20
625.504572275183
 30
0.0
 11
355.896020780197
 21
625.98750746546
 31
0.0
  0
LINE
  5
2BD7
330
1D
100
AcDbEntity
  8
0
100
AcDbLine
 10
355.059727263913
 20
625.504572275183
 30
0.0
 11
355.284889458139
 21
625.115072562357
 31
0.0
  0
LINE
  5
2BD8
330
1D
100
AcDbEntity
  8
0
100
AcDbLine
 10
351.048323592079
 20
641.573636269906
 30
0.0
 11
351.88564805446
 21
638.548836702728
 31
0.0
  0
LINE
  5
2BD9
330
1D
100
AcDbEntity
  8
0
100
AcDbLine
 10
351.048121664092
 20
641.676935009613
 30
0.0
 11
351.100655146129
 21
641.766360518641
 31
0.0
  0
LINE
  5
2BDA
330
1D
100
AcDbEntity
  8
0
100
AcDbLine
 10
351.048121664092
 20
641.676935009613
 30
0.0
 11
351.048323592079
 21
641.573636269906
 31
0.0
  0
LINE
  5
2BDB
330
1D
100
AcDbEntity
  8
0
100
AcDbLine
 10
351.100655146129
 20
641.766360518641
 30
0.0
 11
351.194462400193
 21
641.88971578073
 31
0.0
  0
LINE
  5
2BDC
330
1D
100
AcDbEntity
  8
0
100
AcDbLine
 10
362.41611674533
 20
619.74627082096
 30
0.0
 11
363.95923848811
 21
617.04455893829
 31
0.0
  0
LINE
  5
2BDD
330
1D
100
AcDbEntity
  8
0
100
AcDbLine
 10
360.901300345806
 20
620.653054276772
 30
0.0
 11
361.264667775688
 21
620.394162193269
 31
0.0
  0
LINE
  5
2BDE
330
1D
100
AcDbEntity
  8
0
100
AcDbLine
 10
360.901300345806
 20
620.653054276772
 30
0.0
 11
360.986803521063
 21
620.061108302564
 31
0.0
  0
LINE
  5
2BDF
330
1D
100
AcDbEntity
  8
0
100
AcDbLine
 10
361.264667775688
 20
620.394162193269
 30
0.0
 11
361.818262330603
 21
619.512660656816
 31
0.0
  0
LINE
  5
2BE0
330
1D
100
AcDbEntity
  8
0
100
AcDbLine
 10
362.355402001847
 20
618.312573987622
 30
0.0
 11
362.588214503305
 21
617.588266325669
 31
0.0
  0
LINE
  5
2BE1
330
1D
100
AcDbEntity
  8
0
100
AcDbLine
 10
361.818262330603
 20
619.512660656816
 30
0.0
 11
362.355402001847
 21
618.312573987622
 31
0.0
  0
LINE
  5
2BE2
330
1D
100
AcDbEntity
  8
0
100
AcDbLine
 10
360.986803521063
 20
620.061108302564
 30
0.0
 11
361.344240585757
 21
620.267456549738
 31
0.0
  0
LINE
  5
2BE3
330
1D
100
AcDbEntity
  8
0
100
AcDbLine
 10
358.784611657645
 20
621.318112354996
 30
0.0
 11
358.871353542026
 21
621.401472090444
 31
0.0
  0
LINE
  5
2BE4
330
1D
100
AcDbEntity
  8
0
100
AcDbLine
 10
357.028663003258
 20
623.012889748389
 30
0.0
 11
358.547959681779
 21
619.394014817884
 31
0.0
  0
LINE
  5
2BE5
330
1D
100
AcDbEntity
  8
0
100
AcDbLine
 10
361.213719427074
 20
621.774853424418
 30
0.0
 11
362.41611674533
 21
619.74627082096
 31
0.0
  0
LINE
  5
2BE6
330
1D
100
AcDbEntity
  8
0
100
AcDbLine
 10
357.335430395847
 20
623.221553058158
 30
0.0
 11
357.860455543262
 21
622.312139535836
 31
0.0
  0
LINE
  5
2BE7
330
1D
100
AcDbEntity
  8
0
100
AcDbLine
 10
358.783145276504
 20
621.908200560035
 30
0.0
 11
358.871353542026
 21
621.401472090444
 31
0.0
  0
LINE
  5
2BE8
330
1D
100
AcDbEntity
  8
0
100
AcDbLine
 10
358.523580160023
 20
621.696191337815
 30
0.0
 11
358.784611657645
 21
621.318112354996
 31
0.0
  0
LINE
  5
2BE9
330
1D
100
AcDbEntity
  8
0
100
AcDbLine
 10
358.330336046589
 20
622.06400903755
 30
0.0
 11
358.523580160023
 21
621.696191337815
 31
0.0
  0
LINE
  5
2BEA
330
1D
100
AcDbEntity
  8
0
100
AcDbLine
 10
358.371607845491
 20
622.087836070466
 30
0.0
 11
358.665382123284
 21
622.257437822097
 31
0.0
  0
LINE
  5
2BEB
330
1D
100
AcDbEntity
  8
0
100
AcDbLine
 10
358.371607845491
 20
622.087836070466
 30
0.0
 11
358.665382123284
 21
622.257437822097
 31
0.0
  0
LINE
  5
2BEC
330
1D
100
AcDbEntity
  8
0
100
AcDbLine
 10
357.220927564564
 20
622.954617126466
 30
0.0
 11
357.26943650083
 21
622.717740696439
 31
0.0
  0
LINE
  5
2BED
330
1D
100
AcDbEntity
  8
0
100
AcDbLine
 10
357.12837129251
 20
623.000010809986
 30
0.0
 11
357.26943650083
 21
622.717740696439
 31
0.0
  0
LINE
  5
2BEE
330
1D
100
AcDbEntity
  8
0
100
AcDbLine
 10
357.860455543262
 20
622.312139535836
 30
0.0
 11
358.085523768226
 21
621.922674025025
 31
0.0
  0
LINE
  5
2BEF
330
1D
100
AcDbEntity
  8
0
100
AcDbLine
 10
358.085523768226
 20
621.922674025025
 30
0.0
 11
358.665382123284
 21
622.257437822097
 31
0.0
  0
LINE
  5
2BF0
330
1D
100
AcDbEntity
  8
0
100
AcDbLine
 10
357.046557517612
 20
623.187763215605
 30
0.0
 11
357.12837129251
 21
623.000010809986
 31
0.0
  0
LINE
  5
2BF1
330
1D
100
AcDbEntity
  8
0
100
AcDbLine
 10
356.977300966385
 20
623.147780026851
 30
0.0
 11
357.028663003258
 21
623.012889748389
 31
0.0
  0
LINE
  5
2BF2
330
1D
100
AcDbEntity
  8
0
100
AcDbLine
 10
356.334845783708
 20
623.296279719728
 30
0.0
 11
356.559914008671
 21
622.906814208917
 31
0.0
  0
LINE
  5
2BF3
330
1D
100
AcDbEntity
  8
0
100
AcDbLine
 10
356.559914008671
 20
622.906814208917
 30
0.0
 11
357.121660677655
 21
623.231121768274
 31
0.0
  0
LINE
  5
2BF4
330
1D
100
AcDbEntity
  8
0
100
AcDbLine
 10
360.11191837333
 20
619.036551783261
 30
0.0
 11
360.636849551483
 21
618.127172462953
 31
0.0
  0
LINE
  5
2BF5
330
1D
100
AcDbEntity
  8
0
100
AcDbLine
 10
359.886756179104
 20
619.426051496086
 30
0.0
 11
361.344240585757
 21
620.267456549738
 31
0.0
  0
LINE
  5
2BF6
330
1D
100
AcDbEntity
  8
0
100
AcDbLine
 10
359.886756179104
 20
619.426051496086
 30
0.0
 11
360.11191837333
 21
619.036551783261
 31
0.0
  0
LINE
  5
2BF7
330
1D
100
AcDbEntity
  8
0
100
AcDbLine
 10
360.208491371466
 20
616.039795345705
 30
0.0
 11
360.268195800264
 21
615.727544178883
 31
0.0
  0
LINE
  5
2BF8
330
1D
100
AcDbEntity
  8
0
100
AcDbLine
 10
360.208491371466
 20
616.039795345705
 30
0.0
 11
360.502205518291
 21
615.644499962536
 31
0.0
  0
LINE
  5
2BF9
330
1D
100
AcDbEntity
  8
0
100
AcDbLine
 10
362.588214503305
 20
617.588266325669
 30
0.0
 11
362.689586066971
 21
617.073554274051
 31
0.0
  0
LINE
  5
2BFA
330
1D
100
AcDbEntity
  8
0
100
AcDbLine
 10
362.029775774142
 20
616.006895276303
 30
0.0
 11
363.231200151665
 21
614.242582881885
 31
0.0
  0
LINE
  5
2BFB
330
1D
100
AcDbEntity
  8
0
100
AcDbLine
 10
362.565419604599
 20
616.803750549796
 30
0.0
 11
362.689586066971
 21
617.073554274051
 31
0.0
  0
LINE
  5
2BFC
330
1D
100
AcDbEntity
  8
0
100
AcDbLine
 10
362.146852510527
 20
617.267004395083
 30
0.0
 11
362.565419604599
 21
616.803750549796
 31
0.0
  0
LINE
  5
2BFD
330
1D
100
AcDbEntity
  8
0
100
AcDbLine
 10
360.541171677693
 20
617.814010229491
 30
0.0
 11
361.241557227284
 21
617.032322739554
 31
0.0
  0
LINE
  5
2BFE
330
1D
100
AcDbEntity
  8
0
100
AcDbLine
 10
359.933001124515
 20
618.378031450942
 30
0.0
 11
360.541171677693
 21
617.814010229491
 31
0.0
  0
LINE
  5
2BFF
330
1D
100
AcDbEntity
  8
0
100
AcDbLine
 10
360.636849551483
 20
618.127172462953
 30
0.0
 11
361.161874698899
 21
617.217758940632
 31
0.0
  0
LINE
  5
2C00
330
1D
100
AcDbEntity
  8
0
100
AcDbLine
 10
361.241557227284
 20
617.032322739554
 30
0.0
 11
361.352272052467
 21
616.888289053993
 31
0.0
  0
LINE
  5
2C01
330
1D
100
AcDbEntity
  8
0
100
AcDbLine
 10
361.394870883766
 20
616.832870399242
 30
0.0
 11
362.029775774142
 21
616.006895276303
 31
0.0
  0
LINE
  5
2C02
330
1D
100
AcDbEntity
  8
0
100
AcDbLine
 10
361.386942923862
 20
616.82829342982
 30
0.0
 11
362.599966439938
 21
617.528596106565
 31
0.0
  0
LINE
  5
2C03
330
1D
100
AcDbEntity
  8
0
100
AcDbLine
 10
361.161874698899
 20
617.217758940632
 30
0.0
 11
361.386942923862
 21
616.82829342982
 31
0.0
  0
LINE
  5
2C04
330
1D
100
AcDbEntity
  8
0
100
AcDbLine
 10
360.268195800264
 20
615.727544178883
 30
0.0
 11
360.502356290851
 21
615.100469551989
 31
0.0
  0
LINE
  5
2C05
330
1D
100
AcDbEntity
  8
0
100
AcDbLine
 10
360.502205518291
 20
615.644499962536
 30
0.0
 11
361.05549265447
 21
614.589649340439
 31
0.0
  0
LINE
  5
2C06
330
1D
100
AcDbEntity
  8
0
100
AcDbLine
 10
361.05549265447
 20
614.589649340439
 30
0.0
 11
361.512516559751
 21
613.612402779942
 31
0.0
  0
LINE
  5
2C07
330
1D
100
AcDbEntity
  8
0
100
AcDbLine
 10
360.087021146125
 20
615.294386984901
 30
0.0
 11
360.242727126938
 21
614.950585759343
 31
0.0
  0
LINE
  5
2C08
330
1D
100
AcDbEntity
  8
0
100
AcDbLine
 10
359.86174008048
 20
615.773320896273
 30
0.0
 11
360.087021146125
 21
615.294386984901
 31
0.0
  0
LINE
  5
2C09
330
1D
100
AcDbEntity
  8
0
100
AcDbLine
 10
359.794981100076
 20
615.919999621845
 30
0.0
 11
359.852719621086
 21
615.793854560094
 31
0.0
  0
LINE
  5
2C0A
330
1D
100
AcDbEntity
  8
0
100
AcDbLine
 10
359.794981100076
 20
615.919999621845
 30
0.0
 11
359.86174008048
 21
615.773320896273
 31
0.0
  0
LINE
  5
2C0B
330
1D
100
AcDbEntity
  8
0
100
AcDbLine
 10
358.45184236749
 20
619.068242394413
 30
0.0
 11
358.506578041501
 21
619.173893215473
 31
0.0
  0
LINE
  5
2C0C
330
1D
100
AcDbEntity
  8
0
100
AcDbLine
 10
358.45184236749
 20
619.068242394413
 30
0.0
 11
358.464444647126
 21
618.954045229177
 31
0.0
  0
LINE
  5
2C0D
330
1D
100
AcDbEntity
  8
0
100
AcDbLine
 10
358.514099033561
 20
619.182861753729
 30
0.0
 11
358.562546368464
 21
619.287608809729
 31
0.0
  0
LINE
  5
2C0E
330
1D
100
AcDbEntity
  8
0
100
AcDbLine
 10
358.464444647126
 20
618.954045229177
 30
0.0
 11
359.794981100076
 21
615.919999621845
 31
0.0
  0
LINE
  5
2C0F
330
1D
100
AcDbEntity
  8
0
100
AcDbLine
 10
362.9570747887
 20
609.126821091557
 30
0.0
 11
362.975788521464
 21
609.022105494792
 31
0.0
  0
LINE
  5
2C10
330
1D
100
AcDbEntity
  8
0
100
AcDbLine
 10
363.259030214712
 20
609.937432077606
 30
0.0
 11
363.484098439676
 21
609.547966566794
 31
0.0
  0
LINE
  5
2C11
330
1D
100
AcDbEntity
  8
0
100
AcDbLine
 10
363.458597263513
 20
612.624208576132
 30
0.0
 11
364.176054294671
 21
611.296769444405
 31
0.0
  0
LINE
  5
2C12
330
1D
100
AcDbEntity
  8
0
100
AcDbLine
 10
362.734005067297
 20
610.846845599927
 30
0.0
 11
363.259030214712
 21
609.937432077606
 31
0.0
  0
LINE
  5
2C13
330
1D
100
AcDbEntity
  8
0
100
AcDbLine
 10
362.888599681802
 20
613.073239083831
 30
0.0
 11
362.977886887751
 21
612.719716406924
 31
0.0
  0
LINE
  5
2C14
330
1D
100
AcDbEntity
  8
0
100
AcDbLine
 10
362.888599681802
 20
613.073239083831
 30
0.0
 11
363.053384414253
 21
613.147348745489
 31
0.0
  0
LINE
  5
2C15
330
1D
100
AcDbEntity
  8
0
100
AcDbLine
 10
363.053384414253
 20
613.147348745489
 30
0.0
 11
363.458597263513
 21
612.624208576132
 31
0.0
  0
LINE
  5
2C16
330
1D
100
AcDbEntity
  8
0
100
AcDbLine
 10
361.512516559751
 20
613.612402779942
 30
0.0
 11
361.804076406209
 21
612.951847054865
 31
0.0
  0
LINE
  5
2C17
330
1D
100
AcDbEntity
  8
0
100
AcDbLine
 10
359.182364083371
 20
614.906399409314
 30
0.0
 11
360.037344450662
 21
615.399996632981
 31
0.0
  0
LINE
  5
2C18
330
1D
100
AcDbEntity
  8
0
100
AcDbLine
 10
359.182364083371
 20
614.906399409314
 30
0.0
 11
359.407432308335
 21
614.516933898502
 31
0.0
  0
LINE
  5
2C19
330
1D
100
AcDbEntity
  8
0
100
AcDbLine
 10
359.407432308335
 20
614.516933898502
 30
0.0
 11
359.932363486488
 21
613.607554578195
 31
0.0
  0
LINE
  5
2C1A
330
1D
100
AcDbEntity
  8
0
100
AcDbLine
 10
359.736017171165
 20
614.658062343258
 30
0.0
 11
360.721270705667
 21
615.226848739377
 31
0.0
  0
LINE
  5
2C1B
330
1D
100
AcDbEntity
  8
0
100
AcDbLine
 10
359.736017171165
 20
614.658062343258
 30
0.0
 11
359.96117936539
 21
614.268562630432
 31
0.0
  0
LINE
  5
2C1C
330
1D
100
AcDbEntity
  8
0
100
AcDbLine
 10
359.96117936539
 20
614.268562630432
 30
0.0
 11
360.486110543544
 21
613.359183310125
 31
0.0
  0
LINE
  5
2C1D
330
1D
100
AcDbEntity
  8
0
100
AcDbLine
 10
361.492509486884
 20
612.208274596635
 30
0.0
 11
361.519595112584
 21
612.149774493572
 31
0.0
  0
LINE
  5
2C1E
330
1D
100
AcDbEntity
  8
0
100
AcDbLine
 10
362.045838746686
 20
612.359432495011
 30
0.0
 11
362.098292545776
 21
612.211776248789
 31
0.0
  0
LINE
  5
2C1F
330
1D
100
AcDbEntity
  8
0
100
AcDbLine
 10
361.804076406209
 20
612.951847054865
 30
0.0
 11
362.045838746686
 21
612.359432495011
 31
0.0
  0
LINE
  5
2C20
330
1D
100
AcDbEntity
  8
0
100
AcDbLine
 10
362.209073889143
 20
611.756224920235
 30
0.0
 11
362.734005067297
 21
610.846845599927
 31
0.0
  0
LINE
  5
2C21
330
1D
100
AcDbEntity
  8
0
100
AcDbLine
 10
362.209073889143
 20
611.756224920235
 30
0.0
 11
362.267434535303
 21
611.655122210116
 31
0.0
  0
LINE
  5
2C22
330
1D
100
AcDbEntity
  8
0
100
AcDbLine
 10
361.983911694917
 20
612.14572463306
 30
0.0
 11
363.258915815142
 21
612.882002441527
 31
0.0
  0
LINE
  5
2C23
330
1D
100
AcDbEntity
  8
0
100
AcDbLine
 10
361.983911694917
 20
612.14572463306
 30
0.0
 11
362.209073889143
 21
611.756224920235
 31
0.0
  0
LINE
  5
2C24
330
1D
100
AcDbEntity
  8
0
100
AcDbLine
 10
361.519595112584
 20
612.149774493572
 30
0.0
 11
362.9570747887
 21
609.126821091557
 31
0.0
  0
LINE
  5
2C25
330
1D
100
AcDbEntity
  8
0
100
AcDbLine
 10
361.492366958714
 20
612.208192312279
 30
0.0
 11
361.519595112584
 21
612.149774493572
 31
0.0
  0
LINE
  5
2C26
330
1D
100
AcDbEntity
  8
0
100
AcDbLine
 10
360.457388633904
 20
612.698141055873
 30
0.0
 11
360.682456858868
 21
612.308675545062
 31
0.0
  0
LINE
  5
2C27
330
1D
100
AcDbEntity
  8
0
100
AcDbLine
 10
361.011135690959
 20
612.449769787804
 30
0.0
 11
361.236203915923
 21
612.060304276992
 31
0.0
  0
LINE
  5
2C28
330
1D
100
AcDbEntity
  8
0
100
AcDbLine
 10
359.932363486488
 20
613.607554578195
 30
0.0
 11
360.457388633904
 21
612.698141055873
 31
0.0
  0
LINE
  5
2C29
330
1D
100
AcDbEntity
  8
0
100
AcDbLine
 10
360.486110543544
 20
613.359183310125
 30
0.0
 11
361.011135690959
 21
612.449769787804
 31
0.0
  0
LINE
  5
2C2A
330
1D
100
AcDbEntity
  8
0
100
AcDbLine
 10
360.682456858868
 20
612.308675545062
 30
0.0
 11
360.990066372841
 21
612.486264654566
 31
0.0
  0
LINE
  5
2C2B
330
1D
100
AcDbEntity
  8
0
100
AcDbLine
 10
361.236203915923
 20
612.060304276992
 30
0.0
 11
361.990255635403
 21
612.495633378661
 31
0.0
  0
LINE
  5
2C2C
330
1D
100
AcDbEntity
  8
0
100
AcDbLine
 10
370.313848517641
 20
600.904808239392
 30
0.0
 11
370.85358686985
 21
599.651631016828
 31
0.0
  0
LINE
  5
2C2D
330
1D
100
AcDbEntity
  8
0
100
AcDbLine
 10
371.816635449283
 20
604.488976640582
 30
0.0
 11
372.257601346638
 21
604.539185378568
 31
0.0
  0
LINE
  5
2C2E
330
1D
100
AcDbEntity
  8
0
100
AcDbLine
 10
371.816635449283
 20
604.488976640582
 30
0.0
 11
371.871274625303
 21
603.98092144336
 31
0.0
  0
LINE
  5
2C2F
330
1D
100
AcDbEntity
  8
0
100
AcDbLine
 10
372.257601346638
 20
604.539185378568
 30
0.0
 11
372.903760383852
 21
603.871946546795
 31
0.0
  0
LINE
  5
2C30
330
1D
100
AcDbEntity
  8
0
100
AcDbLine
 10
371.100018798058
 20
603.016258179644
 30
0.0
 11
371.625043945474
 21
602.106844657322
 31
0.0
  0
LINE
  5
2C31
330
1D
100
AcDbEntity
  8
0
100
AcDbLine
 10
369.50096195571
 20
603.196008075162
 30
0.0
 11
372.382793288969
 21
597.826545493428
 31
0.0
  0
LINE
  5
2C32
330
1D
100
AcDbEntity
  8
0
100
AcDbLine
 10
370.874950573095
 20
603.405723690455
 30
0.0
 11
372.465825969405
 21
604.324167796147
 31
0.0
  0
LINE
  5
2C33
330
1D
100
AcDbEntity
  8
0
100
AcDbLine
 10
370.874950573095
 20
603.405723690455
 30
0.0
 11
371.100018798058
 21
603.016258179644
 31
0.0
  0
LINE
  5
2C34
330
1D
100
AcDbEntity
  8
0
100
AcDbLine
 10
368.554713727381
 20
603.123256577691
 30
0.0
 11
368.811830883895
 21
603.088203363487
 31
0.0
  0
LINE
  5
2C35
330
1D
100
AcDbEntity
  8
0
100
AcDbLine
 10
368.554713727381
 20
603.123256577691
 30
0.0
 11
368.652405332157
 21
602.471540811151
 31
0.0
  0
LINE
  5
2C36
330
1D
100
AcDbEntity
  8
0
100
AcDbLine
 10
368.811830883895
 20
603.088203363487
 30
0.0
 11
369.259959332675
 21
602.62712817071
 31
0.0
  0
LINE
  5
2C37
330
1D
100
AcDbEntity
  8
0
100
AcDbLine
 10
369.259959332675
 20
602.62712817071
 30
0.0
 11
369.803309839491
 21
601.802564051466
 31
0.0
  0
LINE
  5
2C38
330
1D
100
AcDbEntity
  8
0
100
AcDbLine
 10
369.803309839491
 20
601.802564051466
 30
0.0
 11
370.313848517641
 21
600.904808239392
 31
0.0
  0
LINE
  5
2C39
330
1D
100
AcDbEntity
  8
0
100
AcDbLine
 10
368.652405332157
 20
602.471540811151
 30
0.0
 11
368.885575739608
 21
601.893646973726
 31
0.0
  0
LINE
  5
2C3A
330
1D
100
AcDbEntity
  8
0
100
AcDbLine
 10
366.206986494066
 20
605.806016821907
 30
0.0
 11
366.991846440852
 21
604.429568946421
 31
0.0
  0
LINE
  5
2C3B
330
1D
100
AcDbEntity
  8
0
100
AcDbLine
 10
369.22242239904
 20
606.000399724945
 30
0.0
 11
369.195365590192
 21
605.626079422136
 31
0.0
  0
LINE
  5
2C3C
330
1D
100
AcDbEntity
  8
0
100
AcDbLine
 10
368.391570165328
 20
606.169065565713
 30
0.0
 11
368.594825990981
 21
605.876583293921
 31
0.0
  0
LINE
  5
2C3D
330
1D
100
AcDbEntity
  8
0
100
AcDbLine
 10
368.594825990981
 20
605.876583293921
 30
0.0
 11
369.003856279312
 21
605.551054933824
 31
0.0
  0
LINE
  5
2C3E
330
1D
100
AcDbEntity
  8
0
100
AcDbLine
 10
368.00080544996
 20
605.943477281681
 30
0.0
 11
369.50096195571
 21
603.196008075162
 31
0.0
  0
LINE
  5
2C3F
330
1D
100
AcDbEntity
  8
0
100
AcDbLine
 10
369.003856279312
 20
605.551054933824
 30
0.0
 11
369.195365590192
 21
605.626079422136
 31
0.0
  0
LINE
  5
2C40
330
1D
100
AcDbEntity
  8
0
100
AcDbLine
 10
367.508137835556
 20
606.178457792447
 30
0.0
 11
367.73320606052
 21
605.788992281636
 31
0.0
  0
LINE
  5
2C41
330
1D
100
AcDbEntity
  8
0
100
AcDbLine
 10
366.983206657403
 20
607.087837112755
 30
0.0
 11
367.508137835556
 21
606.178457792447
 31
0.0
  0
LINE
  5
2C42
330
1D
100
AcDbEntity
  8
0
100
AcDbLine
 10
367.73320606052
 20
605.788992281636
 30
0.0
 11
369.08840131013
 21
606.571345853654
 31
0.0
  0
LINE
  5
2C43
330
1D
100
AcDbEntity
  8
0
100
AcDbLine
 10
366.647679643849
 20
603.076692490184
 30
0.0
 11
367.887358601495
 21
600.952598791223
 31
0.0
  0
LINE
  5
2C44
330
1D
100
AcDbEntity
  8
0
100
AcDbLine
 10
366.025531737802
 20
604.017199094628
 30
0.0
 11
366.647679643849
 21
603.076692490184
 31
0.0
  0
LINE
  5
2C45
330
1D
100
AcDbEntity
  8
0
100
AcDbLine
 10
365.702957275705
 20
604.441089795638
 30
0.0
 11
366.025531737802
 21
604.017199094628
 31
0.0
  0
LINE
  5
2C46
330
1D
100
AcDbEntity
  8
0
100
AcDbLine
 10
366.991846440852
 20
604.429568946421
 30
0.0
 11
367.221644565158
 21
604.021678298822
 31
0.0
  0
LINE
  5
2C47
330
1D
100
AcDbEntity
  8
0
100
AcDbLine
 10
367.22164456516
 20
604.021678298819
 30
0.0
 11
368.485809154457
 21
601.672321220815
 31
0.0
  0
LINE
  5
2C48
330
1D
100
AcDbEntity
  8
0
100
AcDbLine
 10
365.710084662167
 20
603.694635376158
 30
0.0
 11
366.138342920704
 21
602.719345232665
 31
0.0
  0
LINE
  5
2C49
330
1D
100
AcDbEntity
  8
0
100
AcDbLine
 10
366.138342920704
 20
602.719345232665
 30
0.0
 11
366.453248585302
 21
602.062320369222
 31
0.0
  0
LINE
  5
2C4A
330
1D
100
AcDbEntity
  8
0
100
AcDbLine
 10
369.368974531372
 20
596.597193202034
 30
0.0
 11
369.913152806814
 21
595.740402466476
 31
0.0
  0
LINE
  5
2C4B
330
1D
100
AcDbEntity
  8
0
100
AcDbLine
 10
366.074843293637
 20
602.416818808427
 30
0.0
 11
366.313722213782
 21
601.965613274749
 31
0.0
  0
LINE
  5
2C4C
330
1D
100
AcDbEntity
  8
0
100
AcDbLine
 10
368.405164717168
 20
599.986218826317
 30
0.0
 11
369.454741850625
 21
597.821626732977
 31
0.0
  0
LINE
  5
2C4D
330
1D
100
AcDbEntity
  8
0
100
AcDbLine
 10
367.887358601495
 20
600.952598791223
 30
0.0
 11
368.405164717168
 21
599.986218826317
 31
0.0
  0
LINE
  5
2C4E
330
1D
100
AcDbEntity
  8
0
100
AcDbLine
 10
368.751909151204
 20
600.084555683423
 30
0.0
 11
369.276840329357
 21
599.175176363116
 31
0.0
  0
LINE
  5
2C4F
330
1D
100
AcDbEntity
  8
0
100
AcDbLine
 10
368.226884003788
 20
600.993969205744
 30
0.0
 11
368.751909151204
 21
600.084555683423
 31
0.0
  0
LINE
  5
2C50
330
1D
100
AcDbEntity
  8
0
100
AcDbLine
 10
366.272741996018
 20
601.937209484502
 30
0.0
 11
367.013189006908
 21
602.450420558893
 31
0.0
  0
LINE
  5
2C51
330
1D
100
AcDbEntity
  8
0
100
AcDbLine
 10
366.272741996018
 20
601.937209484502
 30
0.0
 11
367.013189006908
 21
602.450420558893
 31
0.0
  0
LINE
  5
2C52
330
1D
100
AcDbEntity
  8
0
100
AcDbLine
 10
366.272741996018
 20
601.937209484502
 30
0.0
 11
366.605157719684
 21
601.336275880299
 31
0.0
  0
LINE
  5
2C53
330
1D
100
AcDbEntity
  8
0
100
AcDbLine
 10
366.605157719684
 20
601.336275880299
 30
0.0
 11
367.10415342674
 21
600.291608122426
 31
0.0
  0
LINE
  5
2C54
330
1D
100
AcDbEntity
  8
0
100
AcDbLine
 10
368.001815778824
 20
601.383434716556
 30
0.0
 11
369.506915434526
 21
602.25235877589
 31
0.0
  0
LINE
  5
2C55
330
1D
100
AcDbEntity
  8
0
100
AcDbLine
 10
368.001815778824
 20
601.383434716556
 30
0.0
 11
368.226884003788
 21
600.993969205744
 31
0.0
  0
LINE
  5
2C56
330
1D
100
AcDbEntity
  8
0
100
AcDbLine
 10
366.434787387649
 20
601.123727744663
 30
0.0
 11
366.672649327102
 21
600.486973170467
 31
0.0
  0
LINE
  5
2C57
330
1D
100
AcDbEntity
  8
0
100
AcDbLine
 10
369.910246156314
 20
599.021443955413
 30
0.0
 11
370.345417500303
 21
598.211590082738
 31
0.0
  0
LINE
  5
2C58
330
1D
100
AcDbEntity
  8
0
100
AcDbLine
 10
367.10415342674
 20
600.291608122426
 30
0.0
 11
367.638500275573
 21
599.094666313004
 31
0.0
  0
LINE
  5
2C59
330
1D
100
AcDbEntity
  8
0
100
AcDbLine
 10
369.276840329357
 20
599.175176363116
 30
0.0
 11
369.501908554321
 21
598.785710852304
 31
0.0
  0
LINE
  5
2C5A
330
1D
100
AcDbEntity
  8
0
100
AcDbLine
 10
369.501908554321
 20
598.785710852304
 30
0.0
 11
370.870527144983
 21
599.575813712719
 31
0.0
  0
LINE
  5
2C5B
330
1D
100
AcDbEntity
  8
0
100
AcDbLine
 10
369.454741850625
 20
597.821626732977
 30
0.0
 11
370.182864460564
 21
596.173260161142
 31
0.0
  0
LINE
  5
2C5C
330
1D
100
AcDbEntity
  8
0
100
AcDbLine
 10
368.769339925261
 20
597.633132762796
 30
0.0
 11
369.368974531372
 21
596.597193202034
 31
0.0
  0
LINE
  5
2C5D
330
1D
100
AcDbEntity
  8
0
100
AcDbLine
 10
366.938902389545
 20
599.939917783198
 30
0.0
 11
367.071134834037
 21
599.668983524499
 31
0.0
  0
LINE
  5
2C5E
330
1D
100
AcDbEntity
  8
0
100
AcDbLine
 10
368.218234323227
 20
597.736476737138
 30
0.0
 11
368.223102815359
 21
597.558051240686
 31
0.0
  0
LINE
  5
2C5F
330
1D
100
AcDbEntity
  8
0
100
AcDbLine
 10
368.223102815359
 20
597.558051240686
 30
0.0
 11
369.454741850625
 21
597.821626732977
 31
0.0
  0
LINE
  5
2C60
330
1D
100
AcDbEntity
  8
0
100
AcDbLine
 10
367.726267470479
 20
598.412614016588
 30
0.0
 11
367.932435045479
 21
598.027794455169
 31
0.0
  0
LINE
  5
2C61
330
1D
100
AcDbEntity
  8
0
100
AcDbLine
 10
367.638500275573
 20
599.094666313004
 30
0.0
 11
368.218234323227
 21
597.736476737138
 31
0.0
  0
LINE
  5
2C62
330
1D
100
AcDbEntity
  8
0
100
AcDbLine
 10
367.299727980672
 20
599.144541078241
 30
0.0
 11
367.726267470479
 21
598.412614016588
 31
0.0
  0
LINE
  5
2C63
330
1D
100
AcDbEntity
  8
0
100
AcDbLine
 10
364.973464688738
 20
607.630963902176
 30
0.0
 11
365.528848764755
 21
606.87864072155
 31
0.0
  0
LINE
  5
2C64
330
1D
100
AcDbEntity
  8
0
100
AcDbLine
 10
365.460938719338
 20
604.628145879136
 30
0.0
 11
365.474969936406
 21
604.347416890702
 31
0.0
  0
LINE
  5
2C65
330
1D
100
AcDbEntity
  8
0
100
AcDbLine
 10
365.460938719338
 20
604.628145879136
 30
0.0
 11
365.702957275705
 21
604.441089795638
 31
0.0
  0
LINE
  5
2C66
330
1D
100
AcDbEntity
  8
0
100
AcDbLine
 10
365.474969936406
 20
604.347416890702
 30
0.0
 11
365.710084662167
 21
603.694635376158
 31
0.0
  0
LINE
  5
2C67
330
1D
100
AcDbEntity
  8
0
100
AcDbLine
 10
365.016414486339
 20
604.389808625907
 30
0.0
 11
365.072309641075
 21
604.284330231546
 31
0.0
  0
LINE
  5
2C68
330
1D
100
AcDbEntity
  8
0
100
AcDbLine
 10
365.072309641075
 20
604.284330231546
 30
0.0
 11
365.270336024515
 21
603.916506676751
 31
0.0
  0
LINE
  5
2C69
330
1D
100
AcDbEntity
  8
0
100
AcDbLine
 10
365.528848764755
 20
606.87864072155
 30
0.0
 11
366.206986494066
 21
605.806016821907
 31
0.0
  0
LINE
  5
2C6A
330
1D
100
AcDbEntity
  8
0
100
AcDbLine
 10
450.80625
 20
348.270456261705
 30
0.0
 11
450.80625
 21
221.272862954043
 31
0.0
  0
LINE
  5
2C6B
330
1D
100
AcDbEntity
  8
0
100
AcDbLine
 10
450.90525
 20
993.5005
 30
0.0
 11
450.90525
 21
445.380326285875
 31
0.0
  0
LINE
  5
2C6C
330
1D
100
AcDbEntity
  8
0
100
AcDbLine
 10
473.59525
 20
153.1305
 30
0.0
 11
460.938316379599
 21
153.1305
 31
0.0
  0
LINE
  5
2C6D
330
1D
100
AcDbEntity
  8
0
100
AcDbLine
 10
474.89925
 20
149.1305
 30
0.0
 11
460.590737445572
 21
149.1305
 31
0.0
  0
ENDSEC
  0
SECTION
  2
OBJECTS
  0
DICTIONARY
  5
C
330
0
100
AcDbDictionary
281
     1
  3
ACAD_GROUP
350
D
  3
ACAD_LAYOUT
350
1A
  3
ACAD_MLEADERSTYLE
350
2C70
  3
ACAD_MLINESTYLE
350
17
  3
ACAD_PLOTSETTINGS
350
19
  3
ACAD_PLOTSTYLENAME
350
E
  3
ACAD_SCALELIST
350
F26
  3
AcDbVariableDictionary
350
2C6E
  3
DWGPROPS
350
2C73
  0
DICTIONARY
  5
D
102
{ACAD_REACTORS
330
C
102
}
330
C
100
AcDbDictionary
281
     1
  0
DICTIONARY
  5
1A
102
{ACAD_REACTORS
330
C
102
}
330
C
100
AcDbDictionary
281
     1
  3
Layout1
350
1C
  3
Model
350
1E
  0
DICTIONARY
  5
2C70
102
{ACAD_REACTORS
330
C
102
}
330
C
100
AcDbDictionary
281
     1
  0
DICTIONARY
  5
17
102
{ACAD_REACTORS
330
C
102
}
330
C
100
AcDbDictionary
281
     1
  3
Standard
350
18
  0
DICTIONARY
  5
19
102
{ACAD_REACTORS
330
C
102
}
330
C
100
AcDbDictionary
281
     1
  0
ACDBDICTIONARYWDFLT
  5
E
102
{ACAD_REACTORS
330
C
102
}
330
C
100
AcDbDictionary
281
     1
  3
Normal
350
F
100
AcDbDictionaryWithDefault
340
F
  0
DICTIONARY
  5
F26
102
{ACAD_REACTORS
330
C
102
}
330
C
100
AcDbDictionary
281
     1
  3
A0
350
F27
  3
A1
350
F28
  3
A2
350
F29
  3
A3
350
F2A
  3
A4
350
F2B
  3
A5
350
F2C
  3
A6
350
F2D
  3
A7
350
F2E
  3
A8
350
F2F
  3
A9
350
F30
  3
B0
350
F31
  3
B1
350
F32
  3
B2
350
F33
  3
B3
350
F34
  3
B4
350
F35
  3
B5
350
F36
  3
B6
350
F37
  3
B7
350
F38
  3
B8
350
F39
  3
B9
350
F3A
  3
C0
350
F3B
  3
C1
350
F3C
  3
C2
350
F3D
  3
C3
350
F3E
  3
C4
350
F3F
  3
C5
350
F40
  3
C6
350
F41
  3
C7
350
F42
  3
C8
350
F43
  3
C9
350
F44
  3
D0
350
F45
  3
D1
350
F46
  3
D2
350
F47
  0
DICTIONARY
  5
2C6E
102
{ACAD_REACTORS
330
C
102
}
330
C
100
AcDbDictionary
281
     1
  3
CANNOSCALE
350
2C71
  0
XRECORD
  5
2C73
102
{ACAD_REACTORS
330
C
102
}
330
C
100
AcDbXrecord
280
     1
  1
DWGPROPS COOKIE
  2

  3

  4

  6

  7

  8
MARTIN
  9

300
=
301
=
302
=
303
=
304
=
305
=
306
=
307
=
308
=
309
=
 40
0.0
 41
2456647.317955903
 42
2456647.320327871
  1

 90
        0
  0
LAYOUT
  5
1C
102
{ACAD_REACTORS
330
1A
102
}
330
1A
100
AcDbPlotSettings
  1

  2
none_device
  4

  6

 40
0.0
 41
0.0
 42
0.0
 43
0.0
 44
0.0
 45
0.0
 46
0.0
 47
0.0
 48
0.0
 49
0.0
140
0.0
141
0.0
142
1.0
143
1.0
 70
   688
 72
     0
 73
     0
 74
     5
  7

 75
    16
147
1.0
148
0.0
149
0.0
100
AcDbLayout
  1
Layout1
 70
     1
 71
     1
 10
0.0
 20
0.0
 11
12.0
 21
9.0
 12
0.0
 22
0.0
 32
0.0
 14
1.000000000000E+20
 24
1.000000000000E+20
 34
1.000000000000E+20
 15
-1.000000000000E+20
 25
-1.000000000000E+20
 35
-1.000000000000E+20
146
0.0
 13
0.0
 23
0.0
 33
0.0
 16
1.0
 26
0.0
 36
0.0
 17
0.0
 27
1.0
 37
0.0
 76
     0
330
1B
  0
LAYOUT
  5
1E
102
{ACAD_REACTORS
330
1A
102
}
330
1A
100
AcDbPlotSettings
  1

  2
none_device
  4

  6

 40
0.0
 41
0.0
 42
0.0
 43
0.0
 44
0.0
 45
0.0
 46
0.0
 47
0.0
 48
0.0
 49
0.0
140
0.0
141
0.0
142
1.0
143
1.0
 70
  1712
 72
     0
 73
     0
 74
     0
  7

 75
     0
147
1.0
148
0.0
149
0.0
100
AcDbLayout
  1
Model
 70
     1
 71
     0
 10
0.0
 20
0.0
 11
12.0
 21
9.0
 12
0.0
 22
0.0
 32
0.0
 14
0.14335
 24
-0.1305
 34
0.0
 15
475.85425
 25
1169.1305
 35
0.0
146
0.0
 13
0.0
 23
0.0
 33
0.0
 16
1.0
 26
0.0
 36
0.0
 17
0.0
 27
1.0
 37
0.0
 76
     0
330
1D
331
F21
  0
MLINESTYLE
  5
18
102
{ACAD_REACTORS
330
17
102
}
330
17
100
AcDbMlineStyle
  2
Standard
 70
     0
  3

 62
   256
 51
90.0
 52
90.0
 71
     2
 49
0.5
 62
   256
  6
BYLAYER
 49
-0.5
 62
   256
  6
BYLAYER
  0
ACDBPLACEHOLDER
  5
F
102
{ACAD_REACTORS
330
E
102
}
330
E
  0
SCALE
  5
F27
102
{ACAD_REACTORS
330
F26
102
}
330
F26
100
AcDbScale
 70
     0
300
1:1
140
1.0
141
1.0
290
     1
  0
SCALE
  5
F28
102
{ACAD_REACTORS
330
F26
102
}
330
F26
100
AcDbScale
 70
     0
300
1:2
140
1.0
141
2.0
290
     0
  0
SCALE
  5
F29
102
{ACAD_REACTORS
330
F26
102
}
330
F26
100
AcDbScale
 70
     0
300
1:4
140
1.0
141
4.0
290
     0
  0
SCALE
  5
F2A
102
{ACAD_REACTORS
330
F26
102
}
330
F26
100
AcDbScale
 70
     0
300
1:5
140
1.0
141
5.0
290
     0
  0
SCALE
  5
F2B
102
{ACAD_REACTORS
330
F26
102
}
330
F26
100
AcDbScale
 70
     0
300
1:8
140
1.0
141
8.0
290
     0
  0
SCALE
  5
F2C
102
{ACAD_REACTORS
330
F26
102
}
330
F26
100
AcDbScale
 70
     0
300
1:10
140
1.0
141
10.0
290
     0
  0
SCALE
  5
F2D
102
{ACAD_REACTORS
330
F26
102
}
330
F26
100
AcDbScale
 70
     0
300
1:16
140
1.0
141
16.0
290
     0
  0
SCALE
  5
F2E
102
{ACAD_REACTORS
330
F26
102
}
330
F26
100
AcDbScale
 70
     0
300
1:20
140
1.0
141
20.0
290
     0
  0
SCALE
  5
F2F
102
{ACAD_REACTORS
330
F26
102
}
330
F26
100
AcDbScale
 70
     0
300
1:30
140
1.0
141
30.0
290
     0
  0
SCALE
  5
F30
102
{ACAD_REACTORS
330
F26
102
}
330
F26
100
AcDbScale
 70
     0
300
1:40
140
1.0
141
40.0
290
     0
  0
SCALE
  5
F31
102
{ACAD_REACTORS
330
F26
102
}
330
F26
100
AcDbScale
 70
     0
300
1:50
140
1.0
141
50.0
290
     0
  0
SCALE
  5
F32
102
{ACAD_REACTORS
330
F26
102
}
330
F26
100
AcDbScale
 70
     0
300
1:100
140
1.0
141
100.0
290
     0
  0
SCALE
  5
F33
102
{ACAD_REACTORS
330
F26
102
}
330
F26
100
AcDbScale
 70
     0
300
2:1
140
2.0
141
1.0
290
     0
  0
SCALE
  5
F34
102
{ACAD_REACTORS
330
F26
102
}
330
F26
100
AcDbScale
 70
     0
300
4:1
140
4.0
141
1.0
290
     0
  0
SCALE
  5
F35
102
{ACAD_REACTORS
330
F26
102
}
330
F26
100
AcDbScale
 70
     0
300
8:1
140
8.0
141
1.0
290
     0
  0
SCALE
  5
F36
102
{ACAD_REACTORS
330
F26
102
}
330
F26
100
AcDbScale
 70
     0
300
10:1
140
10.0
141
1.0
290
     0
  0
SCALE
  5
F37
102
{ACAD_REACTORS
330
F26
102
}
330
F26
100
AcDbScale
 70
     0
300
100:1
140
100.0
141
1.0
290
     0
  0
SCALE
  5
F38
102
{ACAD_REACTORS
330
F26
102
}
330
F26
100
AcDbScale
 70
     0
300
1/128" = 1'-0"
140
0.0078125
141
12.0
290
     0
  0
SCALE
  5
F39
102
{ACAD_REACTORS
330
F26
102
}
330
F26
100
AcDbScale
 70
     0
300
1/64" = 1'-0"
140
0.015625
141
12.0
290
     0
  0
SCALE
  5
F3A
102
{ACAD_REACTORS
330
F26
102
}
330
F26
100
AcDbScale
 70
     0
300
1/32" = 1'-0"
140
0.03125
141
12.0
290
     0
  0
SCALE
  5
F3B
102
{ACAD_REACTORS
330
F26
102
}
330
F26
100
AcDbScale
 70
     0
300
1/16" = 1'-0"
140
0.0625
141
12.0
290
     0
  0
SCALE
  5
F3C
102
{ACAD_REACTORS
330
F26
102
}
330
F26
100
AcDbScale
 70
     0
300
3/32" = 1'-0"
140
0.09375
141
12.0
290
     0
  0
SCALE
  5
F3D
102
{ACAD_REACTORS
330
F26
102
}
330
F26
100
AcDbScale
 70
     0
300
1/8" = 1'-0"
140
0.125
141
12.0
290
     0
  0
SCALE
  5
F3E
102
{ACAD_REACTORS
330
F26
102
}
330
F26
100
AcDbScale
 70
     0
300
3/16" = 1'-0"
140
0.1875
141
12.0
290
     0
  0
SCALE
  5
F3F
102
{ACAD_REACTORS
330
F26
102
}
330
F26
100
AcDbScale
 70
     0
300
1/4" = 1'-0"
140
0.25
141
12.0
290
     0
  0
SCALE
  5
F40
102
{ACAD_REACTORS
330
F26
102
}
330
F26
100
AcDbScale
 70
     0
300
3/8" = 1'-0"
140
0.375
141
12.0
290
     0
  0
SCALE
  5
F41
102
{ACAD_REACTORS
330
F26
102
}
330
F26
100
AcDbScale
 70
     0
300
1/2" = 1'-0"
140
0.5
141
12.0
290
     0
  0
SCALE
  5
F42
102
{ACAD_REACTORS
330
F26
102
}
330
F26
100
AcDbScale
 70
     0
300
3/4" = 1'-0"
140
0.75
141
12.0
290
     0
  0
SCALE
  5
F43
102
{ACAD_REACTORS
330
F26
102
}
330
F26
100
AcDbScale
 70
     0
300
1" = 1'-0"
140
1.0
141
12.0
290
     0
  0
SCALE
  5
F44
102
{ACAD_REACTORS
330
F26
102
}
330
F26
100
AcDbScale
 70
     0
300
1-1/2" = 1'-0"
140
1.5
141
12.0
290
     0
  0
SCALE
  5
F45
102
{ACAD_REACTORS
330
F26
102
}
330
F26
100
AcDbScale
 70
     0
300
3" = 1'-0"
140
3.0
141
12.0
290
     0
  0
SCALE
  5
F46
102
{ACAD_REACTORS
330
F26
102
}
330
F26
100
AcDbScale
 70
     0
300
6" = 1'-0"
140
6.0
141
12.0
290
     0
  0
SCALE
  5
F47
102
{ACAD_REACTORS
330
F26
102
}
330
F26
100
AcDbScale
 70
     0
300
1'-0" = 1'-0"
140
12.0
141
12.0
290
     0
  0
DICTIONARYVAR
  5
2C71
102
{ACAD_REACTORS
330
2C6E
102
}
330
2C6E
100
DictionaryVariables
280
     0
  1
1:1
  0
ENDSEC
  0
SECTION
  2
THUMBNAILIMAGE
 90
    16364
310
28000000B40000005500000001000800000000000000000000000000000000000000000000000000FFFFFF000000FF0000FFFF0000FF0000FFFF0000FF000000FF00FF000000000080808000C0C0C0000000FF007F7FFF000000A5005252A50000007F003F3F7F0000004C0026264C000000260013132600003FFF007F9FFF
310
000029A5005267A500001F7F003F4F7F0000134C00262F4C000009260013172600007FFF007FBFFF000052A500527CA500003F7F003F5F7F0000264C0026394C0000132600131C260000BFFF007FDFFF00007CA5005291A500005F7F003F6F7F0000394C0026424C00001C26001321260000FFFF007FFFFF0000A5A50052A5
310
A500007F7F003F7F7F00004C4C00264C4C00002626001326260000FFBF007FFFDF0000A57C0052A59100007F5F003F7F6F00004C3900264C420000261C001326210000FF7F007FFFBF0000A5520052A57C00007F3F003F7F5F00004C2600264C39000026130013261C0000FF3F007FFF9F0000A5290052A56700007F1F003F
310
7F4F00004C1300264C2F00002609001326170000FF00007FFF7F0000A5000052A55200007F00003F7F3F00004C0000264C260000260000132613003FFF00009FFF7F0029A5000067A552001F7F00004F7F3F00134C00002F4C260009260000172613007FFF0000BFFF7F0052A500007CA552003F7F00005F7F3F00264C0000
310
394C2600132600001C261300BFFF0000DFFF7F007CA5000091A552005F7F00006F7F3F00394C0000424C26001C26000021261300FFFF0000FFFF7F00A5A50000A5A552007F7F00007F7F3F004C4C00004C4C26002626000026261300FFBF0000FFDF7F00A57C0000A59152007F5F00007F6F3F004C3900004C422600261C00
310
0026211300FF7F0000FFBF7F00A5520000A57C52007F3F00007F5F3F004C2600004C39260026130000261C1300FF3F0000FF9F7F00A5290000A56752007F1F00007F4F3F004C1300004C2F26002609000026171300FF000000FF7F7F00A5000000A55252007F0000007F3F3F004C0000004C2626002600000026131300FF00
310
3F00FF7F9F00A5002900A55267007F001F007F3F4F004C0013004C262F002600090026131700FF007F00FF7FBF00A5005200A5527C007F003F007F3F5F004C0026004C2639002600130026131C00FF00BF00FF7FDF00A5007C00A55291007F005F007F3F6F004C0039004C26420026001C0026132100FF00FF00FF7FFF00A5
310
00A500A552A5007F007F007F3F7F004C004C004C264C002600260026132600BF00FF00DF7FFF007C00A5009152A5005F007F006F3F7F0039004C0042264C001C002600211326007F00FF00BF7FFF005200A5007C52A5003F007F005F3F7F0026004C0039264C00130026001C1326003F00FF009F7FFF002900A5006752A500
310
1F007F004F3F7F0013004C002F264C000900260017132600000000002D2D2D005B5B5B0089898900B7B7B700B3B3B30000000000000000000000000000000000000000000000000000000000000000000000000000000000000000000000000000000000000000000000000000000000000000000000000000000000000000
310
00000000000000000000000000000000000000000000000707000000000000000000000000000000000000000000000000000000000000000000000000000000000000000000000000000000000000000000000000000000000000000000000000000000000000000000000000000000000000000000000000000000000000
310
00000000000000000000000000000000000000000000000000000000000000000000000000000000000000000000000000000000000000000000000000000000000000000000000000000000070700000000000000000000000000000000000000000000000000000000000000000000000000000000000000000000000000
310
00000000000000000000000000000000000000000000000000000000000000000000000000000000000000000000000000000000000000000000000000000000000000000000000000000000000000000000000000000000000000000000000000000000000000000000000000000000000000000000000000000000000000
310
00000707070700000000000000000000000000000000000000000000000000000000000000000000000000000000000000000000000000000000000000000000000000000000000000000000000000000000000000000000000000000000000000000000000000000000000000000000000000000000000000000000000000
310
00000000000000000000000000000000000000000000000000000000000000000000000000000000000000000000000000000000000000070707070000000000000000000000000000000000000000000000000000000000000000000000000000000000000000000000000000000000000000000000000000000000000000
310
00000000000000000000000000000000000000000000000000000000000000000000000000000000000000000000000000000000000000000000000000000000000000000000000000000000000000000000000000000000000000000000000000000000000000000000000007070707000000000000000000000000000000
310
00000000000000000000000000000000000000000000000000000000000000000000000000000000000000000000000000000000000000000000000000000000000000000000000000000000000000000000000000000000000000000000000000000000000000000000000000000000000000000000000000000000000000
310
00000000000000000000000000000000000000000000000000000000000000000000070707070000000000000000000000000000000000000000000000000000000000000000000000000000000000000000000000000000000000000000000000000000000000000000000000000000000000000000000000000000000000
310
00000000000000000000000000000000000000000000000000000000000000000000000000000000000000000000000000000000000000000000000000000000000000000000000000000000000000000000000000070707070707070700000000000000000000000000000000000000000000000000000000000000000000
310
00000000000000000000000000000000000000000000000000000000000000000000000000000000000000000000000000000000000000000000000000000000000000000000000000000000000000000000000000000000000000000000000000000000000000000000000000000000000000000000000000000000000000
310
00000000000000000000070707070007070007000000000000000000000000000000000000000000000000000000000000000000000000000000000000000000000000000000000000000000000000000000000000000000000000000000000000000000000000000000000000000000000000000000000000000000000000
310
00000000000000000000000000000000000000000000000000000000000000000000000000000000000000000000000000000000000000000000000000000007070707070700070700000000000000000000000000000000000000000000000000000000000000000000000000000000000000000000000000000000000000
310
00000000000000000000000000000000000000000000000000000000000000000000000000000000000000000000000000000000000000000000000000000000000000000000000000000000000000000000000000000000000000000000000000000000000000000000000000000000000000070707070707070007070000
310
00000000000000000000000000000000000000000000000000000000000000000000000000000000000000000000000000000000000000000000000000000000000000000000000000000000000000000000000000000000000000000000000000000000000000000000000000000000000000000000000000000000000000
310
00000000000000000000000000000000000000000000000000000000000000000000000000000000000707070707070700070700000000000000000000000000000000000000000000000000000000000000000000000000000000000000000000000000000000000000000000000000000000000000000000000000000000
310
00000000000000000000000000000000000000000000000000000000000000000000000000000000000000000000000000000000000000000000000000000000000000000000000000000000000000000000000000000000000000000000070707070707070007070000000000000000000000000000000000000000000000
310
00000000000000000000000000000000000000000000000000000000000000000000000000000000000000000000000000000000000000000000000000000000000000000000000000000000000000000000000000000000000000000000000000000000000000000000000000000000000000000000000000000000000000
310
00000000000000000000000000000000000000000000000000000007070700000000000000000000000000000000000000000000000000000000000000000000000000000000000000000000000000000000000000000000000000000000000000000000000000000000000000000000000000000000000000000000000000
310
00000000000000000000000000000000000000000000000000000000000000000000000000000000000000000000000000000000000000000000000000000000000000000000000000000000000000000707070000000000000000000000000000000000000000000000000000000000000000000000000000000000000000
310
00000000000000000000000000000000000000000000000000000000000000000000000000000000000000000000000000000000000000000000000000000000000000000000000000000000000000000000000000000000000000000000000000000000000000000000000000000000000000000000000000000000000000
310
00000000000007070700000000000000000000000000000000000000000000000000000000000000000000000000000000000000000000000000000000000000000000000000000000000000000000000000000000000000000000000000000000000000000000000000000000000000000000000000000000000000000000
310
00000000000000000000000000000000000000000000000000000000000000000000000000000000000000000000000000000000000000000000000707070000000000000000000000000000000000000000000000000000000000000000000000000000000000000000000000000000000000000000000000000000000000
310
00000000000000000000000000000000000000000000000000000000000000000000000000000000000000000000000000000000000000000000000000000000000000000000000000000000000000000000000000000000000000000000000000000000000000000000000000000000070007000000000000000000000000
310
00000000000000000000000000000000000000000000000000000000000000000000000000000000000000000000000000000000000000000000000000000000000000000000000000000000000000000000000000000000000000000000000000000000000000000000000000000000000000000000000000000000000000
310
00000000000000000000000000000000000000000000000000000000000000000000000000000700070000000000000000000000000000000000000000000000000000000000000000000000000000000000000000000000000000000000000000000000000000000000000000000000000000000000000000000000000000
310
00000000000000000000000000000000000000000000000000000000000000000000000000000000000000000000000000000000000000000000000000000000000000000000000000000000000000000000000000000000000000070007000000000000000000000000000000000000000000000000000000000000000000
310
00000000000000000000000000000000000000000000000000000000000000000000000000000000000000000000000000000000000000000000000000000000000000000000000000000000000000000000000000000000000000000000000000000000000000000000000000000000000000000000000000000000000000
310
00000000000000000000000000000000000700070000000000000000000000000000000000000000000000000000000000000000000000000000000000000000000000000000000000000000000000000000000000000000000000000000000000000000000000000000000000000000000000000000000000000000000000
310
00000000000000000000000000000000000000000000000000000000000000000000000000000000000000000000000000000000000000000000000000000000000000000000070007000000000000000000000000000000000000000000000000000000000000000000000000000000000000000000000000000000000000
310
00000000000000000000000000000000000000000000000000000000000000000000000000000000000000000000000000000000000000000000000000000000000000000000000000000000000000000000000000000000000000000000000000000000000000000000000000000000000000000000000000000007000700
310
00000000000000000000000000000000000000000000000000000000000000000000000000000000000000000000000000000000000000000000000000000000000000000000000000000000000000000000000000000000000000000000000000000000000000000000000000000000000000000000000000000000000000
310
00000000000000000000000000000000000000000000000000000000000000000000000000000000000000000000000000070007000000000000000000000000000000000000000000000000000000000000000000000000000000000000000000000000000000000000000000000000000000000000000000000000000000
310
00000000000000000000000000000000000000000000000000000000000000000000000000000000000000000000000000000000000000000000000000000000000000000000000000000000000000000000000000000000000000000000000000000000000007000700000000000000000000000000000000000000000000
310
00000000000000000000000000000000000000000000000000000000000000000000000000000000000000000000000000000000000000000000000000000000000000000000000000000000000000000000000000000000000000000000000000000000000000000000000000000000000000000000000000000000000000
310
00000000000000000000000000000000000000000000000000000000070707000000000000000000000000000000000000000000000000000000000000000000000000000000000000000000000000000000000000000000000000000000000000000000000000000000000000000000000000000000000000000000000000
310
00000000000000000000000000000000000000000000000000000000000000000000000000000000000000000000000000000000000000000000000000000000000000000000000000000000000000000007070700000000000000000000000000000000000000000000000000000000000000000000000000000000000000
310
00000000000000000000000000000000000000000000000000000000000000000000000000000000000000000000000000000000000000000000000000000000000000000000000000000000000000000000000000000000000000000000000000000000000000000000000000000000000000000000000000000000000000
310
00000000000000070707000000000000000000000000000000000000000000000000000000000000000000000000000000000000000000000000000000000000000000000000000000000000000000000000000000000000000000000000000000000000000000000000000000000000000000000000000000000000000000
310
00000000000000000000000000000000000000000000000000000000000000000000000000000000000000000000000000000000000000000000000007070700000000000000000000000000000000000000000000000000000000000000000000000000000000000000000000000000000000000000000000000000000000
310
00000000000000000000000000000000000000000000000000000000000000000000000000000000000000000000000000000000000000000000000000000000000000000000000000000000000000000000000000000000000000000000000000000000000000000000000000000000070707070000000000000000000000
310
00000000000000000000000000000000000000000000000000000000000000000000000000000000000000000000000000000000000000000000000000000000000000000000000000000000000000000000000000000000000000000000000000000000000000000000000000000000000000000000000000000000000000
310
00000000000000000000000000000000000000000000000000000000000000000000000000070700000700000000000000000000000000000000000000000000000000000000000000000000000000000000000000000000000000000000000000000000000000000000000000000000000000000000000000000000000000
310
00000000000000000000000000000000000000000000000000000000000000000000000000000000000000000000000000000000000000000000000000000000000000000000000000000000000000000000000000000000000007000000070000000000000000000000000000000000000000000000000000000000000000
310
00000000000000000000000000000000000000000000000000000000000000000000000000000000000000000000000000000000000000000000000000000000000000000000000000000000000000000000000000000000000000000000000000000000000000000000000000000000000000000000000000000000000000
310
00000000000000000000000000000000070707000700000000000000000000000000000000000000000000000000000000000000000000000000000000000000000000000000000000000000000000000000000000000000000000000000000000000000000000000000000000000000000000000000000000000000000000
310
00000000000000000000000000000000000000000000000000000000000000000000000000000000000000000000000000000000000000000000000000000000000000000700000707070000000000000000000000000000000000000000000000000000000000000000000000000000000000000000000000000000000000
310
00000000000000000000000000000000000000000000000000000000000000000000000000000000000000000000000000000000000000000000000000000000000000000000000000000000000000000000000000000000000000000000000000000000000000000000000000000000000000000000000000070007070007
310
00000000000000000000000000000000000000000000000000000000000000000000000000000000000000000000000000000000000000000000000000000000000000000000000000000000000000000000000000000000000000000000000000000000000000000000000000000000000000000000000000000000000000
310
00000000000000000000000000000000000000000000000000000000000000000000000000000000000000000000000700070700070000000000000000000000000000000000000000000000000000000000000000000000000000000000000000000000000000000000000000000000000000000000000000000000000000
310
00000000000000000000000000000000000000000000000000000000000000000000000000000000000000000000000000000000000000000000000000000000000000000000000000000000000000000000000000000000000000000000000000000000070007070007000000000000000000000000000000000000000000
310
00000000000000000000000000000000000000000000000000000000000000000000000000000000000000000000000000000000000000000000000000000000000000000000000000000000000000000000000000000000000000000000000000000000000000000000000000000000000000000000000000000000000000
310
00000000000000000000000000000000000000000000000000000700070700070000000000000000000000000000000000000000000000000000000000000000000000000000000000000000000000000000000000000000000000000000000000000000000000000000000000000000000000000000000000000000000000
310
00000000000000000000000000000000000000000000000000000000000000000000000000000000000000000000000000000000000000000000000000000000000000000000000000000000000000070700070007000000000000000000000000000000000000000000000000000000000000000000000000000000000000
310
00000000000000000000000000000000000000000000000000000000000000000000000000000000000000000000000000000000000000000000000000000000000000000000000000000000000000000000000000000000000000000000000000000000000000000000000000000000000000000000000000000000000000
310
00000000000707000700070000000000000000000000000000000000000000000000000000000000000000000000000000000000000000000000000000000000000000000000000000000000000000000000000000000000000000000000000000000000000000000000000000000000000000000000000000000000000000
310
00000000000000000000000000000000000000000000000000000000000000000000000000000000000000000000000000000000000000000007070700070007000000000000000000000000000000000000000000000000000000000000000000000000000000000000000000000000000000000000000000000000000000
310
00000000000000000000000000000000000000000000000000000000000000000000000000000000000000000000000000000000000000000000000000000000000000000000000000000000000000000000000000000000000000000000000000000000000000000000000000000707070007000700000000000000000000
310
00000000000000000000000000000000000000000000000000000000000000000000000000000000000000000000000000000000000000000000000000000000000000000000000000000000000000000000000000000000000000000000000000000000000000000000000000000000000000000000000000000000000000
310
00000000000000000000000000000000000000000000000000000000000000000000000707070700070007000000000000000000000000000000000000000000000000000000000000000000000000000000000000000000000000000000000000000000000000000000000000000000000000000000000000000000000000
310
00000000000000000000000000000000000000000000000000000000000000000000000000000000000000000000000000000000000000000000000000000000000000000000000000000000000000000000000000000007070707000007000700000000000000000000000000000000000000000000000000000000000000
310
00000000000000000000000000000000000000000000000000000000000000000000000000000000000000000000000000000000000000000000000000000000000000000000000000000000000000000000000000000000000000000000000000000000000000000000000000000000000000000000000000000000000000
310
00000000000000000000000000070707070000070007000000000000000000000000000000000000000000000000000000000000000000000000000000000000000000000000000000000000000000000000000000000000000000000000000000000000000000000000000000000000000000000000000000000000000000
310
00000000000000000000000000000000000000000000000000000000000000000000000000000000000000000000000000000000000000000000000000000000000707070700000007000700000000000000000000000000000000000000000000000000000000000000000000000000000000000000000000000000000000
310
00000000000000000000000000000000000000000000000000000000000000000000000000000000000000000000000000000000000000000000000000000000000000000000000000000000000000000000000000000000000000000000000000000000000000000000000000000000000000000000070707070000000700
310
07000000000000000000000000000000000000000000000000000000000000000000000000000000000000000000000000000000000000000000000000000000000000000000000000000000000000000000000000000000000000000000000000000000000000000000000000000000000000000000000000000000000000
310
00000000000000000000000000000000000000000000000000000000000000000000000000000000000000000707070000000007000700000000000000000000000000000000000000000000000000000000000000000000000000000000000000000000000000000000000000000000000000000000000000000000000000
310
00000000000000000000000000000000000000000000000000000000000000000000000000000000000000000000000000000000000000000000000000000000000000000000000000000000000000000000000000000000000000000000000000070700000000000700070000000000000000000000000000000000000000
310
00000000000000000000000000000000000000000000000000000000000000000000000000000000000000000000000000000000000000000000000000000000000000000000000000000000000000000000000000000000000000000000000000000000000000000000000000000000000000000000000000000000000000
310
00000000000000000000000000000000000000000000000000000000000007000700000000000000000000000000000000000000000000000000000000000000000000000000000000000000000000000000000000000000000000000000000000000000000000000000000000000000000000000000000000000000000000
310
00000000000000000000000000000000000000000000000000000000000000000000000000000000000000000000000000000000000000000000000000000000000000000000000000000000000000000000000700070000000000000000000000000000000000000000000000000000000000000000000000000000000000
310
00000000000000000000000000000000000000000000000000000000000000000000000000000000000000000000000000000000000000000000000000000000000000000000000000000000000000000000000000000000000000000000000000000000000000000000000000000000000000000000000000000000000000
310
00000000000000000007000700000000000000000000000000000000000000000000000000000000000000000000000000000000000000000000000000000000000000000000000000000000000000000000000000000000000000000000000000000000000000000000000000000000000000000000000000000000000000
310
00000000000000000000000000000000000000000000000000000000000000000000000000000000000000000000000000000000000000000000000000000700070000000000000000000000000000000000000000000000000000000000000000000000000000000000000000000000000000000000000000000000000000
310
00000000000000000000000000000000000000000000000000000000000000000000000000000000000000000000000000000000000000000000000000000000000000000000000000000000000000000000000000000000000000000000000000000000000000000000000000000000000000070007000000000000000000
310
00000000000000000000000000000000000000000000000000000000000000000000000000000000000000000000000000000000000000000000000000000000000000000000000000000000000000000000000000000000000000000000000000000000000000000000000000000000000000000000000000000000000000
310
00000000000000000000000000000000000000000000000000000000000000000000000000000000000700070000000000000000000000000000000000000000000000000000000000000000000000000000000000000000000000000000000000000000000000000000000000000000000000000000000000000000000000
310
00000000000000000000000000000000000000000000000000000000000000000000000000000000000000000000000000000000000000000000000000000000000000000000000000000000000000000000000000000000000000000000070007000000000000000000000000000000000000000000000000000000000000
310
00000000000000000000000000000000000000000000000000000000000000000000000000000000000000000000000000000000000000000000000000000000000000000000000000000000000000000000000000000000000000000000000000000000000000000000000000000000000000000000000000000000000000
310
00000000000000000000000000000000000000000700070000000000000000000000000000000000000000000000000000000000000000000000000000000000000000000000000000000000000000000000000000000000000000000000000000000000000000000000000000000000000000000000000000000000000000
310
00000000000000000000000000000000000000000000000000000000000000000000000000000000000000000000000000000000000000000000000000000000000000000000000000070007000000000000000000000000000000000000000000000000000000000000000000000000000000000000000000000000000000
310
00000000000000000000000000000000000000000000000000000000000000000000000000000000000000000000000000000000000000000000000000000000000000000000000000000000000000000000000000000000000000000000000000000000000000000000000000000000000000000000000000000000000007
310
00070000000000000000000000000000000000000000000000000000000000000000000000000000000000000000000000000000000000000000000000000000000000000000000000000000000000000000000000000000000000000000000000000000000000000000000000000000000000000000000000000000000000
310
00000000000000000000000000000000000000000000000000000000000000000000000000000000000000000000000000000000070007000000000000000000000000000000000000000000000000000000000000000000000000000000000000000000000000000000000000000000000000000000000000000000000000
310
00000000000000000000000000000000000000000000000000000000000000000000000000000000000000000000000000000000000000000000000000000000000000000000000000000000000000000000000000000000000000000000000000000000000000000007000700000000000000000000000000000000000000
310
00000000000000000000000000000000000000000000000000000000000000000000000000000000000000000000000000000000000000000000000000000000000000000000000000000000000000000000000000000000000000000000000000000000000000000000000000000000000000000000000000000000000000
310
00000000000000000000000000000000000000000000000000000000000000070007000000000000000000000000000000000000000000000000000000000000000000000000000000000000000000000000000000000000000000000000000000000000000000000000000000000000000000000000000000000000000000
310
00000000000000000000000000000000000000000000000000000000000000000000000000000000000000000000000000000000000000000000000000000000000000000000000000000000000000000000000007000700000000000000000000000000000000000000000000000000000000000000000000000000000000
310
00000000000000000000000000000000000000000000000000000000000000000000000000000000000000000000000000000000000000000000000000000000000000000000000000000000000000000000000000000000000000000000000000000000000000000000000000000000000000000000000000000000000000
310
00000000000000000000070007000000000000000000000000000000000000000000000000000000000000000000000000000000000000000000000000000000000000000000000000000000000000000000000000000000000000000000000000000000000000000000000000000000000000000000000000000000000000
310
00000000000000000000000000000000000000000000000000000000000000000000000000000000000000000000000000000000000000000000000000000007000700000000000000000000000000000000000000000000000000000000000000000000000000000000000000000000000000000000000000000000000000
310
00000000000000000000000000000000000000000000000000000000000000000000000000000000000000000000000000000000000000000000000000000000000000000000000000000000000000000000000000000000000000000000000000000000000000000000000000000000000000000700070000000000000000
310
00000000000000000000000000000000000000000000000000000000000000000000000000000000000000000000000000000000000000000000000000000000000000000000000000000000000000000000000000000000000000000000000000000000000000000000000000000000000000000000000000000000000000
310
00000000000000000000000000000000000000000000000000000000000000000000000000000000000007000700000000000000000000000000000000000000000000000000000000000000000000000000000000000000000000000000000000000000000000000000000000000000000000000000000000000000000000
310
00000000000000000000000000000000000000000000000000000000000000000000000000000000000000000000000000000000000000000000000000000000000000000000000000000000000000000000000000000000000000000000000700070000000000000000000000000000000000000000000000000000000000
310
00000000000000000000000000000000000000000000000000000000000000000000000000000000000000000000000000000000000000000000000000000000000000000000000000000000000000000000000000000000000000000000000000000000000000000000000000000000000000000000000000000000000000
310
00000000000000000000000000000000000000000007000700000000000000000000000000000000000000000000000000000000000000000000000000000000000000000000000000000000000000000000000000000000000000000000000000000000000000000000000000000000000000000000000000000000000000
310
00000000000000000000000000000000000000000000000000000000000000000000000000000000000000000000000000000000000000000000000000000000000000000000000000000700070000000000000000000000000000000000000000000000000000000000000000000000000000000000000000000000000000
310
00000000000000000000000000000000000000000000000000000000000000000000000000000000000000000000000000000000000000000000000000000000000000000000000000000000000000000000000000000000000000000000000000000000000000000000000000000000000000000000000000000000000000
310
07000700000000000000000000000000000000000000000000000000000000000000000000000000000000000000000000000000000000000000000000000000000000000000000000000000000000000000000000000000000000000000000000000000000000000000000000000000000000000000000000000000000000
310
00000000000000000000000000000000000000000000000000000000000000000000000000000000000000000000000000000000000700070000000000000000000000000000000000000000000000000000000000000000000000000000000000000000000000000000000000000000000000000000000000000000000000
310
00000000000000000000000000000000000000000000000000000000000000000000000000000000000000000000000000000000000000000000000000000000000000000000000000000000000000000000000000000000000000000000000000000000000000000000070007000000000000000000000000000000000000
310
00000000000000000000000000000000000000000000000000000000000000000000000000000000000000000000000000000000000000000000000000000000000000000000000000000000000000000000000000000000000000000000000000000000000000000000000000000000000000000000000000000000000000
310
00000000000000000000000000000000000000000000000000000000000000000700070000000000000000000000000000000000000000000000000000000000000000000000000000000000000000000000000000000000000000000000000000000000000000000000000000000000000000000000000000000000000000
310
00000000000000000000000000000000000000000000000000000000000000000000000000000000000000000000000000000000000000000000000000000000000000000000000000000000000000000000000000070007000000000000000000000000000000000000000000000000000000000000000000000000000000
310
00000000000000000000000000000000000000000000000000000000000000000000000000000000000000000000000000000000000000000000000000000000000000000000000000000000000000000000000000000000000000000000000000000000000000000000000000000000000000000000000000000000000000
310
00000000000000000000000700070000000000000000000000000000000000000000000000000000000000000000000000000000000000000000000000000000000000000000000000000000000000000000000000000000000000000000000000000000000000000000000000000000000000000000000000000000000000
310
00000000000000000000000000000000000000000000000000000000000000000000000000000000000000000000000000000000000000000000000000000000070007000000000000000000000000000000000000000000000000000000000000000000000000000000000000000000000000000000000000000000000000
310
00000000000000000000000000000000000000000000000000000000000000000000000000000000000000000000000000000000000000000000000000000000000000000000000000000000000000000000000000000000000000000000000000000000000000000000000000000000000000000007000700000000000000
310
00000000000000000000000000000000000000000000000000000000000000000000000000000000000000000000000000000000000000000000000000000000000000000000000000000000000000000000000000000000000000000000000000000000000000000000000000000000000000000000000000000000000000
310
00000000000000000000000000000000000000000000070707000000000000000000000000000000000007000007000000000000000000000000000000000000000000000000000000000000000000000000000000000000000000000000000000000000000000000000000000000000000000000000000000000000000000
310
00000000000000000000000000000000000000000000000000000000000000000000000000000000000000000000000000000000000000000000000000000000000000000007070707070707070707000000000000000000000000070707000700000700000000000000000000000000000000000000000000000000000000
310
00000000000000000000000000000000000000000000000000000000000000000000000000000000000000000000000000000000000000000000000000000000000000000000000000000000000000000000000000000000000000000000000000000000000000000000000000000000000000000007070707070707070707
310
07070700000000000000000007070707070000000007070700000000000000000000000000000000000000000000000000000000000000000000000000000000000000000000000000000000000000000000000000000000000000000000000000000000000000000000000000000000000000000000000000000000000000
310
00000000000000000000000000000000000000000000000000000000000000000000000000000000000000070707070707070707070000000000000000070707070000000707070707070000000000000000000000000000000000000000000000000000000000000000000000000000000000000000000000000000000000
310
00000000000000000000000000000000000000000000000000000000000000000000000000000000000000000000000000000000000000000000000000000000000000000000000000000000000000000000000000000000000000000000000000000000000007070700000000070707070700070707070707000000000000
310
00000000000000000000000000000000000000000000000000000000000000000000000000000000000000000000000000000000000000000000000000000000000000000000000000000000000000000000000000000000000000000000000000000000000000000000000000000000000000000000000000000000000000
310
00000000000000000000000000000000000000000000000000000000070000070707070707070707070000000000000000000000000000000000000000000000000000000000000000000000000000000000000000000000000000000000000000000000000000000000000000000000000000000000000000000000000000
310
00000000000000000000000000000000000000000000000000000000000000000000000000000000000000000000000000000000000000000000000000000000000000000000000000000000000000000000070707070707000000000000000000000000000000000000000000000000000000000000000000000000000000
310
00000000000000000000000000000000000000000000000000000000000000000000000000000000000000000000000000000000000000000000000000000000000000000000000000000000000000000000000000000000000000000000000000000000000000000000000000000000000000000000000000000000000000
310
000000000000000000000000000000000000000000000000000000000000000000000000000000000000000000000000000000000000000000000000000000000000000000000000000000000000000000000000000000000000000000000000000000000000000000000000
  0
ENDSEC
  0
EOF
