  0
SECTION
  2
HEADER
  9
$ACADVER
  1
AC1015
  9
$ACADMAINTVER
 70
     6
  9
$DWGCODEPAGE
  3
ANSI_1252
  9
$INSBASE
 10
0.0
 20
0.0
 30
0.0
  9
$EXTMIN
 10
-0.232
 20
7.038749356053
 30
0.0
  9
$EXTMAX
 10
225.827
 20
257.231749356053
 30
0.0
  9
$LIMMIN
 10
0.0
 20
0.0
  9
$LIMMAX
 10
12.0
 20
9.0
  9
$ORTHOMODE
 70
     0
  9
$REGENMODE
 70
     1
  9
$FILLMODE
 70
     1
  9
$QTEXTMODE
 70
     0
  9
$MIRRTEXT
 70
     1
  9
$LTSCALE
 40
1.0
  9
$ATTMODE
 70
     1
  9
$TEXTSIZE
 40
0.2
  9
$TRACEWID
 40
0.05
  9
$TEXTSTYLE
  7
Standard
  9
$CLAYER
  8
0
  9
$CELTYPE
  6
ByBlock
  9
$CECOLOR
 62
   256
  9
$CELTSCALE
 40
1.0
  9
$DISPSILH
 70
     0
  9
$DIMSCALE
 40
1.0
  9
$DIMASZ
 40
0.18
  9
$DIMEXO
 40
0.0625
  9
$DIMDLI
 40
0.38
  9
$DIMRND
 40
0.0
  9
$DIMDLE
 40
0.0
  9
$DIMEXE
 40
0.18
  9
$DIMTP
 40
0.0
  9
$DIMTM
 40
0.0
  9
$DIMTXT
 40
0.18
  9
$DIMCEN
 40
0.09
  9
$DIMTSZ
 40
0.0
  9
$DIMTOL
 70
     0
  9
$DIMLIM
 70
     0
  9
$DIMTIH
 70
     1
  9
$DIMTOH
 70
     1
  9
$DIMSE1
 70
     0
  9
$DIMSE2
 70
     0
  9
$DIMTAD
 70
     0
  9
$DIMZIN
 70
     0
  9
$DIMBLK
  1

  9
$DIMASO
 70
     1
  9
$DIMSHO
 70
     1
  9
$DIMPOST
  1

  9
$DIMAPOST
  1

  9
$DIMALT
 70
     0
  9
$DIMALTD
 70
     2
  9
$DIMALTF
 40
25.4
  9
$DIMLFAC
 40
1.0
  9
$DIMTOFL
 70
     0
  9
$DIMTVP
 40
0.0
  9
$DIMTIX
 70
     0
  9
$DIMSOXD
 70
     0
  9
$DIMSAH
 70
     0
  9
$DIMBLK1
  1

  9
$DIMBLK2
  1

  9
$DIMSTYLE
  2
Standard
  9
$DIMCLRD
 70
     0
  9
$DIMCLRE
 70
     0
  9
$DIMCLRT
 70
     0
  9
$DIMTFAC
 40
1.0
  9
$DIMGAP
 40
0.09
  9
$DIMJUST
 70
     0
  9
$DIMSD1
 70
     0
  9
$DIMSD2
 70
     0
  9
$DIMTOLJ
 70
     1
  9
$DIMTZIN
 70
     0
  9
$DIMALTZ
 70
     0
  9
$DIMALTTZ
 70
     0
  9
$DIMUPT
 70
     0
  9
$DIMDEC
 70
     4
  9
$DIMTDEC
 70
     4
  9
$DIMALTU
 70
     2
  9
$DIMALTTD
 70
     2
  9
$DIMTXSTY
  7
Standard
  9
$DIMAUNIT
 70
     0
  9
$DIMADEC
 70
     0
  9
$DIMALTRND
 40
0.0
  9
$DIMAZIN
 70
     0
  9
$DIMDSEP
 70
    46
  9
$DIMATFIT
 70
     3
  9
$DIMFRAC
 70
     0
  9
$DIMLDRBLK
  1

  9
$DIMLUNIT
 70
     2
  9
$DIMLWD
 70
    -2
  9
$DIMLWE
 70
    -2
  9
$DIMTMOVE
 70
     2
  9
$LUNITS
 70
     2
  9
$LUPREC
 70
     4
  9
$SKETCHINC
 40
0.1
  9
$FILLETRAD
 40
0.5
  9
$AUNITS
 70
     0
  9
$AUPREC
 70
     0
  9
$MENU
  1
.
  9
$ELEVATION
 40
0.0
  9
$PELEVATION
 40
0.0
  9
$THICKNESS
 40
0.0
  9
$LIMCHECK
 70
     0
  9
$CHAMFERA
 40
0.5
  9
$CHAMFERB
 40
0.5
  9
$CHAMFERC
 40
1.0
  9
$CHAMFERD
 40
0.0
  9
$SKPOLY
 70
     0
  9
$TDCREATE
 40
2456646.633174722
  9
$TDUCREATE
 40
2456646.591508056
  9
$TDUPDATE
 40
2456646.642701817
  9
$TDUUPDATE
 40
2456646.60103515
  9
$TDINDWG
 40
0.0045996181
  9
$TDUSRTIMER
 40
0.0045996181
  9
$USRTIMER
 70
     1
  9
$ANGBASE
 50
0.0
  9
$ANGDIR
 70
     0
  9
$PDMODE
 70
     0
  9
$PDSIZE
 40
0.0
  9
$PLINEWID
 40
0.0
  9
$SPLFRAME
 70
     0
  9
$SPLINETYPE
 70
     6
  9
$SPLINESEGS
 70
     8
  9
$HANDSEED
  5
1A57
  9
$SURFTAB1
 70
     6
  9
$SURFTAB2
 70
     6
  9
$SURFTYPE
 70
     6
  9
$SURFU
 70
     6
  9
$SURFV
 70
     6
  9
$UCSBASE
  2

  9
$UCSNAME
  2

  9
$UCSORG
 10
0.0
 20
0.0
 30
0.0
  9
$UCSXDIR
 10
1.0
 20
0.0
 30
0.0
  9
$UCSYDIR
 10
0.0
 20
1.0
 30
0.0
  9
$UCSORTHOREF
  2

  9
$UCSORTHOVIEW
 70
     0
  9
$UCSORGTOP
 10
0.0
 20
0.0
 30
0.0
  9
$UCSORGBOTTOM
 10
0.0
 20
0.0
 30
0.0
  9
$UCSORGLEFT
 10
0.0
 20
0.0
 30
0.0
  9
$UCSORGRIGHT
 10
0.0
 20
0.0
 30
0.0
  9
$UCSORGFRONT
 10
0.0
 20
0.0
 30
0.0
  9
$UCSORGBACK
 10
0.0
 20
0.0
 30
0.0
  9
$PUCSBASE
  2

  9
$PUCSNAME
  2

  9
$PUCSORG
 10
0.0
 20
0.0
 30
0.0
  9
$PUCSXDIR
 10
1.0
 20
0.0
 30
0.0
  9
$PUCSYDIR
 10
0.0
 20
1.0
 30
0.0
  9
$PUCSORTHOREF
  2

  9
$PUCSORTHOVIEW
 70
     0
  9
$PUCSORGTOP
 10
0.0
 20
0.0
 30
0.0
  9
$PUCSORGBOTTOM
 10
0.0
 20
0.0
 30
0.0
  9
$PUCSORGLEFT
 10
0.0
 20
0.0
 30
0.0
  9
$PUCSORGRIGHT
 10
0.0
 20
0.0
 30
0.0
  9
$PUCSORGFRONT
 10
0.0
 20
0.0
 30
0.0
  9
$PUCSORGBACK
 10
0.0
 20
0.0
 30
0.0
  9
$USERI1
 70
     0
  9
$USERI2
 70
     0
  9
$USERI3
 70
     0
  9
$USERI4
 70
     0
  9
$USERI5
 70
     0
  9
$USERR1
 40
0.0
  9
$USERR2
 40
0.0
  9
$USERR3
 40
0.0
  9
$USERR4
 40
0.0
  9
$USERR5
 40
0.0
  9
$WORLDVIEW
 70
     1
  9
$SHADEDGE
 70
     3
  9
$SHADEDIF
 70
    70
  9
$TILEMODE
 70
     1
  9
$MAXACTVP
 70
    64
  9
$PINSBASE
 10
0.0
 20
0.0
 30
0.0
  9
$PLIMCHECK
 70
     0
  9
$PEXTMIN
 10
1.000000000000E+20
 20
1.000000000000E+20
 30
1.000000000000E+20
  9
$PEXTMAX
 10
-1.000000000000E+20
 20
-1.000000000000E+20
 30
-1.000000000000E+20
  9
$PLIMMIN
 10
0.0
 20
0.0
  9
$PLIMMAX
 10
12.0
 20
9.0
  9
$UNITMODE
 70
     0
  9
$VISRETAIN
 70
     1
  9
$PLINEGEN
 70
     0
  9
$PSLTSCALE
 70
     1
  9
$TREEDEPTH
 70
  3020
  9
$CMLSTYLE
  2
Standard
  9
$CMLJUST
 70
     0
  9
$CMLSCALE
 40
1.0
  9
$PROXYGRAPHICS
 70
     1
  9
$MEASUREMENT
 70
     0
  9
$CELWEIGHT
370
    -1
  9
$ENDCAPS
280
     0
  9
$JOINSTYLE
280
     0
  9
$LWDISPLAY
290
     0
  9
$INSUNITS
 70
     0
  9
$HYPERLINKBASE
  1

  9
$STYLESHEET
  1

  9
$XEDIT
290
     1
  9
$CEPSNTYPE
380
     0
  9
$PSTYLEMODE
290
     1
  9
$FINGERPRINTGUID
  2
{A5810EA7-7B5C-45E9-AF4D-7D8F81E7FDB0}
  9
$VERSIONGUID
  2
{FAEB1C32-E019-11D5-929B-00C0DF256EC4}
  9
$EXTNAMES
290
     1
  9
$PSVPSCALE
 40
0.0
  9
$OLESTARTUP
290
     0
  0
ENDSEC
  0
SECTION
  2
CLASSES
  0
CLASS
  1
ACDBDICTIONARYWDFLT
  2
AcDbDictionaryWithDefault
  3
ObjectDBX Classes
 90
        0
280
     0
281
     0
  0
CLASS
  1
SCALE
  2
AcDbScale
  3
ObjectDBX Classes
 90
     1153
280
     0
281
     0
  0
CLASS
  1
DICTIONARYVAR
  2
AcDbDictionaryVar
  3
ObjectDBX Classes
 90
        0
280
     0
281
     0
  0
CLASS
  1
ACDBPLACEHOLDER
  2
AcDbPlaceHolder
  3
ObjectDBX Classes
 90
        0
280
     0
281
     0
  0
CLASS
  1
LAYOUT
  2
AcDbLayout
  3
ObjectDBX Classes
 90
        0
280
     0
281
     0
  0
ENDSEC
  0
SECTION
  2
TABLES
  0
TABLE
  2
VPORT
  5
8
330
0
100
AcDbSymbolTable
 70
     1
  0
VPORT
  5
BBD
330
8
100
AcDbSymbolTableRecord
100
AcDbViewportTableRecord
  2
*Active
 70
     0
 10
0.0
 20
0.0
 11
1.0
 21
1.0
 12
112.7975
 22
128.615874678027
 13
0.0
 23
0.0
 14
0.5
 24
0.5
 15
0.5
 25
0.5
 16
0.0
 26
0.0
 36
1.0
 17
0.0
 27
0.0
 37
0.0
 40
262.376384343174
 41
1.319001386963
 42
50.0
 43
0.0
 44
0.0
 50
0.0
 51
0.0
 71
    16
 72
   100
 73
     1
 74
     3
 75
     0
 76
     0
 77
     0
 78
     0
281
     0
 65
     1
110
0.0
120
0.0
130
0.0
111
1.0
121
0.0
131
0.0
112
0.0
122
1.0
132
0.0
 79
     0
146
0.0
  0
ENDTAB
  0
TABLE
  2
LTYPE
  5
5
330
0
100
AcDbSymbolTable
 70
     1
  0
LTYPE
  5
14
330
5
100
AcDbSymbolTableRecord
100
AcDbLinetypeTableRecord
  2
ByBlock
 70
     0
  3

 72
    65
 73
     0
 40
0.0
  0
LTYPE
  5
15
330
5
100
AcDbSymbolTableRecord
100
AcDbLinetypeTableRecord
  2
ByLayer
 70
     0
  3

 72
    65
 73
     0
 40
0.0
  0
LTYPE
  5
16
330
5
100
AcDbSymbolTableRecord
100
AcDbLinetypeTableRecord
  2
Continuous
 70
     0
  3
Solid line
 72
    65
 73
     0
 40
0.0
  0
ENDTAB
  0
TABLE
  2
LAYER
  5
2
330
0
100
AcDbSymbolTable
 70
     1
  0
LAYER
  5
10
330
2
100
AcDbSymbolTableRecord
100
AcDbLayerTableRecord
  2
0
 70
     0
 62
     7
  6
Continuous
370
    -3
390
F
  0
ENDTAB
  0
TABLE
  2
STYLE
  5
3
330
0
100
AcDbSymbolTable
 70
     1
  0
STYLE
  5
11
330
3
100
AcDbSymbolTableRecord
100
AcDbTextStyleTableRecord
  2
Standard
 70
     0
 40
0.0
 41
1.0
 50
0.0
 71
     0
 42
0.2
  3
txt
  4

  0
ENDTAB
  0
TABLE
  2
VIEW
  5
6
330
0
100
AcDbSymbolTable
 70
     0
  0
ENDTAB
  0
TABLE
  2
UCS
  5
7
330
0
100
AcDbSymbolTable
 70
     0
  0
ENDTAB
  0
TABLE
  2
APPID
  5
9
330
0
100
AcDbSymbolTable
 70
     1
  0
APPID
  5
12
330
9
100
AcDbSymbolTableRecord
100
AcDbRegAppTableRecord
  2
ACAD
 70
     0
  0
ENDTAB
  0
TABLE
  2
DIMSTYLE
  5
A
330
0
100
AcDbSymbolTable
 70
     1
100
AcDbDimStyleTable
  0
DIMSTYLE
105
20
330
A
100
AcDbSymbolTableRecord
100
AcDbDimStyleTableRecord
  2
Standard
 70
     0
340
11
  0
ENDTAB
  0
TABLE
  2
BLOCK_RECORD
  5
1
330
0
100
AcDbSymbolTable
 70
     0
  0
BLOCK_RECORD
  5
1D
330
1
100
AcDbSymbolTableRecord
100
AcDbBlockTableRecord
  2
*Model_Space
340
1E
  0
BLOCK_RECORD
  5
1B
330
1
100
AcDbSymbolTableRecord
100
AcDbBlockTableRecord
  2
*Paper_Space
340
1C
  0
ENDTAB
  0
ENDSEC
  0
SECTION
  2
BLOCKS
  0
BLOCK
  5
BC0
330
1D
100
AcDbEntity
  8
0
100
AcDbBlockBegin
  2
*Model_Space
 70
     0
 10
0.0
 20
0.0
 30
0.0
  3
*Model_Space
  1
*Model_Space
  0
ENDBLK
  5
BC1
330
1D
100
AcDbEntity
  8
0
100
AcDbBlockEnd
  0
BLOCK
  5
BBE
330
1B
100
AcDbEntity
 67
     1
  8
0
100
AcDbBlockBegin
  2
*Paper_Space
 70
     0
 10
0.0
 20
0.0
 30
0.0
  3
*Paper_Space
  1
*Paper_Space
  0
ENDBLK
  5
BBF
330
1B
100
AcDbEntity
 67
     1
  8
0
100
AcDbBlockEnd
  0
ENDSEC
  0
SECTION
  2
ENTITIES
  0
LINE
  5
2B
330
1D
100
AcDbEntity
  8
0
100
AcDbLine
 10
156.8721
 20
7.038749356053
 30
0.0
 11
157.3338
 21
7.038749356053
 31
0.0
  0
LINE
  5
2C
330
1D
100
AcDbEntity
  8
0
100
AcDbLine
 10
156.1833
 20
7.038749356053
 30
0.0
 11
156.7338
 21
7.038751356053
 31
0.0
  0
LINE
  5
2D
330
1D
100
AcDbEntity
  8
0
100
AcDbLine
 10
156.7378
 20
7.038749356053
 30
0.0
 11
156.9329
 21
7.038749356053
 31
0.0
  0
LINE
  5
2E
330
1D
100
AcDbEntity
  8
0
100
AcDbLine
 10
156.7378
 20
7.038749356053
 30
0.0
 11
156.8721
 21
7.038749356053
 31
0.0
  0
LINE
  5
30
330
1D
100
AcDbEntity
  8
0
100
AcDbLine
 10
156.9329
 20
7.038749356053
 30
0.0
 11
157.4554
 21
7.038749356053
 31
0.0
  0
LINE
  5
31
330
1D
100
AcDbEntity
  8
0
100
AcDbLine
 10
156.0266
 20
7.038749356053
 30
0.0
 11
156.124639727977
 21
7.038749851704
 31
0.0
  0
LINE
  5
33
330
1D
100
AcDbEntity
  8
0
100
AcDbLine
 10
157.3338
 20
7.038749356053
 30
0.0
 11
158.1187
 21
7.038749356053
 31
0.0
  0
LINE
  5
34
330
1D
100
AcDbEntity
  8
0
100
AcDbLine
 10
157.4554
 20
7.038749356053
 30
0.0
 11
158.2989
 21
7.038749356053
 31
0.0
  0
LINE
  5
35
330
1D
100
AcDbEntity
  8
0
100
AcDbLine
 10
157.1291
 20
7.038749356053
 30
0.0
 11
157.88727317275
 21
7.038750852054
 31
0.0
  0
LINE
  5
36
330
1D
100
AcDbEntity
  8
0
100
AcDbLine
 10
155.9466
 20
7.038751356053
 30
0.0
 11
156.0266
 21
7.038749356053
 31
0.0
  0
LINE
  5
37
330
1D
100
AcDbEntity
  8
0
100
AcDbLine
 10
155.9466
 20
7.038751356053
 30
0.0
 11
156.1833
 21
7.038749356053
 31
0.0
  0
LINE
  5
38
330
1D
100
AcDbEntity
  8
0
100
AcDbLine
 10
155.9466
 20
7.038751356053
 30
0.0
 11
155.9466
 21
13.838749356053
 31
0.0
  0
LINE
  5
39
330
1D
100
AcDbEntity
  8
0
100
AcDbLine
 10
157.5945
 20
7.038751356053
 30
0.0
 11
158.7563
 21
7.038749356053
 31
0.0
  0
LINE
  5
3A
330
1D
100
AcDbEntity
  8
0
100
AcDbLine
 10
156.7338
 20
7.038751356053
 30
0.0
 11
157.5945
 21
7.038751356053
 31
0.0
  0
LINE
  5
3B
330
1D
100
AcDbEntity
  8
0
100
AcDbLine
 10
156.597378972483
 20
7.038750860427
 30
0.0
 11
157.1291
 21
7.038749356053
 31
0.0
  0
LINE
  5
3C
330
1D
100
AcDbEntity
  8
0
100
AcDbLine
 10
157.47521219136
 20
7.038750038989
 30
0.0
 11
157.9952
 21
7.038749356053
 31
0.0
  0
LINE
  5
3D
330
1D
100
AcDbEntity
  8
0
100
AcDbLine
 10
155.711
 20
7.038752356053
 30
0.0
 11
155.9466
 21
7.038752046623
 31
0.0
  0
LINE
  5
3E
330
1D
100
AcDbEntity
  8
0
100
AcDbLine
 10
156.0988
 20
14.604109356053
 30
0.0
 11
156.5319
 21
15.252959356053
 31
0.0
  0
LINE
  5
3F
330
1D
100
AcDbEntity
  8
0
100
AcDbLine
 10
155.9466
 20
13.838749356053
 30
0.0
 11
155.9466
 21
7.038751356053
 31
0.0
  0
LINE
  5
40
330
1D
100
AcDbEntity
  8
0
100
AcDbLine
 10
155.9466
 20
13.838749356053
 30
0.0
 11
156.0988
 21
14.604109356053
 31
0.0
  0
LINE
  5
41
330
1D
100
AcDbEntity
  8
0
100
AcDbLine
 10
155.2988
 20
15.313309356053
 30
0.0
 11
156.1796
 21
16.429509356053
 31
0.0
  0
LINE
  5
42
330
1D
100
AcDbEntity
  8
0
100
AcDbLine
 10
157.1435
 20
15.686919356053
 30
0.0
 11
158.1127
 21
15.843529356053
 31
0.0
  0
LINE
  5
43
330
1D
100
AcDbEntity
  8
0
100
AcDbLine
 10
156.5319
 20
15.252959356053
 30
0.0
 11
157.1435
 21
15.686919356053
 31
0.0
  0
LINE
  5
44
330
1D
100
AcDbEntity
  8
0
100
AcDbLine
 10
157.0983
 20
16.708449356053
 30
0.0
 11
169.27207057098
 21
16.734675670749
 31
0.0
  0
LINE
  5
45
330
1D
100
AcDbEntity
  8
0
100
AcDbLine
 10
156.1796
 20
16.429509356053
 30
0.0
 11
157.0983
 21
16.708449356053
 31
0.0
  0
LINE
  5
46
330
1D
100
AcDbEntity
  8
0
100
AcDbLine
 10
155.2466
 20
7.038756356053
 30
0.0
 11
155.9466
 21
7.038755037165
 31
0.0
  0
LINE
  5
47
330
1D
100
AcDbEntity
  8
0
100
AcDbLine
 10
155.2466
 20
7.038756356053
 30
0.0
 11
155.2988
 21
15.313309356053
 31
0.0
  0
LINE
  5
48
330
1D
100
AcDbEntity
  8
0
100
AcDbLine
 10
155.2466
 20
7.038756356053
 30
0.0
 11
155.711
 21
7.038752356053
 31
0.0
  0
LINE
  5
5C
330
1D
100
AcDbEntity
  8
0
100
AcDbLine
 10
159.218
 20
7.038749356053
 30
0.0
 11
160.6234
 21
7.038749356053
 31
0.0
  0
LINE
  5
5D
330
1D
100
AcDbEntity
  8
0
100
AcDbLine
 10
158.7563
 20
7.038749356053
 30
0.0
 11
160.2086
 21
7.038749356053
 31
0.0
  0
LINE
  5
5E
330
1D
100
AcDbEntity
  8
0
100
AcDbLine
 10
158.1187
 20
7.038749356053
 30
0.0
 11
159.218
 21
7.038749356053
 31
0.0
  0
LINE
  5
5F
330
1D
100
AcDbEntity
  8
0
100
AcDbLine
 10
158.2989
 20
7.038749356053
 30
0.0
 11
159.4569
 21
7.038749356053
 31
0.0
  0
LINE
  5
7F
330
1D
100
AcDbEntity
  8
0
100
AcDbLine
 10
162.3199
 20
7.038749356053
 30
0.0
 11
164.2915
 21
7.038749356053
 31
0.0
  0
LINE
  5
80
330
1D
100
AcDbEntity
  8
0
100
AcDbLine
 10
160.6234
 20
7.038749356053
 30
0.0
 11
162.3199
 21
7.038749356053
 31
0.0
  0
LINE
  5
81
330
1D
100
AcDbEntity
  8
0
100
AcDbLine
 10
159.4569
 20
7.038749356053
 30
0.0
 11
160.9177
 21
7.038749356053
 31
0.0
  0
LINE
  5
82
330
1D
100
AcDbEntity
  8
0
100
AcDbLine
 10
160.9177
 20
7.038749356053
 30
0.0
 11
162.6665
 21
7.038749356053
 31
0.0
  0
LINE
  5
9D
330
1D
100
AcDbEntity
  8
0
100
AcDbLine
 10
162.6665
 20
7.038749356053
 30
0.0
 11
164.6871
 21
7.038749356053
 31
0.0
  0
LINE
  5
9E
330
1D
100
AcDbEntity
  8
0
100
AcDbLine
 10
161.9393
 20
7.038751356053
 30
0.0
 11
163.9322
 21
7.038749356053
 31
0.0
  0
LINE
  5
9F
330
1D
100
AcDbEntity
  8
0
100
AcDbLine
 10
160.2086
 20
7.038749356053
 30
0.0
 11
161.9393
 21
7.038751356053
 31
0.0
  0
LINE
  5
A8
330
1D
100
AcDbEntity
  8
0
100
AcDbLine
 10
164.2676
 20
7.038749356053
 30
0.0
 11
164.6896
 21
7.038749356053
 31
0.0
  0
LINE
  5
A9
330
1D
100
AcDbEntity
  8
0
100
AcDbLine
 10
164.1961
 20
7.038749356053
 30
0.0
 11
164.4762
 21
7.038749356053
 31
0.0
  0
LINE
  5
AA
330
1D
100
AcDbEntity
  8
0
100
AcDbLine
 10
164.1961
 20
7.038749356053
 30
0.0
 11
164.2676
 21
7.038749356053
 31
0.0
  0
LINE
  5
B2
330
1D
100
AcDbEntity
  8
0
100
AcDbLine
 10
165.196
 20
7.038749356053
 30
0.0
 11
166.096
 21
7.038749356053
 31
0.0
  0
LINE
  5
BA
330
1D
100
AcDbEntity
  8
0
100
AcDbLine
 10
165.4568
 20
7.038749356053
 30
0.0
 11
166.5581
 21
7.038749356053
 31
0.0
  0
LINE
  5
BB
330
1D
100
AcDbEntity
  8
0
100
AcDbLine
 10
164.6896
 20
7.038749356053
 30
0.0
 11
165.4568
 21
7.038749356053
 31
0.0
  0
LINE
  5
BC
330
1D
100
AcDbEntity
  8
0
100
AcDbLine
 10
164.4762
 20
7.038749356053
 30
0.0
 11
165.1046
 21
7.038749356053
 31
0.0
  0
LINE
  5
BD
330
1D
100
AcDbEntity
  8
0
100
AcDbLine
 10
165.1046
 20
7.038749356053
 30
0.0
 11
166.0718
 21
7.038749356053
 31
0.0
  0
LINE
  5
BE
330
1D
100
AcDbEntity
  8
0
100
AcDbLine
 10
164.2915
 20
7.038749356053
 30
0.0
 11
166.5201
 21
7.038749356053
 31
0.0
  0
LINE
  5
BF
330
1D
100
AcDbEntity
  8
0
100
AcDbLine
 10
164.9664
 20
10.342539356053
 30
0.0
 11
169.8324
 21
11.366619356053
 31
0.0
  0
LINE
  5
C0
330
1D
100
AcDbEntity
  8
0
100
AcDbLine
 10
164.5686
 20
10.150089356053
 30
0.0
 11
164.9664
 21
10.342539356053
 31
0.0
  0
LINE
  5
C1
330
1D
100
AcDbEntity
  8
0
100
AcDbLine
 10
164.2936
 20
9.806609356053
 30
0.0
 11
164.5686
 21
10.150089356053
 31
0.0
  0
LINE
  5
C2
330
1D
100
AcDbEntity
  8
0
100
AcDbLine
 10
164.196
 20
9.379449356053
 30
0.0
 11
164.1961
 21
7.038749356053
 31
0.0
  0
LINE
  5
C3
330
1D
100
AcDbEntity
  8
0
100
AcDbLine
 10
164.196
 20
9.379449356053
 30
0.0
 11
164.2936
 21
9.806609356053
 31
0.0
  0
LINE
  5
C4
330
1D
100
AcDbEntity
  8
0
100
AcDbLine
 10
164.6871
 20
7.038749356053
 30
0.0
 11
166.9605
 21
7.038749356053
 31
0.0
  0
LINE
  5
C5
330
1D
100
AcDbEntity
  8
0
100
AcDbLine
 10
163.9322
 20
7.038749356053
 30
0.0
 11
166.1682
 21
7.038749356053
 31
0.0
  0
LINE
  5
C6
330
1D
100
AcDbEntity
  8
0
100
AcDbLine
 10
161.0084
 20
15.846729356053
 30
0.0
 11
173.5383
 21
15.873049356053
 31
0.0
  0
LINE
  5
C7
330
1D
100
AcDbEntity
  8
0
100
AcDbLine
 10
158.1127
 20
15.843529356053
 30
0.0
 11
161.0084
 21
15.846729356053
 31
0.0
  0
LINE
  5
C8
330
1D
100
AcDbEntity
  8
0
100
AcDbLine
 10
158.355907763003
 20
16.711158657725
 30
0.0
 11
165.5539
 21
16.761249356053
 31
0.0
  0
LINE
  5
C9
330
1D
100
AcDbEntity
  8
0
100
AcDbLine
 10
157.9952
 20
7.038749356053
 30
0.0
 11
158.533863102877
 21
7.038749738971
 31
0.0
  0
LINE
  5
CA
330
1D
100
AcDbEntity
  8
0
100
AcDbLine
 10
62.546041095889
 20
152.530667164273
 30
0.0
 11
62.657
 21
152.443749356053
 31
0.0
  0
LINE
  5
CB
330
1D
100
AcDbEntity
  8
0
100
AcDbLine
 10
62.657
 20
152.443749356053
 30
0.0
 11
63.3082723355
 21
153.277399090699
 31
0.0
  0
LINE
  5
CC
330
1D
100
AcDbEntity
  8
0
100
AcDbLine
 10
62.657
 20
152.443749356053
 30
0.0
 11
62.728
 21
152.388749356053
 31
0.0
  0
LINE
  5
CD
330
1D
100
AcDbEntity
  8
0
100
AcDbLine
 10
62.728
 20
152.388749356053
 30
0.0
 11
63.382349620842
 21
153.22580698791
 31
0.0
  0
LINE
  5
CE
330
1D
100
AcDbEntity
  8
0
100
AcDbLine
 10
62.177
 20
152.819749356053
 30
0.0
 11
62.807362099588
 21
153.626264633755
 31
0.0
  0
LINE
  5
CF
330
1D
100
AcDbEntity
  8
0
100
AcDbLine
 10
62.177
 20
152.819749356053
 30
0.0
 11
62.657
 21
152.443749356053
 31
0.0
  0
LINE
  5
D0
330
1D
100
AcDbEntity
  8
0
100
AcDbLine
 10
62.369
 20
152.668749356053
 30
0.0
 11
62.546041095889
 21
152.530667164273
 31
0.0
  0
LINE
  5
D1
330
1D
100
AcDbEntity
  8
0
100
AcDbLine
 10
61.773
 20
153.134749356053
 30
0.0
 11
62.369
 21
152.668749356053
 31
0.0
  0
LINE
  5
D2
330
1D
100
AcDbEntity
  8
0
100
AcDbLine
 10
61.639078886306
 20
153.239436130998
 30
0.0
 11
61.773
 21
153.134749356053
 31
0.0
  0
LINE
  5
D3
330
1D
100
AcDbEntity
  8
0
100
AcDbLine
 10
61.639078886306
 20
153.239436130998
 30
0.0
 11
61.773
 21
153.134749356053
 31
0.0
  0
LINE
  5
D4
330
1D
100
AcDbEntity
  8
0
100
AcDbLine
 10
61.581
 20
153.284749356053
 30
0.0
 11
62.185855235168
 21
154.059121289947
 31
0.0
  0
LINE
  5
D5
330
1D
100
AcDbEntity
  8
0
100
AcDbLine
 10
61.581
 20
153.284749356053
 30
0.0
 11
62.177
 21
152.819749356053
 31
0.0
  0
LINE
  5
D6
330
1D
100
AcDbEntity
  8
0
100
AcDbLine
 10
61.581
 20
153.284749356053
 30
0.0
 11
61.639078886306
 21
153.239436130998
 31
0.0
  0
LINE
  5
D7
330
1D
100
AcDbEntity
  8
0
100
AcDbLine
 10
59.473
 20
154.484749356053
 30
0.0
 11
60.077108885809
 21
155.257537995692
 31
0.0
  0
LINE
  5
D8
330
1D
100
AcDbEntity
  8
0
100
AcDbLine
 10
59.382
 20
154.555749356053
 30
0.0
 11
59.952
 21
154.110749356053
 31
0.0
  0
LINE
  5
D9
330
1D
100
AcDbEntity
  8
0
100
AcDbLine
 10
59.975426917509
 20
154.092519254752
 30
0.0
 11
60.048
 21
154.035749356053
 31
0.0
  0
LINE
  5
DA
330
1D
100
AcDbEntity
  8
0
100
AcDbLine
 10
59.975426917509
 20
154.092519254752
 30
0.0
 11
60.048
 21
154.035749356053
 31
0.0
  0
LINE
  5
DB
330
1D
100
AcDbEntity
  8
0
100
AcDbLine
 10
60.048
 20
154.035749356053
 30
0.0
 11
60.236
 21
153.889749356053
 31
0.0
  0
LINE
  5
DC
330
1D
100
AcDbEntity
  8
0
100
AcDbLine
 10
60.236
 20
153.889749356053
 30
0.0
 11
60.83047970954
 21
154.650354995797
 31
0.0
  0
LINE
  5
DD
330
1D
100
AcDbEntity
  8
0
100
AcDbLine
 10
60.236
 20
153.889749356053
 30
0.0
 11
60.785861068369
 21
154.593267782277
 31
0.0
  0
LINE
  5
DE
330
1D
100
AcDbEntity
  8
0
100
AcDbLine
 10
59.952
 20
154.110749356053
 30
0.0
 11
60.532731788352
 21
154.854237007103
 31
0.0
  0
LINE
  5
DF
330
1D
100
AcDbEntity
  8
0
100
AcDbLine
 10
59.952
 20
154.110749356053
 30
0.0
 11
60.236
 21
153.889749356053
 31
0.0
  0
LINE
  5
E0
330
1D
100
AcDbEntity
  8
0
100
AcDbLine
 10
59.519
 20
154.448749356053
 30
0.0
 11
60.048
 21
154.035749356053
 31
0.0
  0
LINE
  5
E1
330
1D
100
AcDbEntity
  8
0
100
AcDbLine
 10
61.221
 20
153.565749356053
 30
0.0
 11
61.581
 21
153.284749356053
 31
0.0
  0
LINE
  5
E2
330
1D
100
AcDbEntity
  8
0
100
AcDbLine
 10
61.221
 20
153.565749356053
 30
0.0
 11
61.8108504562
 21
154.320298316257
 31
0.0
  0
LINE
  5
E3
330
1D
100
AcDbEntity
  8
0
100
AcDbLine
 10
61.221
 20
153.565749356053
 30
0.0
 11
61.591083251573
 21
154.039167541507
 31
0.0
  0
LINE
  5
E4
330
1D
100
AcDbEntity
  8
0
100
AcDbLine
 10
63.498
 20
151.786749356053
 30
0.0
 11
64.047896006388
 21
152.490187753835
 31
0.0
  0
LINE
  5
E5
330
1D
100
AcDbEntity
  8
0
100
AcDbLine
 10
63.498
 20
151.786749356053
 30
0.0
 11
63.881600000017
 21
151.487149356039
 31
0.0
  0
LINE
  5
E6
330
1D
100
AcDbEntity
  8
0
100
AcDbLine
 10
63.498
 20
151.786749356053
 30
0.0
 11
63.881600000017
 21
151.487149356039
 31
0.0
  0
LINE
  5
E7
330
1D
100
AcDbEntity
  8
0
100
AcDbLine
 10
64.568
 20
150.950749356053
 30
0.0
 11
65.262152518087
 21
151.838723681138
 31
0.0
  0
LINE
  5
E8
330
1D
100
AcDbEntity
  8
0
100
AcDbLine
 10
64.568
 20
150.950749356053
 30
0.0
 11
64.979
 21
150.629749356053
 31
0.0
  0
LINE
  5
E9
330
1D
100
AcDbEntity
  8
0
100
AcDbLine
 10
65.178
 20
150.474749356053
 30
0.0
 11
65.762
 21
150.017749356053
 31
0.0
  0
LINE
  5
EA
330
1D
100
AcDbEntity
  8
0
100
AcDbLine
 10
66.092
 20
149.759749356053
 30
0.0
 11
66.256335877884
 21
149.63173408886
 31
0.0
  0
LINE
  5
EB
330
1D
100
AcDbEntity
  8
0
100
AcDbLine
 10
66.092
 20
149.759749356053
 30
0.0
 11
66.88
 21
149.143749356053
 31
0.0
  0
LINE
  5
EC
330
1D
100
AcDbEntity
  8
0
100
AcDbLine
 10
65.945307875886
 20
149.874608544605
 30
0.0
 11
66.092
 21
149.759749356053
 31
0.0
  0
LINE
  5
ED
330
1D
100
AcDbEntity
  8
0
100
AcDbLine
 10
65.945307875886
 20
149.874608544605
 30
0.0
 11
66.092
 21
149.759749356053
 31
0.0
  0
LINE
  5
EE
330
1D
100
AcDbEntity
  8
0
100
AcDbLine
 10
65.993426605496
 20
149.837033759729
 30
0.0
 11
66.092
 21
149.759749356053
 31
0.0
  0
LINE
  5
EF
330
1D
100
AcDbEntity
  8
0
100
AcDbLine
 10
66.073
 20
149.775749356053
 30
0.0
 11
66.726842618889
 21
150.612837875443
 31
0.0
  0
LINE
  5
F0
330
1D
100
AcDbEntity
  8
0
100
AcDbLine
 10
66.073
 20
149.775749356053
 30
0.0
 11
66.401
 21
149.518749356053
 31
0.0
  0
LINE
  5
F1
330
1D
100
AcDbEntity
  8
0
100
AcDbLine
 10
66.88
 20
149.143749356053
 30
0.0
 11
67.521021754543
 21
149.964278014262
 31
0.0
  0
LINE
  5
F2
330
1D
100
AcDbEntity
  8
0
100
AcDbLine
 10
66.644
 20
149.329749356053
 30
0.0
 11
67.273538118961
 21
150.135721797549
 31
0.0
  0
LINE
  5
F3
330
1D
100
AcDbEntity
  8
0
100
AcDbLine
 10
66.644
 20
149.329749356053
 30
0.0
 11
66.88
 21
149.143749356053
 31
0.0
  0
LINE
  5
F4
330
1D
100
AcDbEntity
  8
0
100
AcDbLine
 10
67.518126197001
 20
149.960571606597
 30
0.0
 11
68.756
 21
149.108749356053
 31
0.0
  0
LINE
  5
F5
330
1D
100
AcDbEntity
  8
0
100
AcDbLine
 10
66.401142589333
 20
149.51893175929
 30
0.0
 11
66.644
 21
149.329749356053
 31
0.0
  0
LINE
  5
F6
330
1D
100
AcDbEntity
  8
0
100
AcDbLine
 10
66.401
 20
149.518749356053
 30
0.0
 11
67.071687305114
 21
150.376706493114
 31
0.0
  0
LINE
  5
F7
330
1D
100
AcDbEntity
  8
0
100
AcDbLine
 10
66.264
 20
149.625749356053
 30
0.0
 11
66.401
 21
149.518749356053
 31
0.0
  0
LINE
  5
F8
330
1D
100
AcDbEntity
  8
0
100
AcDbLine
 10
65.762
 20
150.017749356053
 30
0.0
 11
66.264
 21
149.625749356053
 31
0.0
  0
LINE
  5
F9
330
1D
100
AcDbEntity
  8
0
100
AcDbLine
 10
65.762
 20
150.017749356053
 30
0.0
 11
65.993426605496
 21
149.837033759729
 31
0.0
  0
LINE
  5
FA
330
1D
100
AcDbEntity
  8
0
100
AcDbLine
 10
65.762
 20
150.017749356053
 30
0.0
 11
65.993426605496
 21
149.837033759729
 31
0.0
  0
LINE
  5
FB
330
1D
100
AcDbEntity
  8
0
100
AcDbLine
 10
65.489
 20
150.232749356053
 30
0.0
 11
66.114038664115
 21
151.032453576996
 31
0.0
  0
LINE
  5
FC
330
1D
100
AcDbEntity
  8
0
100
AcDbLine
 10
65.489
 20
150.232749356053
 30
0.0
 11
66.073
 21
149.775749356053
 31
0.0
  0
LINE
  5
FD
330
1D
100
AcDbEntity
  8
0
100
AcDbLine
 10
64.979218332998
 20
150.630028652161
 30
0.0
 11
65.178
 21
150.474749356053
 31
0.0
  0
LINE
  5
FE
330
1D
100
AcDbEntity
  8
0
100
AcDbLine
 10
64.986
 20
150.624749356053
 30
0.0
 11
65.587136784284
 21
151.393248085962
 31
0.0
  0
LINE
  5
FF
330
1D
100
AcDbEntity
  8
0
100
AcDbLine
 10
64.986
 20
150.624749356053
 30
0.0
 11
65.489
 21
150.232749356053
 31
0.0
  0
LINE
  5
100
330
1D
100
AcDbEntity
  8
0
100
AcDbLine
 10
64.979
 20
150.629749356053
 30
0.0
 11
65.673120522472
 21
151.517682751683
 31
0.0
  0
LINE
  5
101
330
1D
100
AcDbEntity
  8
0
100
AcDbLine
 10
63.881600000017
 20
151.487149356039
 30
0.0
 11
63.969
 21
151.418749356053
 31
0.0
  0
LINE
  5
102
330
1D
100
AcDbEntity
  8
0
100
AcDbLine
 10
63.969
 20
151.418749356053
 30
0.0
 11
64.662844330948
 21
152.30689262708
 31
0.0
  0
LINE
  5
103
330
1D
100
AcDbEntity
  8
0
100
AcDbLine
 10
63.969
 20
151.418749356053
 30
0.0
 11
64.568
 21
150.950749356053
 31
0.0
  0
LINE
  5
104
330
1D
100
AcDbEntity
  8
0
100
AcDbLine
 10
63.532
 20
151.760749356053
 30
0.0
 11
64.082772520565
 21
152.465881356386
 31
0.0
  0
LINE
  5
105
330
1D
100
AcDbEntity
  8
0
100
AcDbLine
 10
63.532
 20
151.760749356053
 30
0.0
 11
63.969
 21
151.418749356053
 31
0.0
  0
LINE
  5
106
330
1D
100
AcDbEntity
  8
0
100
AcDbLine
 10
63.169236194945
 20
152.953187865171
 30
0.0
 11
63.975903369948
 21
152.39809327735
 31
0.0
  0
LINE
  5
107
330
1D
100
AcDbEntity
  8
0
100
AcDbLine
 10
53.195
 20
158.942749356053
 30
0.0
 11
53.707170817094
 21
159.59792890779
 31
0.0
  0
LINE
  5
108
330
1D
100
AcDbEntity
  8
0
100
AcDbLine
 10
53.195
 20
158.942749356053
 30
0.0
 11
53.524
 21
158.685749356053
 31
0.0
  0
LINE
  5
109
330
1D
100
AcDbEntity
  8
0
100
AcDbLine
 10
53.524
 20
158.685749356053
 30
0.0
 11
54.035842152547
 21
159.341040365326
 31
0.0
  0
LINE
  5
10A
330
1D
100
AcDbEntity
  8
0
100
AcDbLine
 10
54.542303370787
 20
158.337030254929
 30
0.0
 11
54.679
 21
158.229749356053
 31
0.0
  0
LINE
  5
10B
330
1D
100
AcDbEntity
  8
0
100
AcDbLine
 10
54.542303370787
 20
158.337030254929
 30
0.0
 11
54.679
 21
158.229749356053
 31
0.0
  0
LINE
  5
10C
330
1D
100
AcDbEntity
  8
0
100
AcDbLine
 10
54.485
 20
158.381749356053
 30
0.0
 11
54.542303370787
 21
158.337030254929
 31
0.0
  0
LINE
  5
10D
330
1D
100
AcDbEntity
  8
0
100
AcDbLine
 10
54.363
 20
158.477749356053
 30
0.0
 11
54.679
 21
158.229749356053
 31
0.0
  0
LINE
  5
10E
330
1D
100
AcDbEntity
  8
0
100
AcDbLine
 10
54.363
 20
158.477749356053
 30
0.0
 11
54.57950668208
 21
158.7549341903
 31
0.0
  0
LINE
  5
10F
330
1D
100
AcDbEntity
  8
0
100
AcDbLine
 10
54.363
 20
158.477749356053
 30
0.0
 11
54.485
 21
158.381749356053
 31
0.0
  0
LINE
  5
110
330
1D
100
AcDbEntity
  8
0
100
AcDbLine
 10
54.363
 20
158.477749356053
 30
0.0
 11
54.579350715388
 21
158.754734512391
 31
0.0
  0
LINE
  5
111
330
1D
100
AcDbEntity
  8
0
100
AcDbLine
 10
54.679
 20
158.229749356053
 30
0.0
 11
54.895750004413
 21
158.507421782503
 31
0.0
  0
LINE
  5
112
330
1D
100
AcDbEntity
  8
0
100
AcDbLine
 10
54.679
 20
158.229749356053
 30
0.0
 11
55.266
 21
157.771749356053
 31
0.0
  0
LINE
  5
113
330
1D
100
AcDbEntity
  8
0
100
AcDbLine
 10
54.679
 20
158.229749356053
 30
0.0
 11
55.131
 21
157.876749356053
 31
0.0
  0
LINE
  5
114
330
1D
100
AcDbEntity
  8
0
100
AcDbLine
 10
55.776
 20
157.373749356053
 30
0.0
 11
56.357874531808
 21
158.118095348041
 31
0.0
  0
LINE
  5
115
330
1D
100
AcDbEntity
  8
0
100
AcDbLine
 10
55.776
 20
157.373749356053
 30
0.0
 11
55.899
 21
157.276749356053
 31
0.0
  0
LINE
  5
116
330
1D
100
AcDbEntity
  8
0
100
AcDbLine
 10
55.899
 20
157.276749356053
 30
0.0
 11
56.486061632085
 21
158.028817750689
 31
0.0
  0
LINE
  5
117
330
1D
100
AcDbEntity
  8
0
100
AcDbLine
 10
55.583
 20
157.523749356053
 30
0.0
 11
55.899
 21
157.276749356053
 31
0.0
  0
LINE
  5
118
330
1D
100
AcDbEntity
  8
0
100
AcDbLine
 10
55.262720670409
 20
157.774308015257
 30
0.0
 11
55.583
 21
157.523749356053
 31
0.0
  0
LINE
  5
119
330
1D
100
AcDbEntity
  8
0
100
AcDbLine
 10
55.266
 20
157.771749356053
 30
0.0
 11
55.482841684121
 21
158.049137744182
 31
0.0
  0
LINE
  5
11A
330
1D
100
AcDbEntity
  8
0
100
AcDbLine
 10
55.266
 20
157.771749356053
 30
0.0
 11
55.776
 21
157.373749356053
 31
0.0
  0
LINE
  5
11B
330
1D
100
AcDbEntity
  8
0
100
AcDbLine
 10
55.262720670409
 20
157.774308015257
 30
0.0
 11
55.583
 21
157.523749356053
 31
0.0
  0
LINE
  5
11C
330
1D
100
AcDbEntity
  8
0
100
AcDbLine
 10
55.535603960403
 20
158.008284009513
 30
0.0
 11
55.674289473674
 21
157.899907250798
 31
0.0
  0
LINE
  5
11D
330
1D
100
AcDbEntity
  8
0
100
AcDbLine
 10
55.535603960403
 20
158.008284009513
 30
0.0
 11
55.674289473674
 21
157.899907250798
 31
0.0
  0
LINE
  5
11E
330
1D
100
AcDbEntity
  8
0
100
AcDbLine
 10
55.621
 20
157.941749356053
 30
0.0
 11
56.314939925742
 21
158.829609131068
 31
0.0
  0
LINE
  5
11F
330
1D
100
AcDbEntity
  8
0
100
AcDbLine
 10
55.621
 20
157.941749356053
 30
0.0
 11
55.891
 21
157.729749356053
 31
0.0
  0
LINE
  5
120
330
1D
100
AcDbEntity
  8
0
100
AcDbLine
 10
55.891
 20
157.729749356053
 30
0.0
 11
56.585521799013
 21
158.618196072973
 31
0.0
  0
LINE
  5
121
330
1D
100
AcDbEntity
  8
0
100
AcDbLine
 10
55.182
 20
158.283749356053
 30
0.0
 11
55.687450777194
 21
157.889573190256
 31
0.0
  0
LINE
  5
122
330
1D
100
AcDbEntity
  8
0
100
AcDbLine
 10
55.046
 20
158.389749356053
 30
0.0
 11
55.740355889481
 21
159.278547438611
 31
0.0
  0
LINE
  5
123
330
1D
100
AcDbEntity
  8
0
100
AcDbLine
 10
55.046
 20
158.389749356053
 30
0.0
 11
55.621
 21
157.941749356053
 31
0.0
  0
LINE
  5
124
330
1D
100
AcDbEntity
  8
0
100
AcDbLine
 10
54.511
 20
158.808749356053
 30
0.0
 11
55.204799161635
 21
159.696992636911
 31
0.0
  0
LINE
  5
125
330
1D
100
AcDbEntity
  8
0
100
AcDbLine
 10
54.511
 20
158.808749356053
 30
0.0
 11
55.046
 21
158.389749356053
 31
0.0
  0
LINE
  5
126
330
1D
100
AcDbEntity
  8
0
100
AcDbLine
 10
54.337
 20
158.943749356053
 30
0.0
 11
54.511
 21
158.808749356053
 31
0.0
  0
LINE
  5
127
330
1D
100
AcDbEntity
  8
0
100
AcDbLine
 10
54.337
 20
158.943749356053
 30
0.0
 11
55.030986990658
 21
159.832796865613
 31
0.0
  0
LINE
  5
128
330
1D
100
AcDbEntity
  8
0
100
AcDbLine
 10
54.337
 20
158.943749356053
 30
0.0
 11
54.608
 21
158.732749356053
 31
0.0
  0
LINE
  5
129
330
1D
100
AcDbEntity
  8
0
100
AcDbLine
 10
54.337
 20
158.943749356053
 30
0.0
 11
54.396654535069
 21
159.020171128436
 31
0.0
  0
LINE
  5
12A
330
1D
100
AcDbEntity
  8
0
100
AcDbLine
 10
50.933921113681
 20
160.710062581117
 30
0.0
 11
51.045617021275
 21
160.622749356055
 31
0.0
  0
LINE
  5
12B
330
1D
100
AcDbEntity
  8
0
100
AcDbLine
 10
50.933921113681
 20
160.710062581117
 30
0.0
 11
51.045617021275
 21
160.622749356055
 31
0.0
  0
LINE
  5
12C
330
1D
100
AcDbEntity
  8
0
100
AcDbLine
 10
51.045617021275
 20
160.622749356055
 30
0.0
 11
51.352
 21
160.382749356053
 31
0.0
  0
LINE
  5
12D
330
1D
100
AcDbEntity
  8
0
100
AcDbLine
 10
50.8
 20
160.814749356053
 30
0.0
 11
51.233396100059
 21
161.369158652882
 31
0.0
  0
LINE
  5
12E
330
1D
100
AcDbEntity
  8
0
100
AcDbLine
 10
50.8
 20
160.814749356053
 30
0.0
 11
51.281
 21
160.438749356053
 31
0.0
  0
LINE
  5
12F
330
1D
100
AcDbEntity
  8
0
100
AcDbLine
 10
51.281
 20
160.438749356053
 30
0.0
 11
51.792718619542
 21
161.093882210966
 31
0.0
  0
LINE
  5
130
330
1D
100
AcDbEntity
  8
0
100
AcDbLine
 10
51.281
 20
160.438749356053
 30
0.0
 11
51.352
 21
160.382749356053
 31
0.0
  0
LINE
  5
131
330
1D
100
AcDbEntity
  8
0
100
AcDbLine
 10
51.045617021275
 20
160.622749356055
 30
0.0
 11
51.352
 21
160.382749356053
 31
0.0
  0
LINE
  5
132
330
1D
100
AcDbEntity
  8
0
100
AcDbLine
 10
51.352
 20
160.382749356053
 30
0.0
 11
51.863981802574
 21
161.038219153662
 31
0.0
  0
LINE
  5
133
330
1D
100
AcDbEntity
  8
0
100
AcDbLine
 10
50.396
 20
161.129749356053
 30
0.0
 11
50.933921113681
 21
160.710062581117
 31
0.0
  0
LINE
  5
134
330
1D
100
AcDbEntity
  8
0
100
AcDbLine
 10
50.396
 20
161.129749356053
 30
0.0
 11
50.933921113681
 21
160.710062581117
 31
0.0
  0
LINE
  5
135
330
1D
100
AcDbEntity
  8
0
100
AcDbLine
 10
50.204000000034
 20
161.279749356027
 30
0.0
 11
50.396
 21
161.129749356053
 31
0.0
  0
LINE
  5
136
330
1D
100
AcDbEntity
  8
0
100
AcDbLine
 10
50.204000000034
 20
161.279749356027
 30
0.0
 11
50.396
 21
161.129749356053
 31
0.0
  0
LINE
  5
137
330
1D
100
AcDbEntity
  8
0
100
AcDbLine
 10
50.204
 20
161.279749356053
 30
0.0
 11
50.637559149484
 21
161.834719143988
 31
0.0
  0
LINE
  5
138
330
1D
100
AcDbEntity
  8
0
100
AcDbLine
 10
50.204
 20
161.279749356053
 30
0.0
 11
50.8
 21
160.814749356053
 31
0.0
  0
LINE
  5
139
330
1D
100
AcDbEntity
  8
0
100
AcDbLine
 10
49.916
 20
161.504749356053
 30
0.0
 11
50.203999999976
 21
161.279749356072
 31
0.0
  0
LINE
  5
13A
330
1D
100
AcDbEntity
  8
0
100
AcDbLine
 10
49.845
 20
161.560749356053
 30
0.0
 11
50.204
 21
161.279749356053
 31
0.0
  0
LINE
  5
13B
330
1D
100
AcDbEntity
  8
0
100
AcDbLine
 10
49.845
 20
161.560749356053
 30
0.0
 11
50.278007835233
 21
162.115111946083
 31
0.0
  0
LINE
  5
13C
330
1D
100
AcDbEntity
  8
0
100
AcDbLine
 10
49.845
 20
161.560749356053
 30
0.0
 11
49.916
 21
161.504749356053
 31
0.0
  0
LINE
  5
13D
330
1D
100
AcDbEntity
  8
0
100
AcDbLine
 10
49.845
 20
161.560749356053
 30
0.0
 11
50.231943853783
 21
162.056138075438
 31
0.0
  0
LINE
  5
13E
330
1D
100
AcDbEntity
  8
0
100
AcDbLine
 10
49.845
 20
161.560749356053
 30
0.0
 11
50.231943853783
 21
162.056138075438
 31
0.0
  0
LINE
  5
13F
330
1D
100
AcDbEntity
  8
0
100
AcDbLine
 10
51.12
 20
161.457749356053
 30
0.0
 11
51.788008958845
 21
162.312974473145
 31
0.0
  0
LINE
  5
140
330
1D
100
AcDbEntity
  8
0
100
AcDbLine
 10
51.12
 20
161.457749356053
 30
0.0
 11
51.48
 21
161.176749356053
 31
0.0
  0
LINE
  5
141
330
1D
100
AcDbEntity
  8
0
100
AcDbLine
 10
51.617
 20
160.622749356053
 30
0.0
 11
51.84
 21
160.448749356053
 31
0.0
  0
LINE
  5
142
330
1D
100
AcDbEntity
  8
0
100
AcDbLine
 10
51.617
 20
160.622749356053
 30
0.0
 11
52.081842570431
 21
161.218246296402
 31
0.0
  0
LINE
  5
143
330
1D
100
AcDbEntity
  8
0
100
AcDbLine
 10
51.617
 20
160.622749356053
 30
0.0
 11
51.827800299755
 21
160.892799780679
 31
0.0
  0
LINE
  5
144
330
1D
100
AcDbEntity
  8
0
100
AcDbLine
 10
51.48
 20
161.176749356053
 30
0.0
 11
52.162818831766
 21
162.051489646626
 31
0.0
  0
LINE
  5
145
330
1D
100
AcDbEntity
  8
0
100
AcDbLine
 10
51.408
 20
161.232749356053
 30
0.0
 11
51.48
 21
161.176749356053
 31
0.0
  0
LINE
  5
146
330
1D
100
AcDbEntity
  8
0
100
AcDbLine
 10
50.928
 20
161.607749356053
 30
0.0
 11
51.408
 21
161.232749356053
 31
0.0
  0
LINE
  5
147
330
1D
100
AcDbEntity
  8
0
100
AcDbLine
 10
52.611
 20
159.398749356053
 30
0.0
 11
52.828088947455
 21
159.676855993045
 31
0.0
  0
LINE
  5
148
330
1D
100
AcDbEntity
  8
0
100
AcDbLine
 10
52.611
 20
159.398749356053
 30
0.0
 11
53.195
 21
158.942749356053
 31
0.0
  0
LINE
  5
149
330
1D
100
AcDbEntity
  8
0
100
AcDbLine
 10
53.177
 20
159.404749356053
 30
0.0
 11
53.746937629438
 21
160.133954690225
 31
0.0
  0
LINE
  5
14A
330
1D
100
AcDbEntity
  8
0
100
AcDbLine
 10
51.972
 20
159.898749356053
 30
0.0
 11
52.109
 21
159.791749356053
 31
0.0
  0
LINE
  5
14B
330
1D
100
AcDbEntity
  8
0
100
AcDbLine
 10
51.972
 20
159.898749356053
 30
0.0
 11
52.188514630822
 21
160.175944366756
 31
0.0
  0
LINE
  5
14C
330
1D
100
AcDbEntity
  8
0
100
AcDbLine
 10
52.109
 20
159.791749356053
 30
0.0
 11
52.32539888855
 21
160.06879618656
 31
0.0
  0
LINE
  5
14D
330
1D
100
AcDbEntity
  8
0
100
AcDbLine
 10
52.109
 20
159.791749356053
 30
0.0
 11
52.611
 21
159.398749356053
 31
0.0
  0
LINE
  5
14E
330
1D
100
AcDbEntity
  8
0
100
AcDbLine
 10
52.954
 20
159.578749356053
 30
0.0
 11
53.509028117147
 21
160.288878750453
 31
0.0
  0
LINE
  5
14F
330
1D
100
AcDbEntity
  8
0
100
AcDbLine
 10
52.954
 20
159.578749356053
 30
0.0
 11
53.177
 21
159.404749356053
 31
0.0
  0
LINE
  5
150
330
1D
100
AcDbEntity
  8
0
100
AcDbLine
 10
52.397
 20
160.012749356053
 30
0.0
 11
52.954
 21
159.578749356053
 31
0.0
  0
LINE
  5
151
330
1D
100
AcDbEntity
  8
0
100
AcDbLine
 10
52.397
 20
160.012749356053
 30
0.0
 11
52.914668019119
 21
160.675919515395
 31
0.0
  0
LINE
  5
152
330
1D
100
AcDbEntity
  8
0
100
AcDbLine
 10
51.84
 20
160.448749356053
 30
0.0
 11
52.319941319966
 21
161.063199006961
 31
0.0
  0
LINE
  5
153
330
1D
100
AcDbEntity
  8
0
100
AcDbLine
 10
51.84
 20
160.448749356053
 30
0.0
 11
52.397
 21
160.012749356053
 31
0.0
  0
LINE
  5
154
330
1D
100
AcDbEntity
  8
0
100
AcDbLine
 10
51.84
 20
160.448749356053
 30
0.0
 11
52.188514630822
 21
160.175944366756
 31
0.0
  0
LINE
  5
155
330
1D
100
AcDbEntity
  8
0
100
AcDbLine
 10
51.778479198869
 20
160.92875359441
 30
0.0
 11
51.827800299755
 21
160.892799780679
 31
0.0
  0
LINE
  5
156
330
1D
100
AcDbEntity
  8
0
100
AcDbLine
 10
51.778479198869
 20
160.92875359441
 30
0.0
 11
51.827800299755
 21
160.892799780679
 31
0.0
  0
LINE
  5
157
330
1D
100
AcDbEntity
  8
0
100
AcDbLine
 10
54.007051934162
 20
159.304181401739
 30
0.0
 11
54.396654535069
 21
159.020171128436
 31
0.0
  0
LINE
  5
158
330
1D
100
AcDbEntity
  8
0
100
AcDbLine
 10
56.726272727265
 20
156.630976628786
 30
0.0
 11
56.924
 21
156.476749356053
 31
0.0
  0
LINE
  5
159
330
1D
100
AcDbEntity
  8
0
100
AcDbLine
 10
56.726272727265
 20
156.630976628786
 30
0.0
 11
56.924
 21
156.476749356053
 31
0.0
  0
LINE
  5
15A
330
1D
100
AcDbEntity
  8
0
100
AcDbLine
 10
56.543
 20
156.773749356053
 30
0.0
 11
56.726272727265
 21
156.630976628786
 31
0.0
  0
LINE
  5
15B
330
1D
100
AcDbEntity
  8
0
100
AcDbLine
 10
56.543
 20
156.773749356053
 30
0.0
 11
56.726272727265
 21
156.630976628786
 31
0.0
  0
LINE
  5
15C
330
1D
100
AcDbEntity
  8
0
100
AcDbLine
 10
57.951
 20
155.674749356053
 30
0.0
 11
58.037
 21
155.606749356053
 31
0.0
  0
LINE
  5
15D
330
1D
100
AcDbEntity
  8
0
100
AcDbLine
 10
57.972
 20
155.658749356053
 30
0.0
 11
58.188285541375
 21
155.935475373654
 31
0.0
  0
LINE
  5
15E
330
1D
100
AcDbEntity
  8
0
100
AcDbLine
 10
58.037
 20
155.606749356053
 30
0.0
 11
58.25379035319
 21
155.884473472204
 31
0.0
  0
LINE
  5
15F
330
1D
100
AcDbEntity
  8
0
100
AcDbLine
 10
58.037
 20
155.606749356053
 30
0.0
 11
58.508
 21
155.238749356053
 31
0.0
  0
LINE
  5
160
330
1D
100
AcDbEntity
  8
0
100
AcDbLine
 10
57.991
 20
155.643749356053
 30
0.0
 11
58.207385948328
 21
155.920603839089
 31
0.0
  0
LINE
  5
161
330
1D
100
AcDbEntity
  8
0
100
AcDbLine
 10
57.524
 20
156.006749356053
 30
0.0
 11
58.110058354766
 21
156.756923078022
 31
0.0
  0
LINE
  5
162
330
1D
100
AcDbEntity
  8
0
100
AcDbLine
 10
57.524
 20
156.006749356053
 30
0.0
 11
57.972
 21
155.658749356053
 31
0.0
  0
LINE
  5
163
330
1D
100
AcDbEntity
  8
0
100
AcDbLine
 10
57.524
 20
156.006749356053
 30
0.0
 11
57.915999999992
 21
155.702249356059
 31
0.0
  0
LINE
  5
164
330
1D
100
AcDbEntity
  8
0
100
AcDbLine
 10
57.915999999992
 20
155.702249356059
 30
0.0
 11
57.991
 21
155.643749356053
 31
0.0
  0
LINE
  5
165
330
1D
100
AcDbEntity
  8
0
100
AcDbLine
 10
56.924
 20
156.476749356053
 30
0.0
 11
57.476903001697
 21
157.183585579814
 31
0.0
  0
LINE
  5
166
330
1D
100
AcDbEntity
  8
0
100
AcDbLine
 10
56.924
 20
156.476749356053
 30
0.0
 11
57.524
 21
156.006749356053
 31
0.0
  0
LINE
  5
167
330
1D
100
AcDbEntity
  8
0
100
AcDbLine
 10
56.524
 20
156.788749356053
 30
0.0
 11
57.054936768005
 21
157.467934702137
 31
0.0
  0
LINE
  5
168
330
1D
100
AcDbEntity
  8
0
100
AcDbLine
 10
56.524
 20
156.788749356053
 30
0.0
 11
56.924
 21
156.476749356053
 31
0.0
  0
LINE
  5
169
330
1D
100
AcDbEntity
  8
0
100
AcDbLine
 10
59.102
 20
154.774749356053
 30
0.0
 11
59.318801091007
 21
155.052085816627
 31
0.0
  0
LINE
  5
16A
330
1D
100
AcDbEntity
  8
0
100
AcDbLine
 10
59.102
 20
154.774749356053
 30
0.0
 11
59.473
 21
154.484749356053
 31
0.0
  0
LINE
  5
16B
330
1D
100
AcDbEntity
  8
0
100
AcDbLine
 10
58.949
 20
154.893749356053
 30
0.0
 11
59.519
 21
154.448749356053
 31
0.0
  0
LINE
  5
16C
330
1D
100
AcDbEntity
  8
0
100
AcDbLine
 10
58.741999999997
 20
155.055961477267
 30
0.0
 11
58.916
 21
154.919749356053
 31
0.0
  0
LINE
  5
16D
330
1D
100
AcDbEntity
  8
0
100
AcDbLine
 10
58.916
 20
154.919749356053
 30
0.0
 11
59.110431818205
 21
154.768158446944
 31
0.0
  0
LINE
  5
16E
330
1D
100
AcDbEntity
  8
0
100
AcDbLine
 10
58.853
 20
154.968749356053
 30
0.0
 11
59.382
 21
154.555749356053
 31
0.0
  0
LINE
  5
16F
330
1D
100
AcDbEntity
  8
0
100
AcDbLine
 10
58.508
 20
155.238749356053
 30
0.0
 11
58.724891119991
 21
155.516200983574
 31
0.0
  0
LINE
  5
170
330
1D
100
AcDbEntity
  8
0
100
AcDbLine
 10
58.508
 20
155.238749356053
 30
0.0
 11
59.102
 21
154.774749356053
 31
0.0
  0
LINE
  5
171
330
1D
100
AcDbEntity
  8
0
100
AcDbLine
 10
58.508
 20
155.238749356053
 30
0.0
 11
58.666280826197
 21
155.115109114714
 31
0.0
  0
LINE
  5
172
330
1D
100
AcDbEntity
  8
0
100
AcDbLine
 10
58.666
 20
155.114749356053
 30
0.0
 11
58.949
 21
154.893749356053
 31
0.0
  0
LINE
  5
173
330
1D
100
AcDbEntity
  8
0
100
AcDbLine
 10
58.666
 20
155.114749356053
 30
0.0
 11
58.853
 21
154.968749356053
 31
0.0
  0
LINE
  5
174
330
1D
100
AcDbEntity
  8
0
100
AcDbLine
 10
58.97
 20
155.324749356053
 30
0.0
 11
59.663813234987
 21
156.21301065446
 31
0.0
  0
LINE
  5
175
330
1D
100
AcDbEntity
  8
0
100
AcDbLine
 10
58.97
 20
155.324749356053
 30
0.0
 11
59.506
 21
154.905749356053
 31
0.0
  0
LINE
  5
176
330
1D
100
AcDbEntity
  8
0
100
AcDbLine
 10
59.506
 20
154.905749356053
 30
0.0
 11
60.199898568513
 21
155.794119903556
 31
0.0
  0
LINE
  5
177
330
1D
100
AcDbEntity
  8
0
100
AcDbLine
 10
59.506
 20
154.905749356053
 30
0.0
 11
59.679
 21
154.770749356053
 31
0.0
  0
LINE
  5
178
330
1D
100
AcDbEntity
  8
0
100
AcDbLine
 10
59.679
 20
154.770749356053
 30
0.0
 11
60.373161074566
 21
155.658734626764
 31
0.0
  0
LINE
  5
179
330
1D
100
AcDbEntity
  8
0
100
AcDbLine
 10
58.834
 20
155.430749356053
 30
0.0
 11
59.20411494256
 21
155.141737861776
 31
0.0
  0
LINE
  5
17A
330
1D
100
AcDbEntity
  8
0
100
AcDbLine
 10
58.834
 20
155.430749356053
 30
0.0
 11
59.20411494256
 21
155.141737861776
 31
0.0
  0
LINE
  5
17B
330
1D
100
AcDbEntity
  8
0
100
AcDbLine
 10
58.429532646095
 20
155.747519115466
 30
0.0
 11
58.834
 21
155.430749356053
 31
0.0
  0
LINE
  5
17C
330
1D
100
AcDbEntity
  8
0
100
AcDbLine
 10
58.396
 20
155.773749356053
 30
0.0
 11
59.086045156926
 21
156.657186535025
 31
0.0
  0
LINE
  5
17D
330
1D
100
AcDbEntity
  8
0
100
AcDbLine
 10
58.396
 20
155.773749356053
 30
0.0
 11
58.97
 21
155.324749356053
 31
0.0
  0
LINE
  5
17E
330
1D
100
AcDbEntity
  8
0
100
AcDbLine
 10
58.125
 20
155.984749356053
 30
0.0
 11
58.396
 21
155.773749356053
 31
0.0
  0
LINE
  5
17F
330
1D
100
AcDbEntity
  8
0
100
AcDbLine
 10
58.125
 20
155.984749356053
 30
0.0
 11
58.797168537643
 21
156.845299815294
 31
0.0
  0
LINE
  5
180
330
1D
100
AcDbEntity
  8
0
100
AcDbLine
 10
58.125
 20
155.984749356053
 30
0.0
 11
58.902
 21
155.377749356053
 31
0.0
  0
LINE
  5
181
330
1D
100
AcDbEntity
  8
0
100
AcDbLine
 10
56.243976929042
 20
157.718689743624
 30
0.0
 11
56.898740450037
 21
157.268125126555
 31
0.0
  0
LINE
  5
182
330
1D
100
AcDbEntity
  8
0
100
AcDbLine
 10
60.785861068369
 20
154.593267782277
 30
0.0
 11
61.591083251573
 21
154.039167541507
 31
0.0
  0
LINE
  5
183
330
1D
100
AcDbEntity
  8
0
100
AcDbLine
 10
67.518126197001
 20
149.960571606597
 30
0.0
 11
68.756
 21
149.108749356053
 31
0.0
  0
LINE
  5
184
330
1D
100
AcDbEntity
  8
0
100
AcDbLine
 10
68.756
 20
149.108749356053
 30
0.0
 11
70.246
 21
148.579749356053
 31
0.0
  0
LINE
  5
185
330
1D
100
AcDbEntity
  8
0
100
AcDbLine
 10
70.246
 20
148.579749356053
 30
0.0
 11
72.524
 21
147.434749356053
 31
0.0
  0
LINE
  5
186
330
1D
100
AcDbEntity
  8
0
100
AcDbLine
 10
70.027
 20
160.806749356053
 30
0.0
 11
76.331
 21
155.880749356053
 31
0.0
  0
LINE
  5
187
330
1D
100
AcDbEntity
  8
0
100
AcDbLine
 10
44.175
 20
165.677749356053
 30
0.0
 11
44.398
 21
165.502749356053
 31
0.0
  0
LINE
  5
188
330
1D
100
AcDbEntity
  8
0
100
AcDbLine
 10
44.621
 20
165.329749356053
 30
0.0
 11
44.844
 21
165.155749356053
 31
0.0
  0
LINE
  5
189
330
1D
100
AcDbEntity
  8
0
100
AcDbLine
 10
44.621
 20
165.329749356053
 30
0.0
 11
44.988990223593
 21
165.800573565768
 31
0.0
  0
LINE
  5
18A
330
1D
100
AcDbEntity
  8
0
100
AcDbLine
 10
44.064
 20
165.764749356053
 30
0.0
 11
44.621
 21
165.329749356053
 31
0.0
  0
LINE
  5
18B
330
1D
100
AcDbEntity
  8
0
100
AcDbLine
 10
44.064
 20
165.764749356053
 30
0.0
 11
44.555656236369
 21
166.394197145263
 31
0.0
  0
LINE
  5
18C
330
1D
100
AcDbEntity
  8
0
100
AcDbLine
 10
44.844
 20
165.155749356053
 30
0.0
 11
45.211729675999
 21
165.626240208774
 31
0.0
  0
LINE
  5
18D
330
1D
100
AcDbEntity
  8
0
100
AcDbLine
 10
44.741
 20
165.994749356053
 30
0.0
 11
45.286819636288
 21
166.693540377003
 31
0.0
  0
LINE
  5
18E
330
1D
100
AcDbEntity
  8
0
100
AcDbLine
 10
44.741
 20
165.994749356053
 30
0.0
 11
45.188
 21
165.644749356053
 31
0.0
  0
LINE
  5
18F
330
1D
100
AcDbEntity
  8
0
100
AcDbLine
 10
43.618
 20
166.112749356053
 30
0.0
 11
44.175
 21
165.677749356053
 31
0.0
  0
LINE
  5
190
330
1D
100
AcDbEntity
  8
0
100
AcDbLine
 10
44.722
 20
166.009749356053
 30
0.0
 11
45.266695003331
 21
166.707100554469
 31
0.0
  0
LINE
  5
191
330
1D
100
AcDbEntity
  8
0
100
AcDbLine
 10
45.647
 20
164.527749356053
 30
0.0
 11
45.798675790236
 21
164.721933795868
 31
0.0
  0
LINE
  5
192
330
1D
100
AcDbEntity
  8
0
100
AcDbLine
 10
45.647
 20
164.527749356053
 30
0.0
 11
46.047
 21
164.214749356053
 31
0.0
  0
LINE
  5
193
330
1D
100
AcDbEntity
  8
0
100
AcDbLine
 10
45.814
 20
164.396749356053
 30
0.0
 11
45.906615384619
 21
164.324600317589
 31
0.0
  0
LINE
  5
194
330
1D
100
AcDbEntity
  8
0
100
AcDbLine
 10
45.814
 20
164.396749356053
 30
0.0
 11
45.906615384619
 21
164.324600317589
 31
0.0
  0
LINE
  5
195
330
1D
100
AcDbEntity
  8
0
100
AcDbLine
 10
45.781
 20
164.735749356053
 30
0.0
 11
45.955
 21
164.599749356053
 31
0.0
  0
LINE
  5
196
330
1D
100
AcDbEntity
  8
0
100
AcDbLine
 10
45.781
 20
164.735749356053
 30
0.0
 11
45.997661388147
 21
165.012907105826
 31
0.0
  0
LINE
  5
197
330
1D
100
AcDbEntity
  8
0
100
AcDbLine
 10
45.781
 20
164.735749356053
 30
0.0
 11
45.997537905468
 21
165.012749144217
 31
0.0
  0
LINE
  5
198
330
1D
100
AcDbEntity
  8
0
100
AcDbLine
 10
45.788
 20
165.176749356053
 30
0.0
 11
46.004944132579
 21
165.454268798378
 31
0.0
  0
LINE
  5
199
330
1D
100
AcDbEntity
  8
0
100
AcDbLine
 10
45.788
 20
165.176749356053
 30
0.0
 11
46.188
 21
164.864749356053
 31
0.0
  0
LINE
  5
19A
330
1D
100
AcDbEntity
  8
0
100
AcDbLine
 10
46.047
 20
164.214749356053
 30
0.0
 11
46.198835925102
 21
164.409138810124
 31
0.0
  0
LINE
  5
19B
330
1D
100
AcDbEntity
  8
0
100
AcDbLine
 10
46.047
 20
164.214749356053
 30
0.0
 11
46.647
 21
163.745749356053
 31
0.0
  0
LINE
  5
19C
330
1D
100
AcDbEntity
  8
0
100
AcDbLine
 10
45.955
 20
164.599749356053
 30
0.0
 11
46.171490885582
 21
164.876913966677
 31
0.0
  0
LINE
  5
19D
330
1D
100
AcDbEntity
  8
0
100
AcDbLine
 10
45.955
 20
164.599749356053
 30
0.0
 11
46.491
 21
164.180749356053
 31
0.0
  0
LINE
  5
19E
330
1D
100
AcDbEntity
  8
0
100
AcDbLine
 10
46.418400576378
 20
164.237501517429
 30
0.0
 11
46.626
 21
164.074749356053
 31
0.0
  0
LINE
  5
19F
330
1D
100
AcDbEntity
  8
0
100
AcDbLine
 10
46.491
 20
164.180749356053
 30
0.0
 11
47.00234502685
 21
164.835819305153
 31
0.0
  0
LINE
  5
1A0
330
1D
100
AcDbEntity
  8
0
100
AcDbLine
 10
46.491
 20
164.180749356053
 30
0.0
 11
47.065
 21
163.731749356053
 31
0.0
  0
LINE
  5
1A1
330
1D
100
AcDbEntity
  8
0
100
AcDbLine
 10
46.418400576378
 20
164.237501517429
 30
0.0
 11
46.626
 21
164.074749356053
 31
0.0
  0
LINE
  5
1A2
330
1D
100
AcDbEntity
  8
0
100
AcDbLine
 10
46.188
 20
164.864749356053
 30
0.0
 11
46.404753054968
 21
165.142024367927
 31
0.0
  0
LINE
  5
1A3
330
1D
100
AcDbEntity
  8
0
100
AcDbLine
 10
45.895462686561
 20
165.092928460535
 30
0.0
 11
46.169
 21
164.878749356053
 31
0.0
  0
LINE
  5
1A4
330
1D
100
AcDbEntity
  8
0
100
AcDbLine
 10
45.895462686561
 20
165.092928460535
 30
0.0
 11
46.169
 21
164.878749356053
 31
0.0
  0
LINE
  5
1A5
330
1D
100
AcDbEntity
  8
0
100
AcDbLine
 10
45.211729675999
 20
165.626240208774
 30
0.0
 11
45.626888888906
 21
165.302416022706
 31
0.0
  0
LINE
  5
1A6
330
1D
100
AcDbEntity
  8
0
100
AcDbLine
 10
45.211729675999
 20
165.626240208774
 30
0.0
 11
45.626888888907
 21
165.302416022706
 31
0.0
  0
LINE
  5
1A7
330
1D
100
AcDbEntity
  8
0
100
AcDbLine
 10
45.188
 20
165.644749356053
 30
0.0
 11
45.405085299132
 21
165.922625587165
 31
0.0
  0
LINE
  5
1A8
330
1D
100
AcDbEntity
  8
0
100
AcDbLine
 10
45.188
 20
165.644749356053
 30
0.0
 11
45.788
 21
165.176749356053
 31
0.0
  0
LINE
  5
1A9
330
1D
100
AcDbEntity
  8
0
100
AcDbLine
 10
46.14
 20
165.348749356053
 30
0.0
 11
46.834076981803
 21
166.236627053555
 31
0.0
  0
LINE
  5
1AA
330
1D
100
AcDbEntity
  8
0
100
AcDbLine
 10
46.14
 20
165.348749356053
 30
0.0
 11
46.578
 21
165.006749356053
 31
0.0
  0
LINE
  5
1AB
330
1D
100
AcDbEntity
  8
0
100
AcDbLine
 10
46.554889125772
 20
163.817749356074
 30
0.0
 11
46.795
 21
163.629749356053
 31
0.0
  0
LINE
  5
1AC
330
1D
100
AcDbEntity
  8
0
100
AcDbLine
 10
47.017823151112
 20
163.456225240308
 30
0.0
 11
47.113
 21
163.381749356053
 31
0.0
  0
LINE
  5
1AD
330
1D
100
AcDbEntity
  8
0
100
AcDbLine
 10
47.262
 20
163.266749356053
 30
0.0
 11
47.749809835015
 21
163.890876480462
 31
0.0
  0
LINE
  5
1AE
330
1D
100
AcDbEntity
  8
0
100
AcDbLine
 10
47.113477453113
 20
163.382360620152
 30
0.0
 11
47.18700000002
 21
163.325249356037
 31
0.0
  0
LINE
  5
1AF
330
1D
100
AcDbEntity
  8
0
100
AcDbLine
 10
47.113477453113
 20
163.382360620152
 30
0.0
 11
47.18700000002
 21
163.325249356037
 31
0.0
  0
LINE
  5
1B0
330
1D
100
AcDbEntity
  8
0
100
AcDbLine
 10
47.113592158285
 20
163.38250747259
 30
0.0
 11
47.262
 21
163.266749356053
 31
0.0
  0
LINE
  5
1B1
330
1D
100
AcDbEntity
  8
0
100
AcDbLine
 10
47.094
 20
163.396749356053
 30
0.0
 11
47.245744658485
 21
163.591021965129
 31
0.0
  0
LINE
  5
1B2
330
1D
100
AcDbEntity
  8
0
100
AcDbLine
 10
47.113
 20
163.381749356053
 30
0.0
 11
47.264845025821
 21
163.57615046141
 31
0.0
  0
LINE
  5
1B3
330
1D
100
AcDbEntity
  8
0
100
AcDbLine
 10
47.017823151112
 20
163.456225240308
 30
0.0
 11
47.113
 21
163.381749356053
 31
0.0
  0
LINE
  5
1B4
330
1D
100
AcDbEntity
  8
0
100
AcDbLine
 10
46.795
 20
163.629749356053
 30
0.0
 11
46.907562814078
 21
163.542312170117
 31
0.0
  0
LINE
  5
1B5
330
1D
100
AcDbEntity
  8
0
100
AcDbLine
 10
46.795
 20
163.629749356053
 30
0.0
 11
46.907562814078
 21
163.542312170117
 31
0.0
  0
LINE
  5
1B6
330
1D
100
AcDbEntity
  8
0
100
AcDbLine
 10
46.647
 20
163.745749356053
 30
0.0
 11
46.798685058889
 21
163.940068883159
 31
0.0
  0
LINE
  5
1B7
330
1D
100
AcDbEntity
  8
0
100
AcDbLine
 10
46.647
 20
163.745749356053
 30
0.0
 11
47.094
 21
163.396749356053
 31
0.0
  0
LINE
  5
1B8
330
1D
100
AcDbEntity
  8
0
100
AcDbLine
 10
47.065
 20
163.731749356053
 30
0.0
 11
47.576636527736
 21
164.387192738863
 31
0.0
  0
LINE
  5
1B9
330
1D
100
AcDbEntity
  8
0
100
AcDbLine
 10
47.065
 20
163.731749356053
 30
0.0
 11
47.336
 21
163.520749356053
 31
0.0
  0
LINE
  5
1BA
330
1D
100
AcDbEntity
  8
0
100
AcDbLine
 10
47.336
 20
163.520749356053
 30
0.0
 11
47.847296849682
 21
164.175757586718
 31
0.0
  0
LINE
  5
1BB
330
1D
100
AcDbEntity
  8
0
100
AcDbLine
 10
46.626
 20
164.074749356053
 30
0.0
 11
46.793683060106
 21
163.943981596493
 31
0.0
  0
LINE
  5
1BC
330
1D
100
AcDbEntity
  8
0
100
AcDbLine
 10
46.500365079364
 20
165.067368403673
 30
0.0
 11
46.611
 21
164.980749356053
 31
0.0
  0
LINE
  5
1BD
330
1D
100
AcDbEntity
  8
0
100
AcDbLine
 10
46.578
 20
165.006749356053
 30
0.0
 11
47.27191810534
 21
165.894581213007
 31
0.0
  0
LINE
  5
1BE
330
1D
100
AcDbEntity
  8
0
100
AcDbLine
 10
46.611
 20
164.980749356053
 30
0.0
 11
47.30510130456
 21
165.86865816773
 31
0.0
  0
LINE
  5
1BF
330
1D
100
AcDbEntity
  8
0
100
AcDbLine
 10
46.500365079364
 20
165.067368403673
 30
0.0
 11
46.611
 21
164.980749356053
 31
0.0
  0
LINE
  5
1C0
330
1D
100
AcDbEntity
  8
0
100
AcDbLine
 10
45.541
 20
165.816749356053
 30
0.0
 11
46.235050170785
 21
166.704592756343
 31
0.0
  0
LINE
  5
1C1
330
1D
100
AcDbEntity
  8
0
100
AcDbLine
 10
45.541
 20
165.816749356053
 30
0.0
 11
46.14
 21
165.348749356053
 31
0.0
  0
LINE
  5
1C2
330
1D
100
AcDbEntity
  8
0
100
AcDbLine
 10
45.601
 20
165.769749356053
 30
0.0
 11
45.694589743603
 21
165.696749356043
 31
0.0
  0
LINE
  5
1C3
330
1D
100
AcDbEntity
  8
0
100
AcDbLine
 10
45.601
 20
165.769749356053
 30
0.0
 11
45.694589743603
 21
165.696749356043
 31
0.0
  0
LINE
  5
1C4
330
1D
100
AcDbEntity
  8
0
100
AcDbLine
 10
45.164
 20
166.110749356053
 30
0.0
 11
45.601
 21
165.769749356053
 31
0.0
  0
LINE
  5
1C5
330
1D
100
AcDbEntity
  8
0
100
AcDbLine
 10
45.13
 20
166.137749356053
 30
0.0
 11
45.824087681328
 21
167.025640740609
 31
0.0
  0
LINE
  5
1C6
330
1D
100
AcDbEntity
  8
0
100
AcDbLine
 10
45.13
 20
166.137749356053
 30
0.0
 11
45.541
 21
165.816749356053
 31
0.0
  0
LINE
  5
1C7
330
1D
100
AcDbEntity
  8
0
100
AcDbLine
 10
49.907
 20
161.958749356053
 30
0.0
 11
50.123495329152
 21
162.235919655601
 31
0.0
  0
LINE
  5
1C8
330
1D
100
AcDbEntity
  8
0
100
AcDbLine
 10
49.784
 20
162.054749356053
 30
0.0
 11
49.907
 21
161.958749356053
 31
0.0
  0
LINE
  5
1C9
330
1D
100
AcDbEntity
  8
0
100
AcDbLine
 10
50.671681415888
 20
161.808280329537
 30
0.0
 11
50.726
 21
161.765749356053
 31
0.0
  0
LINE
  5
1CA
330
1D
100
AcDbEntity
  8
0
100
AcDbLine
 10
50.671681415888
 20
161.808280329537
 30
0.0
 11
50.726
 21
161.765749356053
 31
0.0
  0
LINE
  5
1CB
330
1D
100
AcDbEntity
  8
0
100
AcDbLine
 10
50.524
 20
161.923749356053
 30
0.0
 11
51.159047351829
 21
162.736775047752
 31
0.0
  0
LINE
  5
1CC
330
1D
100
AcDbEntity
  8
0
100
AcDbLine
 10
50.524
 20
161.923749356053
 30
0.0
 11
51.12
 21
161.457749356053
 31
0.0
  0
LINE
  5
1CD
330
1D
100
AcDbEntity
  8
0
100
AcDbLine
 10
50.332
 20
162.073749356053
 30
0.0
 11
50.928
 21
161.607749356053
 31
0.0
  0
LINE
  5
1CE
330
1D
100
AcDbEntity
  8
0
100
AcDbLine
 10
49.591
 20
162.205749356053
 30
0.0
 11
50.101915770271
 21
162.859854355197
 31
0.0
  0
LINE
  5
1CF
330
1D
100
AcDbEntity
  8
0
100
AcDbLine
 10
49.591
 20
162.205749356053
 30
0.0
 11
49.907
 21
161.958749356053
 31
0.0
  0
LINE
  5
1D0
330
1D
100
AcDbEntity
  8
0
100
AcDbLine
 10
50.044
 20
162.299749356053
 30
0.0
 11
50.652396818092
 21
163.078161206983
 31
0.0
  0
LINE
  5
1D1
330
1D
100
AcDbEntity
  8
0
100
AcDbLine
 10
50.044
 20
162.299749356053
 30
0.0
 11
50.524
 21
161.923749356053
 31
0.0
  0
LINE
  5
1D2
330
1D
100
AcDbEntity
  8
0
100
AcDbLine
 10
49.003
 20
162.665749356053
 30
0.0
 11
49.486615486263
 21
163.284510031004
 31
0.0
  0
LINE
  5
1D3
330
1D
100
AcDbEntity
  8
0
100
AcDbLine
 10
49.003
 20
162.665749356053
 30
0.0
 11
49.591
 21
162.205749356053
 31
0.0
  0
LINE
  5
1D4
330
1D
100
AcDbEntity
  8
0
100
AcDbLine
 10
49.274
 20
162.452749356053
 30
0.0
 11
49.784
 21
162.054749356053
 31
0.0
  0
LINE
  5
1D5
330
1D
100
AcDbEntity
  8
0
100
AcDbLine
 10
48.687
 20
162.911749356053
 30
0.0
 11
49.274
 21
162.452749356053
 31
0.0
  0
LINE
  5
1D6
330
1D
100
AcDbEntity
  8
0
100
AcDbLine
 10
48.493
 20
163.063749356053
 30
0.0
 11
49.12870465897
 21
163.877616571762
 31
0.0
  0
LINE
  5
1D7
330
1D
100
AcDbEntity
  8
0
100
AcDbLine
 10
48.493
 20
163.063749356053
 30
0.0
 11
49.003
 21
162.665749356053
 31
0.0
  0
LINE
  5
1D8
330
1D
100
AcDbEntity
  8
0
100
AcDbLine
 10
48.37
 20
163.158749356053
 30
0.0
 11
48.493
 21
163.063749356053
 31
0.0
  0
LINE
  5
1D9
330
1D
100
AcDbEntity
  8
0
100
AcDbLine
 10
48.37
 20
163.158749356053
 30
0.0
 11
48.824982986644
 21
163.741142351132
 31
0.0
  0
LINE
  5
1DA
330
1D
100
AcDbEntity
  8
0
100
AcDbLine
 10
48.37
 20
163.158749356053
 30
0.0
 11
48.687
 21
162.911749356053
 31
0.0
  0
LINE
  5
1DB
330
1D
100
AcDbEntity
  8
0
100
AcDbLine
 10
49.972
 20
162.353749356053
 30
0.0
 11
50.044
 21
162.299749356053
 31
0.0
  0
LINE
  5
1DC
330
1D
100
AcDbEntity
  8
0
100
AcDbLine
 10
49.972
 20
162.353749356053
 30
0.0
 11
50.577407060765
 21
163.128690049905
 31
0.0
  0
LINE
  5
1DD
330
1D
100
AcDbEntity
  8
0
100
AcDbLine
 10
49.972
 20
162.353749356053
 30
0.0
 11
50.332
 21
162.073749356053
 31
0.0
  0
LINE
  5
1DE
330
1D
100
AcDbEntity
  8
0
100
AcDbLine
 10
49.972
 20
162.353749356053
 30
0.0
 11
50.726
 21
161.765749356053
 31
0.0
  0
LINE
  5
1DF
330
1D
100
AcDbEntity
  8
0
100
AcDbLine
 10
50.073364092921
 20
162.171738641548
 30
0.0
 11
50.231943853783
 21
162.056138075438
 31
0.0
  0
LINE
  5
1E0
330
1D
100
AcDbEntity
  8
0
100
AcDbLine
 10
47.657613089711
 20
163.93275897626
 30
0.0
 11
48.496778016153
 21
163.321029332899
 31
0.0
  0
LINE
  5
1E1
330
1D
100
AcDbEntity
  8
0
100
AcDbLine
 10
69.783
 20
161.631749356053
 30
0.0
 11
75.93
 21
156.828749356053
 31
0.0
  0
LINE
  5
1E2
330
1D
100
AcDbEntity
  8
0
100
AcDbLine
 10
72.524
 20
147.434749356053
 30
0.0
 11
75.417
 21
147.077749356053
 31
0.0
  0
LINE
  5
1E3
330
1D
100
AcDbEntity
  8
0
100
AcDbLine
 10
75.417
 20
147.077749356053
 30
0.0
 11
78.139
 21
148.124749356053
 31
0.0
  0
LINE
  5
1E4
330
1D
100
AcDbEntity
  8
0
100
AcDbLine
 10
78.139
 20
148.124749356053
 30
0.0
 11
80.072
 21
149.786749356053
 31
0.0
  0
LINE
  5
1E5
330
1D
100
AcDbEntity
  8
0
100
AcDbLine
 10
80.072
 20
149.786749356053
 30
0.0
 11
81.611
 21
151.755749356053
 31
0.0
  0
LINE
  5
1E6
330
1D
100
AcDbEntity
  8
0
100
AcDbLine
 10
80.192
 20
152.864749356053
 30
0.0
 11
81.611
 21
151.755749356053
 31
0.0
  0
LINE
  5
1E7
330
1D
100
AcDbEntity
  8
0
100
AcDbLine
 10
76.331
 20
155.880749356053
 30
0.0
 11
80.192
 21
152.864749356053
 31
0.0
  0
LINE
  5
1E8
330
1D
100
AcDbEntity
  8
0
100
AcDbLine
 10
79.712
 20
153.873749356053
 30
0.0
 11
81.131
 21
152.766749356053
 31
0.0
  0
LINE
  5
1E9
330
1D
100
AcDbEntity
  8
0
100
AcDbLine
 10
99.4525
 20
135.795749356053
 30
0.0
 11
107.3328
 21
126.766749356053
 31
0.0
  0
LINE
  5
1EA
330
1D
100
AcDbEntity
  8
0
100
AcDbLine
 10
91.415
 20
144.237749356053
 30
0.0
 11
99.4525
 21
135.795749356053
 31
0.0
  0
LINE
  5
1EB
330
1D
100
AcDbEntity
  8
0
100
AcDbLine
 10
113.5457
 20
150.563749356053
 30
0.0
 11
122.661
 21
140.872749356053
 31
0.0
  0
LINE
  5
1EC
330
1D
100
AcDbEntity
  8
0
100
AcDbLine
 10
107.3328
 20
126.766749356053
 30
0.0
 11
117.0802
 21
114.596749356053
 31
0.0
  0
LINE
  5
1F0
330
1D
100
AcDbEntity
  8
0
100
AcDbLine
 10
124.7631
 20
75.015049356053
 30
0.0
 11
126.7557
 21
73.495149356053
 31
0.0
  0
LINE
  5
1F1
330
1D
100
AcDbEntity
  8
0
100
AcDbLine
 10
135.9749
 20
69.303649356053
 30
0.0
 11
144.0207
 21
66.503149356053
 31
0.0
  0
LINE
  5
1F2
330
1D
100
AcDbEntity
  8
0
100
AcDbLine
 10
132.1106
 20
70.733949356053
 30
0.0
 11
135.9749
 21
69.303649356053
 31
0.0
  0
LINE
  5
1F6
330
1D
100
AcDbEntity
  8
0
100
AcDbLine
 10
129.2048
 20
72.078349356053
 30
0.0
 11
132.1106
 21
70.733949356053
 31
0.0
  0
LINE
  5
1F7
330
1D
100
AcDbEntity
  8
0
100
AcDbLine
 10
126.7557
 20
73.495149356053
 30
0.0
 11
129.2048
 21
72.078349356053
 31
0.0
  0
LINE
  5
1F8
330
1D
100
AcDbEntity
  8
0
100
AcDbLine
 10
123.196
 20
76.890049356053
 30
0.0
 11
123.3676
 21
77.477249356053
 31
0.0
  0
LINE
  5
1F9
330
1D
100
AcDbEntity
  8
0
100
AcDbLine
 10
123.3676
 20
77.477249356053
 30
0.0
 11
123.6243
 21
77.716749356053
 31
0.0
  0
LINE
  5
1FA
330
1D
100
AcDbEntity
  8
0
100
AcDbLine
 10
124.3815
 20
77.896249356053
 30
0.0
 11
128.5872
 21
77.555749356053
 31
0.0
  0
LINE
  5
1FB
330
1D
100
AcDbEntity
  8
0
100
AcDbLine
 10
124.2431
 20
77.919049356053
 30
0.0
 11
124.3815
 21
77.896249356053
 31
0.0
  0
LINE
  5
1FC
330
1D
100
AcDbEntity
  8
0
100
AcDbLine
 10
123.8949
 20
77.863649356053
 30
0.0
 11
124.2431
 21
77.919049356053
 31
0.0
  0
LINE
  5
1FD
330
1D
100
AcDbEntity
  8
0
100
AcDbLine
 10
123.6243
 20
77.716749356053
 30
0.0
 11
123.8949
 21
77.863649356053
 31
0.0
  0
LINE
  5
201
330
1D
100
AcDbEntity
  8
0
100
AcDbLine
 10
129.6909
 20
77.332949356053
 30
0.0
 11
134.4203
 21
76.765749356053
 31
0.0
  0
LINE
  5
202
330
1D
100
AcDbEntity
  8
0
100
AcDbLine
 10
128.5872
 20
77.555749356053
 30
0.0
 11
129.6909
 21
77.332949356053
 31
0.0
  0
LINE
  5
205
330
1D
100
AcDbEntity
  8
0
100
AcDbLine
 10
123.3715
 20
76.358149356053
 30
0.0
 11
124.7631
 21
75.015049356053
 31
0.0
  0
LINE
  5
206
330
1D
100
AcDbEntity
  8
0
100
AcDbLine
 10
144.0207
 20
66.503149356053
 30
0.0
 11
148.988251530318
 21
64.780689450427
 31
0.0
  0
LINE
  5
207
330
1D
100
AcDbEntity
  8
0
100
AcDbLine
 10
136.2924
 20
86.506249356053
 30
0.0
 11
146.7094
 21
68.712249356053
 31
0.0
  0
LINE
  5
208
330
1D
100
AcDbEntity
  8
0
100
AcDbLine
 10
126.7883
 20
101.141749356053
 30
0.0
 11
136.2924
 21
86.506249356053
 31
0.0
  0
LINE
  5
209
330
1D
100
AcDbEntity
  8
0
100
AcDbLine
 10
145.5199
 20
114.553749356053
 30
0.0
 11
157.1943
 21
99.275049356053
 31
0.0
  0
LINE
  5
20A
330
1D
100
AcDbEntity
  8
0
100
AcDbLine
 10
122.661
 20
140.872749356053
 30
0.0
 11
134.2553
 21
128.020749356053
 31
0.0
  0
LINE
  5
20B
330
1D
100
AcDbEntity
  8
0
100
AcDbLine
 10
134.2553
 20
128.020749356053
 30
0.0
 11
145.5199
 21
114.553749356053
 31
0.0
  0
LINE
  5
20C
330
1D
100
AcDbEntity
  8
0
100
AcDbLine
 10
117.0802
 20
114.596749356053
 30
0.0
 11
126.7883
 21
101.141749356053
 31
0.0
  0
LINE
  5
20D
330
1D
100
AcDbEntity
  8
0
100
AcDbLine
 10
82.978
 20
152.568749356053
 30
0.0
 11
91.415
 21
144.237749356053
 31
0.0
  0
LINE
  5
20E
330
1D
100
AcDbEntity
  8
0
100
AcDbLine
 10
82.226
 20
152.544749356053
 30
0.0
 11
82.526358800883
 21
152.940800879026
 31
0.0
  0
LINE
  5
20F
330
1D
100
AcDbEntity
  8
0
100
AcDbLine
 10
82.479165111027
 20
152.979677943873
 30
0.0
 11
82.978
 21
152.568749356053
 31
0.0
  0
LINE
  5
210
330
1D
100
AcDbEntity
  8
0
100
AcDbLine
 10
81.131
 20
152.766749356053
 30
0.0
 11
82.226
 21
152.544749356053
 31
0.0
  0
LINE
  5
211
330
1D
100
AcDbEntity
  8
0
100
AcDbLine
 10
81.131
 20
152.766749356053
 30
0.0
 11
81.611
 21
151.755749356053
 31
0.0
  0
LINE
  5
212
330
1D
100
AcDbEntity
  8
0
100
AcDbLine
 10
80.808
 20
153.652749356053
 30
0.0
 11
82.226
 21
152.544749356053
 31
0.0
  0
LINE
  5
213
330
1D
100
AcDbEntity
  8
0
100
AcDbLine
 10
104.9075
 20
159.555749356053
 30
0.0
 11
113.5457
 21
150.563749356053
 31
0.0
  0
LINE
  5
214
330
1D
100
AcDbEntity
  8
0
100
AcDbLine
 10
75.93
 20
156.828749356053
 30
0.0
 11
79.712
 21
153.873749356053
 31
0.0
  0
LINE
  5
215
330
1D
100
AcDbEntity
  8
0
100
AcDbLine
 10
76.947
 20
156.669749356053
 30
0.0
 11
80.808
 21
153.652749356053
 31
0.0
  0
LINE
  5
216
330
1D
100
AcDbEntity
  8
0
100
AcDbLine
 10
70.643
 20
161.594749356053
 30
0.0
 11
76.947
 21
156.669749356053
 31
0.0
  0
LINE
  5
217
330
1D
100
AcDbEntity
  8
0
100
AcDbLine
 10
42.838
 20
166.722749356053
 30
0.0
 11
43.198175112176
 21
167.183574540193
 31
0.0
  0
LINE
  5
218
330
1D
100
AcDbEntity
  8
0
100
AcDbLine
 10
42.838
 20
166.722749356053
 30
0.0
 11
43.061
 21
166.548749356053
 31
0.0
  0
LINE
  5
219
330
1D
100
AcDbEntity
  8
0
100
AcDbLine
 10
43.061
 20
166.548749356053
 30
0.0
 11
43.426722573615
 21
167.016969320323
 31
0.0
  0
LINE
  5
21A
330
1D
100
AcDbEntity
  8
0
100
AcDbLine
 10
43.061
 20
166.548749356053
 30
0.0
 11
43.284214865328
 21
166.374024614073
 31
0.0
  0
LINE
  5
21B
330
1D
100
AcDbEntity
  8
0
100
AcDbLine
 10
43.461680645164
 20
166.235110646373
 30
0.0
 11
43.618
 21
166.112749356053
 31
0.0
  0
LINE
  5
21C
330
1D
100
AcDbEntity
  8
0
100
AcDbLine
 10
43.507
 20
166.199749356053
 30
0.0
 11
43.978248174352
 21
166.80306952078
 31
0.0
  0
LINE
  5
21D
330
1D
100
AcDbEntity
  8
0
100
AcDbLine
 10
43.507
 20
166.199749356053
 30
0.0
 11
44.064
 21
165.764749356053
 31
0.0
  0
LINE
  5
21E
330
1D
100
AcDbEntity
  8
0
100
AcDbLine
 10
43.284
 20
166.373749356053
 30
0.0
 11
43.507
 21
166.199749356053
 31
0.0
  0
LINE
  5
21F
330
1D
100
AcDbEntity
  8
0
100
AcDbLine
 10
43.284
 20
166.373749356053
 30
0.0
 11
43.746967030835
 21
166.966843594581
 31
0.0
  0
LINE
  5
220
330
1D
100
AcDbEntity
  8
0
100
AcDbLine
 10
43.01
 20
167.320749356053
 30
0.0
 11
43.655763052021
 21
166.850004703768
 31
0.0
  0
LINE
  5
221
330
1D
100
AcDbEntity
  8
0
100
AcDbLine
 10
41.823
 20
167.827749356053
 30
0.0
 11
42.039564839023
 21
168.105008646305
 31
0.0
  0
LINE
  5
222
330
1D
100
AcDbEntity
  8
0
100
AcDbLine
 10
41.856
 20
167.802749356053
 30
0.0
 11
42.072264408832
 21
168.079448335672
 31
0.0
  0
LINE
  5
223
330
1D
100
AcDbEntity
  8
0
100
AcDbLine
 10
42.219
 20
167.964749356053
 30
0.0
 11
42.883713217136
 21
168.815603855585
 31
0.0
  0
LINE
  5
224
330
1D
100
AcDbEntity
  8
0
100
AcDbLine
 10
42.695
 20
167.566749356053
 30
0.0
 11
43.01
 21
167.320749356053
 31
0.0
  0
LINE
  5
225
330
1D
100
AcDbEntity
  8
0
100
AcDbLine
 10
61.832
 20
167.208749356053
 30
0.0
 11
70.027
 21
160.806749356053
 31
0.0
  0
LINE
  5
226
330
1D
100
AcDbEntity
  8
0
100
AcDbLine
 10
61.746
 20
167.911749356053
 30
0.0
 11
69.783
 21
161.631749356053
 31
0.0
  0
LINE
  5
227
330
1D
100
AcDbEntity
  8
0
100
AcDbLine
 10
40.108
 20
168.572749356053
 30
0.0
 11
40.24438812786
 21
168.466247072943
 31
0.0
  0
LINE
  5
228
330
1D
100
AcDbEntity
  8
0
100
AcDbLine
 10
39.834
 20
168.786749356053
 30
0.0
 11
39.961750000061
 21
168.686999356006
 31
0.0
  0
LINE
  5
229
330
1D
100
AcDbEntity
  8
0
100
AcDbLine
 10
39.834
 20
168.786749356053
 30
0.0
 11
39.961750000061
 21
168.686999356005
 31
0.0
  0
LINE
  5
22A
330
1D
100
AcDbEntity
  8
0
100
AcDbLine
 10
40.171
 20
168.523749356053
 30
0.0
 11
40.307445605265
 21
168.698546041271
 31
0.0
  0
LINE
  5
22B
330
1D
100
AcDbEntity
  8
0
100
AcDbLine
 10
40.171
 20
168.523749356053
 30
0.0
 11
40.499
 21
168.266749356053
 31
0.0
  0
LINE
  5
22C
330
1D
100
AcDbEntity
  8
0
100
AcDbLine
 10
40.61
 20
168.180749356053
 30
0.0
 11
40.746681781262
 21
168.355737566669
 31
0.0
  0
LINE
  5
22D
330
1D
100
AcDbEntity
  8
0
100
AcDbLine
 10
40.61
 20
168.180749356053
 30
0.0
 11
40.747
 21
168.073749356053
 31
0.0
  0
LINE
  5
22E
330
1D
100
AcDbEntity
  8
0
100
AcDbLine
 10
40.49932847122
 20
168.267170151435
 30
0.0
 11
40.61
 21
168.180749356053
 31
0.0
  0
LINE
  5
22F
330
1D
100
AcDbEntity
  8
0
100
AcDbLine
 10
40.499
 20
168.266749356053
 30
0.0
 11
40.635909316643
 21
168.442140089072
 31
0.0
  0
LINE
  5
230
330
1D
100
AcDbEntity
  8
0
100
AcDbLine
 10
40.43
 20
168.602749356053
 30
0.0
 11
40.582213381702
 21
168.797587426624
 31
0.0
  0
LINE
  5
231
330
1D
100
AcDbEntity
  8
0
100
AcDbLine
 10
40.43
 20
168.602749356053
 30
0.0
 11
40.83
 21
168.290749356053
 31
0.0
  0
LINE
  5
232
330
1D
100
AcDbEntity
  8
0
100
AcDbLine
 10
40.43
 20
168.602749356053
 30
0.0
 11
40.582213381702
 21
168.797587426624
 31
0.0
  0
LINE
  5
233
330
1D
100
AcDbEntity
  8
0
100
AcDbLine
 10
40.409
 20
168.932749356053
 30
0.0
 11
40.846
 21
168.591749356053
 31
0.0
  0
LINE
  5
234
330
1D
100
AcDbEntity
  8
0
100
AcDbLine
 10
38.947
 20
169.479749356053
 30
0.0
 11
39.084
 21
169.372749356053
 31
0.0
  0
LINE
  5
235
330
1D
100
AcDbEntity
  8
0
100
AcDbLine
 10
38.947
 20
169.479749356053
 30
0.0
 11
39.439507950257
 21
170.110287560444
 31
0.0
  0
LINE
  5
236
330
1D
100
AcDbEntity
  8
0
100
AcDbLine
 10
39.084
 20
169.372749356053
 30
0.0
 11
39.57633763508
 21
170.003469462081
 31
0.0
  0
LINE
  5
237
330
1D
100
AcDbEntity
  8
0
100
AcDbLine
 10
39.084
 20
169.372749356053
 30
0.0
 11
39.586
 21
168.980749356053
 31
0.0
  0
LINE
  5
238
330
1D
100
AcDbEntity
  8
0
100
AcDbLine
 10
38.366
 20
169.933749356053
 30
0.0
 11
38.858393177688
 21
170.56414062172
 31
0.0
  0
LINE
  5
239
330
1D
100
AcDbEntity
  8
0
100
AcDbLine
 10
38.095
 20
170.145749356053
 30
0.0
 11
38.587744705026
 21
170.775678666456
 31
0.0
  0
LINE
  5
23A
330
1D
100
AcDbEntity
  8
0
100
AcDbLine
 10
38.095
 20
170.145749356053
 30
0.0
 11
38.366
 21
169.933749356053
 31
0.0
  0
LINE
  5
23B
330
1D
100
AcDbEntity
  8
0
100
AcDbLine
 10
38.192
 20
170.068749356053
 30
0.0
 11
38.366
 21
169.933749356053
 31
0.0
  0
LINE
  5
23C
330
1D
100
AcDbEntity
  8
0
100
AcDbLine
 10
39.449611872136
 20
169.087251639166
 30
0.0
 11
39.523
 21
169.029749356053
 31
0.0
  0
LINE
  5
23D
330
1D
100
AcDbEntity
  8
0
100
AcDbLine
 10
39.523
 20
169.029749356053
 30
0.0
 11
40.108
 21
168.572749356053
 31
0.0
  0
LINE
  5
23E
330
1D
100
AcDbEntity
  8
0
100
AcDbLine
 10
39.586
 20
168.980749356053
 30
0.0
 11
39.722770884551
 21
169.155709513563
 31
0.0
  0
LINE
  5
23F
330
1D
100
AcDbEntity
  8
0
100
AcDbLine
 10
39.586
 20
168.980749356053
 30
0.0
 11
40.171
 21
168.523749356053
 31
0.0
  0
LINE
  5
240
330
1D
100
AcDbEntity
  8
0
100
AcDbLine
 10
39.83
 20
169.071749356053
 30
0.0
 11
40.305895048705
 21
169.680524191085
 31
0.0
  0
LINE
  5
241
330
1D
100
AcDbEntity
  8
0
100
AcDbLine
 10
39.83
 20
169.071749356053
 30
0.0
 11
40.43
 21
168.602749356053
 31
0.0
  0
LINE
  5
242
330
1D
100
AcDbEntity
  8
0
100
AcDbLine
 10
40.249
 20
169.951749356053
 30
0.0
 11
40.942897681542
 21
170.839555081827
 31
0.0
  0
LINE
  5
243
330
1D
100
AcDbEntity
  8
0
100
AcDbLine
 10
40.249
 20
169.951749356053
 30
0.0
 11
40.833
 21
169.494749356053
 31
0.0
  0
LINE
  5
244
330
1D
100
AcDbEntity
  8
0
100
AcDbLine
 10
40.057
 20
170.100749356053
 30
0.0
 11
40.445318133616
 21
169.798123693275
 31
0.0
  0
LINE
  5
245
330
1D
100
AcDbEntity
  8
0
100
AcDbLine
 10
39.92
 20
170.207749356053
 30
0.0
 11
40.057
 21
170.100749356053
 31
0.0
  0
LINE
  5
246
330
1D
100
AcDbEntity
  8
0
100
AcDbLine
 10
39.92
 20
170.207749356053
 30
0.0
 11
40.614498781704
 21
171.096166628753
 31
0.0
  0
LINE
  5
247
330
1D
100
AcDbEntity
  8
0
100
AcDbLine
 10
39.92
 20
170.207749356053
 30
0.0
 11
40.249
 21
169.951749356053
 31
0.0
  0
LINE
  5
248
330
1D
100
AcDbEntity
  8
0
100
AcDbLine
 10
39.383
 20
169.421749356053
 30
0.0
 11
39.840466521789
 21
170.007425422941
 31
0.0
  0
LINE
  5
249
330
1D
100
AcDbEntity
  8
0
100
AcDbLine
 10
39.383
 20
169.421749356053
 30
0.0
 11
39.83
 21
169.071749356053
 31
0.0
  0
LINE
  5
24A
330
1D
100
AcDbEntity
  8
0
100
AcDbLine
 10
39.364
 20
169.435749356053
 30
0.0
 11
39.820948902768
 21
170.021133937422
 31
0.0
  0
LINE
  5
24B
330
1D
100
AcDbEntity
  8
0
100
AcDbLine
 10
39.364
 20
169.435749356053
 30
0.0
 11
39.656537313435
 21
169.207570251573
 31
0.0
  0
LINE
  5
24C
330
1D
100
AcDbEntity
  8
0
100
AcDbLine
 10
39.364
 20
169.435749356053
 30
0.0
 11
39.656537313435
 21
169.207570251573
 31
0.0
  0
LINE
  5
24D
330
1D
100
AcDbEntity
  8
0
100
AcDbLine
 10
40.375
 20
168.959749356053
 30
0.0
 11
40.808272817055
 21
169.514099223528
 31
0.0
  0
LINE
  5
24E
330
1D
100
AcDbEntity
  8
0
100
AcDbLine
 10
40.375
 20
168.959749356053
 30
0.0
 11
40.786
 21
168.638749356053
 31
0.0
  0
LINE
  5
24F
330
1D
100
AcDbEntity
  8
0
100
AcDbLine
 10
40.747
 20
168.073749356053
 30
0.0
 11
41.035785338379
 21
168.44346965929
 31
0.0
  0
LINE
  5
250
330
1D
100
AcDbEntity
  8
0
100
AcDbLine
 10
40.83
 20
168.290749356053
 30
0.0
 11
40.982069555144
 21
168.48543791731
 31
0.0
  0
LINE
  5
251
330
1D
100
AcDbEntity
  8
0
100
AcDbLine
 10
40.786
 20
168.638749356053
 30
0.0
 11
41.002026260346
 21
168.915319125594
 31
0.0
  0
LINE
  5
252
330
1D
100
AcDbEntity
  8
0
100
AcDbLine
 10
40.786
 20
168.638749356053
 30
0.0
 11
41.385
 21
168.170749356053
 31
0.0
  0
LINE
  5
253
330
1D
100
AcDbEntity
  8
0
100
AcDbLine
 10
41.035785338379
 20
168.44346965929
 30
0.0
 11
41.445
 21
168.123749356053
 31
0.0
  0
LINE
  5
254
330
1D
100
AcDbEntity
  8
0
100
AcDbLine
 10
40.846
 20
168.591749356053
 30
0.0
 11
41.445
 21
168.123749356053
 31
0.0
  0
LINE
  5
255
330
1D
100
AcDbEntity
  8
0
100
AcDbLine
 10
41.451576000003
 20
168.118613356051
 30
0.0
 11
41.823
 21
167.827749356053
 31
0.0
  0
LINE
  5
256
330
1D
100
AcDbEntity
  8
0
100
AcDbLine
 10
41.451576000003
 20
168.118613356051
 30
0.0
 11
41.823
 21
167.827749356053
 31
0.0
  0
LINE
  5
257
330
1D
100
AcDbEntity
  8
0
100
AcDbLine
 10
41.385
 20
168.170749356053
 30
0.0
 11
41.601306291584
 21
168.447452858923
 31
0.0
  0
LINE
  5
258
330
1D
100
AcDbEntity
  8
0
100
AcDbLine
 10
41.385
 20
168.170749356053
 30
0.0
 11
41.823
 21
167.827749356053
 31
0.0
  0
LINE
  5
259
330
1D
100
AcDbEntity
  8
0
100
AcDbLine
 10
42.134
 20
168.031749356053
 30
0.0
 11
42.782857090565
 21
168.862455103193
 31
0.0
  0
LINE
  5
25A
330
1D
100
AcDbEntity
  8
0
100
AcDbLine
 10
42.134
 20
168.031749356053
 30
0.0
 11
42.219
 21
167.964749356053
 31
0.0
  0
LINE
  5
25B
330
1D
100
AcDbEntity
  8
0
100
AcDbLine
 10
41.662
 20
168.400749356053
 30
0.0
 11
42.225634461759
 21
169.121304775915
 31
0.0
  0
LINE
  5
25C
330
1D
100
AcDbEntity
  8
0
100
AcDbLine
 10
41.662
 20
168.400749356053
 30
0.0
 11
42.134
 21
168.031749356053
 31
0.0
  0
LINE
  5
25D
330
1D
100
AcDbEntity
  8
0
100
AcDbLine
 10
41.848
 20
168.254749356053
 30
0.0
 11
42.219
 21
167.964749356053
 31
0.0
  0
LINE
  5
25E
330
1D
100
AcDbEntity
  8
0
100
AcDbLine
 10
41.254
 20
168.718749356053
 30
0.0
 11
41.848
 21
168.254749356053
 31
0.0
  0
LINE
  5
25F
330
1D
100
AcDbEntity
  8
0
100
AcDbLine
 10
40.833
 20
169.494749356053
 30
0.0
 11
41.527294960977
 21
170.382905897043
 31
0.0
  0
LINE
  5
260
330
1D
100
AcDbEntity
  8
0
100
AcDbLine
 10
40.833
 20
169.494749356053
 30
0.0
 11
41.335
 21
169.102749356053
 31
0.0
  0
LINE
  5
261
330
1D
100
AcDbEntity
  8
0
100
AcDbLine
 10
41.335
 20
169.102749356053
 30
0.0
 11
42.029440490201
 21
169.990528391821
 31
0.0
  0
LINE
  5
262
330
1D
100
AcDbEntity
  8
0
100
AcDbLine
 10
41.335
 20
169.102749356053
 30
0.0
 11
41.472
 21
168.994749356053
 31
0.0
  0
LINE
  5
263
330
1D
100
AcDbEntity
  8
0
100
AcDbLine
 10
41.472
 20
168.994749356053
 30
0.0
 11
42.166353459443
 21
169.883544328084
 31
0.0
  0
LINE
  5
264
330
1D
100
AcDbEntity
  8
0
100
AcDbLine
 10
41.055078189276
 20
169.321333718212
 30
0.0
 11
41.144
 21
169.251749356053
 31
0.0
  0
LINE
  5
265
330
1D
100
AcDbEntity
  8
0
100
AcDbLine
 10
41.144
 20
169.251749356053
 30
0.0
 11
41.472
 21
168.994749356053
 31
0.0
  0
LINE
  5
266
330
1D
100
AcDbEntity
  8
0
100
AcDbLine
 10
41.055078189276
 20
169.321333718212
 30
0.0
 11
41.144
 21
169.251749356053
 31
0.0
  0
LINE
  5
267
330
1D
100
AcDbEntity
  8
0
100
AcDbLine
 10
41.068
 20
168.863749356053
 30
0.0
 11
41.284880932508
 21
169.141363991252
 31
0.0
  0
LINE
  5
268
330
1D
100
AcDbEntity
  8
0
100
AcDbLine
 10
41.068
 20
168.863749356053
 30
0.0
 11
41.662
 21
168.400749356053
 31
0.0
  0
LINE
  5
269
330
1D
100
AcDbEntity
  8
0
100
AcDbLine
 10
40.697
 20
169.153749356053
 30
0.0
 11
40.913991245867
 21
169.431505195934
 31
0.0
  0
LINE
  5
26A
330
1D
100
AcDbEntity
  8
0
100
AcDbLine
 10
40.697
 20
169.153749356053
 30
0.0
 11
41.068
 21
168.863749356053
 31
0.0
  0
LINE
  5
26B
330
1D
100
AcDbEntity
  8
0
100
AcDbLine
 10
35.303
 20
172.072749356053
 30
0.0
 11
35.562847231622
 21
172.405632446441
 31
0.0
  0
LINE
  5
26C
330
1D
100
AcDbEntity
  8
0
100
AcDbLine
 10
35.066
 20
172.257749356053
 30
0.0
 11
35.189207651409
 21
172.415587265291
 31
0.0
  0
LINE
  5
26D
330
1D
100
AcDbEntity
  8
0
100
AcDbLine
 10
35.066
 20
172.257749356053
 30
0.0
 11
35.303
 21
172.072749356053
 31
0.0
  0
LINE
  5
26E
330
1D
100
AcDbEntity
  8
0
100
AcDbLine
 10
35.694
 20
172.302749356053
 30
0.0
 11
36.106017226657
 21
172.830144783357
 31
0.0
  0
LINE
  5
26F
330
1D
100
AcDbEntity
  8
0
100
AcDbLine
 10
35.426
 20
172.230749356053
 30
0.0
 11
35.562693728538
 21
172.405752862288
 31
0.0
  0
LINE
  5
270
330
1D
100
AcDbEntity
  8
0
100
AcDbLine
 10
35.189
 20
172.415749356053
 30
0.0
 11
35.426
 21
172.230749356053
 31
0.0
  0
LINE
  5
271
330
1D
100
AcDbEntity
  8
0
100
AcDbLine
 10
35.189
 20
172.415749356053
 30
0.0
 11
35.3260699756
 21
172.591203375145
 31
0.0
  0
LINE
  5
272
330
1D
100
AcDbEntity
  8
0
100
AcDbLine
 10
36.768
 20
172.223749356053
 30
0.0
 11
37.181997017007
 21
172.753678979283
 31
0.0
  0
LINE
  5
273
330
1D
100
AcDbEntity
  8
0
100
AcDbLine
 10
36.768
 20
172.223749356053
 30
0.0
 11
37.338
 21
171.778749356053
 31
0.0
  0
LINE
  5
274
330
1D
100
AcDbEntity
  8
0
100
AcDbLine
 10
36.672
 20
172.298749356053
 30
0.0
 11
36.754330948119
 21
172.234472075196
 31
0.0
  0
LINE
  5
275
330
1D
100
AcDbEntity
  8
0
100
AcDbLine
 10
36.672
 20
172.298749356053
 30
0.0
 11
36.754330948119
 21
172.234472075196
 31
0.0
  0
LINE
  5
276
330
1D
100
AcDbEntity
  8
0
100
AcDbLine
 10
33.963
 20
173.119749356053
 30
0.0
 11
34.086207630624
 21
173.277587238664
 31
0.0
  0
LINE
  5
277
330
1D
100
AcDbEntity
  8
0
100
AcDbLine
 10
33.963
 20
173.119749356053
 30
0.0
 11
34.514
 21
172.689749356053
 31
0.0
  0
LINE
  5
278
330
1D
100
AcDbEntity
  8
0
100
AcDbLine
 10
34.514
 20
172.689749356053
 30
0.0
 11
34.637260527052
 21
172.847326734387
 31
0.0
  0
LINE
  5
279
330
1D
100
AcDbEntity
  8
0
100
AcDbLine
 10
34.514
 20
172.689749356053
 30
0.0
 11
35.066
 21
172.257749356053
 31
0.0
  0
LINE
  5
27A
330
1D
100
AcDbEntity
  8
0
100
AcDbLine
 10
33.727
 20
173.304749356053
 30
0.0
 11
33.963
 21
173.119749356053
 31
0.0
  0
LINE
  5
27B
330
1D
100
AcDbEntity
  8
0
100
AcDbLine
 10
33.727
 20
173.304749356053
 30
0.0
 11
34.138394574942
 21
173.831441354516
 31
0.0
  0
LINE
  5
27C
330
1D
100
AcDbEntity
  8
0
100
AcDbLine
 10
33.801
 20
174.541749356053
 30
0.0
 11
34.194484239593
 21
175.045102571636
 31
0.0
  0
LINE
  5
27D
330
1D
100
AcDbEntity
  8
0
100
AcDbLine
 10
32.464
 20
174.544749356053
 30
0.0
 11
32.956393690644
 21
175.175141278437
 31
0.0
  0
LINE
  5
27E
330
1D
100
AcDbEntity
  8
0
100
AcDbLine
 10
33.081
 20
175.077749356053
 30
0.0
 11
34.34179746815
 21
174.092616732086
 31
0.0
  0
LINE
  5
27F
330
1D
100
AcDbEntity
  8
0
100
AcDbLine
 10
33.518
 20
174.763749356053
 30
0.0
 11
33.931701340209
 21
175.293058544379
 31
0.0
  0
LINE
  5
280
330
1D
100
AcDbEntity
  8
0
100
AcDbLine
 10
33.518
 20
174.763749356053
 30
0.0
 11
33.801
 21
174.541749356053
 31
0.0
  0
LINE
  5
281
330
1D
100
AcDbEntity
  8
0
100
AcDbLine
 10
32.956393690644
 20
175.175141278437
 30
0.0
 11
33.081
 21
175.077749356053
 31
0.0
  0
LINE
  5
282
330
1D
100
AcDbEntity
  8
0
100
AcDbLine
 10
33.085
 20
175.101749356053
 30
0.0
 11
33.614
 21
174.687749356053
 31
0.0
  0
LINE
  5
283
330
1D
100
AcDbEntity
  8
0
100
AcDbLine
 10
33.614
 20
174.687749356053
 30
0.0
 11
33.801
 21
174.541749356053
 31
0.0
  0
LINE
  5
284
330
1D
100
AcDbEntity
  8
0
100
AcDbLine
 10
31.755
 20
175.098749356053
 30
0.0
 11
32.247273606198
 21
175.729387436455
 31
0.0
  0
LINE
  5
285
330
1D
100
AcDbEntity
  8
0
100
AcDbLine
 10
31.755
 20
175.098749356053
 30
0.0
 11
32.29
 21
174.680749356053
 31
0.0
  0
LINE
  5
286
330
1D
100
AcDbEntity
  8
0
100
AcDbLine
 10
32.29
 20
174.680749356053
 30
0.0
 11
32.464
 21
174.544749356053
 31
0.0
  0
LINE
  5
287
330
1D
100
AcDbEntity
  8
0
100
AcDbLine
 10
32.29
 20
174.680749356053
 30
0.0
 11
32.782640954845
 21
175.310945902186
 31
0.0
  0
LINE
  5
288
330
1D
100
AcDbEntity
  8
0
100
AcDbLine
 10
34.138
 20
173.831749356053
 30
0.0
 11
34.650132338754
 21
174.487295377332
 31
0.0
  0
LINE
  5
289
330
1D
100
AcDbEntity
  8
0
100
AcDbLine
 10
34.138
 20
173.831749356053
 30
0.0
 11
34.375
 21
173.646749356053
 31
0.0
  0
LINE
  5
28A
330
1D
100
AcDbEntity
  8
0
100
AcDbLine
 10
34.138
 20
173.831749356053
 30
0.0
 11
34.34179746815
 21
174.092616732086
 31
0.0
  0
LINE
  5
28B
330
1D
100
AcDbEntity
  8
0
100
AcDbLine
 10
34.572
 20
174.386749356053
 30
0.0
 11
35.266037772949
 21
175.275298121421
 31
0.0
  0
LINE
  5
28C
330
1D
100
AcDbEntity
  8
0
100
AcDbLine
 10
34.572
 20
174.386749356053
 30
0.0
 11
34.808
 21
174.201749356053
 31
0.0
  0
LINE
  5
28D
330
1D
100
AcDbEntity
  8
0
100
AcDbLine
 10
34.375
 20
173.646749356053
 30
0.0
 11
34.926
 21
173.216749356053
 31
0.0
  0
LINE
  5
28E
330
1D
100
AcDbEntity
  8
0
100
AcDbLine
 10
34.375
 20
173.646749356053
 30
0.0
 11
34.808143537019
 21
174.201637542795
 31
0.0
  0
LINE
  5
28F
330
1D
100
AcDbEntity
  8
0
100
AcDbLine
 10
34.312
 20
173.383749356053
 30
0.0
 11
34.46348800463
 21
173.577693381478
 31
0.0
  0
LINE
  5
290
330
1D
100
AcDbEntity
  8
0
100
AcDbLine
 10
34.312
 20
173.383749356053
 30
0.0
 11
34.841
 21
172.970749356053
 31
0.0
  0
LINE
  5
291
330
1D
100
AcDbEntity
  8
0
100
AcDbLine
 10
34.124
 20
173.529749356053
 30
0.0
 11
34.275860986689
 21
173.724136349566
 31
0.0
  0
LINE
  5
292
330
1D
100
AcDbEntity
  8
0
100
AcDbLine
 10
34.124
 20
173.529749356053
 30
0.0
 11
34.408
 21
173.308749356053
 31
0.0
  0
LINE
  5
293
330
1D
100
AcDbEntity
  8
0
100
AcDbLine
 10
34.124
 20
173.529749356053
 30
0.0
 11
34.312
 21
173.383749356053
 31
0.0
  0
LINE
  5
294
330
1D
100
AcDbEntity
  8
0
100
AcDbLine
 10
34.124
 20
173.529749356053
 30
0.0
 11
34.909
 21
172.916749356053
 31
0.0
  0
LINE
  5
295
330
1D
100
AcDbEntity
  8
0
100
AcDbLine
 10
34.408
 20
173.308749356053
 30
0.0
 11
34.86599999998
 21
172.95118795256
 31
0.0
  0
LINE
  5
296
330
1D
100
AcDbEntity
  8
0
100
AcDbLine
 10
34.408
 20
173.308749356053
 30
0.0
 11
34.86599999998
 21
172.95118795256
 31
0.0
  0
LINE
  5
297
330
1D
100
AcDbEntity
  8
0
100
AcDbLine
 10
33.85
 20
173.461749356053
 30
0.0
 11
34.138509868924
 21
173.831351357104
 31
0.0
  0
LINE
  5
298
330
1D
100
AcDbEntity
  8
0
100
AcDbLine
 10
33.85
 20
173.461749356053
 30
0.0
 11
34.086
 21
173.277749356053
 31
0.0
  0
LINE
  5
299
330
1D
100
AcDbEntity
  8
0
100
AcDbLine
 10
34.086
 20
173.277749356053
 30
0.0
 11
34.638
 21
172.846749356053
 31
0.0
  0
LINE
  5
29A
330
1D
100
AcDbEntity
  8
0
100
AcDbLine
 10
34.086
 20
173.277749356053
 30
0.0
 11
34.222735029913
 21
173.45291681517
 31
0.0
  0
LINE
  5
29B
330
1D
100
AcDbEntity
  8
0
100
AcDbLine
 10
36.049955952486
 20
172.758384532247
 30
0.0
 11
37.179
 21
171.876749356053
 31
0.0
  0
LINE
  5
29C
330
1D
100
AcDbEntity
  8
0
100
AcDbLine
 10
35.714
 20
172.600749356053
 30
0.0
 11
36.147911549483
 21
173.155818026496
 31
0.0
  0
LINE
  5
29D
330
1D
100
AcDbEntity
  8
0
100
AcDbLine
 10
35.478
 20
172.784749356053
 30
0.0
 11
35.714
 21
172.600749356053
 31
0.0
  0
LINE
  5
29E
330
1D
100
AcDbEntity
  8
0
100
AcDbLine
 10
35.478
 20
172.784749356053
 30
0.0
 11
35.911143719398
 21
173.339637776436
 31
0.0
  0
LINE
  5
29F
330
1D
100
AcDbEntity
  8
0
100
AcDbLine
 10
35.411
 20
172.524749356053
 30
0.0
 11
35.562577314351
 21
172.718807721136
 31
0.0
  0
LINE
  5
2A0
330
1D
100
AcDbEntity
  8
0
100
AcDbLine
 10
35.411
 20
172.524749356053
 30
0.0
 11
35.694
 21
172.302749356053
 31
0.0
  0
LINE
  5
2A1
330
1D
100
AcDbEntity
  8
0
100
AcDbLine
 10
34.808
 20
174.201749356053
 30
0.0
 11
35.36
 21
173.771749356053
 31
0.0
  0
LINE
  5
2A2
330
1D
100
AcDbEntity
  8
0
100
AcDbLine
 10
34.808
 20
174.201749356053
 30
0.0
 11
35.502697941545
 21
175.09042139816
 31
0.0
  0
LINE
  5
2A3
330
1D
100
AcDbEntity
  8
0
100
AcDbLine
 10
36.148
 20
173.155749356053
 30
0.0
 11
36.842154602069
 21
174.04388379818
 31
0.0
  0
LINE
  5
2A4
330
1D
100
AcDbEntity
  8
0
100
AcDbLine
 10
35.36
 20
173.771749356053
 30
0.0
 11
35.911
 21
173.339749356053
 31
0.0
  0
LINE
  5
2A5
330
1D
100
AcDbEntity
  8
0
100
AcDbLine
 10
35.36
 20
173.771749356053
 30
0.0
 11
36.053757255323
 21
174.659938985938
 31
0.0
  0
LINE
  5
2A6
330
1D
100
AcDbEntity
  8
0
100
AcDbLine
 10
35.911
 20
173.339749356053
 30
0.0
 11
36.148
 21
173.155749356053
 31
0.0
  0
LINE
  5
2A7
330
1D
100
AcDbEntity
  8
0
100
AcDbLine
 10
35.911
 20
173.339749356053
 30
0.0
 11
36.605809606875
 21
174.22856424277
 31
0.0
  0
LINE
  5
2A8
330
1D
100
AcDbEntity
  8
0
100
AcDbLine
 10
34.926
 20
173.216749356053
 30
0.0
 11
35.360082647107
 21
173.771684558321
 31
0.0
  0
LINE
  5
2A9
330
1D
100
AcDbEntity
  8
0
100
AcDbLine
 10
34.926
 20
173.216749356053
 30
0.0
 11
35.478
 21
172.784749356053
 31
0.0
  0
LINE
  5
2AA
330
1D
100
AcDbEntity
  8
0
100
AcDbLine
 10
34.841
 20
172.970749356053
 30
0.0
 11
34.992498613156
 21
173.164706963148
 31
0.0
  0
LINE
  5
2AB
330
1D
100
AcDbEntity
  8
0
100
AcDbLine
 10
34.841
 20
172.970749356053
 30
0.0
 11
35.411
 21
172.524749356053
 31
0.0
  0
LINE
  5
2AC
330
1D
100
AcDbEntity
  8
0
100
AcDbLine
 10
34.638
 20
172.846749356053
 30
0.0
 11
35.189
 21
172.415749356053
 31
0.0
  0
LINE
  5
2AD
330
1D
100
AcDbEntity
  8
0
100
AcDbLine
 10
34.638
 20
172.846749356053
 30
0.0
 11
34.775042137036
 21
173.022198915735
 31
0.0
  0
LINE
  5
2AE
330
1D
100
AcDbEntity
  8
0
100
AcDbLine
 10
36.485
 20
172.445749356053
 30
0.0
 11
36.672
 21
172.298749356053
 31
0.0
  0
LINE
  5
2AF
330
1D
100
AcDbEntity
  8
0
100
AcDbLine
 10
36.485
 20
172.445749356053
 30
0.0
 11
36.877832870577
 21
172.948677547791
 31
0.0
  0
LINE
  5
2B0
330
1D
100
AcDbEntity
  8
0
100
AcDbLine
 10
36.485
 20
172.445749356053
 30
0.0
 11
36.768
 21
172.223749356053
 31
0.0
  0
LINE
  5
2B1
330
1D
100
AcDbEntity
  8
0
100
AcDbLine
 10
37.711406779657
 20
170.445139186564
 30
0.0
 11
38.192
 21
170.068749356053
 31
0.0
  0
LINE
  5
2B2
330
1D
100
AcDbEntity
  8
0
100
AcDbLine
 10
37.286885057438
 20
170.776760850332
 30
0.0
 11
37.521
 21
170.593749356053
 31
0.0
  0
LINE
  5
2B3
330
1D
100
AcDbEntity
  8
0
100
AcDbLine
 10
37.286885057438
 20
170.776760850332
 30
0.0
 11
37.521
 21
170.593749356053
 31
0.0
  0
LINE
  5
2B4
330
1D
100
AcDbEntity
  8
0
100
AcDbLine
 10
37.521
 20
170.593749356053
 30
0.0
 11
38.013611183894
 21
171.224419726335
 31
0.0
  0
LINE
  5
2B5
330
1D
100
AcDbEntity
  8
0
100
AcDbLine
 10
37.521
 20
170.593749356053
 30
0.0
 11
38.095
 21
170.145749356053
 31
0.0
  0
LINE
  5
2B6
330
1D
100
AcDbEntity
  8
0
100
AcDbLine
 10
37.521
 20
170.593749356053
 30
0.0
 11
37.711406779657
 21
170.445139186564
 31
0.0
  0
LINE
  5
2B7
330
1D
100
AcDbEntity
  8
0
100
AcDbLine
 10
37.521
 20
170.593749356053
 30
0.0
 11
37.711406779657
 21
170.445139186564
 31
0.0
  0
LINE
  5
2B8
330
1D
100
AcDbEntity
  8
0
100
AcDbLine
 10
37.711406779657
 20
170.445139186564
 30
0.0
 11
38.192
 21
170.068749356053
 31
0.0
  0
LINE
  5
2B9
330
1D
100
AcDbEntity
  8
0
100
AcDbLine
 10
37.082
 20
170.936749356053
 30
0.0
 11
37.286885057438
 21
170.776760850332
 31
0.0
  0
LINE
  5
2BA
330
1D
100
AcDbEntity
  8
0
100
AcDbLine
 10
37.082
 20
170.936749356053
 30
0.0
 11
37.286885057438
 21
170.776760850332
 31
0.0
  0
LINE
  5
2BB
330
1D
100
AcDbEntity
  8
0
100
AcDbLine
 10
37.27
 20
171.831749356053
 30
0.0
 11
37.396612903236
 21
171.732878388303
 31
0.0
  0
LINE
  5
2BC
330
1D
100
AcDbEntity
  8
0
100
AcDbLine
 10
37.27
 20
171.831749356053
 30
0.0
 11
37.396612903236
 21
171.732878388303
 31
0.0
  0
LINE
  5
2BD
330
1D
100
AcDbEntity
  8
0
100
AcDbLine
 10
37.226000000032
 20
171.866187952519
 30
0.0
 11
37.771
 21
171.439749356053
 31
0.0
  0
LINE
  5
2BE
330
1D
100
AcDbEntity
  8
0
100
AcDbLine
 10
37.338
 20
171.778749356053
 30
0.0
 11
37.793610470577
 21
172.361575737246
 31
0.0
  0
LINE
  5
2BF
330
1D
100
AcDbEntity
  8
0
100
AcDbLine
 10
37.338
 20
171.778749356053
 30
0.0
 11
37.867
 21
171.364749356053
 31
0.0
  0
LINE
  5
2C0
330
1D
100
AcDbEntity
  8
0
100
AcDbLine
 10
37.226000000032
 20
171.866187952519
 30
0.0
 11
37.771
 21
171.439749356053
 31
0.0
  0
LINE
  5
2C1
330
1D
100
AcDbEntity
  8
0
100
AcDbLine
 10
37.867
 20
171.364749356053
 30
0.0
 11
38.36138461916
 21
171.997577720027
 31
0.0
  0
LINE
  5
2C2
330
1D
100
AcDbEntity
  8
0
100
AcDbLine
 10
37.867
 20
171.364749356053
 30
0.0
 11
38.055
 21
171.218749356053
 31
0.0
  0
LINE
  5
2C3
330
1D
100
AcDbEntity
  8
0
100
AcDbLine
 10
38.055
 20
171.218749356053
 30
0.0
 11
38.562584353295
 21
171.868589275462
 31
0.0
  0
LINE
  5
2C4
330
1D
100
AcDbEntity
  8
0
100
AcDbLine
 10
36.985
 20
171.012749356053
 30
0.0
 11
37.47758015007
 21
171.643379994973
 31
0.0
  0
LINE
  5
2C5
330
1D
100
AcDbEntity
  8
0
100
AcDbLine
 10
36.985
 20
171.012749356053
 30
0.0
 11
37.521
 21
170.593749356053
 31
0.0
  0
LINE
  5
2C6
330
1D
100
AcDbEntity
  8
0
100
AcDbLine
 10
36.812
 20
171.147749356053
 30
0.0
 11
36.985
 21
171.012749356053
 31
0.0
  0
LINE
  5
2C7
330
1D
100
AcDbEntity
  8
0
100
AcDbLine
 10
36.812
 20
171.147749356053
 30
0.0
 11
37.304491013792
 21
171.778665951301
 31
0.0
  0
LINE
  5
2C8
330
1D
100
AcDbEntity
  8
0
100
AcDbLine
 10
36.812
 20
171.147749356053
 30
0.0
 11
37.082
 21
170.936749356053
 31
0.0
  0
LINE
  5
2C9
330
1D
100
AcDbEntity
  8
0
100
AcDbLine
 10
39.07
 20
170.398749356053
 30
0.0
 11
39.719760511353
 21
169.891504292205
 31
0.0
  0
LINE
  5
2CA
330
1D
100
AcDbEntity
  8
0
100
AcDbLine
 10
39.07
 20
170.398749356053
 30
0.0
 11
39.439507950257
 21
170.110287560444
 31
0.0
  0
LINE
  5
2CB
330
1D
100
AcDbEntity
  8
0
100
AcDbLine
 10
52.297
 20
174.659749356053
 30
0.0
 11
61.832
 21
167.208749356053
 31
0.0
  0
LINE
  5
2CC
330
1D
100
AcDbEntity
  8
0
100
AcDbLine
 10
23.609462686567
 20
181.74492846053
 30
0.0
 11
23.883
 21
181.530749356053
 31
0.0
  0
LINE
  5
2CD
330
1D
100
AcDbEntity
  8
0
100
AcDbLine
 10
23.609462686567
 20
181.74492846053
 30
0.0
 11
23.883
 21
181.530749356053
 31
0.0
  0
LINE
  5
2CE
330
1D
100
AcDbEntity
  8
0
100
AcDbLine
 10
26.489
 20
179.495749356053
 30
0.0
 11
26.711
 21
179.321749356053
 31
0.0
  0
LINE
  5
2CF
330
1D
100
AcDbEntity
  8
0
100
AcDbLine
 10
26.489
 20
179.495749356053
 30
0.0
 11
26.854772373832
 21
179.964330211888
 31
0.0
  0
LINE
  5
2D0
330
1D
100
AcDbEntity
  8
0
100
AcDbLine
 10
26.266
 20
179.670749356053
 30
0.0
 11
26.72815995965
 21
180.262434243469
 31
0.0
  0
LINE
  5
2D1
330
1D
100
AcDbEntity
  8
0
100
AcDbLine
 10
25.192278723412
 20
180.508355739026
 30
0.0
 11
25.374
 21
180.365749356053
 31
0.0
  0
LINE
  5
2D2
330
1D
100
AcDbEntity
  8
0
100
AcDbLine
 10
25.192278723412
 20
180.508355739026
 30
0.0
 11
25.374
 21
180.365749356053
 31
0.0
  0
LINE
  5
2D3
330
1D
100
AcDbEntity
  8
0
100
AcDbLine
 10
25.374
 20
180.365749356053
 30
0.0
 11
25.931
 21
179.931749356053
 31
0.0
  0
LINE
  5
2D4
330
1D
100
AcDbEntity
  8
0
100
AcDbLine
 10
24.928
 20
180.714749356053
 30
0.0
 11
25.296588296621
 21
181.186255164068
 31
0.0
  0
LINE
  5
2D5
330
1D
100
AcDbEntity
  8
0
100
AcDbLine
 10
24.928
 20
180.714749356053
 30
0.0
 11
25.485
 21
180.279749356053
 31
0.0
  0
LINE
  5
2D6
330
1D
100
AcDbEntity
  8
0
100
AcDbLine
 10
24.810000000005
 20
181.566869356049
 30
0.0
 11
25.067662921362
 21
181.365462839188
 31
0.0
  0
LINE
  5
2D7
330
1D
100
AcDbEntity
  8
0
100
AcDbLine
 10
24.810000000005
 20
181.566869356049
 30
0.0
 11
25.067662921362
 21
181.365462839189
 31
0.0
  0
LINE
  5
2D8
330
1D
100
AcDbEntity
  8
0
100
AcDbLine
 10
25.178
 20
181.725749356053
 30
0.0
 11
25.872249175597
 21
182.613847327433
 31
0.0
  0
LINE
  5
2D9
330
1D
100
AcDbEntity
  8
0
100
AcDbLine
 10
25.178
 20
181.725749356053
 30
0.0
 11
25.589
 21
181.404749356053
 31
0.0
  0
LINE
  5
2DA
330
1D
100
AcDbEntity
  8
0
100
AcDbLine
 10
25.098
 20
181.341749356053
 30
0.0
 11
25.314603931203
 21
181.619058694457
 31
0.0
  0
LINE
  5
2DB
330
1D
100
AcDbEntity
  8
0
100
AcDbLine
 10
25.098
 20
181.341749356053
 30
0.0
 11
25.545
 21
180.991749356053
 31
0.0
  0
LINE
  5
2DC
330
1D
100
AcDbEntity
  8
0
100
AcDbLine
 10
24.498
 20
181.810749356053
 30
0.0
 11
24.714538391403
 21
182.087974786476
 31
0.0
  0
LINE
  5
2DD
330
1D
100
AcDbEntity
  8
0
100
AcDbLine
 10
24.498
 20
181.810749356053
 30
0.0
 11
25.098
 21
181.341749356053
 31
0.0
  0
LINE
  5
2DE
330
1D
100
AcDbEntity
  8
0
100
AcDbLine
 10
24.564
 20
181.758749356053
 30
0.0
 11
24.810000000005
 21
181.566869356049
 31
0.0
  0
LINE
  5
2DF
330
1D
100
AcDbEntity
  8
0
100
AcDbLine
 10
24.564
 20
181.758749356053
 30
0.0
 11
24.810000000005
 21
181.566869356049
 31
0.0
  0
LINE
  5
2E0
330
1D
100
AcDbEntity
  8
0
100
AcDbLine
 10
24.071
 20
181.696749356053
 30
0.0
 11
24.288250445551
 21
181.974660640297
 31
0.0
  0
LINE
  5
2E1
330
1D
100
AcDbEntity
  8
0
100
AcDbLine
 10
24.705
 20
180.888749356053
 30
0.0
 11
25.073867791163
 21
181.360612699294
 31
0.0
  0
LINE
  5
2E2
330
1D
100
AcDbEntity
  8
0
100
AcDbLine
 10
24.705
 20
180.888749356053
 30
0.0
 11
24.928
 21
180.714749356053
 31
0.0
  0
LINE
  5
2E3
330
1D
100
AcDbEntity
  8
0
100
AcDbLine
 10
25.931
 20
179.931749356053
 30
0.0
 11
26.489
 21
179.495749356053
 31
0.0
  0
LINE
  5
2E4
330
1D
100
AcDbEntity
  8
0
100
AcDbLine
 10
25.564
 20
180.977749356053
 30
0.0
 11
26.108582769352
 21
181.674956865801
 31
0.0
  0
LINE
  5
2E5
330
1D
100
AcDbEntity
  8
0
100
AcDbLine
 10
25.589
 20
181.404749356053
 30
0.0
 11
26.282841772177
 21
182.293047189482
 31
0.0
  0
LINE
  5
2E6
330
1D
100
AcDbEntity
  8
0
100
AcDbLine
 10
25.545
 20
180.991749356053
 30
0.0
 11
26.090811582424
 21
181.690973454739
 31
0.0
  0
LINE
  5
2E7
330
1D
100
AcDbEntity
  8
0
100
AcDbLine
 10
25.485
 20
180.279749356053
 30
0.0
 11
26.043
 21
179.844749356053
 31
0.0
  0
LINE
  5
2E8
330
1D
100
AcDbEntity
  8
0
100
AcDbLine
 10
25.485
 20
180.279749356053
 30
0.0
 11
25.976775920238
 21
180.908839331942
 31
0.0
  0
LINE
  5
2E9
330
1D
100
AcDbEntity
  8
0
100
AcDbLine
 10
26.043
 20
179.844749356053
 30
0.0
 11
26.266
 21
179.670749356053
 31
0.0
  0
LINE
  5
2EA
330
1D
100
AcDbEntity
  8
0
100
AcDbLine
 10
26.043
 20
179.844749356053
 30
0.0
 11
26.513674659493
 21
180.446952921205
 31
0.0
  0
LINE
  5
2EB
330
1D
100
AcDbEntity
  8
0
100
AcDbLine
 10
23.902
 20
181.516749356053
 30
0.0
 11
24.053470351127
 21
181.71051337665
 31
0.0
  0
LINE
  5
2EC
330
1D
100
AcDbEntity
  8
0
100
AcDbLine
 10
22.306
 20
182.762749356053
 30
0.0
 11
22.487999999995
 21
182.620968106057
 31
0.0
  0
LINE
  5
2ED
330
1D
100
AcDbEntity
  8
0
100
AcDbLine
 10
22.306
 20
182.762749356053
 30
0.0
 11
22.795210526331
 21
182.380959882357
 31
0.0
  0
LINE
  5
2EE
330
1D
100
AcDbEntity
  8
0
100
AcDbLine
 10
22.288
 20
182.777749356053
 30
0.0
 11
22.775820091698
 21
183.402285882874
 31
0.0
  0
LINE
  5
2EF
330
1D
100
AcDbEntity
  8
0
100
AcDbLine
 10
22.288
 20
182.777749356053
 30
0.0
 11
22.436271947528
 21
182.662097236981
 31
0.0
  0
LINE
  5
2F0
330
1D
100
AcDbEntity
  8
0
100
AcDbLine
 10
23.362
 20
182.250749356053
 30
0.0
 11
23.874081218298
 21
182.906346431632
 31
0.0
  0
LINE
  5
2F1
330
1D
100
AcDbEntity
  8
0
100
AcDbLine
 10
23.362
 20
182.250749356053
 30
0.0
 11
23.898
 21
181.832749356053
 31
0.0
  0
LINE
  5
2F2
330
1D
100
AcDbEntity
  8
0
100
AcDbLine
 10
24.108
 20
182.561749356053
 30
0.0
 11
24.802250046558
 21
183.449848441585
 31
0.0
  0
LINE
  5
2F3
330
1D
100
AcDbEntity
  8
0
100
AcDbLine
 10
24.108
 20
182.561749356053
 30
0.0
 11
24.519
 21
182.240749356053
 31
0.0
  0
LINE
  5
2F4
330
1D
100
AcDbEntity
  8
0
100
AcDbLine
 10
24.098
 20
182.123749356053
 30
0.0
 11
24.314363415561
 21
182.400575009593
 31
0.0
  0
LINE
  5
2F5
330
1D
100
AcDbEntity
  8
0
100
AcDbLine
 10
24.098
 20
182.123749356053
 30
0.0
 11
24.498
 21
181.810749356053
 31
0.0
  0
LINE
  5
2F6
330
1D
100
AcDbEntity
  8
0
100
AcDbLine
 10
24.288250445551
 20
181.974660640297
 30
0.0
 11
24.564
 21
181.758749356053
 31
0.0
  0
LINE
  5
2F7
330
1D
100
AcDbEntity
  8
0
100
AcDbLine
 10
24.579
 20
182.194749356053
 30
0.0
 11
25.272689803846
 21
183.082289113207
 31
0.0
  0
LINE
  5
2F8
330
1D
100
AcDbEntity
  8
0
100
AcDbLine
 10
24.579
 20
182.194749356053
 30
0.0
 11
25.178
 21
181.725749356053
 31
0.0
  0
LINE
  5
2F9
330
1D
100
AcDbEntity
  8
0
100
AcDbLine
 10
24.142
 20
182.535749356053
 30
0.0
 11
24.835626255845
 21
183.423771272554
 31
0.0
  0
LINE
  5
2FA
330
1D
100
AcDbEntity
  8
0
100
AcDbLine
 10
24.142
 20
182.535749356053
 30
0.0
 11
24.579
 21
182.194749356053
 31
0.0
  0
LINE
  5
2FB
330
1D
100
AcDbEntity
  8
0
100
AcDbLine
 10
24.519
 20
182.240749356053
 30
0.0
 11
25.105000000024
 21
181.782906284248
 31
0.0
  0
LINE
  5
2FC
330
1D
100
AcDbEntity
  8
0
100
AcDbLine
 10
24.519
 20
182.240749356053
 30
0.0
 11
25.105000000025
 21
181.782906284248
 31
0.0
  0
LINE
  5
2FD
330
1D
100
AcDbEntity
  8
0
100
AcDbLine
 10
24.117
 20
182.108749356053
 30
0.0
 11
24.564
 21
181.758749356053
 31
0.0
  0
LINE
  5
2FE
330
1D
100
AcDbEntity
  8
0
100
AcDbLine
 10
23.867450777206
 20
181.856573190247
 30
0.0
 11
24.071
 21
181.696749356053
 31
0.0
  0
LINE
  5
2FF
330
1D
100
AcDbEntity
  8
0
100
AcDbLine
 10
23.867450777206
 20
181.856573190247
 30
0.0
 11
24.071
 21
181.696749356053
 31
0.0
  0
LINE
  5
300
330
1D
100
AcDbEntity
  8
0
100
AcDbLine
 10
23.898
 20
181.832749356053
 30
0.0
 11
24.071
 21
181.696749356053
 31
0.0
  0
LINE
  5
301
330
1D
100
AcDbEntity
  8
0
100
AcDbLine
 10
23.898
 20
181.832749356053
 30
0.0
 11
24.114885269268
 21
182.110418880315
 31
0.0
  0
LINE
  5
302
330
1D
100
AcDbEntity
  8
0
100
AcDbLine
 10
22.903
 20
182.296749356053
 30
0.0
 11
23.054719677458
 21
182.491113232049
 31
0.0
  0
LINE
  5
303
330
1D
100
AcDbEntity
  8
0
100
AcDbLine
 10
22.903
 20
182.296749356053
 30
0.0
 11
23.502
 21
181.828749356053
 31
0.0
  0
LINE
  5
304
330
1D
100
AcDbEntity
  8
0
100
AcDbLine
 10
22.517
 20
182.910749356053
 30
0.0
 11
23.028927680353
 21
183.566565726416
 31
0.0
  0
LINE
  5
305
330
1D
100
AcDbEntity
  8
0
100
AcDbLine
 10
22.517
 20
182.910749356053
 30
0.0
 11
22.69
 21
182.775749356053
 31
0.0
  0
LINE
  5
306
330
1D
100
AcDbEntity
  8
0
100
AcDbLine
 10
22.517
 20
182.910749356053
 30
0.0
 11
22.788
 21
182.699749356053
 31
0.0
  0
LINE
  5
307
330
1D
100
AcDbEntity
  8
0
100
AcDbLine
 10
22.788
 20
182.699749356053
 30
0.0
 11
23.2995880023
 21
183.355130574271
 31
0.0
  0
LINE
  5
308
330
1D
100
AcDbEntity
  8
0
100
AcDbLine
 10
22.788
 20
182.699749356053
 30
0.0
 11
23.362
 21
182.250749356053
 31
0.0
  0
LINE
  5
309
330
1D
100
AcDbEntity
  8
0
100
AcDbLine
 10
22.69
 20
182.775749356053
 30
0.0
 11
22.966786885244
 21
182.559896897038
 31
0.0
  0
LINE
  5
30A
330
1D
100
AcDbEntity
  8
0
100
AcDbLine
 10
22.69
 20
182.775749356053
 30
0.0
 11
22.966786885244
 21
182.559896897038
 31
0.0
  0
LINE
  5
30B
330
1D
100
AcDbEntity
  8
0
100
AcDbLine
 10
22.455
 20
182.646749356053
 30
0.0
 11
22.606596853473
 21
182.840832736291
 31
0.0
  0
LINE
  5
30C
330
1D
100
AcDbEntity
  8
0
100
AcDbLine
 10
22.455
 20
182.646749356053
 30
0.0
 11
22.903
 21
182.296749356053
 31
0.0
  0
LINE
  5
30D
330
1D
100
AcDbEntity
  8
0
100
AcDbLine
 10
22.436
 20
182.661749356053
 30
0.0
 11
22.58758914545
 21
182.855665340817
 31
0.0
  0
LINE
  5
30E
330
1D
100
AcDbEntity
  8
0
100
AcDbLine
 10
23.502
 20
181.828749356053
 30
0.0
 11
23.902
 21
181.516749356053
 31
0.0
  0
LINE
  5
30F
330
1D
100
AcDbEntity
  8
0
100
AcDbLine
 10
23.502
 20
181.828749356053
 30
0.0
 11
23.653923277871
 21
182.023092769952
 31
0.0
  0
LINE
  5
310
330
1D
100
AcDbEntity
  8
0
100
AcDbLine
 10
29.752
 20
176.663749356053
 30
0.0
 11
29.894915923565
 21
176.552544260513
 31
0.0
  0
LINE
  5
311
330
1D
100
AcDbEntity
  8
0
100
AcDbLine
 10
29.752
 20
176.663749356053
 30
0.0
 11
29.894915923565
 21
176.552544260513
 31
0.0
  0
LINE
  5
312
330
1D
100
AcDbEntity
  8
0
100
AcDbLine
 10
29.517631578934
 20
176.846749356064
 30
0.0
 11
29.752
 21
176.663749356053
 31
0.0
  0
LINE
  5
313
330
1D
100
AcDbEntity
  8
0
100
AcDbLine
 10
29.517631578934
 20
176.846749356064
 30
0.0
 11
29.752
 21
176.663749356053
 31
0.0
  0
LINE
  5
314
330
1D
100
AcDbEntity
  8
0
100
AcDbLine
 10
29.552
 20
176.819749356053
 30
0.0
 11
30.328
 21
176.212749356053
 31
0.0
  0
LINE
  5
315
330
1D
100
AcDbEntity
  8
0
100
AcDbLine
 10
29.415
 20
176.926749356053
 30
0.0
 11
29.860377643505
 21
176.579583192911
 31
0.0
  0
LINE
  5
316
330
1D
100
AcDbEntity
  8
0
100
AcDbLine
 10
29.415
 20
176.926749356053
 30
0.0
 11
29.860377643505
 21
176.579583192911
 31
0.0
  0
LINE
  5
317
330
1D
100
AcDbEntity
  8
0
100
AcDbLine
 10
29.689
 20
176.713749356053
 30
0.0
 11
30.191
 21
176.320749356053
 31
0.0
  0
LINE
  5
318
330
1D
100
AcDbEntity
  8
0
100
AcDbLine
 10
29.689
 20
176.713749356053
 30
0.0
 11
30.181098253618
 21
177.343363287368
 31
0.0
  0
LINE
  5
319
330
1D
100
AcDbEntity
  8
0
100
AcDbLine
 10
31.18
 20
175.547749356053
 30
0.0
 11
31.67247640031
 21
176.178647230374
 31
0.0
  0
LINE
  5
31A
330
1D
100
AcDbEntity
  8
0
100
AcDbLine
 10
31.18
 20
175.547749356053
 30
0.0
 11
31.755
 21
175.098749356053
 31
0.0
  0
LINE
  5
31B
330
1D
100
AcDbEntity
  8
0
100
AcDbLine
 10
30.127019607835
 20
176.370837591353
 30
0.0
 11
30.328
 21
176.212749356053
 31
0.0
  0
LINE
  5
31C
330
1D
100
AcDbEntity
  8
0
100
AcDbLine
 10
30.127019607835
 20
176.370837591353
 30
0.0
 11
30.328
 21
176.212749356053
 31
0.0
  0
LINE
  5
31D
330
1D
100
AcDbEntity
  8
0
100
AcDbLine
 10
30.328
 20
176.212749356053
 30
0.0
 11
30.82100448892
 21
176.84381110851
 31
0.0
  0
LINE
  5
31E
330
1D
100
AcDbEntity
  8
0
100
AcDbLine
 10
30.328
 20
176.212749356053
 30
0.0
 11
30.82100448892
 21
176.84381110851
 31
0.0
  0
LINE
  5
31F
330
1D
100
AcDbEntity
  8
0
100
AcDbLine
 10
30.191
 20
176.320749356053
 30
0.0
 11
30.683495465741
 21
176.951159542314
 31
0.0
  0
LINE
  5
320
330
1D
100
AcDbEntity
  8
0
100
AcDbLine
 10
30.191
 20
176.320749356053
 30
0.0
 11
30.328
 21
176.212749356053
 31
0.0
  0
LINE
  5
321
330
1D
100
AcDbEntity
  8
0
100
AcDbLine
 10
30.909
 20
175.758749356053
 30
0.0
 11
31.402119042399
 21
176.389957740682
 31
0.0
  0
LINE
  5
322
330
1D
100
AcDbEntity
  8
0
100
AcDbLine
 10
30.909
 20
175.758749356053
 30
0.0
 11
31.18
 21
175.547749356053
 31
0.0
  0
LINE
  5
323
330
1D
100
AcDbEntity
  8
0
100
AcDbLine
 10
29.795
 20
176.911749356053
 30
0.0
 11
30.267509946928
 21
177.517068760038
 31
0.0
  0
LINE
  5
324
330
1D
100
AcDbEntity
  8
0
100
AcDbLine
 10
28.528
 20
177.619749356053
 30
0.0
 11
28.665
 21
177.512749356053
 31
0.0
  0
LINE
  5
325
330
1D
100
AcDbEntity
  8
0
100
AcDbLine
 10
28.528
 20
177.619749356053
 30
0.0
 11
28.664993582686
 21
177.794994393645
 31
0.0
  0
LINE
  5
326
330
1D
100
AcDbEntity
  8
0
100
AcDbLine
 10
28.528
 20
177.619749356053
 30
0.0
 11
28.776132703136
 21
177.425919250564
 31
0.0
  0
LINE
  5
327
330
1D
100
AcDbEntity
  8
0
100
AcDbLine
 10
28.665
 20
177.512749356053
 30
0.0
 11
28.801906155399
 21
177.687882554842
 31
0.0
  0
LINE
  5
328
330
1D
100
AcDbEntity
  8
0
100
AcDbLine
 10
28.665
 20
177.512749356053
 30
0.0
 11
28.776133079934
 21
177.425919732963
 31
0.0
  0
LINE
  5
329
330
1D
100
AcDbEntity
  8
0
100
AcDbLine
 10
29.105
 20
177.169749356053
 30
0.0
 11
29.241740026339
 21
177.344812135509
 31
0.0
  0
LINE
  5
32A
330
1D
100
AcDbEntity
  8
0
100
AcDbLine
 10
29.105
 20
177.169749356053
 30
0.0
 11
29.689
 21
176.713749356053
 31
0.0
  0
LINE
  5
32B
330
1D
100
AcDbEntity
  8
0
100
AcDbLine
 10
29.733547486006
 20
176.959989579538
 30
0.0
 11
29.795
 21
176.911749356053
 31
0.0
  0
LINE
  5
32C
330
1D
100
AcDbEntity
  8
0
100
AcDbLine
 10
28.776
 20
177.425749356053
 30
0.0
 11
28.913040959238
 21
177.601197407847
 31
0.0
  0
LINE
  5
32D
330
1D
100
AcDbEntity
  8
0
100
AcDbLine
 10
28.776
 20
177.425749356053
 30
0.0
 11
28.913
 21
177.318749356053
 31
0.0
  0
LINE
  5
32E
330
1D
100
AcDbEntity
  8
0
100
AcDbLine
 10
28.776
 20
177.425749356053
 30
0.0
 11
29.105
 21
177.169749356053
 31
0.0
  0
LINE
  5
32F
330
1D
100
AcDbEntity
  8
0
100
AcDbLine
 10
28.913
 20
177.318749356053
 30
0.0
 11
29.415
 21
176.926749356053
 31
0.0
  0
LINE
  5
330
330
1D
100
AcDbEntity
  8
0
100
AcDbLine
 10
29.477
 20
177.473749356053
 30
0.0
 11
29.910825471453
 21
178.028355782627
 31
0.0
  0
LINE
  5
331
330
1D
100
AcDbEntity
  8
0
100
AcDbLine
 10
29.376485436887
 20
177.998865860913
 30
0.0
 11
29.503
 21
177.899749356053
 31
0.0
  0
LINE
  5
332
330
1D
100
AcDbEntity
  8
0
100
AcDbLine
 10
29.376485436887
 20
177.998865860913
 30
0.0
 11
29.503
 21
177.899749356053
 31
0.0
  0
LINE
  5
333
330
1D
100
AcDbEntity
  8
0
100
AcDbLine
 10
29.589
 20
177.832749356053
 30
0.0
 11
29.805831990792
 21
178.110350670016
 31
0.0
  0
LINE
  5
334
330
1D
100
AcDbEntity
  8
0
100
AcDbLine
 10
29.503
 20
177.899749356053
 30
0.0
 11
29.589
 21
177.832749356053
 31
0.0
  0
LINE
  5
335
330
1D
100
AcDbEntity
  8
0
100
AcDbLine
 10
29.067
 20
177.794749356053
 30
0.0
 11
29.283403029804
 21
178.071625693942
 31
0.0
  0
LINE
  5
336
330
1D
100
AcDbEntity
  8
0
100
AcDbLine
 10
29.067
 20
177.794749356053
 30
0.0
 11
29.477
 21
177.473749356053
 31
0.0
  0
LINE
  5
337
330
1D
100
AcDbEntity
  8
0
100
AcDbLine
 10
29.006
 20
177.841749356053
 30
0.0
 11
29.366365079387
 21
177.560368403655
 31
0.0
  0
LINE
  5
338
330
1D
100
AcDbEntity
  8
0
100
AcDbLine
 10
28.968189189194
 20
177.558181788481
 30
0.0
 11
29.062
 21
177.484749356053
 31
0.0
  0
LINE
  5
339
330
1D
100
AcDbEntity
  8
0
100
AcDbLine
 10
28.968189189194
 20
177.558181788481
 30
0.0
 11
29.062
 21
177.484749356053
 31
0.0
  0
LINE
  5
33A
330
1D
100
AcDbEntity
  8
0
100
AcDbLine
 10
29.329
 20
177.276749356053
 30
0.0
 11
29.819863377219
 21
177.905182079446
 31
0.0
  0
LINE
  5
33B
330
1D
100
AcDbEntity
  8
0
100
AcDbLine
 10
29.329
 20
177.276749356053
 30
0.0
 11
29.776
 21
176.926749356053
 31
0.0
  0
LINE
  5
33C
330
1D
100
AcDbEntity
  8
0
100
AcDbLine
 10
28.729
 20
177.744749356053
 30
0.0
 11
28.880970801542
 21
177.939434940157
 31
0.0
  0
LINE
  5
33D
330
1D
100
AcDbEntity
  8
0
100
AcDbLine
 10
28.729
 20
177.744749356053
 30
0.0
 11
29.329
 21
177.276749356053
 31
0.0
  0
LINE
  5
33E
330
1D
100
AcDbEntity
  8
0
100
AcDbLine
 10
28.729
 20
177.744749356053
 30
0.0
 11
29.062
 21
177.484749356053
 31
0.0
  0
LINE
  5
33F
330
1D
100
AcDbEntity
  8
0
100
AcDbLine
 10
28.03
 20
178.604749356053
 30
0.0
 11
28.24647359051
 21
178.881891824489
 31
0.0
  0
LINE
  5
340
330
1D
100
AcDbEntity
  8
0
100
AcDbLine
 10
28.03
 20
178.604749356053
 30
0.0
 11
28.467
 21
178.262749356053
 31
0.0
  0
LINE
  5
341
330
1D
100
AcDbEntity
  8
0
100
AcDbLine
 10
26.711
 20
179.321749356053
 30
0.0
 11
27.071568036089
 21
179.782995480141
 31
0.0
  0
LINE
  5
342
330
1D
100
AcDbEntity
  8
0
100
AcDbLine
 10
28.152
 20
178.955749356053
 30
0.0
 11
28.800860219639
 21
179.786459109222
 31
0.0
  0
LINE
  5
343
330
1D
100
AcDbEntity
  8
0
100
AcDbLine
 10
28.152
 20
178.955749356053
 30
0.0
 11
28.624
 21
178.586749356053
 31
0.0
  0
LINE
  5
344
330
1D
100
AcDbEntity
  8
0
100
AcDbLine
 10
28.066
 20
179.022749356053
 30
0.0
 11
28.731041992373
 21
179.872945084939
 31
0.0
  0
LINE
  5
345
330
1D
100
AcDbEntity
  8
0
100
AcDbLine
 10
28.066
 20
179.022749356053
 30
0.0
 11
28.171463917533
 21
178.940532861202
 31
0.0
  0
LINE
  5
346
330
1D
100
AcDbEntity
  8
0
100
AcDbLine
 10
28.066
 20
179.022749356053
 30
0.0
 11
28.152
 21
178.955749356053
 31
0.0
  0
LINE
  5
347
330
1D
100
AcDbEntity
  8
0
100
AcDbLine
 10
28.066
 20
179.022749356053
 30
0.0
 11
28.171463917533
 21
178.940532861202
 31
0.0
  0
LINE
  5
348
330
1D
100
AcDbEntity
  8
0
100
AcDbLine
 10
27.996
 20
178.630749356053
 30
0.0
 11
28.212864401575
 21
178.908166804821
 31
0.0
  0
LINE
  5
349
330
1D
100
AcDbEntity
  8
0
100
AcDbLine
 10
27.996
 20
178.630749356053
 30
0.0
 11
28.379599999999
 21
178.331149356054
 31
0.0
  0
LINE
  5
34A
330
1D
100
AcDbEntity
  8
0
100
AcDbLine
 10
27.996
 20
178.630749356053
 30
0.0
 11
28.379599999999
 21
178.331149356054
 31
0.0
  0
LINE
  5
34B
330
1D
100
AcDbEntity
  8
0
100
AcDbLine
 10
27.996
 20
178.630749356053
 30
0.0
 11
28.199881931194
 21
178.891559358944
 31
0.0
  0
LINE
  5
34C
330
1D
100
AcDbEntity
  8
0
100
AcDbLine
 10
29.218
 20
178.122749356053
 30
0.0
 11
29.434688952849
 21
178.400167544266
 31
0.0
  0
LINE
  5
34D
330
1D
100
AcDbEntity
  8
0
100
AcDbLine
 10
29.218
 20
178.122749356053
 30
0.0
 11
29.589
 21
177.832749356053
 31
0.0
  0
LINE
  5
34E
330
1D
100
AcDbEntity
  8
0
100
AcDbLine
 10
28.560589743593
 20
178.18974935605
 30
0.0
 11
29.006
 21
177.841749356053
 31
0.0
  0
LINE
  5
34F
330
1D
100
AcDbEntity
  8
0
100
AcDbLine
 10
28.379599999999
 20
178.331149356054
 30
0.0
 11
28.467
 21
178.262749356053
 31
0.0
  0
LINE
  5
350
330
1D
100
AcDbEntity
  8
0
100
AcDbLine
 10
28.379599999999
 20
178.331149356054
 30
0.0
 11
28.467
 21
178.262749356053
 31
0.0
  0
LINE
  5
351
330
1D
100
AcDbEntity
  8
0
100
AcDbLine
 10
29.384
 20
178.439749356053
 30
0.0
 11
30.077949176324
 21
179.32818469471
 31
0.0
  0
LINE
  5
352
330
1D
100
AcDbEntity
  8
0
100
AcDbLine
 10
29.384
 20
178.439749356053
 30
0.0
 11
29.886
 21
178.047749356053
 31
0.0
  0
LINE
  5
353
330
1D
100
AcDbEntity
  8
0
100
AcDbLine
 10
29.247
 20
178.546749356053
 30
0.0
 11
29.940960394728
 21
179.435199057183
 31
0.0
  0
LINE
  5
354
330
1D
100
AcDbEntity
  8
0
100
AcDbLine
 10
29.247
 20
178.546749356053
 30
0.0
 11
29.384
 21
178.439749356053
 31
0.0
  0
LINE
  5
355
330
1D
100
AcDbEntity
  8
0
100
AcDbLine
 10
28.624
 20
178.586749356053
 30
0.0
 11
29.187056703094
 21
179.308065701121
 31
0.0
  0
LINE
  5
356
330
1D
100
AcDbEntity
  8
0
100
AcDbLine
 10
28.624
 20
178.586749356053
 30
0.0
 11
29.218
 21
178.122749356053
 31
0.0
  0
LINE
  5
357
330
1D
100
AcDbEntity
  8
0
100
AcDbLine
 10
28.467
 20
178.262749356053
 30
0.0
 11
28.683862368448
 21
178.539988179353
 31
0.0
  0
LINE
  5
358
330
1D
100
AcDbEntity
  8
0
100
AcDbLine
 10
28.467
 20
178.262749356053
 30
0.0
 11
29.067
 21
177.794749356053
 31
0.0
  0
LINE
  5
359
330
1D
100
AcDbEntity
  8
0
100
AcDbLine
 10
28.560589743593
 20
178.189749356051
 30
0.0
 11
29.006
 21
177.841749356053
 31
0.0
  0
LINE
  5
35A
330
1D
100
AcDbEntity
  8
0
100
AcDbLine
 10
28.329
 20
178.058749356053
 30
0.0
 11
28.480322130973
 21
178.252358093894
 31
0.0
  0
LINE
  5
35B
330
1D
100
AcDbEntity
  8
0
100
AcDbLine
 10
28.329
 20
178.058749356053
 30
0.0
 11
28.729
 21
177.744749356053
 31
0.0
  0
LINE
  5
35C
330
1D
100
AcDbEntity
  8
0
100
AcDbLine
 10
28.348
 20
178.043749356053
 30
0.0
 11
28.390452513973
 21
178.010509132584
 31
0.0
  0
LINE
  5
35D
330
1D
100
AcDbEntity
  8
0
100
AcDbLine
 10
30.471
 20
177.590749356053
 30
0.0
 11
31.164601004837
 21
178.479302389869
 31
0.0
  0
LINE
  5
35E
330
1D
100
AcDbEntity
  8
0
100
AcDbLine
 10
30.471
 20
177.590749356053
 30
0.0
 11
30.799
 21
177.333749356053
 31
0.0
  0
LINE
  5
35F
330
1D
100
AcDbEntity
  8
0
100
AcDbLine
 10
29.886
 20
178.047749356053
 30
0.0
 11
30.580222616915
 21
178.935813353015
 31
0.0
  0
LINE
  5
360
330
1D
100
AcDbEntity
  8
0
100
AcDbLine
 10
29.886
 20
178.047749356053
 30
0.0
 11
30.471
 21
177.590749356053
 31
0.0
  0
LINE
  5
361
330
1D
100
AcDbEntity
  8
0
100
AcDbLine
 10
30.799
 20
177.333749356053
 30
0.0
 11
31.493597730818
 21
178.222293206516
 31
0.0
  0
LINE
  5
362
330
1D
100
AcDbEntity
  8
0
100
AcDbLine
 10
29.733547486006
 20
176.959989579538
 30
0.0
 11
29.795
 21
176.911749356053
 31
0.0
  0
LINE
  5
363
330
1D
100
AcDbEntity
  8
0
100
AcDbLine
 10
29.776
 20
176.926749356053
 30
0.0
 11
30.249603968218
 21
177.532593393319
 31
0.0
  0
LINE
  5
364
330
1D
100
AcDbEntity
  8
0
100
AcDbLine
 10
32.948
 20
175.208749356053
 30
0.0
 11
33.403297450567
 21
175.791648447924
 31
0.0
  0
LINE
  5
365
330
1D
100
AcDbEntity
  8
0
100
AcDbLine
 10
32.948
 20
175.208749356053
 30
0.0
 11
33.518
 21
174.763749356053
 31
0.0
  0
LINE
  5
366
330
1D
100
AcDbEntity
  8
0
100
AcDbLine
 10
32.419
 20
175.621749356053
 30
0.0
 11
32.913037866738
 21
176.254246251243
 31
0.0
  0
LINE
  5
367
330
1D
100
AcDbEntity
  8
0
100
AcDbLine
 10
32.419
 20
175.621749356053
 30
0.0
 11
32.948
 21
175.208749356053
 31
0.0
  0
LINE
  5
368
330
1D
100
AcDbEntity
  8
0
100
AcDbLine
 10
32.462479452045
 20
175.587804150581
 30
0.0
 11
32.515
 21
175.546749356053
 31
0.0
  0
LINE
  5
369
330
1D
100
AcDbEntity
  8
0
100
AcDbLine
 10
32.515
 20
175.546749356053
 30
0.0
 11
33.085
 21
175.101749356053
 31
0.0
  0
LINE
  5
36A
330
1D
100
AcDbEntity
  8
0
100
AcDbLine
 10
32.231
 20
175.768749356053
 30
0.0
 11
32.73894192716
 21
176.418519223913
 31
0.0
  0
LINE
  5
36B
330
1D
100
AcDbEntity
  8
0
100
AcDbLine
 10
32.231
 20
175.768749356053
 30
0.0
 11
32.419
 21
175.621749356053
 31
0.0
  0
LINE
  5
36C
330
1D
100
AcDbEntity
  8
0
100
AcDbLine
 10
31.19
 20
176.555749356053
 30
0.0
 11
33.081
 21
175.077749356053
 31
0.0
  0
LINE
  5
36D
330
1D
100
AcDbEntity
  8
0
100
AcDbLine
 10
31.19
 20
176.555749356053
 30
0.0
 11
31.402119042399
 21
176.389957740682
 31
0.0
  0
LINE
  5
36E
330
1D
100
AcDbEntity
  8
0
100
AcDbLine
 10
42.21
 20
182.538749356053
 30
0.0
 11
52.297
 21
174.659749356053
 31
0.0
  0
LINE
  5
36F
330
1D
100
AcDbEntity
  8
0
100
AcDbLine
 10
27.25
 20
179.633749356053
 30
0.0
 11
27.565
 21
179.386749356053
 31
0.0
  0
LINE
  5
370
330
1D
100
AcDbEntity
  8
0
100
AcDbLine
 10
26.637357207482
 20
180.146183116404
 30
0.0
 11
27.25
 21
179.633749356053
 31
0.0
  0
LINE
  5
371
330
1D
100
AcDbEntity
  8
0
100
AcDbLine
 10
-0.232
 20
206.180749356053
 30
0.0
 11
0.125
 21
209.074749356053
 31
0.0
  0
LINE
  5
372
330
1D
100
AcDbEntity
  8
0
100
AcDbLine
 10
-0.232
 20
206.180749356053
 30
0.0
 11
0.815
 21
203.459749356053
 31
0.0
  0
LINE
  5
373
330
1D
100
AcDbEntity
  8
0
100
AcDbLine
 10
8.062
 20
195.098749356053
 30
0.0
 11
8.713731048228
 21
195.931928252935
 31
0.0
  0
LINE
  5
374
330
1D
100
AcDbEntity
  8
0
100
AcDbLine
 10
8.062
 20
195.098749356053
 30
0.0
 11
8.543
 21
194.722749356053
 31
0.0
  0
LINE
  5
375
330
1D
100
AcDbEntity
  8
0
100
AcDbLine
 10
7.991
 20
195.153749356053
 30
0.0
 11
8.645753285912
 21
195.991323364654
 31
0.0
  0
LINE
  5
376
330
1D
100
AcDbEntity
  8
0
100
AcDbLine
 10
7.991
 20
195.153749356053
 30
0.0
 11
8.351
 21
194.872749356053
 31
0.0
  0
LINE
  5
377
330
1D
100
AcDbEntity
  8
0
100
AcDbLine
 10
7.991
 20
195.153749356053
 30
0.0
 11
8.062
 21
195.098749356053
 31
0.0
  0
LINE
  5
378
330
1D
100
AcDbEntity
  8
0
100
AcDbLine
 10
7.991
 20
195.153749356053
 30
0.0
 11
8.645753285912
 21
195.991323364654
 31
0.0
  0
LINE
  5
379
330
1D
100
AcDbEntity
  8
0
100
AcDbLine
 10
7.991
 20
195.153749356053
 30
0.0
 11
8.432436771845
 21
195.718444447309
 31
0.0
  0
LINE
  5
37A
330
1D
100
AcDbEntity
  8
0
100
AcDbLine
 10
8.543
 20
194.722749356053
 30
0.0
 11
9.17361837234
 21
195.530104802689
 31
0.0
  0
LINE
  5
37B
330
1D
100
AcDbEntity
  8
0
100
AcDbLine
 10
8.543
 20
194.722749356053
 30
0.0
 11
9.139
 21
194.256749356053
 31
0.0
  0
LINE
  5
37C
330
1D
100
AcDbEntity
  8
0
100
AcDbLine
 10
8.351
 20
194.872749356053
 30
0.0
 11
8.947
 21
194.406749356053
 31
0.0
  0
LINE
  5
37D
330
1D
100
AcDbEntity
  8
0
100
AcDbLine
 10
8.947
 20
194.406749356053
 30
0.0
 11
9.138999999868
 21
194.256749356156
 31
0.0
  0
LINE
  5
37E
330
1D
100
AcDbEntity
  8
0
100
AcDbLine
 10
8.947
 20
194.406749356053
 30
0.0
 11
9.138999999868
 21
194.256749356156
 31
0.0
  0
LINE
  5
37F
330
1D
100
AcDbEntity
  8
0
100
AcDbLine
 10
7.221
 20
195.755749356053
 30
0.0
 11
7.770694290434
 21
196.458483534164
 31
0.0
  0
LINE
  5
380
330
1D
100
AcDbEntity
  8
0
100
AcDbLine
 10
6.81657599999
 20
196.071613356061
 30
0.0
 11
7.188
 21
195.780749356053
 31
0.0
  0
LINE
  5
381
330
1D
100
AcDbEntity
  8
0
100
AcDbLine
 10
6.81657599999
 20
196.071613356061
 30
0.0
 11
7.188
 21
195.780749356053
 31
0.0
  0
LINE
  5
382
330
1D
100
AcDbEntity
  8
0
100
AcDbLine
 10
7.188
 20
195.780749356053
 30
0.0
 11
7.738786420393
 21
196.486346581853
 31
0.0
  0
LINE
  5
383
330
1D
100
AcDbEntity
  8
0
100
AcDbLine
 10
7.188
 20
195.780749356053
 30
0.0
 11
7.738786420393
 21
196.486346581853
 31
0.0
  0
LINE
  5
384
330
1D
100
AcDbEntity
  8
0
100
AcDbLine
 10
6.75
 20
196.123749356053
 30
0.0
 11
7.188
 21
195.780749356053
 31
0.0
  0
LINE
  5
385
330
1D
100
AcDbEntity
  8
0
100
AcDbLine
 10
6.75
 20
196.123749356053
 30
0.0
 11
7.444370183035
 21
197.011438510501
 31
0.0
  0
LINE
  5
386
330
1D
100
AcDbEntity
  8
0
100
AcDbLine
 10
5.415102834671
 20
197.165880987771
 30
0.0
 11
5.542
 21
197.066749356053
 31
0.0
  0
LINE
  5
387
330
1D
100
AcDbEntity
  8
0
100
AcDbLine
 10
5.542
 20
197.066749356053
 30
0.0
 11
5.87
 21
196.810749356053
 31
0.0
  0
LINE
  5
388
330
1D
100
AcDbEntity
  8
0
100
AcDbLine
 10
6.123599999985
 20
196.613149356064
 30
0.0
 11
6.211
 21
196.544749356053
 31
0.0
  0
LINE
  5
389
330
1D
100
AcDbEntity
  8
0
100
AcDbLine
 10
6.151
 20
196.591749356053
 30
0.0
 11
6.844985389713
 21
197.479667299837
 31
0.0
  0
LINE
  5
38A
330
1D
100
AcDbEntity
  8
0
100
AcDbLine
 10
6.151
 20
196.591749356053
 30
0.0
 11
6.75
 21
196.123749356053
 31
0.0
  0
LINE
  5
38B
330
1D
100
AcDbEntity
  8
0
100
AcDbLine
 10
6.123599999985
 20
196.613149356064
 30
0.0
 11
6.211
 21
196.544749356053
 31
0.0
  0
LINE
  5
38C
330
1D
100
AcDbEntity
  8
0
100
AcDbLine
 10
6.211
 20
196.544749356053
 30
0.0
 11
6.81
 21
196.076749356053
 31
0.0
  0
LINE
  5
38D
330
1D
100
AcDbEntity
  8
0
100
AcDbLine
 10
5.870226746727
 20
196.811039415178
 30
0.0
 11
6.123599999985
 21
196.613149356064
 31
0.0
  0
LINE
  5
38E
330
1D
100
AcDbEntity
  8
0
100
AcDbLine
 10
5.870226746727
 20
196.811039415178
 30
0.0
 11
6.123599999985
 21
196.613149356064
 31
0.0
  0
LINE
  5
38F
330
1D
100
AcDbEntity
  8
0
100
AcDbLine
 10
5.74
 20
196.912749356053
 30
0.0
 11
6.434367327841
 21
197.800434860395
 31
0.0
  0
LINE
  5
390
330
1D
100
AcDbEntity
  8
0
100
AcDbLine
 10
5.74
 20
196.912749356053
 30
0.0
 11
6.151
 21
196.591749356053
 31
0.0
  0
LINE
  5
391
330
1D
100
AcDbEntity
  8
0
100
AcDbLine
 10
5.733
 20
196.917749356053
 30
0.0
 11
6.334137601499
 21
197.686737067061
 31
0.0
  0
LINE
  5
392
330
1D
100
AcDbEntity
  8
0
100
AcDbLine
 10
5.733
 20
196.917749356053
 30
0.0
 11
5.87
 21
196.810749356053
 31
0.0
  0
LINE
  5
393
330
1D
100
AcDbEntity
  8
0
100
AcDbLine
 10
4.647
 20
197.766749356053
 30
0.0
 11
5.300951871624
 21
198.603977747344
 31
0.0
  0
LINE
  5
394
330
1D
100
AcDbEntity
  8
0
100
AcDbLine
 10
4.647
 20
197.766749356053
 30
0.0
 11
5.231
 21
197.310749356053
 31
0.0
  0
LINE
  5
395
330
1D
100
AcDbEntity
  8
0
100
AcDbLine
 10
4.647
 20
197.766749356053
 30
0.0
 11
5.300951871624
 21
198.603977747344
 31
0.0
  0
LINE
  5
396
330
1D
100
AcDbEntity
  8
0
100
AcDbLine
 10
3.839
 20
198.397749356053
 30
0.0
 11
4.076
 21
198.213749356053
 31
0.0
  0
LINE
  5
397
330
1D
100
AcDbEntity
  8
0
100
AcDbLine
 10
3.839
 20
198.397749356053
 30
0.0
 11
4.479819171705
 21
199.217498556221
 31
0.0
  0
LINE
  5
398
330
1D
100
AcDbEntity
  8
0
100
AcDbLine
 10
3.839
 20
198.397749356053
 30
0.0
 11
4.385730337089
 21
197.970356097618
 31
0.0
  0
LINE
  5
399
330
1D
100
AcDbEntity
  8
0
100
AcDbLine
 10
3.839
 20
198.397749356053
 30
0.0
 11
4.385730337089
 21
197.970356097618
 31
0.0
  0
LINE
  5
39A
330
1D
100
AcDbEntity
  8
0
100
AcDbLine
 10
4.076
 20
198.213749356053
 30
0.0
 11
4.318128475503
 21
198.023913600304
 31
0.0
  0
LINE
  5
39B
330
1D
100
AcDbEntity
  8
0
100
AcDbLine
 10
4.076
 20
198.213749356053
 30
0.0
 11
4.705574001443
 21
199.019256303472
 31
0.0
  0
LINE
  5
39C
330
1D
100
AcDbEntity
  8
0
100
AcDbLine
 10
4.318
 20
198.023749356053
 30
0.0
 11
4.988704659987
 21
198.881184290695
 31
0.0
  0
LINE
  5
39D
330
1D
100
AcDbEntity
  8
0
100
AcDbLine
 10
4.318
 20
198.023749356053
 30
0.0
 11
4.455
 21
197.915749356053
 31
0.0
  0
LINE
  5
39E
330
1D
100
AcDbEntity
  8
0
100
AcDbLine
 10
4.318
 20
198.023749356053
 30
0.0
 11
4.647
 21
197.766749356053
 31
0.0
  0
LINE
  5
39F
330
1D
100
AcDbEntity
  8
0
100
AcDbLine
 10
4.318
 20
198.023749356053
 30
0.0
 11
4.988704659987
 21
198.881184290695
 31
0.0
  0
LINE
  5
3A0
330
1D
100
AcDbEntity
  8
0
100
AcDbLine
 10
4.455
 20
197.915749356053
 30
0.0
 11
4.957
 21
197.523749356053
 31
0.0
  0
LINE
  5
3A1
330
1D
100
AcDbEntity
  8
0
100
AcDbLine
 10
5.014540983486
 20
197.478798536475
 30
0.0
 11
5.415
 21
197.165749356053
 31
0.0
  0
LINE
  5
3A2
330
1D
100
AcDbEntity
  8
0
100
AcDbLine
 10
5.014540983486
 20
197.478798536475
 30
0.0
 11
5.415
 21
197.165749356053
 31
0.0
  0
LINE
  5
3A3
330
1D
100
AcDbEntity
  8
0
100
AcDbLine
 10
4.957
 20
197.523749356053
 30
0.0
 11
5.542
 21
197.066749356053
 31
0.0
  0
LINE
  5
3A4
330
1D
100
AcDbEntity
  8
0
100
AcDbLine
 10
4.957
 20
197.523749356053
 30
0.0
 11
5.384453027135
 21
197.189824512633
 31
0.0
  0
LINE
  5
3A5
330
1D
100
AcDbEntity
  8
0
100
AcDbLine
 10
4.957
 20
197.523749356053
 30
0.0
 11
5.384453027135
 21
197.189824512633
 31
0.0
  0
LINE
  5
3A6
330
1D
100
AcDbEntity
  8
0
100
AcDbLine
 10
5.231
 20
197.310749356053
 30
0.0
 11
5.733
 21
196.917749356053
 31
0.0
  0
LINE
  5
3A7
330
1D
100
AcDbEntity
  8
0
100
AcDbLine
 10
5.231
 20
197.310749356053
 30
0.0
 11
5.856141050543
 21
198.111092406951
 31
0.0
  0
LINE
  5
3A8
330
1D
100
AcDbEntity
  8
0
100
AcDbLine
 10
5.231
 20
197.310749356053
 30
0.0
 11
5.856141050543
 21
198.111092406951
 31
0.0
  0
LINE
  5
3A9
330
1D
100
AcDbEntity
  8
0
100
AcDbLine
 10
3.351
 20
200.208749356053
 30
0.0
 11
4.476929061206
 21
199.213801466817
 31
0.0
  0
LINE
  5
3AA
330
1D
100
AcDbEntity
  8
0
100
AcDbLine
 10
3.351
 20
200.208749356053
 30
0.0
 11
4.476929061206
 21
199.213801466817
 31
0.0
  0
LINE
  5
3AB
330
1D
100
AcDbEntity
  8
0
100
AcDbLine
 10
7.698875312794
 20
196.366669500249
 30
0.0
 11
8.432436771845
 21
195.718444447309
 31
0.0
  0
LINE
  5
3AC
330
1D
100
AcDbEntity
  8
0
100
AcDbLine
 10
7.698875312794
 20
196.366669500249
 30
0.0
 11
8.432436771845
 21
195.718444447309
 31
0.0
  0
LINE
  5
3AD
330
1D
100
AcDbEntity
  8
0
100
AcDbLine
 10
2.477
 20
201.526749356053
 30
0.0
 11
3.351
 21
200.208749356053
 31
0.0
  0
LINE
  5
3AE
330
1D
100
AcDbEntity
  8
0
100
AcDbLine
 10
0.815
 20
203.459749356053
 30
0.0
 11
2.477
 21
201.526749356053
 31
0.0
  0
LINE
  5
3AF
330
1D
100
AcDbEntity
  8
0
100
AcDbLine
 10
0.125
 20
209.074749356053
 30
0.0
 11
1.271
 21
211.351749356053
 31
0.0
  0
LINE
  5
3B0
330
1D
100
AcDbEntity
  8
0
100
AcDbLine
 10
8.089
 20
209.197749356053
 30
0.0
 11
14.394
 21
204.272749356053
 31
0.0
  0
LINE
  5
3B1
330
1D
100
AcDbEntity
  8
0
100
AcDbLine
 10
9.139000000063
 20
194.256749356003
 30
0.0
 11
9.427
 21
194.031749356053
 31
0.0
  0
LINE
  5
3B2
330
1D
100
AcDbEntity
  8
0
100
AcDbLine
 10
9.867917516153
 20
194.449955529314
 30
0.0
 11
10.600331323197
 21
193.802744620143
 31
0.0
  0
LINE
  5
3B3
330
1D
100
AcDbEntity
  8
0
100
AcDbLine
 10
9.427
 20
194.031749356053
 30
0.0
 11
9.498
 21
193.976749356053
 31
0.0
  0
LINE
  5
3B4
330
1D
100
AcDbEntity
  8
0
100
AcDbLine
 10
9.498
 20
193.976749356053
 30
0.0
 11
10.087851554315
 21
194.731299720988
 31
0.0
  0
LINE
  5
3B5
330
1D
100
AcDbEntity
  8
0
100
AcDbLine
 10
9.139
 20
194.256749356053
 30
0.0
 11
9.498
 21
193.976749356053
 31
0.0
  0
LINE
  5
3B6
330
1D
100
AcDbEntity
  8
0
100
AcDbLine
 10
9.139
 20
194.256749356053
 30
0.0
 11
9.743971970886
 21
195.031762189593
 31
0.0
  0
LINE
  5
3B7
330
1D
100
AcDbEntity
  8
0
100
AcDbLine
 10
9.139
 20
194.256749356053
 30
0.0
 11
9.743971970886
 21
195.031762189593
 31
0.0
  0
LINE
  5
3B8
330
1D
100
AcDbEntity
  8
0
100
AcDbLine
 10
9.867917516153
 20
194.449955529314
 30
0.0
 11
10.600331323197
 21
193.802744620143
 31
0.0
  0
LINE
  5
3B9
330
1D
100
AcDbEntity
  8
0
100
AcDbLine
 10
9.107
 20
209.037749356053
 30
0.0
 11
15.253
 21
204.235749356053
 31
0.0
  0
LINE
  5
3BA
330
1D
100
AcDbEntity
  8
0
100
AcDbLine
 10
1.271
 20
211.351749356053
 30
0.0
 11
2.81
 21
213.322749356053
 31
0.0
  0
LINE
  5
3BB
330
1D
100
AcDbEntity
  8
0
100
AcDbLine
 10
4.228
 20
212.214749356053
 30
0.0
 11
8.089
 21
209.197749356053
 31
0.0
  0
LINE
  5
3BC
330
1D
100
AcDbEntity
  8
0
100
AcDbLine
 10
2.81
 20
213.322749356053
 30
0.0
 11
4.228
 21
212.214749356053
 31
0.0
  0
LINE
  5
3BD
330
1D
100
AcDbEntity
  8
0
100
AcDbLine
 10
2.81
 20
213.322749356053
 30
0.0
 11
3.906
 21
213.100749356053
 31
0.0
  0
LINE
  5
3BE
330
1D
100
AcDbEntity
  8
0
100
AcDbLine
 10
3.425
 20
214.109749356053
 30
0.0
 11
3.906
 21
213.100749356053
 31
0.0
  0
LINE
  5
3BF
330
1D
100
AcDbEntity
  8
0
100
AcDbLine
 10
3.425
 20
214.109749356053
 30
0.0
 11
4.844
 21
213.002749356053
 31
0.0
  0
LINE
  5
3C0
330
1D
100
AcDbEntity
  8
0
100
AcDbLine
 10
3.425
 20
214.109749356053
 30
0.0
 11
9.89
 21
222.383749356053
 31
0.0
  0
LINE
  5
3C1
330
1D
100
AcDbEntity
  8
0
100
AcDbLine
 10
3.906
 20
213.100749356053
 30
0.0
 11
5.324
 21
211.992749356053
 31
0.0
  0
LINE
  5
3C2
330
1D
100
AcDbEntity
  8
0
100
AcDbLine
 10
4.844
 20
213.002749356053
 30
0.0
 11
8.705
 21
209.984749356053
 31
0.0
  0
LINE
  5
3C3
330
1D
100
AcDbEntity
  8
0
100
AcDbLine
 10
5.324
 20
211.992749356053
 30
0.0
 11
9.107
 21
209.037749356053
 31
0.0
  0
LINE
  5
3C4
330
1D
100
AcDbEntity
  8
0
100
AcDbLine
 10
8.705
 20
209.984749356053
 30
0.0
 11
15.009
 21
205.060749356053
 31
0.0
  0
LINE
  5
3C5
330
1D
100
AcDbEntity
  8
0
100
AcDbLine
 10
14.872513513516
 20
189.330425031727
 30
0.0
 11
15.02
 21
189.214749356053
 31
0.0
  0
LINE
  5
3C6
330
1D
100
AcDbEntity
  8
0
100
AcDbLine
 10
14.828
 20
189.811749356053
 30
0.0
 11
15.522273389621
 21
190.70059977201
 31
0.0
  0
LINE
  5
3C7
330
1D
100
AcDbEntity
  8
0
100
AcDbLine
 10
14.828
 20
189.811749356053
 30
0.0
 11
15.099
 21
189.600749356053
 31
0.0
  0
LINE
  5
3C8
330
1D
100
AcDbEntity
  8
0
100
AcDbLine
 10
14.828
 20
189.811749356053
 30
0.0
 11
15.605
 21
189.204749356053
 31
0.0
  0
LINE
  5
3C9
330
1D
100
AcDbEntity
  8
0
100
AcDbLine
 10
14.51
 20
189.614749356053
 30
0.0
 11
15.091800704324
 21
190.359132872958
 31
0.0
  0
LINE
  5
3CA
330
1D
100
AcDbEntity
  8
0
100
AcDbLine
 10
14.51
 20
189.614749356053
 30
0.0
 11
15.02
 21
189.214749356053
 31
0.0
  0
LINE
  5
3CB
330
1D
100
AcDbEntity
  8
0
100
AcDbLine
 10
14.387
 20
189.709749356053
 30
0.0
 11
14.974370703744
 21
190.4617365446
 31
0.0
  0
LINE
  5
3CC
330
1D
100
AcDbEntity
  8
0
100
AcDbLine
 10
14.387
 20
189.709749356053
 30
0.0
 11
14.703
 21
189.462749356053
 31
0.0
  0
LINE
  5
3CD
330
1D
100
AcDbEntity
  8
0
100
AcDbLine
 10
14.387
 20
189.709749356053
 30
0.0
 11
14.51
 21
189.614749356053
 31
0.0
  0
LINE
  5
3CE
330
1D
100
AcDbEntity
  8
0
100
AcDbLine
 10
14.387
 20
189.709749356053
 30
0.0
 11
14.732129712698
 21
190.15160510521
 31
0.0
  0
LINE
  5
3CF
330
1D
100
AcDbEntity
  8
0
100
AcDbLine
 10
14.703
 20
189.462749356053
 30
0.0
 11
14.872513513516
 21
189.330425031727
 31
0.0
  0
LINE
  5
3D0
330
1D
100
AcDbEntity
  8
0
100
AcDbLine
 10
14.703
 20
189.462749356053
 30
0.0
 11
14.872513513516
 21
189.330425031727
 31
0.0
  0
LINE
  5
3D1
330
1D
100
AcDbEntity
  8
0
100
AcDbLine
 10
13.762
 20
190.198749356053
 30
0.0
 11
14.292170604126
 21
190.877505547851
 31
0.0
  0
LINE
  5
3D2
330
1D
100
AcDbEntity
  8
0
100
AcDbLine
 10
13.762
 20
190.198749356053
 30
0.0
 11
14.292170604126
 21
190.877505547851
 31
0.0
  0
LINE
  5
3D3
330
1D
100
AcDbEntity
  8
0
100
AcDbLine
 10
13.362
 20
190.510749356053
 30
0.0
 11
13.762
 21
190.198749356053
 31
0.0
  0
LINE
  5
3D4
330
1D
100
AcDbEntity
  8
0
100
AcDbLine
 10
13.362
 20
190.510749356053
 30
0.0
 11
13.914216653004
 21
191.218178813232
 31
0.0
  0
LINE
  5
3D5
330
1D
100
AcDbEntity
  8
0
100
AcDbLine
 10
12.346
 20
191.304749356053
 30
0.0
 11
12.762
 21
190.979749356053
 31
0.0
  0
LINE
  5
3D6
330
1D
100
AcDbEntity
  8
0
100
AcDbLine
 10
12.346
 20
191.304749356053
 30
0.0
 11
12.762
 21
190.979749356053
 31
0.0
  0
LINE
  5
3D7
330
1D
100
AcDbEntity
  8
0
100
AcDbLine
 10
12.762
 20
190.979749356053
 30
0.0
 11
13.347341409575
 21
191.729138520545
 31
0.0
  0
LINE
  5
3D8
330
1D
100
AcDbEntity
  8
0
100
AcDbLine
 10
12.762
 20
190.979749356053
 30
0.0
 11
13.362
 21
190.510749356053
 31
0.0
  0
LINE
  5
3D9
330
1D
100
AcDbEntity
  8
0
100
AcDbLine
 10
11.783078167106
 20
191.744770919403
 30
0.0
 11
12.249
 21
191.379749356053
 31
0.0
  0
LINE
  5
3DA
330
1D
100
AcDbEntity
  8
0
100
AcDbLine
 10
12.249
 20
191.379749356053
 30
0.0
 11
12.466241011114
 21
191.657648571568
 31
0.0
  0
LINE
  5
3DB
330
1D
100
AcDbEntity
  8
0
100
AcDbLine
 10
12.249
 20
191.379749356053
 30
0.0
 11
12.301555555556
 21
191.339416022719
 31
0.0
  0
LINE
  5
3DC
330
1D
100
AcDbEntity
  8
0
100
AcDbLine
 10
12.249
 20
191.379749356053
 30
0.0
 11
12.466241011114
 21
191.657648571568
 31
0.0
  0
LINE
  5
3DD
330
1D
100
AcDbEntity
  8
0
100
AcDbLine
 10
11.620065420561
 20
191.871833043394
 30
0.0
 11
11.783078167106
 21
191.744770919403
 31
0.0
  0
LINE
  5
3DE
330
1D
100
AcDbEntity
  8
0
100
AcDbLine
 10
11.778
 20
191.748749356053
 30
0.0
 11
12.249
 21
191.379749356053
 31
0.0
  0
LINE
  5
3DF
330
1D
100
AcDbEntity
  8
0
100
AcDbLine
 10
11.778
 20
191.748749356053
 30
0.0
 11
11.994223346826
 21
192.025571447521
 31
0.0
  0
LINE
  5
3E0
330
1D
100
AcDbEntity
  8
0
100
AcDbLine
 10
12.301555555556
 20
191.339416022719
 30
0.0
 11
12.346
 21
191.304749356053
 31
0.0
  0
LINE
  5
3E1
330
1D
100
AcDbEntity
  8
0
100
AcDbLine
 10
12.301555555556
 20
191.339416022719
 30
0.0
 11
12.346
 21
191.304749356053
 31
0.0
  0
LINE
  5
3E2
330
1D
100
AcDbEntity
  8
0
100
AcDbLine
 10
12.421
 20
191.692749356053
 30
0.0
 11
12.595
 21
191.557749356053
 31
0.0
  0
LINE
  5
3E3
330
1D
100
AcDbEntity
  8
0
100
AcDbLine
 10
12.595
 20
191.557749356053
 30
0.0
 11
13.267130887646
 21
192.417705609539
 31
0.0
  0
LINE
  5
3E4
330
1D
100
AcDbEntity
  8
0
100
AcDbLine
 10
12.324
 20
191.768749356053
 30
0.0
 11
12.595
 21
191.557749356053
 31
0.0
  0
LINE
  5
3E5
330
1D
100
AcDbEntity
  8
0
100
AcDbLine
 10
12.324
 20
191.768749356053
 30
0.0
 11
13.014470749309
 21
192.65273140391
 31
0.0
  0
LINE
  5
3E6
330
1D
100
AcDbEntity
  8
0
100
AcDbLine
 10
12.314
 20
191.329749356053
 30
0.0
 11
12.531031270429
 21
191.607380266927
 31
0.0
  0
LINE
  5
3E7
330
1D
100
AcDbEntity
  8
0
100
AcDbLine
 10
12.314
 20
191.329749356053
 30
0.0
 11
12.762
 21
190.979749356053
 31
0.0
  0
LINE
  5
3E8
330
1D
100
AcDbEntity
  8
0
100
AcDbLine
 10
12.296
 20
191.343749356053
 30
0.0
 11
12.512819148719
 21
191.621510361357
 31
0.0
  0
LINE
  5
3E9
330
1D
100
AcDbEntity
  8
0
100
AcDbLine
 10
12.296
 20
191.343749356053
 30
0.0
 11
12.346
 21
191.304749356053
 31
0.0
  0
LINE
  5
3EA
330
1D
100
AcDbEntity
  8
0
100
AcDbLine
 10
12.296
 20
191.343749356053
 30
0.0
 11
12.346
 21
191.304749356053
 31
0.0
  0
LINE
  5
3EB
330
1D
100
AcDbEntity
  8
0
100
AcDbLine
 10
10.813
 20
192.502749356053
 30
0.0
 11
11.416246724096
 21
193.275061977641
 31
0.0
  0
LINE
  5
3EC
330
1D
100
AcDbEntity
  8
0
100
AcDbLine
 10
10.813
 20
192.502749356053
 30
0.0
 11
10.898
 21
192.435749356053
 31
0.0
  0
LINE
  5
3ED
330
1D
100
AcDbEntity
  8
0
100
AcDbLine
 10
10.813
 20
192.502749356053
 30
0.0
 11
11.184
 21
192.212749356053
 31
0.0
  0
LINE
  5
3EE
330
1D
100
AcDbEntity
  8
0
100
AcDbLine
 10
10.898
 20
192.435749356053
 30
0.0
 11
11.37
 21
192.066749356053
 31
0.0
  0
LINE
  5
3EF
330
1D
100
AcDbEntity
  8
0
100
AcDbLine
 10
10.238
 20
192.951749356053
 30
0.0
 11
10.281479452118
 21
192.917804150524
 31
0.0
  0
LINE
  5
3F0
330
1D
100
AcDbEntity
  8
0
100
AcDbLine
 10
10.238
 20
192.951749356053
 30
0.0
 11
10.78525000028
 21
192.5236660225
 31
0.0
  0
LINE
  5
3F1
330
1D
100
AcDbEntity
  8
0
100
AcDbLine
 10
10.238
 20
192.951749356053
 30
0.0
 11
10.78525000028
 21
192.523666022501
 31
0.0
  0
LINE
  5
3F2
330
1D
100
AcDbEntity
  8
0
100
AcDbLine
 10
10.238
 20
192.951749356053
 30
0.0
 11
10.281479452118
 21
192.917804150524
 31
0.0
  0
LINE
  5
3F3
330
1D
100
AcDbEntity
  8
0
100
AcDbLine
 10
10.05
 20
193.098749356053
 30
0.0
 11
10.600331323197
 21
193.802744620143
 31
0.0
  0
LINE
  5
3F4
330
1D
100
AcDbEntity
  8
0
100
AcDbLine
 10
10.05
 20
193.098749356053
 30
0.0
 11
10.238
 21
192.951749356053
 31
0.0
  0
LINE
  5
3F5
330
1D
100
AcDbEntity
  8
0
100
AcDbLine
 10
10.05
 20
193.098749356053
 30
0.0
 11
10.79876923096
 21
192.513087817442
 31
0.0
  0
LINE
  5
3F6
330
1D
100
AcDbEntity
  8
0
100
AcDbLine
 10
10.05
 20
193.098749356053
 30
0.0
 11
10.798769230961
 21
192.513087817442
 31
0.0
  0
LINE
  5
3F7
330
1D
100
AcDbEntity
  8
0
100
AcDbLine
 10
10.05
 20
193.098749356053
 30
0.0
 11
10.644888268766
 21
193.859742790773
 31
0.0
  0
LINE
  5
3F8
330
1D
100
AcDbEntity
  8
0
100
AcDbLine
 10
10.05
 20
193.098749356053
 30
0.0
 11
10.334
 21
192.876749356053
 31
0.0
  0
LINE
  5
3F9
330
1D
100
AcDbEntity
  8
0
100
AcDbLine
 10
10.281479452118
 20
192.917804150524
 30
0.0
 11
10.334
 21
192.876749356053
 31
0.0
  0
LINE
  5
3FA
330
1D
100
AcDbEntity
  8
0
100
AcDbLine
 10
10.281479452118
 20
192.917804150524
 30
0.0
 11
10.334
 21
192.876749356053
 31
0.0
  0
LINE
  5
3FB
330
1D
100
AcDbEntity
  8
0
100
AcDbLine
 10
10.334
 20
192.876749356053
 30
0.0
 11
10.904
 21
192.430749356053
 31
0.0
  0
LINE
  5
3FC
330
1D
100
AcDbEntity
  8
0
100
AcDbLine
 10
10.334
 20
192.876749356053
 30
0.0
 11
10.91470612054
 21
193.620204145632
 31
0.0
  0
LINE
  5
3FD
330
1D
100
AcDbEntity
  8
0
100
AcDbLine
 10
11.04
 20
192.771749356053
 30
0.0
 11
11.734423682012
 21
193.660070559665
 31
0.0
  0
LINE
  5
3FE
330
1D
100
AcDbEntity
  8
0
100
AcDbLine
 10
11.04
 20
192.771749356053
 30
0.0
 11
11.311
 21
192.559749356053
 31
0.0
  0
LINE
  5
3FF
330
1D
100
AcDbEntity
  8
0
100
AcDbLine
 10
11.04
 20
192.771749356053
 30
0.0
 11
11.214
 21
192.635749356053
 31
0.0
  0
LINE
  5
400
330
1D
100
AcDbEntity
  8
0
100
AcDbLine
 10
11.195449056619
 20
192.2032097334
 30
0.0
 11
11.37
 21
192.066749356053
 31
0.0
  0
LINE
  5
401
330
1D
100
AcDbEntity
  8
0
100
AcDbLine
 10
11.214
 20
192.635749356053
 30
0.0
 11
11.908108508433
 21
193.524388681228
 31
0.0
  0
LINE
  5
402
330
1D
100
AcDbEntity
  8
0
100
AcDbLine
 10
11.214
 20
192.635749356053
 30
0.0
 11
11.749
 21
192.217749356053
 31
0.0
  0
LINE
  5
403
330
1D
100
AcDbEntity
  8
0
100
AcDbLine
 10
11.749
 20
192.217749356053
 30
0.0
 11
12.44376148735
 21
193.105938757495
 31
0.0
  0
LINE
  5
404
330
1D
100
AcDbEntity
  8
0
100
AcDbLine
 10
11.749
 20
192.217749356053
 30
0.0
 11
12.324
 21
191.768749356053
 31
0.0
  0
LINE
  5
405
330
1D
100
AcDbEntity
  8
0
100
AcDbLine
 10
11.311
 20
192.559749356053
 30
0.0
 11
11.885
 21
192.110749356053
 31
0.0
  0
LINE
  5
406
330
1D
100
AcDbEntity
  8
0
100
AcDbLine
 10
11.885
 20
192.110749356053
 30
0.0
 11
12.421
 21
191.692749356053
 31
0.0
  0
LINE
  5
407
330
1D
100
AcDbEntity
  8
0
100
AcDbLine
 10
11.184
 20
192.212749356053
 30
0.0
 11
11.400409884976
 21
192.489810264844
 31
0.0
  0
LINE
  5
408
330
1D
100
AcDbEntity
  8
0
100
AcDbLine
 10
11.184
 20
192.212749356053
 30
0.0
 11
11.778
 21
191.748749356053
 31
0.0
  0
LINE
  5
409
330
1D
100
AcDbEntity
  8
0
100
AcDbLine
 10
11.37
 20
192.066749356053
 30
0.0
 11
11.783078167106
 21
191.744770919403
 31
0.0
  0
LINE
  5
40A
330
1D
100
AcDbEntity
  8
0
100
AcDbLine
 10
11.37
 20
192.066749356053
 30
0.0
 11
11.515384615378
 21
191.953427677736
 31
0.0
  0
LINE
  5
40B
330
1D
100
AcDbEntity
  8
0
100
AcDbLine
 10
11.37
 20
192.066749356053
 30
0.0
 11
11.515384615378
 21
191.953427677736
 31
0.0
  0
LINE
  5
40C
330
1D
100
AcDbEntity
  8
0
100
AcDbLine
 10
10.904
 20
192.430749356053
 30
0.0
 11
11.195449056619
 21
192.2032097334
 31
0.0
  0
LINE
  5
40D
330
1D
100
AcDbEntity
  8
0
100
AcDbLine
 10
10.904
 20
192.430749356053
 30
0.0
 11
11.195449056619
 21
192.2032097334
 31
0.0
  0
LINE
  5
40E
330
1D
100
AcDbEntity
  8
0
100
AcDbLine
 10
11.515384615378
 20
191.953427677736
 30
0.0
 11
11.62
 21
191.871749356053
 31
0.0
  0
LINE
  5
40F
330
1D
100
AcDbEntity
  8
0
100
AcDbLine
 10
14.394
 20
204.272749356053
 30
0.0
 11
22.589
 21
197.868749356053
 31
0.0
  0
LINE
  5
410
330
1D
100
AcDbEntity
  8
0
100
AcDbLine
 10
14.136378706696
 20
190.678051420839
 30
0.0
 11
14.732129712698
 21
190.15160510521
 31
0.0
  0
LINE
  5
411
330
1D
100
AcDbEntity
  8
0
100
AcDbLine
 10
14.136378706696
 20
190.678051420839
 30
0.0
 11
14.732129712698
 21
190.15160510521
 31
0.0
  0
LINE
  5
412
330
1D
100
AcDbEntity
  8
0
100
AcDbLine
 10
9.89
 20
222.383749356053
 30
0.0
 11
10.9
 21
222.864749356053
 31
0.0
  0
LINE
  5
413
330
1D
100
AcDbEntity
  8
0
100
AcDbLine
 10
10.9
 20
222.864749356053
 30
0.0
 11
15.505
 21
223.074749356053
 31
0.0
  0
LINE
  5
414
330
1D
100
AcDbEntity
  8
0
100
AcDbLine
 10
18.572
 20
185.993749356053
 30
0.0
 11
19.083424039236
 21
186.648505071599
 31
0.0
  0
LINE
  5
415
330
1D
100
AcDbEntity
  8
0
100
AcDbLine
 10
18.572
 20
185.993749356053
 30
0.0
 11
19.052
 21
185.618749356053
 31
0.0
  0
LINE
  5
416
330
1D
100
AcDbEntity
  8
0
100
AcDbLine
 10
18.572
 20
185.993749356053
 30
0.0
 11
18.86
 21
185.768749356053
 31
0.0
  0
LINE
  5
417
330
1D
100
AcDbEntity
  8
0
100
AcDbLine
 10
18.669
 20
186.364749356053
 30
0.0
 11
19.134499593368
 21
186.959848268029
 31
0.0
  0
LINE
  5
418
330
1D
100
AcDbEntity
  8
0
100
AcDbLine
 10
18.501
 20
186.049749356053
 30
0.0
 11
19.012160856205
 21
186.704168128903
 31
0.0
  0
LINE
  5
419
330
1D
100
AcDbEntity
  8
0
100
AcDbLine
 10
18.501
 20
186.049749356053
 30
0.0
 11
18.572
 21
185.993749356053
 31
0.0
  0
LINE
  5
41A
330
1D
100
AcDbEntity
  8
0
100
AcDbLine
 10
18.501
 20
186.049749356053
 30
0.0
 11
18.927108210767
 21
186.595278633201
 31
0.0
  0
LINE
  5
41B
330
1D
100
AcDbEntity
  8
0
100
AcDbLine
 10
18.86
 20
185.768749356053
 30
0.0
 11
19.456
 21
185.302749356053
 31
0.0
  0
LINE
  5
41C
330
1D
100
AcDbEntity
  8
0
100
AcDbLine
 10
18.097314475013
 20
186.810688115289
 30
0.0
 11
18.446
 21
186.537749356053
 31
0.0
  0
LINE
  5
41D
330
1D
100
AcDbEntity
  8
0
100
AcDbLine
 10
17.889
 20
186.973749356053
 30
0.0
 11
18.446
 21
186.537749356053
 31
0.0
  0
LINE
  5
41E
330
1D
100
AcDbEntity
  8
0
100
AcDbLine
 10
17.889
 20
186.973749356053
 30
0.0
 11
18.407084415708
 21
187.636493706017
 31
0.0
  0
LINE
  5
41F
330
1D
100
AcDbEntity
  8
0
100
AcDbLine
 10
18.446
 20
186.537749356053
 30
0.0
 11
18.669
 21
186.364749356053
 31
0.0
  0
LINE
  5
420
330
1D
100
AcDbEntity
  8
0
100
AcDbLine
 10
18.446
 20
186.537749356053
 30
0.0
 11
18.926737816508
 21
187.153109369554
 31
0.0
  0
LINE
  5
421
330
1D
100
AcDbEntity
  8
0
100
AcDbLine
 10
17.881
 20
186.533749356053
 30
0.0
 11
18.097314475013
 21
186.810688115289
 31
0.0
  0
LINE
  5
422
330
1D
100
AcDbEntity
  8
0
100
AcDbLine
 10
17.744
 20
186.640749356053
 30
0.0
 11
17.960430217285
 21
186.917836295485
 31
0.0
  0
LINE
  5
423
330
1D
100
AcDbEntity
  8
0
100
AcDbLine
 10
17.744
 20
186.640749356053
 30
0.0
 11
17.881
 21
186.533749356053
 31
0.0
  0
LINE
  5
424
330
1D
100
AcDbEntity
  8
0
100
AcDbLine
 10
15.923
 20
188.509749356053
 30
0.0
 11
16.140106257796
 21
188.787476192324
 31
0.0
  0
LINE
  5
425
330
1D
100
AcDbEntity
  8
0
100
AcDbLine
 10
17.332
 20
187.408749356053
 30
0.0
 11
17.889
 21
186.973749356053
 31
0.0
  0
LINE
  5
426
330
1D
100
AcDbEntity
  8
0
100
AcDbLine
 10
17.332
 20
187.408749356053
 30
0.0
 11
17.887241712239
 21
188.120054132821
 31
0.0
  0
LINE
  5
427
330
1D
100
AcDbEntity
  8
0
100
AcDbLine
 10
16.383
 20
188.597749356053
 30
0.0
 11
17.076781612864
 21
189.485970169922
 31
0.0
  0
LINE
  5
428
330
1D
100
AcDbEntity
  8
0
100
AcDbLine
 10
17.109
 20
187.583749356053
 30
0.0
 11
17.679387644817
 21
188.313401083514
 31
0.0
  0
LINE
  5
429
330
1D
100
AcDbEntity
  8
0
100
AcDbLine
 10
17.109
 20
187.583749356053
 30
0.0
 11
17.332
 21
187.408749356053
 31
0.0
  0
LINE
  5
42A
330
1D
100
AcDbEntity
  8
0
100
AcDbLine
 10
16.657
 20
187.488749356053
 30
0.0
 11
17.169150519165
 21
188.144318648848
 31
0.0
  0
LINE
  5
42B
330
1D
100
AcDbEntity
  8
0
100
AcDbLine
 10
16.657
 20
187.488749356053
 30
0.0
 11
17.242
 21
187.032749356053
 31
0.0
  0
LINE
  5
42C
330
1D
100
AcDbEntity
  8
0
100
AcDbLine
 10
16.329
 20
187.746749356053
 30
0.0
 11
16.840300471244
 21
188.401346872447
 31
0.0
  0
LINE
  5
42D
330
1D
100
AcDbEntity
  8
0
100
AcDbLine
 10
16.329
 20
187.746749356053
 30
0.0
 11
16.657
 21
187.488749356053
 31
0.0
  0
LINE
  5
42E
330
1D
100
AcDbEntity
  8
0
100
AcDbLine
 10
17.242
 20
187.032749356053
 30
0.0
 11
17.744
 21
186.640749356053
 31
0.0
  0
LINE
  5
42F
330
1D
100
AcDbEntity
  8
0
100
AcDbLine
 10
17.242
 20
187.032749356053
 30
0.0
 11
17.458515079066
 21
187.309944940625
 31
0.0
  0
LINE
  5
430
330
1D
100
AcDbEntity
  8
0
100
AcDbLine
 10
21.916
 20
183.827749356053
 30
0.0
 11
22.370961275897
 21
184.410218056957
 31
0.0
  0
LINE
  5
431
330
1D
100
AcDbEntity
  8
0
100
AcDbLine
 10
21.793
 20
183.923749356053
 30
0.0
 11
21.916
 21
183.827749356053
 31
0.0
  0
LINE
  5
432
330
1D
100
AcDbEntity
  8
0
100
AcDbLine
 10
21.793
 20
183.923749356053
 30
0.0
 11
22.429094727387
 21
184.738115960734
 31
0.0
  0
LINE
  5
433
330
1D
100
AcDbEntity
  8
0
100
AcDbLine
 10
19.937
 20
184.926749356053
 30
0.0
 11
20.008
 21
184.871749356053
 31
0.0
  0
LINE
  5
434
330
1D
100
AcDbEntity
  8
0
100
AcDbLine
 10
20.379
 20
185.027749356053
 30
0.0
 11
20.59600220502
 21
185.305519224004
 31
0.0
  0
LINE
  5
435
330
1D
100
AcDbEntity
  8
0
100
AcDbLine
 10
20.379
 20
185.027749356053
 30
0.0
 11
20.695
 21
184.780749356053
 31
0.0
  0
LINE
  5
436
330
1D
100
AcDbEntity
  8
0
100
AcDbLine
 10
20.379
 20
185.027749356053
 30
0.0
 11
20.545844876657
 21
185.241316215215
 31
0.0
  0
LINE
  5
437
330
1D
100
AcDbEntity
  8
0
100
AcDbLine
 10
20.379
 20
185.027749356053
 30
0.0
 11
20.545844876657
 21
185.241316215215
 31
0.0
  0
LINE
  5
438
330
1D
100
AcDbEntity
  8
0
100
AcDbLine
 10
20.008
 20
184.871749356053
 30
0.0
 11
20.441150661641
 21
185.426294801013
 31
0.0
  0
LINE
  5
439
330
1D
100
AcDbEntity
  8
0
100
AcDbLine
 10
19.24
 20
186.365749356053
 30
0.0
 11
19.923136874903
 21
187.23978719356
 31
0.0
  0
LINE
  5
43A
330
1D
100
AcDbEntity
  8
0
100
AcDbLine
 10
19.24
 20
186.365749356053
 30
0.0
 11
19.311
 21
186.309749356053
 31
0.0
  0
LINE
  5
43B
330
1D
100
AcDbEntity
  8
0
100
AcDbLine
 10
19.24
 20
186.365749356053
 30
0.0
 11
19.6
 21
186.084749356053
 31
0.0
  0
LINE
  5
43C
330
1D
100
AcDbEntity
  8
0
100
AcDbLine
 10
19.311
 20
186.309749356053
 30
0.0
 11
19.792
 21
185.933749356053
 31
0.0
  0
LINE
  5
43D
330
1D
100
AcDbEntity
  8
0
100
AcDbLine
 10
19.052
 20
185.618749356053
 30
0.0
 11
19.485695219637
 21
186.173189267521
 31
0.0
  0
LINE
  5
43E
330
1D
100
AcDbEntity
  8
0
100
AcDbLine
 10
19.052
 20
185.618749356053
 30
0.0
 11
19.648
 21
185.152749356053
 31
0.0
  0
LINE
  5
43F
330
1D
100
AcDbEntity
  8
0
100
AcDbLine
 10
19.994
 20
185.775749356053
 30
0.0
 11
20.195
 21
185.618749356053
 31
0.0
  0
LINE
  5
440
330
1D
100
AcDbEntity
  8
0
100
AcDbLine
 10
20.195
 20
185.618749356053
 30
0.0
 11
20.830603599067
 21
186.431826687327
 31
0.0
  0
LINE
  5
441
330
1D
100
AcDbEntity
  8
0
100
AcDbLine
 10
20.195
 20
185.618749356053
 30
0.0
 11
20.676
 21
185.243749356053
 31
0.0
  0
LINE
  5
442
330
1D
100
AcDbEntity
  8
0
100
AcDbLine
 10
19.6
 20
186.084749356053
 30
0.0
 11
20.267753537654
 21
186.939105019582
 31
0.0
  0
LINE
  5
443
330
1D
100
AcDbEntity
  8
0
100
AcDbLine
 10
19.6
 20
186.084749356053
 30
0.0
 11
20.195
 21
185.618749356053
 31
0.0
  0
LINE
  5
444
330
1D
100
AcDbEntity
  8
0
100
AcDbLine
 10
19.792
 20
185.933749356053
 30
0.0
 11
20.388
 21
185.467749356053
 31
0.0
  0
LINE
  5
445
330
1D
100
AcDbEntity
  8
0
100
AcDbLine
 10
20.388
 20
185.467749356053
 30
0.0
 11
20.747
 21
185.187749356053
 31
0.0
  0
LINE
  5
446
330
1D
100
AcDbEntity
  8
0
100
AcDbLine
 10
19.456
 20
185.302749356053
 30
0.0
 11
19.937
 21
184.926749356053
 31
0.0
  0
LINE
  5
447
330
1D
100
AcDbEntity
  8
0
100
AcDbLine
 10
19.648
 20
185.152749356053
 30
0.0
 11
20.008
 21
184.871749356053
 31
0.0
  0
LINE
  5
448
330
1D
100
AcDbEntity
  8
0
100
AcDbLine
 10
19.648
 20
185.152749356053
 30
0.0
 11
20.081550344653
 21
185.707355965771
 31
0.0
  0
LINE
  5
449
330
1D
100
AcDbEntity
  8
0
100
AcDbLine
 10
21.396282282286
 20
184.233262869564
 30
0.0
 11
21.599
 21
184.074749356053
 31
0.0
  0
LINE
  5
44A
330
1D
100
AcDbEntity
  8
0
100
AcDbLine
 10
21.396282282286
 20
184.233262869564
 30
0.0
 11
21.599
 21
184.074749356053
 31
0.0
  0
LINE
  5
44B
330
1D
100
AcDbEntity
  8
0
100
AcDbLine
 10
21.283
 20
184.322749356053
 30
0.0
 11
21.767015474125
 21
184.942414983365
 31
0.0
  0
LINE
  5
44C
330
1D
100
AcDbEntity
  8
0
100
AcDbLine
 10
21.283
 20
184.322749356053
 30
0.0
 11
21.793
 21
183.923749356053
 31
0.0
  0
LINE
  5
44D
330
1D
100
AcDbEntity
  8
0
100
AcDbLine
 10
20.695
 20
184.780749356053
 30
0.0
 11
21.206895677072
 21
185.435992442695
 31
0.0
  0
LINE
  5
44E
330
1D
100
AcDbEntity
  8
0
100
AcDbLine
 10
20.695
 20
184.780749356053
 30
0.0
 11
21.283
 21
184.322749356053
 31
0.0
  0
LINE
  5
44F
330
1D
100
AcDbEntity
  8
0
100
AcDbLine
 10
21.012
 20
184.533749356053
 30
0.0
 11
21.599
 21
184.074749356053
 31
0.0
  0
LINE
  5
450
330
1D
100
AcDbEntity
  8
0
100
AcDbLine
 10
21.599
 20
184.074749356053
 30
0.0
 11
21.916
 21
183.827749356053
 31
0.0
  0
LINE
  5
451
330
1D
100
AcDbEntity
  8
0
100
AcDbLine
 10
20.747
 20
185.187749356053
 30
0.0
 11
21.35181781363
 21
185.962073380652
 31
0.0
  0
LINE
  5
452
330
1D
100
AcDbEntity
  8
0
100
AcDbLine
 10
20.676
 20
185.243749356053
 30
0.0
 11
20.747
 21
185.187749356053
 31
0.0
  0
LINE
  5
453
330
1D
100
AcDbEntity
  8
0
100
AcDbLine
 10
20.676
 20
185.243749356053
 30
0.0
 11
21.284480374139
 21
186.022762410191
 31
0.0
  0
LINE
  5
454
330
1D
100
AcDbEntity
  8
0
100
AcDbLine
 10
20.395131182068
 20
185.367377904339
 30
0.0
 11
20.545844876657
 21
185.241316215215
 31
0.0
  0
LINE
  5
455
330
1D
100
AcDbEntity
  8
0
100
AcDbLine
 10
20.395131182068
 20
185.367377904339
 30
0.0
 11
20.545844876657
 21
185.241316215215
 31
0.0
  0
LINE
  5
456
330
1D
100
AcDbEntity
  8
0
100
AcDbLine
 10
22.042388699493
 20
183.989559746305
 30
0.0
 11
22.838997301261
 21
183.323251179034
 31
0.0
  0
LINE
  5
457
330
1D
100
AcDbEntity
  8
0
100
AcDbLine
 10
18.880088778652
 20
186.63460716967
 30
0.0
 11
18.927108210767
 21
186.595278633201
 31
0.0
  0
LINE
  5
458
330
1D
100
AcDbEntity
  8
0
100
AcDbLine
 10
18.880088778652
 20
186.63460716967
 30
0.0
 11
18.927108210767
 21
186.595278633201
 31
0.0
  0
LINE
  5
459
330
1D
100
AcDbEntity
  8
0
100
AcDbLine
 10
16.209
 20
188.733749356053
 30
0.0
 11
16.383
 21
188.597749356053
 31
0.0
  0
LINE
  5
45A
330
1D
100
AcDbEntity
  8
0
100
AcDbLine
 10
16.209
 20
188.733749356053
 30
0.0
 11
16.903034002491
 21
189.621729497339
 31
0.0
  0
LINE
  5
45B
330
1D
100
AcDbEntity
  8
0
100
AcDbLine
 10
15.673
 20
189.151749356053
 30
0.0
 11
16.36750283093
 21
190.040171808607
 31
0.0
  0
LINE
  5
45C
330
1D
100
AcDbEntity
  8
0
100
AcDbLine
 10
15.673
 20
189.151749356053
 30
0.0
 11
16.209
 21
188.733749356053
 31
0.0
  0
LINE
  5
45D
330
1D
100
AcDbEntity
  8
0
100
AcDbLine
 10
15.132532646049
 20
189.574519115502
 30
0.0
 11
15.537
 21
189.257749356053
 31
0.0
  0
LINE
  5
45E
330
1D
100
AcDbEntity
  8
0
100
AcDbLine
 10
15.099
 20
189.600749356053
 30
0.0
 11
15.792910376164
 21
190.489135020419
 31
0.0
  0
LINE
  5
45F
330
1D
100
AcDbEntity
  8
0
100
AcDbLine
 10
15.099
 20
189.600749356053
 30
0.0
 11
15.673
 21
189.151749356053
 31
0.0
  0
LINE
  5
460
330
1D
100
AcDbEntity
  8
0
100
AcDbLine
 10
15.13253264605
 20
189.574519115502
 30
0.0
 11
15.537
 21
189.257749356053
 31
0.0
  0
LINE
  5
461
330
1D
100
AcDbEntity
  8
0
100
AcDbLine
 10
15.537
 20
189.257749356053
 30
0.0
 11
15.660655913986
 21
189.161405270026
 31
0.0
  0
LINE
  5
462
330
1D
100
AcDbEntity
  8
0
100
AcDbLine
 10
15.537
 20
189.257749356053
 30
0.0
 11
15.605
 21
189.204749356053
 31
0.0
  0
LINE
  5
463
330
1D
100
AcDbEntity
  8
0
100
AcDbLine
 10
15.537
 20
189.257749356053
 30
0.0
 11
15.660655913986
 21
189.161405270026
 31
0.0
  0
LINE
  5
464
330
1D
100
AcDbEntity
  8
0
100
AcDbLine
 10
15.02
 20
189.214749356053
 30
0.0
 11
15.23698090452
 21
189.492717582233
 31
0.0
  0
LINE
  5
465
330
1D
100
AcDbEntity
  8
0
100
AcDbLine
 10
15.02
 20
189.214749356053
 30
0.0
 11
15.607
 21
188.756749356053
 31
0.0
  0
LINE
  5
466
330
1D
100
AcDbEntity
  8
0
100
AcDbLine
 10
15.607
 20
188.756749356053
 30
0.0
 11
15.923
 21
188.509749356053
 31
0.0
  0
LINE
  5
467
330
1D
100
AcDbEntity
  8
0
100
AcDbLine
 10
15.607
 20
188.756749356053
 30
0.0
 11
15.823830811231
 21
189.034123835355
 31
0.0
  0
LINE
  5
468
330
1D
100
AcDbEntity
  8
0
100
AcDbLine
 10
22.589
 20
197.868749356053
 30
0.0
 11
32.124
 21
190.419749356053
 31
0.0
  0
LINE
  5
469
330
1D
100
AcDbEntity
  8
0
100
AcDbLine
 10
16.442291422673
 20
188.673657789955
 30
0.0
 11
16.811672582981
 21
188.364695733614
 31
0.0
  0
LINE
  5
46A
330
1D
100
AcDbEntity
  8
0
100
AcDbLine
 10
32.124
 20
190.419749356053
 30
0.0
 11
42.21
 21
182.538749356053
 31
0.0
  0
LINE
  5
46B
330
1D
100
AcDbEntity
  8
0
100
AcDbLine
 10
32.589
 20
190.690749356053
 30
0.0
 11
42.518
 21
182.933749356053
 31
0.0
  0
LINE
  5
46C
330
1D
100
AcDbEntity
  8
0
100
AcDbLine
 10
32.739
 20
191.207749356053
 30
0.0
 11
42.826
 21
183.326749356053
 31
0.0
  0
LINE
  5
46D
330
1D
100
AcDbEntity
  8
0
100
AcDbLine
 10
23.291
 20
197.955749356053
 30
0.0
 11
32.589
 21
190.690749356053
 31
0.0
  0
LINE
  5
46E
330
1D
100
AcDbEntity
  8
0
100
AcDbLine
 10
23.204
 20
198.657749356053
 30
0.0
 11
32.739
 21
191.207749356053
 31
0.0
  0
LINE
  5
46F
330
1D
100
AcDbEntity
  8
0
100
AcDbLine
 10
15.505
 20
223.074749356053
 30
0.0
 11
20.59
 21
222.272749356053
 31
0.0
  0
LINE
  5
470
330
1D
100
AcDbEntity
  8
0
100
AcDbLine
 10
20.59
 20
222.272749356053
 30
0.0
 11
27.251
 21
220.241749356053
 31
0.0
  0
LINE
  5
471
330
1D
100
AcDbEntity
  8
0
100
AcDbLine
 10
27.251
 20
220.241749356053
 30
0.0
 11
33.998
 21
217.507749356053
 31
0.0
  0
LINE
  5
472
330
1D
100
AcDbEntity
  8
0
100
AcDbLine
 10
33.998
 20
217.507749356053
 30
0.0
 11
38.554
 21
215.217749356053
 31
0.0
  0
LINE
  5
473
330
1D
100
AcDbEntity
  8
0
100
AcDbLine
 10
38.554
 20
215.217749356053
 30
0.0
 11
43.898
 21
212.311749356053
 31
0.0
  0
LINE
  5
474
330
1D
100
AcDbEntity
  8
0
100
AcDbLine
 10
15.253
 20
204.235749356053
 30
0.0
 11
23.291
 21
197.955749356053
 31
0.0
  0
LINE
  5
475
330
1D
100
AcDbEntity
  8
0
100
AcDbLine
 10
15.009
 20
205.060749356053
 30
0.0
 11
23.204
 21
198.657749356053
 31
0.0
  0
LINE
  5
476
330
1D
100
AcDbEntity
  8
0
100
AcDbLine
 10
42.518
 20
182.933749356053
 30
0.0
 11
52.447
 21
175.175749356053
 31
0.0
  0
LINE
  5
477
330
1D
100
AcDbEntity
  8
0
100
AcDbLine
 10
43.898
 20
212.311749356053
 30
0.0
 11
49.845
 21
208.553749356053
 31
0.0
  0
LINE
  5
478
330
1D
100
AcDbEntity
  8
0
100
AcDbLine
 10
49.845
 20
208.553749356053
 30
0.0
 11
53.908
 21
205.633749356053
 31
0.0
  0
LINE
  5
479
330
1D
100
AcDbEntity
  8
0
100
AcDbLine
 10
42.826
 20
183.326749356053
 30
0.0
 11
52.913
 21
175.446749356053
 31
0.0
  0
LINE
  5
47A
330
1D
100
AcDbEntity
  8
0
100
AcDbLine
 10
52.447
 20
175.175749356053
 30
0.0
 11
61.746
 21
167.911749356053
 31
0.0
  0
LINE
  5
493
330
1D
100
AcDbEntity
  8
0
100
AcDbLine
 10
69.184
 20
193.001749356053
 30
0.0
 11
76.541
 21
186.969749356053
 31
0.0
  0
LINE
  5
4A3
330
1D
100
AcDbEntity
  8
0
100
AcDbLine
 10
76.541
 20
186.969749356053
 30
0.0
 11
87.561
 21
176.518749356053
 31
0.0
  0
LINE
  5
4A4
330
1D
100
AcDbEntity
  8
0
100
AcDbLine
 10
76.541
 20
186.969749356053
 30
0.0
 11
87.561
 21
176.518749356053
 31
0.0
  0
LINE
  5
4A5
330
1D
100
AcDbEntity
  8
0
100
AcDbLine
 10
76.541
 20
186.969749356053
 30
0.0
 11
87.561
 21
176.518749356053
 31
0.0
  0
LINE
  5
4A6
330
1D
100
AcDbEntity
  8
0
100
AcDbLine
 10
65.605
 20
196.240749356053
 30
0.0
 11
69.184
 21
193.001749356053
 31
0.0
  0
LINE
  5
4A7
330
1D
100
AcDbEntity
  8
0
100
AcDbLine
 10
65.605
 20
196.240749356053
 30
0.0
 11
69.184
 21
193.001749356053
 31
0.0
  0
LINE
  5
4BF
330
1D
100
AcDbEntity
  8
0
100
AcDbLine
 10
61.788
 20
199.476749356053
 30
0.0
 11
65.605
 21
196.240749356053
 31
0.0
  0
LINE
  5
4C0
330
1D
100
AcDbEntity
  8
0
100
AcDbLine
 10
57.91
 20
202.633749356053
 30
0.0
 11
61.788
 21
199.476749356053
 31
0.0
  0
LINE
  5
4C1
330
1D
100
AcDbEntity
  8
0
100
AcDbLine
 10
53.908
 20
205.633749356053
 30
0.0
 11
57.91
 21
202.633749356053
 31
0.0
  0
LINE
  5
4C2
330
1D
100
AcDbEntity
  8
0
100
AcDbLine
 10
52.913
 20
175.446749356053
 30
0.0
 11
62.447
 21
167.996749356053
 31
0.0
  0
LINE
  5
4C3
330
1D
100
AcDbEntity
  8
0
100
AcDbLine
 10
62.447
 20
167.996749356053
 30
0.0
 11
70.643
 21
161.594749356053
 31
0.0
  0
LINE
  5
4CA
330
1D
100
AcDbEntity
  8
0
100
AcDbLine
 10
92.02682352093
 20
172.062131666661
 30
0.0
 11
96.4706
 21
167.886749356053
 31
0.0
  0
LINE
  5
4CC
330
1D
100
AcDbEntity
  8
0
100
AcDbLine
 10
96.4706
 20
167.886749356053
 30
0.0
 11
104.9075
 21
159.555749356053
 31
0.0
  0
LINE
  5
502
330
1D
100
AcDbEntity
  8
0
100
AcDbLine
 10
92.02682352093
 20
172.062131666661
 30
0.0
 11
96.4706
 21
167.886749356053
 31
0.0
  0
LINE
  5
504
330
1D
100
AcDbEntity
  8
0
100
AcDbLine
 10
87.561
 20
176.518749356053
 30
0.0
 11
92.02682352093
 21
172.062131666661
 31
0.0
  0
LINE
  5
505
330
1D
100
AcDbEntity
  8
0
100
AcDbLine
 10
87.561
 20
176.518749356053
 30
0.0
 11
92.02682352093
 21
172.062131666661
 31
0.0
  0
LINE
  5
50E
330
1D
100
AcDbEntity
  8
0
100
AcDbLine
 10
157.1943
 20
99.275049356053
 30
0.0
 11
168.7125
 21
82.563949356053
 31
0.0
  0
LINE
  5
50F
330
1D
100
AcDbEntity
  8
0
100
AcDbLine
 10
146.7094
 20
68.712249356053
 30
0.0
 11
154.8073
 21
54.741449356053
 31
0.0
  0
LINE
  5
510
330
1D
100
AcDbEntity
  8
0
100
AcDbLine
 10
154.8073
 20
54.741449356053
 30
0.0
 11
162.9797
 21
40.739249356053
 31
0.0
  0
LINE
  5
511
330
1D
100
AcDbEntity
  8
0
100
AcDbLine
 10
162.9797
 20
40.739249356053
 30
0.0
 11
164.9773
 21
36.818849356053
 31
0.0
  0
LINE
  5
512
330
1D
100
AcDbEntity
  8
0
100
AcDbLine
 10
164.9773
 20
36.818849356053
 30
0.0
 11
165.5059
 21
36.414949356053
 31
0.0
  0
LINE
  5
513
330
1D
100
AcDbEntity
  8
0
100
AcDbLine
 10
166.096
 20
7.038749356053
 30
0.0
 11
168.496
 21
7.038749356053
 31
0.0
  0
LINE
  5
516
330
1D
100
AcDbEntity
  8
0
100
AcDbLine
 10
166.0718
 20
7.038749356053
 30
0.0
 11
167.3652
 21
7.038749356053
 31
0.0
  0
LINE
  5
51D
330
1D
100
AcDbEntity
  8
0
100
AcDbLine
 10
167.3652
 20
7.038749356053
 30
0.0
 11
168.9679
 21
7.038749356053
 31
0.0
  0
LINE
  5
51E
330
1D
100
AcDbEntity
  8
0
100
AcDbLine
 10
166.5581
 20
7.038749356053
 30
0.0
 11
167.979
 21
7.038749356053
 31
0.0
  0
LINE
  5
51F
330
1D
100
AcDbEntity
  8
0
100
AcDbLine
 10
166.5201
 20
7.038749356053
 30
0.0
 11
168.9822
 21
7.038749356053
 31
0.0
  0
LINE
  5
520
330
1D
100
AcDbEntity
  8
0
100
AcDbLine
 10
166.9605
 20
7.038749356053
 30
0.0
 11
169.4642
 21
7.038749356053
 31
0.0
  0
LINE
  5
52C
330
1D
100
AcDbEntity
  8
0
100
AcDbLine
 10
168.496
 20
7.038749356053
 30
0.0
 11
172.496
 21
7.038749356053
 31
0.0
  0
LINE
  5
533
330
1D
100
AcDbEntity
  8
0
100
AcDbLine
 10
168.9679
 20
7.038749356053
 30
0.0
 11
170.8572
 21
7.038749356053
 31
0.0
  0
LINE
  5
534
330
1D
100
AcDbEntity
  8
0
100
AcDbLine
 10
167.979
 20
7.038749356053
 30
0.0
 11
169.7011
 21
7.038749356053
 31
0.0
  0
LINE
  5
543
330
1D
100
AcDbEntity
  8
0
100
AcDbLine
 10
170.8572
 20
7.038749356053
 30
0.0
 11
173.008
 21
7.038749356053
 31
0.0
  0
LINE
  5
544
330
1D
100
AcDbEntity
  8
0
100
AcDbLine
 10
169.7011
 20
7.038749356053
 30
0.0
 11
171.6993
 21
7.038749356053
 31
0.0
  0
LINE
  5
549
330
1D
100
AcDbEntity
  8
0
100
AcDbLine
 10
172.496
 20
7.038749356053
 30
0.0
 11
177.796
 21
7.038749356053
 31
0.0
  0
LINE
  5
552
330
1D
100
AcDbEntity
  8
0
100
AcDbLine
 10
173.008
 20
7.038749356053
 30
0.0
 11
175.3916
 21
7.038749356053
 31
0.0
  0
LINE
  5
565
330
1D
100
AcDbEntity
  8
0
100
AcDbLine
 10
177.796
 20
7.038749356053
 30
0.0
 11
183.796
 21
7.038749356053
 31
0.0
  0
LINE
  5
569
330
1D
100
AcDbEntity
  8
0
100
AcDbLine
 10
175.3916
 20
7.038749356053
 30
0.0
 11
177.9749
 21
7.038749356053
 31
0.0
  0
LINE
  5
56A
330
1D
100
AcDbEntity
  8
0
100
AcDbLine
 10
177.9749
 20
7.038749356053
 30
0.0
 11
180.724
 21
7.038749356053
 31
0.0
  0
LINE
  5
56B
330
1D
100
AcDbEntity
  8
0
100
AcDbLine
 10
176.4174
 20
7.038749356053
 30
0.0
 11
179.072
 21
7.038749356053
 31
0.0
  0
LINE
  5
56C
330
1D
100
AcDbEntity
  8
0
100
AcDbLine
 10
173.9488
 20
7.038749356053
 30
0.0
 11
176.4174
 21
7.038749356053
 31
0.0
  0
LINE
  5
56D
330
1D
100
AcDbEntity
  8
0
100
AcDbLine
 10
171.6993
 20
7.038749356053
 30
0.0
 11
173.9488
 21
7.038749356053
 31
0.0
  0
LINE
  5
56E
330
1D
100
AcDbEntity
  8
0
100
AcDbLine
 10
178.3885
 20
7.038749356053
 30
0.0
 11
178.4529
 21
7.038749356053
 31
0.0
  0
LINE
  5
56F
330
1D
100
AcDbEntity
  8
0
100
AcDbLine
 10
178.5709
 20
7.038749356053
 30
0.0
 11
178.7418
 21
7.038749356053
 31
0.0
  0
LINE
  5
570
330
1D
100
AcDbEntity
  8
0
100
AcDbLine
 10
178.5709
 20
7.038749356053
 30
0.0
 11
178.7419
 21
7.038749356053
 31
0.0
  0
LINE
  5
571
330
1D
100
AcDbEntity
  8
0
100
AcDbLine
 10
178.4529
 20
7.038749356053
 30
0.0
 11
178.5709
 21
7.038749356053
 31
0.0
  0
LINE
  5
572
330
1D
100
AcDbEntity
  8
0
100
AcDbLine
 10
178.3884
 20
7.038749356053
 30
0.0
 11
178.4529
 21
7.038749356053
 31
0.0
  0
LINE
  5
578
330
1D
100
AcDbEntity
  8
0
100
AcDbLine
 10
178.8138
 20
7.038749356053
 30
0.0
 11
179.053
 21
7.038749356053
 31
0.0
  0
LINE
  5
579
330
1D
100
AcDbEntity
  8
0
100
AcDbLine
 10
178.8137
 20
7.038749356053
 30
0.0
 11
179.0529
 21
7.038749356053
 31
0.0
  0
LINE
  5
57A
330
1D
100
AcDbEntity
  8
0
100
AcDbLine
 10
179.0529
 20
7.038749356053
 30
0.0
 11
179.3933
 21
7.038749356053
 31
0.0
  0
LINE
  5
58F
330
1D
100
AcDbEntity
  8
0
100
AcDbLine
 10
179.072
 20
7.038749356053
 30
0.0
 11
181.8775
 21
7.038749356053
 31
0.0
  0
LINE
  5
590
330
1D
100
AcDbEntity
  8
0
100
AcDbLine
 10
179.1566
 20
7.038749356053
 30
0.0
 11
179.5142
 21
7.038749356053
 31
0.0
  0
LINE
  5
591
330
1D
100
AcDbEntity
  8
0
100
AcDbLine
 10
179.053
 20
7.038749356053
 30
0.0
 11
179.1566
 21
7.038749356053
 31
0.0
  0
LINE
  5
592
330
1D
100
AcDbEntity
  8
0
100
AcDbLine
 10
178.7419
 20
7.038749356053
 30
0.0
 11
178.8138
 21
7.038749356053
 31
0.0
  0
LINE
  5
593
330
1D
100
AcDbEntity
  8
0
100
AcDbLine
 10
178.7418
 20
7.038749356053
 30
0.0
 11
178.8137
 21
7.038749356053
 31
0.0
  0
LINE
  5
594
330
1D
100
AcDbEntity
  8
0
100
AcDbLine
 10
179.3933
 20
7.038749356053
 30
0.0
 11
179.5142
 21
7.038749356053
 31
0.0
  0
LINE
  5
5A4
330
1D
100
AcDbEntity
  8
0
100
AcDbLine
 10
180.0909
 20
7.038749356053
 30
0.0
 11
180.5934
 21
7.038749356053
 31
0.0
  0
LINE
  5
5A5
330
1D
100
AcDbEntity
  8
0
100
AcDbLine
 10
179.6501
 20
7.038749356053
 30
0.0
 11
180.0911
 21
7.038749356053
 31
0.0
  0
LINE
  5
5A6
330
1D
100
AcDbEntity
  8
0
100
AcDbLine
 10
179.6501
 20
7.038749356053
 30
0.0
 11
180.0909
 21
7.038749356053
 31
0.0
  0
LINE
  5
5A7
330
1D
100
AcDbEntity
  8
0
100
AcDbLine
 10
180.0911
 20
7.038749356053
 30
0.0
 11
180.5935
 21
7.038749356053
 31
0.0
  0
LINE
  5
5A8
330
1D
100
AcDbEntity
  8
0
100
AcDbLine
 10
179.5142
 20
7.038749356053
 30
0.0
 11
179.6501
 21
7.038749356053
 31
0.0
  0
LINE
  5
5A9
330
1D
100
AcDbEntity
  8
0
100
AcDbLine
 10
174.5142
 20
7.038749356053
 30
0.0
 11
177.5308
 21
7.038749356053
 31
0.0
  0
LINE
  5
5AA
330
1D
100
AcDbEntity
  8
0
100
AcDbLine
 10
171.6554
 20
7.038749356053
 30
0.0
 11
174.5142
 21
7.038749356053
 31
0.0
  0
LINE
  5
5AB
330
1D
100
AcDbEntity
  8
0
100
AcDbLine
 10
177.5308
 20
7.038749356053
 30
0.0
 11
180.6753
 21
7.038749356053
 31
0.0
  0
LINE
  5
5AC
330
1D
100
AcDbEntity
  8
0
100
AcDbLine
 10
168.9822
 20
7.038749356053
 30
0.0
 11
171.6554
 21
7.038749356053
 31
0.0
  0
LINE
  5
5AD
330
1D
100
AcDbEntity
  8
0
100
AcDbLine
 10
169.4642
 20
7.038749356053
 30
0.0
 11
170.1707
 21
7.038749356053
 31
0.0
  0
LINE
  5
5AE
330
1D
100
AcDbEntity
  8
0
100
AcDbLine
 10
167.3827
 20
7.038749356053
 30
0.0
 11
169.9472
 21
7.038749356053
 31
0.0
  0
LINE
  5
5AF
330
1D
100
AcDbEntity
  8
0
100
AcDbLine
 10
169.9472
 20
7.038749356053
 30
0.0
 11
170.1707
 21
7.038749356053
 31
0.0
  0
LINE
  5
5B7
330
1D
100
AcDbEntity
  8
0
100
AcDbLine
 10
180.724
 20
7.038749356053
 30
0.0
 11
183.601
 21
7.038749356053
 31
0.0
  0
LINE
  5
5B8
330
1D
100
AcDbEntity
  8
0
100
AcDbLine
 10
180.5934
 20
7.038749356053
 30
0.0
 11
181.1579
 21
7.038749356053
 31
0.0
  0
LINE
  5
5B9
330
1D
100
AcDbEntity
  8
0
100
AcDbLine
 10
180.5935
 20
7.038749356053
 30
0.0
 11
181.1579
 21
7.038749356053
 31
0.0
  0
LINE
  5
5C1
330
1D
100
AcDbEntity
  8
0
100
AcDbLine
 10
181.3768
 20
7.038749356053
 30
0.0
 11
181.9849
 21
7.038749356053
 31
0.0
  0
LINE
  5
5D6
330
1D
100
AcDbEntity
  8
0
100
AcDbLine
 10
181.8775
 20
7.038749356053
 30
0.0
 11
184.7953
 21
7.038749356053
 31
0.0
  0
LINE
  5
5D7
330
1D
100
AcDbEntity
  8
0
100
AcDbLine
 10
181.9849
 20
7.038749356053
 30
0.0
 11
182.6373
 21
7.038749356053
 31
0.0
  0
LINE
  5
5D8
330
1D
100
AcDbEntity
  8
0
100
AcDbLine
 10
181.6106
 20
7.038749356053
 30
0.0
 11
182.2387
 21
7.038749356053
 31
0.0
  0
LINE
  5
5D9
330
1D
100
AcDbEntity
  8
0
100
AcDbLine
 10
182.2387
 20
7.038749356053
 30
0.0
 11
182.9105
 21
7.038749356053
 31
0.0
  0
LINE
  5
5E1
330
1D
100
AcDbEntity
  8
0
100
AcDbLine
 10
183.796
 20
7.038749356053
 30
0.0
 11
190.196
 21
7.038749356053
 31
0.0
  0
LINE
  5
5E7
330
1D
100
AcDbEntity
  8
0
100
AcDbLine
 10
183.601
 20
7.038749356053
 30
0.0
 11
186.5668
 21
7.038749356053
 31
0.0
  0
LINE
  5
5E8
330
1D
100
AcDbEntity
  8
0
100
AcDbLine
 10
182.9105
 20
7.038749356053
 30
0.0
 11
183.6214
 21
7.038749356053
 31
0.0
  0
LINE
  5
5E9
330
1D
100
AcDbEntity
  8
0
100
AcDbLine
 10
182.6373
 20
7.038749356053
 30
0.0
 11
182.9105
 21
7.038749356053
 31
0.0
  0
LINE
  5
5EA
330
1D
100
AcDbEntity
  8
0
100
AcDbLine
 10
181.1579
 20
7.038749356053
 30
0.0
 11
181.6106
 21
7.038749356053
 31
0.0
  0
LINE
  5
5EB
330
1D
100
AcDbEntity
  8
0
100
AcDbLine
 10
181.1579
 20
7.038749356053
 30
0.0
 11
181.3768
 21
7.038749356053
 31
0.0
  0
LINE
  5
5EC
330
1D
100
AcDbEntity
  8
0
100
AcDbLine
 10
183.6214
 20
7.038749356053
 30
0.0
 11
183.9257
 21
7.038749356053
 31
0.0
  0
LINE
  5
5ED
330
1D
100
AcDbEntity
  8
0
100
AcDbLine
 10
183.6214
 20
7.038749356053
 30
0.0
 11
183.9256
 21
7.038749356053
 31
0.0
  0
LINE
  5
5EE
330
1D
100
AcDbEntity
  8
0
100
AcDbLine
 10
183.9256
 20
7.038749356053
 30
0.0
 11
184.6881
 21
7.038749356053
 31
0.0
  0
LINE
  5
5F9
330
1D
100
AcDbEntity
  8
0
100
AcDbLine
 10
184.7953
 20
7.038749356053
 30
0.0
 11
187.7866
 21
7.038749356053
 31
0.0
  0
LINE
  5
5FA
330
1D
100
AcDbEntity
  8
0
100
AcDbLine
 10
183.9257
 20
7.038749356053
 30
0.0
 11
184.6881
 21
7.038749356053
 31
0.0
  0
LINE
  5
5FB
330
1D
100
AcDbEntity
  8
0
100
AcDbLine
 10
184.6881
 20
7.038749356053
 30
0.0
 11
185.331
 21
7.038749356053
 31
0.0
  0
LINE
  5
603
330
1D
100
AcDbEntity
  8
0
100
AcDbLine
 10
186.5668
 20
7.038749356053
 30
0.0
 11
189.5822
 21
7.038749356053
 31
0.0
  0
LINE
  5
604
330
1D
100
AcDbEntity
  8
0
100
AcDbLine
 10
186.7508
 20
7.038749356053
 30
0.0
 11
187.1658
 21
7.038749356053
 31
0.0
  0
LINE
  5
605
330
1D
100
AcDbEntity
  8
0
100
AcDbLine
 10
186.1143
 20
7.038749356053
 30
0.0
 11
186.7508
 21
7.038749356053
 31
0.0
  0
LINE
  5
606
330
1D
100
AcDbEntity
  8
0
100
AcDbLine
 10
185.331
 20
7.038749356053
 30
0.0
 11
186.1141
 21
7.038749356053
 31
0.0
  0
LINE
  5
607
330
1D
100
AcDbEntity
  8
0
100
AcDbLine
 10
185.331
 20
7.038749356053
 30
0.0
 11
186.1143
 21
7.038749356053
 31
0.0
  0
LINE
  5
608
330
1D
100
AcDbEntity
  8
0
100
AcDbLine
 10
186.1141
 20
7.038749356053
 30
0.0
 11
186.7509
 21
7.038749356053
 31
0.0
  0
LINE
  5
629
330
1D
100
AcDbEntity
  8
0
100
AcDbLine
 10
187.7866
 20
7.038749356053
 30
0.0
 11
190.8098
 21
7.038749356053
 31
0.0
  0
LINE
  5
62A
330
1D
100
AcDbEntity
  8
0
100
AcDbLine
 10
186.7509
 20
7.038749356053
 30
0.0
 11
187.1658
 21
7.038749356053
 31
0.0
  0
LINE
  5
62B
330
1D
100
AcDbEntity
  8
0
100
AcDbLine
 10
187.1658
 20
7.038749356053
 30
0.0
 11
188.0582
 21
7.038749356053
 31
0.0
  0
LINE
  5
62F
330
1D
100
AcDbEntity
  8
0
100
AcDbLine
 10
189.5822
 20
7.038749356053
 30
0.0
 11
192.6059
 21
7.038749356053
 31
0.0
  0
LINE
  5
630
330
1D
100
AcDbEntity
  8
0
100
AcDbLine
 10
189.4819
 20
7.038749356053
 30
0.0
 11
190.421
 21
7.038749356053
 31
0.0
  0
LINE
  5
631
330
1D
100
AcDbEntity
  8
0
100
AcDbLine
 10
188.0582
 20
7.038749356053
 30
0.0
 11
189.2035
 21
7.038749356053
 31
0.0
  0
LINE
  5
639
330
1D
100
AcDbEntity
  8
0
100
AcDbLine
 10
190.196
 20
7.038749356053
 30
0.0
 11
196.596
 21
7.038749356053
 31
0.0
  0
LINE
  5
64A
330
1D
100
AcDbEntity
  8
0
100
AcDbLine
 10
190.8098
 20
7.038749356053
 30
0.0
 11
193.825
 21
7.038749356053
 31
0.0
  0
LINE
  5
64B
330
1D
100
AcDbEntity
  8
0
100
AcDbLine
 10
190.4208
 20
7.038749356053
 30
0.0
 11
191.3042
 21
7.038749356053
 31
0.0
  0
LINE
  5
64C
330
1D
100
AcDbEntity
  8
0
100
AcDbLine
 10
190.421
 20
7.038749356053
 30
0.0
 11
191.3042
 21
7.038749356053
 31
0.0
  0
LINE
  5
64D
330
1D
100
AcDbEntity
  8
0
100
AcDbLine
 10
190.0819
 20
7.038749356053
 30
0.0
 11
190.4208
 21
7.038749356053
 31
0.0
  0
LINE
  5
64E
330
1D
100
AcDbEntity
  8
0
100
AcDbLine
 10
189.2035
 20
7.038749356053
 30
0.0
 11
189.4819
 21
7.038749356053
 31
0.0
  0
LINE
  5
64F
330
1D
100
AcDbEntity
  8
0
100
AcDbLine
 10
189.2035
 20
7.038749356053
 30
0.0
 11
190.0819
 21
7.038749356053
 31
0.0
  0
LINE
  5
669
330
1D
100
AcDbEntity
  8
0
100
AcDbLine
 10
192.6059
 20
7.038749356053
 30
0.0
 11
195.5968
 21
7.038749356053
 31
0.0
  0
LINE
  5
66A
330
1D
100
AcDbEntity
  8
0
100
AcDbLine
 10
191.7598
 20
7.038749356053
 30
0.0
 11
192.7998
 21
7.038749356053
 31
0.0
  0
LINE
  5
678
330
1D
100
AcDbEntity
  8
0
100
AcDbLine
 10
193.825
 20
7.038749356053
 30
0.0
 11
196.7916
 21
7.038749356053
 31
0.0
  0
LINE
  5
679
330
1D
100
AcDbEntity
  8
0
100
AcDbLine
 10
193.8236
 20
7.038749356053
 30
0.0
 11
194.8229
 21
7.038749356053
 31
0.0
  0
LINE
  5
683
330
1D
100
AcDbEntity
  8
0
100
AcDbLine
 10
196.596
 20
7.038749356053
 30
0.0
 11
202.596
 21
7.038749356053
 31
0.0
  0
LINE
  5
688
330
1D
100
AcDbEntity
  8
0
100
AcDbLine
 10
195.5968
 20
7.038749356053
 30
0.0
 11
198.5144
 21
7.038749356053
 31
0.0
  0
LINE
  5
689
330
1D
100
AcDbEntity
  8
0
100
AcDbLine
 10
195.8076
 20
7.038749356053
 30
0.0
 11
196.7486
 21
7.038749356053
 31
0.0
  0
LINE
  5
68A
330
1D
100
AcDbEntity
  8
0
100
AcDbLine
 10
194.8229
 20
7.038749356053
 30
0.0
 11
195.8076
 21
7.038749356053
 31
0.0
  0
LINE
  5
68B
330
1D
100
AcDbEntity
  8
0
100
AcDbLine
 10
193.8237
 20
7.038749356053
 30
0.0
 11
194.8229
 21
7.038749356053
 31
0.0
  0
LINE
  5
68C
330
1D
100
AcDbEntity
  8
0
100
AcDbLine
 10
192.7998
 20
7.038749356053
 30
0.0
 11
193.8237
 21
7.038749356053
 31
0.0
  0
LINE
  5
68D
330
1D
100
AcDbEntity
  8
0
100
AcDbLine
 10
192.7998
 20
7.038749356053
 30
0.0
 11
193.8236
 21
7.038749356053
 31
0.0
  0
LINE
  5
68E
330
1D
100
AcDbEntity
  8
0
100
AcDbLine
 10
191.7599
 20
7.038749356053
 30
0.0
 11
192.7998
 21
7.038749356053
 31
0.0
  0
LINE
  5
6AA
330
1D
100
AcDbEntity
  8
0
100
AcDbLine
 10
196.7916
 20
7.038749356053
 30
0.0
 11
199.6685
 21
7.038749356053
 31
0.0
  0
LINE
  5
6AB
330
1D
100
AcDbEntity
  8
0
100
AcDbLine
 10
197.6898
 20
7.038749356053
 30
0.0
 11
198.5577
 21
7.038749356053
 31
0.0
  0
LINE
  5
6C2
330
1D
100
AcDbEntity
  8
0
100
AcDbLine
 10
198.5144
 20
7.038749356053
 30
0.0
 11
201.32
 21
7.038749356053
 31
0.0
  0
LINE
  5
6C3
330
1D
100
AcDbEntity
  8
0
100
AcDbLine
 10
198.8396
 20
7.038749356053
 30
0.0
 11
199.572
 21
7.038749356053
 31
0.0
  0
LINE
  5
6C4
330
1D
100
AcDbEntity
  8
0
100
AcDbLine
 10
198.8396
 20
7.038749356053
 30
0.0
 11
199.5721
 21
7.038749356053
 31
0.0
  0
LINE
  5
6C5
330
1D
100
AcDbEntity
  8
0
100
AcDbLine
 10
198.1033
 20
7.038749356053
 30
0.0
 11
198.8396
 21
7.038749356053
 31
0.0
  0
LINE
  5
6C6
330
1D
100
AcDbEntity
  8
0
100
AcDbLine
 10
197.188
 20
7.038749356053
 30
0.0
 11
198.1033
 21
7.038749356053
 31
0.0
  0
LINE
  5
6D3
330
1D
100
AcDbEntity
  8
0
100
AcDbLine
 10
199.6685
 20
7.038749356053
 30
0.0
 11
202.4174
 21
7.038749356053
 31
0.0
  0
LINE
  5
6D4
330
1D
100
AcDbEntity
  8
0
100
AcDbLine
 10
199.5721
 20
7.038749356053
 30
0.0
 11
200.2173
 21
7.038749356053
 31
0.0
  0
LINE
  5
6D8
330
1D
100
AcDbEntity
  8
0
100
AcDbLine
 10
200.2173
 20
7.038749356053
 30
0.0
 11
200.7691
 21
7.038749356053
 31
0.0
  0
LINE
  5
6D9
330
1D
100
AcDbEntity
  8
0
100
AcDbLine
 10
200.4813
 20
7.038749356053
 30
0.0
 11
200.9955
 21
7.038749356053
 31
0.0
  0
LINE
  5
6DA
330
1D
100
AcDbEntity
  8
0
100
AcDbLine
 10
199.572
 20
7.038749356053
 30
0.0
 11
200.2174
 21
7.038749356053
 31
0.0
  0
LINE
  5
6DB
330
1D
100
AcDbEntity
  8
0
100
AcDbLine
 10
198.5577
 20
7.038749356053
 30
0.0
 11
198.8396
 21
7.038749356053
 31
0.0
  0
LINE
  5
6DC
330
1D
100
AcDbEntity
  8
0
100
AcDbLine
 10
196.7486
 20
7.038749356053
 30
0.0
 11
197.188
 21
7.038749356053
 31
0.0
  0
LINE
  5
6DD
330
1D
100
AcDbEntity
  8
0
100
AcDbLine
 10
196.7486
 20
7.038749356053
 30
0.0
 11
197.6898
 21
7.038749356053
 31
0.0
  0
LINE
  5
6DE
330
1D
100
AcDbEntity
  8
0
100
AcDbLine
 10
200.2174
 20
7.038749356053
 30
0.0
 11
200.4813
 21
7.038749356053
 31
0.0
  0
LINE
  5
6DF
330
1D
100
AcDbEntity
  8
0
100
AcDbLine
 10
191.3042
 20
7.038749356053
 30
0.0
 11
191.7599
 21
7.038749356053
 31
0.0
  0
LINE
  5
6E0
330
1D
100
AcDbEntity
  8
0
100
AcDbLine
 10
195.2016
 20
7.038749356053
 30
0.0
 11
200.5012
 21
7.038749356053
 31
0.0
  0
LINE
  5
6FC
330
1D
100
AcDbEntity
  8
0
100
AcDbLine
 10
201.32
 20
7.038749356053
 30
0.0
 11
203.975
 21
7.038749356053
 31
0.0
  0
LINE
  5
6FD
330
1D
100
AcDbEntity
  8
0
100
AcDbLine
 10
201.4095
 20
7.038749356053
 30
0.0
 11
201.7179
 21
7.038749356053
 31
0.0
  0
LINE
  5
6FF
330
1D
100
AcDbEntity
  8
0
100
AcDbLine
 10
201.7179
 20
7.038749356053
 30
0.0
 11
201.9171
 21
7.038749356053
 31
0.0
  0
LINE
  5
700
330
1D
100
AcDbEntity
  8
0
100
AcDbLine
 10
201.7178
 20
7.038749356053
 30
0.0
 11
201.9171
 21
7.038749356053
 31
0.0
  0
LINE
  5
701
330
1D
100
AcDbEntity
  8
0
100
AcDbLine
 10
201.4096
 20
7.038749356053
 30
0.0
 11
201.7178
 21
7.038749356053
 31
0.0
  0
LINE
  5
702
330
1D
100
AcDbEntity
  8
0
100
AcDbLine
 10
200.9955
 20
7.038749356053
 30
0.0
 11
201.4096
 21
7.038749356053
 31
0.0
  0
LINE
  5
703
330
1D
100
AcDbEntity
  8
0
100
AcDbLine
 10
200.9955
 20
7.038749356053
 30
0.0
 11
201.4095
 21
7.038749356053
 31
0.0
  0
LINE
  5
704
330
1D
100
AcDbEntity
  8
0
100
AcDbLine
 10
200.7691
 20
7.038749356053
 30
0.0
 11
200.9955
 21
7.038749356053
 31
0.0
  0
LINE
  5
70D
330
1D
100
AcDbEntity
  8
0
100
AcDbLine
 10
202.596
 20
7.038749356053
 30
0.0
 11
207.896
 21
7.038749356053
 31
0.0
  0
LINE
  5
736
330
1D
100
AcDbEntity
  8
0
100
AcDbLine
 10
203.975
 20
7.038749356053
 30
0.0
 11
206.4433
 21
7.038749356053
 31
0.0
  0
LINE
  5
737
330
1D
100
AcDbEntity
  8
0
100
AcDbLine
 10
206.4433
 20
7.038749356053
 30
0.0
 11
208.6928
 21
7.038749356053
 31
0.0
  0
LINE
  5
738
330
1D
100
AcDbEntity
  8
0
100
AcDbLine
 10
205.0009
 20
7.038749356053
 30
0.0
 11
207.3838
 21
7.038749356053
 31
0.0
  0
LINE
  5
739
330
1D
100
AcDbEntity
  8
0
100
AcDbLine
 10
202.4174
 20
7.038749356053
 30
0.0
 11
205.0009
 21
7.038749356053
 31
0.0
  0
LINE
  5
73A
330
1D
100
AcDbEntity
  8
0
100
AcDbLine
 10
201.9171
 20
7.038749356053
 30
0.0
 11
201.9733
 21
7.038749356053
 31
0.0
  0
LINE
  5
73B
330
1D
100
AcDbEntity
  8
0
100
AcDbLine
 10
203.0945
 20
7.038749356053
 30
0.0
 11
206.1516
 21
7.038749356053
 31
0.0
  0
LINE
  5
73C
330
1D
100
AcDbEntity
  8
0
100
AcDbLine
 10
200.5012
 20
7.038749356053
 30
0.0
 11
203.6671
 21
7.038749356053
 31
0.0
  0
LINE
  5
73D
330
1D
100
AcDbEntity
  8
0
100
AcDbLine
 10
203.6671
 20
7.038749356053
 30
0.0
 11
206.7093
 21
7.038749356053
 31
0.0
  0
LINE
  5
750
330
1D
100
AcDbEntity
  8
0
100
AcDbLine
 10
207.896
 20
7.038749356053
 30
0.0
 11
211.896
 21
7.038749356053
 31
0.0
  0
LINE
  5
763
330
1D
100
AcDbEntity
  8
0
100
AcDbLine
 10
208.6928
 20
7.038749356053
 30
0.0
 11
210.691
 21
7.038749356053
 31
0.0
  0
LINE
  5
772
330
1D
100
AcDbEntity
  8
0
100
AcDbLine
 10
209.5349
 20
7.038749356053
 30
0.0
 11
211.4242
 21
7.038749356053
 31
0.0
  0
LINE
  5
773
330
1D
100
AcDbEntity
  8
0
100
AcDbLine
 10
207.3838
 20
7.038749356053
 30
0.0
 11
209.5349
 21
7.038749356053
 31
0.0
  0
LINE
  5
774
330
1D
100
AcDbEntity
  8
0
100
AcDbLine
 10
206.7093
 20
7.038749356053
 30
0.0
 11
209.6
 21
7.038749356053
 31
0.0
  0
LINE
  5
775
330
1D
100
AcDbEntity
  8
0
100
AcDbLine
 10
209.6
 20
7.038749356053
 30
0.0
 11
212.3095
 21
7.038749356053
 31
0.0
  0
LINE
  5
782
330
1D
100
AcDbEntity
  8
0
100
AcDbLine
 10
210.691
 20
7.038749356053
 30
0.0
 11
212.4131
 21
7.038749356053
 31
0.0
  0
LINE
  5
78A
330
1D
100
AcDbEntity
  8
0
100
AcDbLine
 10
211.896
 20
7.038749356053
 30
0.0
 11
214.296
 21
7.038749356053
 31
0.0
  0
LINE
  5
79E
330
1D
100
AcDbEntity
  8
0
100
AcDbLine
 10
212.4131
 20
7.038749356053
 30
0.0
 11
213.834
 21
7.038749356053
 31
0.0
  0
LINE
  5
79F
330
1D
100
AcDbEntity
  8
0
100
AcDbLine
 10
211.4242
 20
7.038749356053
 30
0.0
 11
213.0271
 21
7.038749356053
 31
0.0
  0
LINE
  5
7A0
330
1D
100
AcDbEntity
  8
0
100
AcDbLine
 10
212.3095
 20
7.038749356053
 30
0.0
 11
214.8132
 21
7.038749356053
 31
0.0
  0
LINE
  5
7AE
330
1D
100
AcDbEntity
  8
0
100
AcDbLine
 10
214.296
 20
7.038749356053
 30
0.0
 11
215.196
 21
7.038749356053
 31
0.0
  0
LINE
  5
7B6
330
1D
100
AcDbEntity
  8
0
100
AcDbLine
 10
213.834
 20
7.038749356053
 30
0.0
 11
214.9353
 21
7.038749356053
 31
0.0
  0
LINE
  5
7C1
330
1D
100
AcDbEntity
  8
0
100
AcDbLine
 10
214.9353
 20
7.038749356053
 30
0.0
 11
215.7025
 21
7.038749356053
 31
0.0
  0
LINE
  5
7C2
330
1D
100
AcDbEntity
  8
0
100
AcDbLine
 10
214.3206
 20
7.038749356053
 30
0.0
 11
215.2877
 21
7.038749356053
 31
0.0
  0
LINE
  5
7C3
330
1D
100
AcDbEntity
  8
0
100
AcDbLine
 10
213.0271
 20
7.038749356053
 30
0.0
 11
214.3206
 21
7.038749356053
 31
0.0
  0
LINE
  5
7C4
330
1D
100
AcDbEntity
  8
0
100
AcDbLine
 10
214.8132
 20
7.038749356053
 30
0.0
 11
217.0866
 21
7.038749356053
 31
0.0
  0
LINE
  5
7D1
330
1D
100
AcDbEntity
  8
0
100
AcDbLine
 10
215.7025
 20
7.038749356053
 30
0.0
 11
216.1246
 21
7.038749356053
 31
0.0
  0
LINE
  5
7DA
330
1D
100
AcDbEntity
  8
0
100
AcDbLine
 10
216.1246
 20
7.038749356053
 30
0.0
 11
216.196
 21
7.038749356053
 31
0.0
  0
LINE
  5
7DB
330
1D
100
AcDbEntity
  8
0
100
AcDbLine
 10
215.9158
 20
7.038749356053
 30
0.0
 11
216.196
 21
7.038749356053
 31
0.0
  0
LINE
  5
7F0
330
1D
100
AcDbEntity
  8
0
100
AcDbLine
 10
216.196
 20
7.038749356053
 30
0.0
 11
216.196
 21
9.379449356053
 31
0.0
  0
LINE
  5
7F1
330
1D
100
AcDbEntity
  8
0
100
AcDbLine
 10
215.2877
 20
7.038749356053
 30
0.0
 11
215.9158
 21
7.038749356053
 31
0.0
  0
LINE
  5
80D
330
1D
100
AcDbEntity
  8
0
100
AcDbLine
 10
217.0866
 20
7.038749356053
 30
0.0
 11
219.1072
 21
7.038749356053
 31
0.0
  0
LINE
  5
80E
330
1D
100
AcDbEntity
  8
0
100
AcDbLine
 10
217.4822
 20
7.038749356053
 30
0.0
 11
219.4538
 21
7.038749356053
 31
0.0
  0
LINE
  5
80F
330
1D
100
AcDbEntity
  8
0
100
AcDbLine
 10
215.2536
 20
7.038749356053
 30
0.0
 11
217.4822
 21
7.038749356053
 31
0.0
  0
LINE
  5
810
330
1D
100
AcDbEntity
  8
0
100
AcDbLine
 10
213.1444
 20
7.038749356053
 30
0.0
 11
215.6055
 21
7.038749356053
 31
0.0
  0
LINE
  5
811
330
1D
100
AcDbEntity
  8
0
100
AcDbLine
 10
212.7915
 20
7.038749356053
 30
0.0
 11
215.2536
 21
7.038749356053
 31
0.0
  0
LINE
  5
812
330
1D
100
AcDbEntity
  8
0
100
AcDbLine
 10
210.4829
 20
7.038749356053
 30
0.0
 11
213.1444
 21
7.038749356053
 31
0.0
  0
LINE
  5
813
330
1D
100
AcDbEntity
  8
0
100
AcDbLine
 10
210.221
 20
7.038749356053
 30
0.0
 11
212.7915
 21
7.038749356053
 31
0.0
  0
LINE
  5
814
330
1D
100
AcDbEntity
  8
0
100
AcDbLine
 10
210.221
 20
7.038749356053
 30
0.0
 11
210.4829
 21
7.038749356053
 31
0.0
  0
LINE
  5
815
330
1D
100
AcDbEntity
  8
0
100
AcDbLine
 10
188.9101
 20
7.038749356053
 30
0.0
 11
195.2016
 21
7.038749356053
 31
0.0
  0
LINE
  5
816
330
1D
100
AcDbEntity
  8
0
100
AcDbLine
 10
183.9191
 20
7.038749356053
 30
0.0
 11
188.9101
 21
7.038749356053
 31
0.0
  0
LINE
  5
817
330
1D
100
AcDbEntity
  8
0
100
AcDbLine
 10
180.6753
 20
7.038749356053
 30
0.0
 11
183.9191
 21
7.038749356053
 31
0.0
  0
LINE
  5
818
330
1D
100
AcDbEntity
  8
0
100
AcDbLine
 10
180.2382
 20
7.038749356053
 30
0.0
 11
183.4509
 21
7.038749356053
 31
0.0
  0
LINE
  5
819
330
1D
100
AcDbEntity
  8
0
100
AcDbLine
 10
216.7437
 20
7.038751356053
 30
0.0
 11
218.8617
 21
7.038751356053
 31
0.0
  0
LINE
  5
81A
330
1D
100
AcDbEntity
  8
0
100
AcDbLine
 10
216.196
 20
7.038749884157
 30
0.0
 11
217.8418
 21
7.038751356053
 31
0.0
  0
LINE
  5
81B
330
1D
100
AcDbEntity
  8
0
100
AcDbLine
 10
190.0482
 20
7.038749356053
 30
0.0
 11
193.3729
 21
7.038749356053
 31
0.0
  0
LINE
  5
81C
330
1D
100
AcDbEntity
  8
0
100
AcDbLine
 10
166.1682
 20
7.038749356053
 30
0.0
 11
168.6293
 21
7.038749356053
 31
0.0
  0
LINE
  5
81D
330
1D
100
AcDbEntity
  8
0
100
AcDbLine
 10
216.196
 20
7.038751356053
 30
0.0
 11
216.7437
 21
7.038751356053
 31
0.0
  0
LINE
  5
838
330
1D
100
AcDbEntity
  8
0
100
AcDbLine
 10
219.1072
 20
7.038749356053
 30
0.0
 11
220.856
 21
7.038749356053
 31
0.0
  0
LINE
  5
839
330
1D
100
AcDbEntity
  8
0
100
AcDbLine
 10
220.856
 20
7.038749356053
 30
0.0
 11
222.3168
 21
7.038749356053
 31
0.0
  0
LINE
  5
843
330
1D
100
AcDbEntity
  8
0
100
AcDbLine
 10
222.3168
 20
7.038749356053
 30
0.0
 11
223.475
 21
7.038749356053
 31
0.0
  0
LINE
  5
84D
330
1D
100
AcDbEntity
  8
0
100
AcDbLine
 10
223.475
 20
7.038749356053
 30
0.0
 11
224.318
 21
7.038749356053
 31
0.0
  0
LINE
  5
84E
330
1D
100
AcDbEntity
  8
0
100
AcDbLine
 10
224.318
 20
7.038749356053
 30
0.0
 11
224.841
 21
7.038749356053
 31
0.0
  0
LINE
  5
853
330
1D
100
AcDbEntity
  8
0
100
AcDbLine
 10
224.841
 20
7.038749356053
 30
0.0
 11
225.036
 21
7.038749356053
 31
0.0
  0
LINE
  5
855
330
1D
100
AcDbEntity
  8
0
100
AcDbLine
 10
224.902
 20
7.038749356053
 30
0.0
 11
225.036
 21
7.038749356053
 31
0.0
  0
LINE
  5
856
330
1D
100
AcDbEntity
  8
0
100
AcDbLine
 10
225.039
 20
7.038749356053
 30
0.0
 11
225.59
 21
7.038749356053
 31
0.0
  0
LINE
  5
857
330
1D
100
AcDbEntity
  8
0
100
AcDbLine
 10
224.44
 20
7.038749356053
 30
0.0
 11
224.902
 21
7.038749356053
 31
0.0
  0
LINE
  5
858
330
1D
100
AcDbEntity
  8
0
100
AcDbLine
 10
223.655
 20
7.038749356053
 30
0.0
 11
224.44
 21
7.038749356053
 31
0.0
  0
LINE
  5
859
330
1D
100
AcDbEntity
  8
0
100
AcDbLine
 10
222.5557
 20
7.038749356053
 30
0.0
 11
223.655
 21
7.038749356053
 31
0.0
  0
LINE
  5
85A
330
1D
100
AcDbEntity
  8
0
100
AcDbLine
 10
221.5651
 20
7.038749356053
 30
0.0
 11
223.0181
 21
7.038751356053
 31
0.0
  0
LINE
  5
85B
330
1D
100
AcDbEntity
  8
0
100
AcDbLine
 10
221.1503
 20
7.038749356053
 30
0.0
 11
222.5557
 21
7.038749356053
 31
0.0
  0
LINE
  5
85C
330
1D
100
AcDbEntity
  8
0
100
AcDbLine
 10
220.7265
 20
7.038751356053
 30
0.0
 11
222.3207
 21
7.038751356053
 31
0.0
  0
LINE
  5
85D
330
1D
100
AcDbEntity
  8
0
100
AcDbLine
 10
222.3207
 20
7.038751356053
 30
0.0
 11
223.631
 21
7.038751356053
 31
0.0
  0
LINE
  5
85E
330
1D
100
AcDbEntity
  8
0
100
AcDbLine
 10
223.631
 20
7.038751356053
 30
0.0
 11
224.644
 21
7.038751356053
 31
0.0
  0
LINE
  5
85F
330
1D
100
AcDbEntity
  8
0
100
AcDbLine
 10
224.644
 20
7.038751356053
 30
0.0
 11
225.351
 21
7.038751356053
 31
0.0
  0
LINE
  5
860
330
1D
100
AcDbEntity
  8
0
100
AcDbLine
 10
224.179
 20
7.038751356053
 30
0.0
 11
225.039
 21
7.038749356053
 31
0.0
  0
LINE
  5
861
330
1D
100
AcDbEntity
  8
0
100
AcDbLine
 10
223.0181
 20
7.038751356053
 30
0.0
 11
224.179
 21
7.038751356053
 31
0.0
  0
LINE
  5
862
330
1D
100
AcDbEntity
  8
0
100
AcDbLine
 10
219.8344
 20
7.038751356053
 30
0.0
 11
221.5651
 21
7.038749356053
 31
0.0
  0
LINE
  5
863
330
1D
100
AcDbEntity
  8
0
100
AcDbLine
 10
219.4538
 20
7.038749356053
 30
0.0
 11
221.1503
 21
7.038749356053
 31
0.0
  0
LINE
  5
864
330
1D
100
AcDbEntity
  8
0
100
AcDbLine
 10
218.8617
 20
7.038751356053
 30
0.0
 11
220.7265
 21
7.038751356053
 31
0.0
  0
LINE
  5
865
330
1D
100
AcDbEntity
  8
0
100
AcDbLine
 10
168.134802945684
 20
15.861698902939
 30
0.0
 11
168.5162
 21
15.947669356053
 31
0.0
  0
LINE
  5
866
330
1D
100
AcDbEntity
  8
0
100
AcDbLine
 10
166.5438
 20
16.738749356053
 30
0.0
 11
168.1774
 21
16.738749356053
 31
0.0
  0
LINE
  5
867
330
1D
100
AcDbEntity
  8
0
100
AcDbLine
 10
169.8324
 20
11.366619356053
 30
0.0
 11
174.7512
 21
12.176029356053
 31
0.0
  0
LINE
  5
868
330
1D
100
AcDbEntity
  8
0
100
AcDbLine
 10
169.2077
 20
15.854999356053
 30
0.0
 11
177.267414500918
 21
15.847820222971
 31
0.0
  0
LINE
  5
869
330
1D
100
AcDbEntity
  8
0
100
AcDbLine
 10
169.2077
 20
15.854999356053
 30
0.0
 11
177.267042867881
 21
15.848729910854
 31
0.0
  0
LINE
  5
86A
330
1D
100
AcDbEntity
  8
0
100
AcDbLine
 10
176.989
 20
12.176029356053
 30
0.0
 11
178.3353
 21
12.176029356053
 31
0.0
  0
LINE
  5
86B
330
1D
100
AcDbEntity
  8
0
100
AcDbLine
 10
175.937
 20
12.176029356053
 30
0.0
 11
176.989
 21
12.176029356053
 31
0.0
  0
LINE
  5
86C
330
1D
100
AcDbEntity
  8
0
100
AcDbLine
 10
175.2038
 20
12.176029356053
 30
0.0
 11
175.937
 21
12.176029356053
 31
0.0
  0
LINE
  5
86D
330
1D
100
AcDbEntity
  8
0
100
AcDbLine
 10
174.8053
 20
12.176029356053
 30
0.0
 11
175.2038
 21
12.176029356053
 31
0.0
  0
LINE
  5
86E
330
1D
100
AcDbEntity
  8
0
100
AcDbLine
 10
174.7512
 20
12.176029356053
 30
0.0
 11
174.8053
 21
12.176029356053
 31
0.0
  0
LINE
  5
86F
330
1D
100
AcDbEntity
  8
0
100
AcDbLine
 10
181.7878
 20
12.176029356053
 30
0.0
 11
183.8163
 21
12.176029356053
 31
0.0
  0
LINE
  5
870
330
1D
100
AcDbEntity
  8
0
100
AcDbLine
 10
178.3353
 20
12.176029356053
 30
0.0
 11
179.9473
 21
12.176029356053
 31
0.0
  0
LINE
  5
871
330
1D
100
AcDbEntity
  8
0
100
AcDbLine
 10
179.9473
 20
12.176029356053
 30
0.0
 11
181.7878
 21
12.176029356053
 31
0.0
  0
LINE
  5
872
330
1D
100
AcDbEntity
  8
0
100
AcDbLine
 10
190.5611
 20
12.176029356053
 30
0.0
 11
192.8613
 21
12.176029356053
 31
0.0
  0
LINE
  5
873
330
1D
100
AcDbEntity
  8
0
100
AcDbLine
 10
188.2525
 20
12.176029356053
 30
0.0
 11
190.5611
 21
12.176029356053
 31
0.0
  0
LINE
  5
874
330
1D
100
AcDbEntity
  8
0
100
AcDbLine
 10
183.8163
 20
12.176029356053
 30
0.0
 11
185.9877
 21
12.176029356053
 31
0.0
  0
LINE
  5
875
330
1D
100
AcDbEntity
  8
0
100
AcDbLine
 10
185.9877
 20
12.176029356053
 30
0.0
 11
188.2525
 21
12.176029356053
 31
0.0
  0
LINE
  5
876
330
1D
100
AcDbEntity
  8
0
100
AcDbLine
 10
197.2333
 20
12.176029356053
 30
0.0
 11
199.2072
 21
12.176029356053
 31
0.0
  0
LINE
  5
877
330
1D
100
AcDbEntity
  8
0
100
AcDbLine
 10
192.8613
 20
12.176029356053
 30
0.0
 11
195.1022
 21
12.176029356053
 31
0.0
  0
LINE
  5
878
330
1D
100
AcDbEntity
  8
0
100
AcDbLine
 10
177.7156
 20
14.395599356053
 30
0.0
 11
177.9904
 21
13.016209356053
 31
0.0
  0
LINE
  5
87A
330
1D
100
AcDbEntity
  8
0
100
AcDbLine
 10
177.9904
 20
13.016209356053
 30
0.0
 11
178.075385574277
 21
12.176029356053
 31
0.0
  0
LINE
  5
87B
330
1D
100
AcDbEntity
  8
0
100
AcDbLine
 10
195.1022
 20
12.176029356053
 30
0.0
 11
197.2333
 21
12.176029356053
 31
0.0
  0
LINE
  5
87C
330
1D
100
AcDbEntity
  8
0
100
AcDbLine
 10
202.289774521086
 20
12.176029356053
 30
0.0
 11
202.3189
 21
12.725569356053
 31
0.0
  0
LINE
  5
87D
330
1D
100
AcDbEntity
  8
0
100
AcDbLine
 10
203.768
 20
12.176029356053
 30
0.0
 11
204.7216
 21
12.176029356053
 31
0.0
  0
LINE
  5
87E
330
1D
100
AcDbEntity
  8
0
100
AcDbLine
 10
202.5116
 20
12.176029356053
 30
0.0
 11
203.768
 21
12.176029356053
 31
0.0
  0
LINE
  5
87F
330
1D
100
AcDbEntity
  8
0
100
AcDbLine
 10
205.5867
 20
12.176029356053
 30
0.0
 11
205.6409
 21
12.176029356053
 31
0.0
  0
LINE
  5
880
330
1D
100
AcDbEntity
  8
0
100
AcDbLine
 10
205.393729698311
 20
12.169048543877
 30
0.0
 11
205.6409
 21
12.176029356053
 31
0.0
  0
LINE
  5
881
330
1D
100
AcDbEntity
  8
0
100
AcDbLine
 10
210.5597
 20
11.366619356053
 30
0.0
 11
215.4257
 21
10.342539356053
 31
0.0
  0
LINE
  5
882
330
1D
100
AcDbEntity
  8
0
100
AcDbLine
 10
205.6409
 20
12.176029356053
 30
0.0
 11
210.5597
 21
11.366619356053
 31
0.0
  0
LINE
  5
883
330
1D
100
AcDbEntity
  8
0
100
AcDbLine
 10
205.3507
 20
12.176029356053
 30
0.0
 11
205.6409
 21
12.176029356053
 31
0.0
  0
LINE
  5
884
330
1D
100
AcDbEntity
  8
0
100
AcDbLine
 10
204.7216
 20
12.176029356053
 30
0.0
 11
205.3507
 21
12.176029356053
 31
0.0
  0
LINE
  5
885
330
1D
100
AcDbEntity
  8
0
100
AcDbLine
 10
202.2624
 20
13.859309356053
 30
0.0
 11
202.3111
 21
13.576049356053
 31
0.0
  0
LINE
  5
886
330
1D
100
AcDbEntity
  8
0
100
AcDbLine
 10
202.3111
 20
13.576049356053
 30
0.0
 11
202.3189
 21
12.725569356053
 31
0.0
  0
LINE
  5
887
330
1D
100
AcDbEntity
  8
0
100
AcDbLine
 10
202.198
 20
14.419169356053
 30
0.0
 11
202.2624
 21
13.859309356053
 31
0.0
  0
LINE
  5
888
330
1D
100
AcDbEntity
  8
0
100
AcDbLine
 10
200.9796
 20
12.176029356053
 30
0.0
 11
202.5116
 21
12.176029356053
 31
0.0
  0
LINE
  5
889
330
1D
100
AcDbEntity
  8
0
100
AcDbLine
 10
199.2072
 20
12.176029356053
 30
0.0
 11
200.9796
 21
12.176029356053
 31
0.0
  0
LINE
  5
88A
330
1D
100
AcDbEntity
  8
0
100
AcDbLine
 10
177.3102
 20
15.743089356053
 30
0.0
 11
177.7156
 21
14.395599356053
 31
0.0
  0
LINE
  5
88B
330
1D
100
AcDbEntity
  8
0
100
AcDbLine
 10
201.9812
 20
15.242199356053
 30
0.0
 11
202.0438
 21
14.970649356053
 31
0.0
  0
LINE
  5
88D
330
1D
100
AcDbEntity
  8
0
100
AcDbLine
 10
172.875269121762
 20
15.864614568598
 30
0.0
 11
173.5383
 21
15.873049356053
 31
0.0
  0
LINE
  5
88E
330
1D
100
AcDbEntity
  8
0
100
AcDbLine
 10
168.5162
 20
15.947669356053
 30
0.0
 11
168.9622
 21
16.219519356053
 31
0.0
  0
LINE
  5
88F
330
1D
100
AcDbEntity
  8
0
100
AcDbLine
 10
201.6641
 20
16.032779356053
 30
0.0
 11
201.9812
 21
15.242199356053
 31
0.0
  0
LINE
  5
891
330
1D
100
AcDbEntity
  8
0
100
AcDbLine
 10
168.9622
 20
16.219519356053
 30
0.0
 11
169.2933
 21
16.769969356053
 31
0.0
  0
LINE
  5
89A
330
1D
100
AcDbEntity
  8
0
100
AcDbLine
 10
168.505
 20
16.738749356053
 30
0.0
 11
169.274520924698
 21
16.738749356053
 31
0.0
  0
LINE
  5
89B
330
1D
100
AcDbEntity
  8
0
100
AcDbLine
 10
166.754802090828
 20
16.738749356053
 30
0.0
 11
167.209402377388
 21
16.730232003535
 31
0.0
  0
LINE
  5
89C
330
1D
100
AcDbEntity
  8
0
100
AcDbLine
 10
215.4257
 20
10.342539356053
 30
0.0
 11
215.8234
 21
10.150079356053
 31
0.0
  0
LINE
  5
89D
330
1D
100
AcDbEntity
  8
0
100
AcDbLine
 10
216.0984
 20
9.806609356053
 30
0.0
 11
216.196
 21
9.379449356053
 31
0.0
  0
LINE
  5
89E
330
1D
100
AcDbEntity
  8
0
100
AcDbLine
 10
215.8234
 20
10.150079356053
 30
0.0
 11
216.0984
 21
9.806609356053
 31
0.0
  0
LINE
  5
89F
330
1D
100
AcDbEntity
  8
0
100
AcDbLine
 10
216.196
 20
9.379449356053
 30
0.0
 11
216.196
 21
7.038749356053
 31
0.0
  0
LINE
  5
8AA
330
1D
100
AcDbEntity
  8
0
100
AcDbLine
 10
166.689
 20
16.738749356053
 30
0.0
 11
168.505
 21
16.738749356053
 31
0.0
  0
LINE
  5
8AB
330
1D
100
AcDbEntity
  8
0
100
AcDbLine
 10
166.2662
 20
16.738749356053
 30
0.0
 11
166.29931060117
 21
36.818927980867
 31
0.0
  0
LINE
  5
8AC
330
1D
100
AcDbEntity
  8
0
100
AcDbLine
 10
166.2662
 20
16.738749356053
 30
0.0
 11
166.689
 21
16.738749356053
 31
0.0
  0
LINE
  5
8AD
330
1D
100
AcDbEntity
  8
0
100
AcDbLine
 10
166.2662
 20
16.738749356053
 30
0.0
 11
166.5438
 21
16.738749356053
 31
0.0
  0
LINE
  5
8B0
330
1D
100
AcDbEntity
  8
0
100
AcDbLine
 10
176.7777
 20
17.046549356053
 30
0.0
 11
177.3102
 21
15.743089356053
 31
0.0
  0
LINE
  5
8B1
330
1D
100
AcDbEntity
  8
0
100
AcDbLine
 10
169.2933
 20
16.769969356053
 30
0.0
 11
169.3826
 21
26.912849356053
 31
0.0
  0
LINE
  5
8B3
330
1D
100
AcDbEntity
  8
0
100
AcDbLine
 10
169.3826
 20
26.912849356053
 30
0.0
 11
169.7207
 21
27.457949356053
 31
0.0
  0
LINE
  5
8B4
330
1D
100
AcDbEntity
  8
0
100
AcDbLine
 10
173.4448
 20
24.207649356053
 30
0.0
 11
176.7777
 21
17.046549356053
 31
0.0
  0
LINE
  5
8B5
330
1D
100
AcDbEntity
  8
0
100
AcDbLine
 10
173.4899
 20
24.698949356053
 30
0.0
 11
173.6878
 21
24.862949356053
 31
0.0
  0
LINE
  5
8B6
330
1D
100
AcDbEntity
  8
0
100
AcDbLine
 10
173.401
 20
24.459249356053
 30
0.0
 11
173.4448
 21
24.207649356053
 31
0.0
  0
LINE
  5
8B7
330
1D
100
AcDbEntity
  8
0
100
AcDbLine
 10
173.401
 20
24.459249356053
 30
0.0
 11
173.4899
 21
24.698949356053
 31
0.0
  0
LINE
  5
8B8
330
1D
100
AcDbEntity
  8
0
100
AcDbLine
 10
173.6878
 20
24.862949356053
 30
0.0
 11
173.7613
 21
24.896849356053
 31
0.0
  0
LINE
  5
8BC
330
1D
100
AcDbEntity
  8
0
100
AcDbLine
 10
173.5525
 20
26.097749356053
 30
0.0
 11
173.9305
 21
26.118849356053
 31
0.0
  0
LINE
  5
8BD
330
1D
100
AcDbEntity
  8
0
100
AcDbLine
 10
173.1811
 20
26.170949356053
 30
0.0
 11
173.5525
 21
26.097749356053
 31
0.0
  0
LINE
  5
8BE
330
1D
100
AcDbEntity
  8
0
100
AcDbLine
 10
172.8402
 20
26.333749356053
 30
0.0
 11
173.1811
 21
26.170949356053
 31
0.0
  0
LINE
  5
8C5
330
1D
100
AcDbEntity
  8
0
100
AcDbLine
 10
173.9305
 20
26.118849356053
 30
0.0
 11
174.2855
 21
26.230449356053
 31
0.0
  0
LINE
  5
8CD
330
1D
100
AcDbEntity
  8
0
100
AcDbLine
 10
172.551
 20
26.575849356053
 30
0.0
 11
172.8402
 21
26.333749356053
 31
0.0
  0
LINE
  5
8D1
330
1D
100
AcDbEntity
  8
0
100
AcDbLine
 10
172.3326
 20
26.881849356053
 30
0.0
 11
172.551
 21
26.575849356053
 31
0.0
  0
LINE
  5
8DC
330
1D
100
AcDbEntity
  8
0
100
AcDbLine
 10
170.1116
 20
27.729449356053
 30
0.0
 11
171.3255
 21
27.979049356053
 31
0.0
  0
LINE
  5
8DD
330
1D
100
AcDbEntity
  8
0
100
AcDbLine
 10
169.7207
 20
27.457949356053
 30
0.0
 11
170.1116
 21
27.729449356053
 31
0.0
  0
LINE
  5
8DE
330
1D
100
AcDbEntity
  8
0
100
AcDbLine
 10
170.3161
 20
30.623349356053
 30
0.0
 11
172.3326
 21
26.881849356053
 31
0.0
  0
LINE
  5
8DF
330
1D
100
AcDbEntity
  8
0
100
AcDbLine
 10
170.3161
 20
30.623349356053
 30
0.0
 11
170.379
 21
30.652349356053
 31
0.0
  0
LINE
  5
8E0
330
1D
100
AcDbEntity
  8
0
100
AcDbLine
 10
170.3161
 20
30.623349356053
 30
0.0
 11
170.378996086843
 21
30.652356636683
 31
0.0
  0
LINE
  5
8E1
330
1D
100
AcDbEntity
  8
0
100
AcDbLine
 10
170.3818
 20
30.653649356053
 30
0.0
 11
170.5343
 21
30.724049356053
 31
0.0
  0
LINE
  5
8E3
330
1D
100
AcDbEntity
  8
0
100
AcDbLine
 10
170.5329
 20
30.723349356053
 30
0.0
 11
170.7672
 21
30.831449356053
 31
0.0
  0
LINE
  5
8E8
330
1D
100
AcDbEntity
  8
0
100
AcDbLine
 10
170.539
 20
30.726249356053
 30
0.0
 11
170.767193451503
 21
30.831461585183
 31
0.0
  0
LINE
  5
8E9
330
1D
100
AcDbEntity
  8
0
100
AcDbLine
 10
170.7679
 20
30.831749356053
 30
0.0
 11
171.082089372675
 21
30.976669271094
 31
0.0
  0
LINE
  5
8EA
330
1D
100
AcDbEntity
  8
0
100
AcDbLine
 10
170.7679
 20
30.831749356053
 30
0.0
 11
171.0821
 21
30.976649356053
 31
0.0
  0
LINE
  5
8EB
330
1D
100
AcDbEntity
  8
0
100
AcDbLine
 10
170.933693102108
 20
30.908221459699
 30
0.0
 11
171.082098104253
 21
30.976652908583
 31
0.0
  0
LINE
  5
8EC
330
1D
100
AcDbEntity
  8
0
100
AcDbLine
 10
170.933693102108
 20
30.908221459699
 30
0.0
 11
171.082098104253
 21
30.976652908583
 31
0.0
  0
LINE
  5
8ED
330
1D
100
AcDbEntity
  8
0
100
AcDbLine
 10
171.017720489813
 20
30.946959378249
 30
0.0
 11
171.082098591938
 21
30.976651994686
 31
0.0
  0
LINE
  5
8EE
330
1D
100
AcDbEntity
  8
0
100
AcDbLine
 10
171.0851
 20
30.978049356053
 30
0.0
 11
171.476371484825
 21
31.158502866117
 31
0.0
  0
LINE
  5
8EF
330
1D
100
AcDbEntity
  8
0
100
AcDbLine
 10
171.0851
 20
30.978049356053
 30
0.0
 11
171.4764
 21
31.158449356053
 31
0.0
  0
LINE
  5
8F0
330
1D
100
AcDbEntity
  8
0
100
AcDbLine
 10
171.0908
 20
30.980749356053
 30
0.0
 11
171.47636048061
 21
31.158523516043
 31
0.0
  0
LINE
  5
8F1
330
1D
100
AcDbEntity
  8
0
100
AcDbLine
 10
171.136012205364
 20
31.001521274907
 30
0.0
 11
171.355
 21
31.102549356053
 31
0.0
  0
LINE
  5
8F2
330
1D
100
AcDbEntity
  8
0
100
AcDbLine
 10
171.164082122313
 20
31.014462274186
 30
0.0
 11
171.476375041339
 21
31.158496192151
 31
0.0
  0
LINE
  5
8F3
330
1D
100
AcDbEntity
  8
0
100
AcDbLine
 10
171.136012205364
 20
31.001521274907
 30
0.0
 11
171.355
 21
31.102549356053
 31
0.0
  0
LINE
  5
8F4
330
1D
100
AcDbEntity
  8
0
100
AcDbLine
 10
171.164082122314
 20
31.014462274186
 30
0.0
 11
171.476375041339
 21
31.158496192151
 31
0.0
  0
LINE
  5
8F7
330
1D
100
AcDbEntity
  8
0
100
AcDbLine
 10
170.5343
 20
30.724049356053
 30
0.0
 11
170.710076914535
 21
30.805094232114
 31
0.0
  0
LINE
  5
8F8
330
1D
100
AcDbEntity
  8
0
100
AcDbLine
 10
171.3255
 20
27.979049356053
 30
0.0
 11
171.600758067341
 21
28.239740053322
 31
0.0
  0
LINE
  5
8F9
330
1D
100
AcDbEntity
  8
0
100
AcDbLine
 10
171.3255
 20
27.979049356053
 30
0.0
 11
171.740303350558
 21
27.980821790414
 31
0.0
  0
LINE
  5
91D
330
1D
100
AcDbEntity
  8
0
100
AcDbLine
 10
169.3592
 20
31.027149356053
 30
0.0
 11
169.7355
 21
31.023549356053
 31
0.0
  0
LINE
  5
91E
330
1D
100
AcDbEntity
  8
0
100
AcDbLine
 10
169.3592
 20
31.027149356053
 30
0.0
 11
169.477951733805
 21
31.061874990903
 31
0.0
  0
LINE
  5
91F
330
1D
100
AcDbEntity
  8
0
100
AcDbLine
 10
169.7349
 20
31.351549356053
 30
0.0
 11
169.916111272871
 21
31.367067238005
 31
0.0
  0
LINE
  5
920
330
1D
100
AcDbEntity
  8
0
100
AcDbLine
 10
169.1936
 20
31.359549356053
 30
0.0
 11
169.7349
 21
31.351549356053
 31
0.0
  0
LINE
  5
921
330
1D
100
AcDbEntity
  8
0
100
AcDbLine
 10
168.9573
 20
31.106249356053
 30
0.0
 11
169.3592
 21
31.027149356053
 31
0.0
  0
LINE
  5
922
330
1D
100
AcDbEntity
  8
0
100
AcDbLine
 10
168.0276
 20
35.027249356053
 30
0.0
 11
170.379
 21
30.652349356053
 31
0.0
  0
LINE
  5
923
330
1D
100
AcDbEntity
  8
0
100
AcDbLine
 10
167.9711
 20
35.001249356053
 30
0.0
 11
168.0276
 21
35.027249356053
 31
0.0
  0
LINE
  5
924
330
1D
100
AcDbEntity
  8
0
100
AcDbLine
 10
167.9711
 20
35.001249356053
 30
0.0
 11
170.3161
 21
30.623349356053
 31
0.0
  0
LINE
  5
925
330
1D
100
AcDbEntity
  8
0
100
AcDbLine
 10
167.9701
 20
35.000749356053
 30
0.0
 11
170.322
 21
30.626149356053
 31
0.0
  0
LINE
  5
926
330
1D
100
AcDbEntity
  8
0
100
AcDbLine
 10
167.9646
 20
34.998249356053
 30
0.0
 11
170.3161
 21
30.623349356053
 31
0.0
  0
LINE
  5
927
330
1D
100
AcDbEntity
  8
0
100
AcDbLine
 10
167.9646
 20
34.998249356053
 30
0.0
 11
168.0276
 21
35.027249356053
 31
0.0
  0
LINE
  5
928
330
1D
100
AcDbEntity
  8
0
100
AcDbLine
 10
167.9635
 20
34.997649356053
 30
0.0
 11
170.3161
 21
30.623349356053
 31
0.0
  0
LINE
  5
929
330
1D
100
AcDbEntity
  8
0
100
AcDbLine
 10
167.9635
 20
34.997649356053
 30
0.0
 11
170.322
 21
30.626149356053
 31
0.0
  0
LINE
  5
92A
330
1D
100
AcDbEntity
  8
0
100
AcDbLine
 10
168.0328
 20
35.029649356053
 30
0.0
 11
168.1854
 21
35.100049356053
 31
0.0
  0
LINE
  5
92B
330
1D
100
AcDbEntity
  8
0
100
AcDbLine
 10
168.0328
 20
35.029649356053
 30
0.0
 11
168.185405899375
 21
35.100038357205
 31
0.0
  0
LINE
  5
92C
330
1D
100
AcDbEntity
  8
0
100
AcDbLine
 10
168.0328
 20
35.029649356053
 30
0.0
 11
170.3818
 21
30.653649356053
 31
0.0
  0
LINE
  5
92D
330
1D
100
AcDbEntity
  8
0
100
AcDbLine
 10
168.4228
 20
35.209549356053
 30
0.0
 11
170.7672
 21
30.831449356053
 31
0.0
  0
LINE
  5
92E
330
1D
100
AcDbEntity
  8
0
100
AcDbLine
 10
168.1947
 20
35.104349356053
 30
0.0
 11
168.4228
 21
35.209549356053
 31
0.0
  0
LINE
  5
92F
330
1D
100
AcDbEntity
  8
0
100
AcDbLine
 10
168.1947
 20
35.104349356053
 30
0.0
 11
170.5329
 21
30.723349356053
 31
0.0
  0
LINE
  5
930
330
1D
100
AcDbEntity
  8
0
100
AcDbLine
 10
168.1947
 20
35.104349356053
 30
0.0
 11
170.539
 21
30.726249356053
 31
0.0
  0
LINE
  5
931
330
1D
100
AcDbEntity
  8
0
100
AcDbLine
 10
168.4361
 20
35.215649356053
 30
0.0
 11
170.7679
 21
30.831749356053
 31
0.0
  0
LINE
  5
932
330
1D
100
AcDbEntity
  8
0
100
AcDbLine
 10
168.4361
 20
35.215649356053
 30
0.0
 11
168.7442
 21
35.357749356053
 31
0.0
  0
LINE
  5
933
330
1D
100
AcDbEntity
  8
0
100
AcDbLine
 10
168.4361
 20
35.215649356053
 30
0.0
 11
168.744202586683
 21
35.357744508748
 31
0.0
  0
LINE
  5
934
330
1D
100
AcDbEntity
  8
0
100
AcDbLine
 10
168.1854
 20
35.100049356053
 30
0.0
 11
170.5329
 21
30.723349356053
 31
0.0
  0
LINE
  5
935
330
1D
100
AcDbEntity
  8
0
100
AcDbLine
 10
168.777005246667
 20
33.643254226459
 30
0.0
 11
170.379
 21
30.652349356053
 31
0.0
  0
LINE
  5
936
330
1D
100
AcDbEntity
  8
0
100
AcDbLine
 10
168.7555
 20
35.362949356053
 30
0.0
 11
169.1411
 21
35.540749356053
 31
0.0
  0
LINE
  5
937
330
1D
100
AcDbEntity
  8
0
100
AcDbLine
 10
168.7555
 20
35.362949356053
 30
0.0
 11
171.0851
 21
30.978049356053
 31
0.0
  0
LINE
  5
938
330
1D
100
AcDbEntity
  8
0
100
AcDbLine
 10
168.7555
 20
35.362949356053
 30
0.0
 11
171.0908
 21
30.980749356053
 31
0.0
  0
LINE
  5
939
330
1D
100
AcDbEntity
  8
0
100
AcDbLine
 10
169.1411
 20
35.540749356053
 30
0.0
 11
171.4764
 21
31.158449356053
 31
0.0
  0
LINE
  5
93A
330
1D
100
AcDbEntity
  8
0
100
AcDbLine
 10
168.7442
 20
35.357749356053
 30
0.0
 11
171.0821
 21
30.976649356053
 31
0.0
  0
LINE
  5
93B
330
1D
100
AcDbEntity
  8
0
100
AcDbLine
 10
169.6216
 20
35.762349356053
 30
0.0
 11
171.9467
 21
31.375349356053
 31
0.0
  0
LINE
  5
93C
330
1D
100
AcDbEntity
  8
0
100
AcDbLine
 10
169.1679
 20
35.553149356053
 30
0.0
 11
171.4817
 21
31.160849356053
 31
0.0
  0
LINE
  5
93D
330
1D
100
AcDbEntity
  8
0
100
AcDbLine
 10
169.1679
 20
35.553149356053
 30
0.0
 11
169.6216
 21
35.762349356053
 31
0.0
  0
LINE
  5
93E
330
1D
100
AcDbEntity
  8
0
100
AcDbLine
 10
170.1763
 20
36.018149356053
 30
0.0
 11
172.4838
 21
31.623049356053
 31
0.0
  0
LINE
  5
93F
330
1D
100
AcDbEntity
  8
0
100
AcDbLine
 10
170.1763
 20
36.018149356053
 30
0.0
 11
172.489
 21
31.625449356053
 31
0.0
  0
LINE
  5
940
330
1D
100
AcDbEntity
  8
0
100
AcDbLine
 10
170.8001
 20
36.305849356053
 30
0.0
 11
173.0938
 21
31.904349356053
 31
0.0
  0
LINE
  5
941
330
1D
100
AcDbEntity
  8
0
100
AcDbLine
 10
170.8315
 20
36.320349356053
 30
0.0
 11
171.4876
 21
36.622849356053
 31
0.0
  0
LINE
  5
942
330
1D
100
AcDbEntity
  8
0
100
AcDbLine
 10
170.8315
 20
36.320349356053
 30
0.0
 11
173.1102
 21
31.911849356053
 31
0.0
  0
LINE
  5
943
330
1D
100
AcDbEntity
  8
0
100
AcDbLine
 10
170.2096
 20
36.033549356053
 30
0.0
 11
170.8001
 21
36.305849356053
 31
0.0
  0
LINE
  5
944
330
1D
100
AcDbEntity
  8
0
100
AcDbLine
 10
170.2096
 20
36.033549356053
 30
0.0
 11
170.800107127326
 21
36.305835679056
 31
0.0
  0
LINE
  5
945
330
1D
100
AcDbEntity
  8
0
100
AcDbLine
 10
169.652
 20
35.776349356053
 30
0.0
 11
171.9542
 21
31.378749356053
 31
0.0
  0
LINE
  5
946
330
1D
100
AcDbEntity
  8
0
100
AcDbLine
 10
169.652
 20
35.776349356053
 30
0.0
 11
170.1763
 21
36.018149356053
 31
0.0
  0
LINE
  5
947
330
1D
100
AcDbEntity
  8
0
100
AcDbLine
 10
169.652
 20
35.776349356053
 30
0.0
 11
170.176305398594
 21
36.01813907334
 31
0.0
  0
LINE
  5
948
330
1D
100
AcDbEntity
  8
0
100
AcDbLine
 10
168.7261
 20
31.378649356053
 30
0.0
 11
168.9573
 21
31.106249356053
 31
0.0
  0
LINE
  5
949
330
1D
100
AcDbEntity
  8
0
100
AcDbLine
 10
168.7261
 20
31.378649356053
 30
0.0
 11
168.8014
 21
31.359949356053
 31
0.0
  0
LINE
  5
94A
330
1D
100
AcDbEntity
  8
0
100
AcDbLine
 10
168.7261
 20
31.378649356053
 30
0.0
 11
168.732543576065
 21
33.567730409025
 31
0.0
  0
LINE
  5
94B
330
1D
100
AcDbEntity
  8
0
100
AcDbLine
 10
171.415519150226
 20
31.130381619536
 30
0.0
 11
171.476382716532
 21
31.158481789291
 31
0.0
  0
LINE
  5
94C
330
1D
100
AcDbEntity
  8
0
100
AcDbLine
 10
171.7004
 20
31.261749356053
 30
0.0
 11
171.8907
 21
31.349549356053
 31
0.0
  0
LINE
  5
94D
330
1D
100
AcDbEntity
  8
0
100
AcDbLine
 10
171.887597282645
 20
31.348117834331
 30
0.0
 11
171.946691084166
 21
31.375366178455
 31
0.0
  0
LINE
  5
94E
330
1D
100
AcDbEntity
  8
0
100
AcDbLine
 10
171.887597282645
 20
31.348117834331
 30
0.0
 11
171.946691084166
 21
31.375366178455
 31
0.0
  0
LINE
  5
94F
330
1D
100
AcDbEntity
  8
0
100
AcDbLine
 10
171.4817
 20
31.160849356053
 30
0.0
 11
171.946682465312
 21
31.375382440512
 31
0.0
  0
LINE
  5
950
330
1D
100
AcDbEntity
  8
0
100
AcDbLine
 10
171.4817
 20
31.160849356053
 30
0.0
 11
171.9467
 21
31.375349356053
 31
0.0
  0
LINE
  5
951
330
1D
100
AcDbEntity
  8
0
100
AcDbLine
 10
171.9542
 20
31.378749356053
 30
0.0
 11
172.4838
 21
31.623049356053
 31
0.0
  0
LINE
  5
952
330
1D
100
AcDbEntity
  8
0
100
AcDbLine
 10
171.9542
 20
31.378749356053
 30
0.0
 11
172.483795974741
 21
31.623057022972
 31
0.0
  0
LINE
  5
953
330
1D
100
AcDbEntity
  8
0
100
AcDbLine
 10
172.5032
 20
31.632049356053
 30
0.0
 11
173.0938
 21
31.904349356053
 31
0.0
  0
LINE
  5
954
330
1D
100
AcDbEntity
  8
0
100
AcDbLine
 10
172.5032
 20
31.632049356053
 30
0.0
 11
173.093787753599
 21
31.904372856307
 31
0.0
  0
LINE
  5
955
330
1D
100
AcDbEntity
  8
0
100
AcDbLine
 10
174.038540983892
 20
32.34008214307
 30
0.0
 11
174.125
 21
32.379949356053
 31
0.0
  0
LINE
  5
956
330
1D
100
AcDbEntity
  8
0
100
AcDbLine
 10
174.4251
 20
32.518349356053
 30
0.0
 11
174.4948
 21
32.550449356053
 31
0.0
  0
LINE
  5
957
330
1D
100
AcDbEntity
  8
0
100
AcDbLine
 10
174.4251
 20
32.518349356053
 30
0.0
 11
174.494798482396
 21
32.550452325526
 31
0.0
  0
LINE
  5
958
330
1D
100
AcDbEntity
  8
0
100
AcDbLine
 10
174.5174
 20
32.560849356053
 30
0.0
 11
175.1451
 21
32.850349356053
 31
0.0
  0
LINE
  5
959
330
1D
100
AcDbEntity
  8
0
100
AcDbLine
 10
174.5174
 20
32.560849356053
 30
0.0
 11
175.2772
 21
32.911249356053
 31
0.0
  0
LINE
  5
95A
330
1D
100
AcDbEntity
  8
0
100
AcDbLine
 10
175.1451
 20
32.850349356053
 30
0.0
 11
175.2772
 21
32.911249356053
 31
0.0
  0
LINE
  5
95B
330
1D
100
AcDbEntity
  8
0
100
AcDbLine
 10
175.297
 20
32.920449356053
 30
0.0
 11
175.6174
 21
33.068149356053
 31
0.0
  0
LINE
  5
95C
330
1D
100
AcDbEntity
  8
0
100
AcDbLine
 10
175.297
 20
32.920449356053
 30
0.0
 11
175.9098
 21
33.203049356053
 31
0.0
  0
LINE
  5
95D
330
1D
100
AcDbEntity
  8
0
100
AcDbLine
 10
174.5138
 20
32.559149356053
 30
0.0
 11
175.2772
 21
32.911249356053
 31
0.0
  0
LINE
  5
95E
330
1D
100
AcDbEntity
  8
0
100
AcDbLine
 10
175.587430612257
 20
33.054333879868
 30
0.0
 11
175.68
 21
33.097049356053
 31
0.0
  0
LINE
  5
95F
330
1D
100
AcDbEntity
  8
0
100
AcDbLine
 10
175.9098
 20
33.203049356053
 30
0.0
 11
176.0993
 21
33.290449356053
 31
0.0
  0
LINE
  5
960
330
1D
100
AcDbEntity
  8
0
100
AcDbLine
 10
175.747723986277
 20
33.128306076879
 30
0.0
 11
176.096391693523
 21
33.289065932001
 31
0.0
  0
LINE
  5
961
330
1D
100
AcDbEntity
  8
0
100
AcDbLine
 10
176.1201
 20
33.299949356053
 30
0.0
 11
176.7127
 21
33.573249356053
 31
0.0
  0
LINE
  5
962
330
1D
100
AcDbEntity
  8
0
100
AcDbLine
 10
176.1201
 20
33.299949356053
 30
0.0
 11
176.9557
 21
33.685249356053
 31
0.0
  0
LINE
  5
963
330
1D
100
AcDbEntity
  8
0
100
AcDbLine
 10
176.1176
 20
33.298749356053
 30
0.0
 11
176.9557
 21
33.685249356053
 31
0.0
  0
LINE
  5
964
330
1D
100
AcDbEntity
  8
0
100
AcDbLine
 10
175.6174
 20
33.068149356053
 30
0.0
 11
176.0964
 21
33.289049356053
 31
0.0
  0
LINE
  5
965
330
1D
100
AcDbEntity
  8
0
100
AcDbLine
 10
175.6174
 20
33.068149356053
 30
0.0
 11
176.0993
 21
33.290449356053
 31
0.0
  0
LINE
  5
966
330
1D
100
AcDbEntity
  8
0
100
AcDbLine
 10
175.587430612257
 20
33.054333879868
 30
0.0
 11
175.68
 21
33.097049356053
 31
0.0
  0
LINE
  5
967
330
1D
100
AcDbEntity
  8
0
100
AcDbLine
 10
174.143
 20
32.388249356053
 30
0.0
 11
174.44725
 21
32.528551597901
 31
0.0
  0
LINE
  5
968
330
1D
100
AcDbEntity
  8
0
100
AcDbLine
 10
174.143
 20
32.388249356053
 30
0.0
 11
174.44725
 21
32.528551597901
 31
0.0
  0
LINE
  5
969
330
1D
100
AcDbEntity
  8
0
100
AcDbLine
 10
174.143
 20
32.388249356053
 30
0.0
 11
174.442612908232
 21
32.526415763513
 31
0.0
  0
LINE
  5
96A
330
1D
100
AcDbEntity
  8
0
100
AcDbLine
 10
174.143
 20
32.388249356053
 30
0.0
 11
174.442612908232
 21
32.526415763513
 31
0.0
  0
LINE
  5
96B
330
1D
100
AcDbEntity
  8
0
100
AcDbLine
 10
176.7127
 20
33.573249356053
 30
0.0
 11
176.9557
 21
33.685249356053
 31
0.0
  0
LINE
  5
96C
330
1D
100
AcDbEntity
  8
0
100
AcDbLine
 10
176.54
 20
33.493549356053
 30
0.0
 11
176.848353319079
 21
33.635772696534
 31
0.0
  0
LINE
  5
96D
330
1D
100
AcDbEntity
  8
0
100
AcDbLine
 10
176.54
 20
33.493549356053
 30
0.0
 11
176.848353319079
 21
33.635772696534
 31
0.0
  0
LINE
  5
96E
330
1D
100
AcDbEntity
  8
0
100
AcDbLine
 10
176.9795
 20
33.696349356053
 30
0.0
 11
177.844
 21
34.094949356053
 31
0.0
  0
LINE
  5
96F
330
1D
100
AcDbEntity
  8
0
100
AcDbLine
 10
177.868
 20
34.106049356053
 30
0.0
 11
178.7554
 21
34.515249356053
 31
0.0
  0
LINE
  5
970
330
1D
100
AcDbEntity
  8
0
100
AcDbLine
 10
178.778
 20
34.525749356053
 30
0.0
 11
179.6789
 21
34.941149356053
 31
0.0
  0
LINE
  5
971
330
1D
100
AcDbEntity
  8
0
100
AcDbLine
 10
178.778
 20
34.525749356053
 30
0.0
 11
179.2807
 21
34.757549356053
 31
0.0
  0
LINE
  5
972
330
1D
100
AcDbEntity
  8
0
100
AcDbLine
 10
180.6313
 20
35.380349356053
 30
0.0
 11
181.0521
 21
35.574449356053
 31
0.0
  0
LINE
  5
973
330
1D
100
AcDbEntity
  8
0
100
AcDbLine
 10
180.6313
 20
35.380349356053
 30
0.0
 11
181.5359
 21
35.797549356053
 31
0.0
  0
LINE
  5
974
330
1D
100
AcDbEntity
  8
0
100
AcDbLine
 10
181.0521
 20
35.574449356053
 30
0.0
 11
181.5359
 21
35.797549356053
 31
0.0
  0
LINE
  5
975
330
1D
100
AcDbEntity
  8
0
100
AcDbLine
 10
179.7017
 20
34.951749356053
 30
0.0
 11
180.6082
 21
35.369749356053
 31
0.0
  0
LINE
  5
976
330
1D
100
AcDbEntity
  8
0
100
AcDbLine
 10
179.2807
 20
34.757549356053
 30
0.0
 11
179.6789
 21
34.941149356053
 31
0.0
  0
LINE
  5
977
330
1D
100
AcDbEntity
  8
0
100
AcDbLine
 10
181.933
 20
35.980649356053
 30
0.0
 11
182.4548
 21
36.221249356053
 31
0.0
  0
LINE
  5
978
330
1D
100
AcDbEntity
  8
0
100
AcDbLine
 10
181.5597
 20
35.808449356053
 30
0.0
 11
182.4548
 21
36.221249356053
 31
0.0
  0
LINE
  5
979
330
1D
100
AcDbEntity
  8
0
100
AcDbLine
 10
181.5597
 20
35.808449356053
 30
0.0
 11
181.933
 21
35.980649356053
 31
0.0
  0
LINE
  5
97A
330
1D
100
AcDbEntity
  8
0
100
AcDbLine
 10
182.4762
 20
36.231149356053
 30
0.0
 11
183.3538
 21
36.635949356053
 31
0.0
  0
LINE
  5
97B
330
1D
100
AcDbEntity
  8
0
100
AcDbLine
 10
173.7878
 20
32.224449356053
 30
0.0
 11
174.4948
 21
32.550449356053
 31
0.0
  0
LINE
  5
97C
330
1D
100
AcDbEntity
  8
0
100
AcDbLine
 10
173.7878
 20
32.224449356053
 30
0.0
 11
174.4251
 21
32.518349356053
 31
0.0
  0
LINE
  5
97D
330
1D
100
AcDbEntity
  8
0
100
AcDbLine
 10
173.1102
 20
31.911849356053
 30
0.0
 11
173.7662
 21
32.214449356053
 31
0.0
  0
LINE
  5
97E
330
1D
100
AcDbEntity
  8
0
100
AcDbLine
 10
173.1102
 20
31.911849356053
 30
0.0
 11
173.756
 21
32.209749356053
 31
0.0
  0
LINE
  5
97F
330
1D
100
AcDbEntity
  8
0
100
AcDbLine
 10
169.7355
 20
31.023549356053
 30
0.0
 11
170.100758642577
 21
31.023743685635
 31
0.0
  0
LINE
  5
9A7
330
1D
100
AcDbEntity
  8
0
100
AcDbLine
 10
193.949906683228
 20
32.276266965462
 30
0.0
 11
196.507382784872
 21
33.309578156596
 31
0.0
  0
LINE
  5
9A8
330
1D
100
AcDbEntity
  8
0
100
AcDbLine
 10
193.949906683228
 20
32.276266965462
 30
0.0
 11
196.507382784854
 21
33.309578156589
 31
0.0
  0
LINE
  5
9B2
330
1D
100
AcDbEntity
  8
0
100
AcDbLine
 10
195.995346392917
 20
27.969261266255
 30
0.0
 11
196.4468
 21
27.968749356053
 31
0.0
  0
LINE
  5
9C8
330
1D
100
AcDbEntity
  8
0
100
AcDbLine
 10
191.6208
 20
34.276949356053
 30
0.0
 11
191.8801
 21
34.549749356053
 31
0.0
  0
LINE
  5
9C9
330
1D
100
AcDbEntity
  8
0
100
AcDbLine
 10
191.8801
 20
34.549749356053
 30
0.0
 11
192.0621
 21
34.878049356053
 31
0.0
  0
LINE
  5
9CA
330
1D
100
AcDbEntity
  8
0
100
AcDbLine
 10
191.3062
 20
34.079649356053
 30
0.0
 11
191.6208
 21
34.276949356053
 31
0.0
  0
LINE
  5
9CE
330
1D
100
AcDbEntity
  8
0
100
AcDbLine
 10
192.4199
 20
33.501449356053
 30
0.0
 11
192.6639
 21
33.613949356053
 31
0.0
  0
LINE
  5
9CF
330
1D
100
AcDbEntity
  8
0
100
AcDbLine
 10
193.4098
 20
33.413549356053
 30
0.0
 11
201.6641
 21
16.032779356053
 31
0.0
  0
LINE
  5
9D0
330
1D
100
AcDbEntity
  8
0
100
AcDbLine
 10
193.2432
 20
33.609049356053
 30
0.0
 11
193.4098
 21
33.413549356053
 31
0.0
  0
LINE
  5
9D1
330
1D
100
AcDbEntity
  8
0
100
AcDbLine
 10
192.6639
 20
33.613949356053
 30
0.0
 11
192.7456
 21
33.651649356053
 31
0.0
  0
LINE
  5
9D2
330
1D
100
AcDbEntity
  8
0
100
AcDbLine
 10
193.0002
 20
33.696149356053
 30
0.0
 11
193.2432
 21
33.609049356053
 31
0.0
  0
LINE
  5
9D3
330
1D
100
AcDbEntity
  8
0
100
AcDbLine
 10
192.7456
 20
33.651649356053
 30
0.0
 11
193.0002
 21
33.696149356053
 31
0.0
  0
LINE
  5
9DA
330
1D
100
AcDbEntity
  8
0
100
AcDbLine
 10
192.0568
 20
35.977849356053
 30
0.0
 11
192.1535
 21
35.615649356053
 31
0.0
  0
LINE
  5
9DB
330
1D
100
AcDbEntity
  8
0
100
AcDbLine
 10
192.1535
 20
35.615649356053
 30
0.0
 11
192.1551
 21
35.241049356053
 31
0.0
  0
LINE
  5
9DC
330
1D
100
AcDbEntity
  8
0
100
AcDbLine
 10
192.0621
 20
34.878049356053
 30
0.0
 11
192.1551
 21
35.241049356053
 31
0.0
  0
LINE
  5
9E4
330
1D
100
AcDbEntity
  8
0
100
AcDbLine
 10
165.5539
 20
16.761249356053
 30
0.0
 11
166.266215094416
 21
16.747903480693
 31
0.0
  0
LINE
  5
9F4
330
1D
100
AcDbEntity
  8
0
100
AcDbLine
 10
168.1774
 20
16.738749356053
 30
0.0
 11
169.274520924698
 21
16.738749356053
 31
0.0
  0
LINE
  5
9F8
330
1D
100
AcDbEntity
  8
0
100
AcDbLine
 10
217.8418
 20
7.038751356053
 30
0.0
 11
218.313
 21
7.038751356053
 31
0.0
  0
LINE
  5
9F9
330
1D
100
AcDbEntity
  8
0
100
AcDbLine
 10
217.8418
 20
7.038751356053
 30
0.0
 11
219.8344
 21
7.038751356053
 31
0.0
  0
LINE
  5
A04
330
1D
100
AcDbEntity
  8
0
100
AcDbLine
 10
225.747
 20
7.038749356053
 30
0.0
 11
225.827
 21
7.038749356053
 31
0.0
  0
LINE
  5
A08
330
1D
100
AcDbEntity
  8
0
100
AcDbLine
 10
225.351
 20
7.038751356053
 30
0.0
 11
225.747
 21
7.038749356053
 31
0.0
  0
LINE
  5
A09
330
1D
100
AcDbEntity
  8
0
100
AcDbLine
 10
225.59
 20
7.038749356053
 30
0.0
 11
225.827
 21
7.038749356053
 31
0.0
  0
LINE
  5
A0A
330
1D
100
AcDbEntity
  8
0
100
AcDbLine
 10
166.83468010664
 20
37.09196277497
 30
0.0
 11
167.9635
 21
34.997649356053
 31
0.0
  0
LINE
  5
A0D
330
1D
100
AcDbEntity
  8
0
100
AcDbLine
 10
171.477523658678
 20
36.618203580638
 30
0.0
 11
173.756
 21
32.209749356053
 31
0.0
  0
LINE
  5
A0E
330
1D
100
AcDbEntity
  8
0
100
AcDbLine
 10
171.5259
 20
36.640549356053
 30
0.0
 11
172.1633
 21
36.934449356053
 31
0.0
  0
LINE
  5
A0F
330
1D
100
AcDbEntity
  8
0
100
AcDbLine
 10
171.5259
 20
36.640549356053
 30
0.0
 11
172.2369
 21
36.968449356053
 31
0.0
  0
LINE
  5
A10
330
1D
100
AcDbEntity
  8
0
100
AcDbLine
 10
171.5259
 20
36.640549356053
 30
0.0
 11
173.7878
 21
32.224449356053
 31
0.0
  0
LINE
  5
A11
330
1D
100
AcDbEntity
  8
0
100
AcDbLine
 10
171.5217
 20
36.638649356053
 30
0.0
 11
172.2369
 21
36.968449356053
 31
0.0
  0
LINE
  5
A12
330
1D
100
AcDbEntity
  8
0
100
AcDbLine
 10
171.5217
 20
36.638649356053
 30
0.0
 11
173.7878
 21
32.224449356053
 31
0.0
  0
LINE
  5
A13
330
1D
100
AcDbEntity
  8
0
100
AcDbLine
 10
171.530017893533
 20
36.642448083554
 30
0.0
 11
171.8108
 21
36.771949356053
 31
0.0
  0
LINE
  5
A14
330
1D
100
AcDbEntity
  8
0
100
AcDbLine
 10
171.530017893533
 20
36.642448083554
 30
0.0
 11
171.8108
 21
36.771949356053
 31
0.0
  0
LINE
  5
A15
330
1D
100
AcDbEntity
  8
0
100
AcDbLine
 10
183.3757
 20
36.646049356053
 30
0.0
 11
184.2308
 21
37.040349356053
 31
0.0
  0
LINE
  5
A16
330
1D
100
AcDbEntity
  8
0
100
AcDbLine
 10
171.4876
 20
36.622849356053
 30
0.0
 11
173.7662
 21
32.214449356053
 31
0.0
  0
LINE
  5
A17
330
1D
100
AcDbEntity
  8
0
100
AcDbLine
 10
172.2369
 20
36.968449356053
 30
0.0
 11
174.4948
 21
32.550449356053
 31
0.0
  0
LINE
  5
A18
330
1D
100
AcDbEntity
  8
0
100
AcDbLine
 10
172.2369
 20
36.968449356053
 30
0.0
 11
174.4987
 21
32.552249356053
 31
0.0
  0
LINE
  5
A19
330
1D
100
AcDbEntity
  8
0
100
AcDbLine
 10
172.1633
 20
36.934449356053
 30
0.0
 11
172.2369
 21
36.968449356053
 31
0.0
  0
LINE
  5
A1A
330
1D
100
AcDbEntity
  8
0
100
AcDbLine
 10
172.1633
 20
36.934449356053
 30
0.0
 11
174.4251
 21
32.518349356053
 31
0.0
  0
LINE
  5
A1B
330
1D
100
AcDbEntity
  8
0
100
AcDbLine
 10
171.8859
 20
36.806549356053
 30
0.0
 11
172.177950952466
 21
36.94126619627
 31
0.0
  0
LINE
  5
A1C
330
1D
100
AcDbEntity
  8
0
100
AcDbLine
 10
171.8859
 20
36.806549356053
 30
0.0
 11
172.228659241721
 21
36.964642484022
 31
0.0
  0
LINE
  5
A1D
330
1D
100
AcDbEntity
  8
0
100
AcDbLine
 10
171.8859
 20
36.806549356053
 30
0.0
 11
172.177950952465
 21
36.94126619627
 31
0.0
  0
LINE
  5
A1E
330
1D
100
AcDbEntity
  8
0
100
AcDbLine
 10
171.8859
 20
36.806549356053
 30
0.0
 11
172.228659241721
 21
36.964642484022
 31
0.0
  0
LINE
  5
A1F
330
1D
100
AcDbEntity
  8
0
100
AcDbLine
 10
172.2733
 20
36.985249356053
 30
0.0
 11
173.0296
 21
37.333949356053
 31
0.0
  0
LINE
  5
A20
330
1D
100
AcDbEntity
  8
0
100
AcDbLine
 10
172.2733
 20
36.985249356053
 30
0.0
 11
174.5138
 21
32.559149356053
 31
0.0
  0
LINE
  5
A21
330
1D
100
AcDbEntity
  8
0
100
AcDbLine
 10
172.2733
 20
36.985249356053
 30
0.0
 11
174.5174
 21
32.560849356053
 31
0.0
  0
LINE
  5
A22
330
1D
100
AcDbEntity
  8
0
100
AcDbLine
 10
172.901119017702
 20
37.274711859653
 30
0.0
 11
175.1451
 21
32.850349356053
 31
0.0
  0
LINE
  5
A23
330
1D
100
AcDbEntity
  8
0
100
AcDbLine
 10
173.0296
 20
37.333949356053
 30
0.0
 11
175.2772
 21
32.911249356053
 31
0.0
  0
LINE
  5
A24
330
1D
100
AcDbEntity
  8
0
100
AcDbLine
 10
173.0688
 20
37.352049356053
 30
0.0
 11
173.3906
 21
37.500449356053
 31
0.0
  0
LINE
  5
A25
330
1D
100
AcDbEntity
  8
0
100
AcDbLine
 10
173.0688
 20
37.352049356053
 30
0.0
 11
175.297
 21
32.920449356053
 31
0.0
  0
LINE
  5
A26
330
1D
100
AcDbEntity
  8
0
100
AcDbLine
 10
184.764103537294
 20
37.286264442099
 30
0.0
 11
184.82488844416
 21
37.314267198666
 31
0.0
  0
LINE
  5
A27
330
1D
100
AcDbEntity
  8
0
100
AcDbLine
 10
184.4672
 20
37.149349356053
 30
0.0
 11
185.0707
 21
37.427649356053
 31
0.0
  0
LINE
  5
A28
330
1D
100
AcDbEntity
  8
0
100
AcDbLine
 10
184.764103537294
 20
37.286264442099
 30
0.0
 11
184.82488844416
 21
37.314267198666
 31
0.0
  0
LINE
  5
A29
330
1D
100
AcDbEntity
  8
0
100
AcDbLine
 10
184.2525
 20
37.050249356053
 30
0.0
 11
185.0707
 21
37.427649356053
 31
0.0
  0
LINE
  5
A2A
330
1D
100
AcDbEntity
  8
0
100
AcDbLine
 10
184.2525
 20
37.050249356053
 30
0.0
 11
184.4672
 21
37.149349356053
 31
0.0
  0
LINE
  5
A2B
330
1D
100
AcDbEntity
  8
0
100
AcDbLine
 10
185.2517
 20
37.511149356053
 30
0.0
 11
185.8759
 21
37.798949356053
 31
0.0
  0
LINE
  5
A2C
330
1D
100
AcDbEntity
  8
0
100
AcDbLine
 10
173.3906
 20
37.500449356053
 30
0.0
 11
173.8742
 21
37.723549356053
 31
0.0
  0
LINE
  5
A2D
330
1D
100
AcDbEntity
  8
0
100
AcDbLine
 10
185.0909
 20
37.436949356053
 30
0.0
 11
185.8759
 21
37.798949356053
 31
0.0
  0
LINE
  5
A2E
330
1D
100
AcDbEntity
  8
0
100
AcDbLine
 10
185.0909
 20
37.436949356053
 30
0.0
 11
185.2517
 21
37.511149356053
 31
0.0
  0
LINE
  5
A2F
330
1D
100
AcDbEntity
  8
0
100
AcDbLine
 10
173.684703689065
 20
37.636142006274
 30
0.0
 11
175.9098
 21
33.203049356053
 31
0.0
  0
LINE
  5
A30
330
1D
100
AcDbEntity
  8
0
100
AcDbLine
 10
173.8742
 20
37.723549356053
 30
0.0
 11
176.0964
 21
33.289049356053
 31
0.0
  0
LINE
  5
A31
330
1D
100
AcDbEntity
  8
0
100
AcDbLine
 10
173.8742
 20
37.723549356053
 30
0.0
 11
176.0993
 21
33.290449356053
 31
0.0
  0
LINE
  5
A32
330
1D
100
AcDbEntity
  8
0
100
AcDbLine
 10
173.9148
 20
37.742249356053
 30
0.0
 11
174.7503
 21
38.127549356053
 31
0.0
  0
LINE
  5
A33
330
1D
100
AcDbEntity
  8
0
100
AcDbLine
 10
173.9148
 20
37.742249356053
 30
0.0
 11
174.7527
 21
38.128649356053
 31
0.0
  0
LINE
  5
A34
330
1D
100
AcDbEntity
  8
0
100
AcDbLine
 10
173.9148
 20
37.742249356053
 30
0.0
 11
176.1176
 21
33.298749356053
 31
0.0
  0
LINE
  5
A35
330
1D
100
AcDbEntity
  8
0
100
AcDbLine
 10
173.9148
 20
37.742249356053
 30
0.0
 11
176.1201
 21
33.299949356053
 31
0.0
  0
LINE
  5
A36
330
1D
100
AcDbEntity
  8
0
100
AcDbLine
 10
185.955325000052
 20
37.835573219713
 30
0.0
 11
186.040174074108
 21
37.874691948661
 31
0.0
  0
LINE
  5
A37
330
1D
100
AcDbEntity
  8
0
100
AcDbLine
 10
185.9947
 20
37.853749356053
 30
0.0
 11
186.6317
 21
38.147549356053
 31
0.0
  0
LINE
  5
A38
330
1D
100
AcDbEntity
  8
0
100
AcDbLine
 10
185.955325000052
 20
37.835573219713
 30
0.0
 11
186.040174074108
 21
37.874691948661
 31
0.0
  0
LINE
  5
A39
330
1D
100
AcDbEntity
  8
0
100
AcDbLine
 10
185.8957
 20
37.808049356053
 30
0.0
 11
186.6317
 21
38.147549356053
 31
0.0
  0
LINE
  5
A3A
330
1D
100
AcDbEntity
  8
0
100
AcDbLine
 10
185.8957
 20
37.808049356053
 30
0.0
 11
185.9947
 21
37.853749356053
 31
0.0
  0
LINE
  5
A47
330
1D
100
AcDbEntity
  8
0
100
AcDbLine
 10
168.7125
 20
82.563949356053
 30
0.0
 11
177.0983
 21
68.124849356053
 31
0.0
  0
LINE
  5
A48
330
1D
100
AcDbEntity
  8
0
100
AcDbLine
 10
174.507406464215
 20
38.015536334703
 30
0.0
 11
176.7127
 21
33.573249356053
 31
0.0
  0
LINE
  5
A49
330
1D
100
AcDbEntity
  8
0
100
AcDbLine
 10
174.679651103067
 20
38.094968841405
 30
0.0
 11
174.7527
 21
38.128649356053
 31
0.0
  0
LINE
  5
A4A
330
1D
100
AcDbEntity
  8
0
100
AcDbLine
 10
174.679651103067
 20
38.094968841405
 30
0.0
 11
174.7527
 21
38.128649356053
 31
0.0
  0
LINE
  5
A4B
330
1D
100
AcDbEntity
  8
0
100
AcDbLine
 10
174.7527
 20
38.128649356053
 30
0.0
 11
176.9557
 21
33.685249356053
 31
0.0
  0
LINE
  5
A4C
330
1D
100
AcDbEntity
  8
0
100
AcDbLine
 10
174.7503
 20
38.127549356053
 30
0.0
 11
176.9557
 21
33.685249356053
 31
0.0
  0
LINE
  5
A4D
330
1D
100
AcDbEntity
  8
0
100
AcDbLine
 10
174.7929
 20
38.147149356053
 30
0.0
 11
176.9795
 21
33.696349356053
 31
0.0
  0
LINE
  5
A4E
330
1D
100
AcDbEntity
  8
0
100
AcDbLine
 10
174.7929
 20
38.147149356053
 30
0.0
 11
175.6612
 21
38.547649356053
 31
0.0
  0
LINE
  5
A4F
330
1D
100
AcDbEntity
  8
0
100
AcDbLine
 10
174.7929
 20
38.147149356053
 30
0.0
 11
175.3623
 21
38.409749356053
 31
0.0
  0
LINE
  5
A50
330
1D
100
AcDbEntity
  8
0
100
AcDbLine
 10
186.6501
 20
38.155949356053
 30
0.0
 11
187.3299
 21
38.469549356053
 31
0.0
  0
LINE
  5
A51
330
1D
100
AcDbEntity
  8
0
100
AcDbLine
 10
186.6898
 20
38.174349356053
 30
0.0
 11
187.3299
 21
38.469549356053
 31
0.0
  0
LINE
  5
A52
330
1D
100
AcDbEntity
  8
0
100
AcDbLine
 10
186.678051073983
 20
38.16890400999
 30
0.0
 11
186.807738187252
 21
38.228739846409
 31
0.0
  0
LINE
  5
A53
330
1D
100
AcDbEntity
  8
0
100
AcDbLine
 10
175.096853835822
 20
38.287346881386
 30
0.0
 11
175.2001
 21
38.334949356053
 31
0.0
  0
LINE
  5
A54
330
1D
100
AcDbEntity
  8
0
100
AcDbLine
 10
175.096853835822
 20
38.287346881386
 30
0.0
 11
175.2001
 21
38.334949356053
 31
0.0
  0
LINE
  5
A55
330
1D
100
AcDbEntity
  8
0
100
AcDbLine
 10
175.3623
 20
38.409749356053
 30
0.0
 11
175.6612
 21
38.547649356053
 31
0.0
  0
LINE
  5
A56
330
1D
100
AcDbEntity
  8
0
100
AcDbLine
 10
175.3623
 20
38.409749356053
 30
0.0
 11
177.546894241506
 21
33.957961090771
 31
0.0
  0
LINE
  5
A57
330
1D
100
AcDbEntity
  8
0
100
AcDbLine
 10
175.2413
 20
38.353949356053
 30
0.0
 11
175.365548913049
 21
38.411248269099
 31
0.0
  0
LINE
  5
A58
330
1D
100
AcDbEntity
  8
0
100
AcDbLine
 10
175.2413
 20
38.353949356053
 30
0.0
 11
175.33991333335
 21
38.399424911616
 31
0.0
  0
LINE
  5
A59
330
1D
100
AcDbEntity
  8
0
100
AcDbLine
 10
175.2413
 20
38.353949356053
 30
0.0
 11
175.33991333335
 21
38.399424911616
 31
0.0
  0
LINE
  5
A5B
330
1D
100
AcDbEntity
  8
0
100
AcDbLine
 10
175.6612
 20
38.547649356053
 30
0.0
 11
177.844
 21
34.094949356053
 31
0.0
  0
LINE
  5
A5C
330
1D
100
AcDbEntity
  8
0
100
AcDbLine
 10
176.242004367852
 20
38.815440348192
 30
0.0
 11
178.405397159818
 21
34.353855213386
 31
0.0
  0
LINE
  5
A5D
330
1D
100
AcDbEntity
  8
0
100
AcDbLine
 10
176.592
 20
38.976849356053
 30
0.0
 11
178.7554
 21
34.515249356053
 31
0.0
  0
LINE
  5
A5E
330
1D
100
AcDbEntity
  8
0
100
AcDbLine
 10
177.139003065714
 20
39.229142955229
 30
0.0
 11
179.2807
 21
34.757549356053
 31
0.0
  0
LINE
  5
A5F
330
1D
100
AcDbEntity
  8
0
100
AcDbLine
 10
177.139003065714
 20
39.229142955229
 30
0.0
 11
179.2807
 21
34.757549356053
 31
0.0
  0
LINE
  5
A60
330
1D
100
AcDbEntity
  8
0
100
AcDbLine
 10
177.5372
 20
39.412749356053
 30
0.0
 11
179.6789
 21
34.941149356053
 31
0.0
  0
LINE
  5
A61
330
1D
100
AcDbEntity
  8
0
100
AcDbLine
 10
177.685685714446
 20
39.481208284698
 30
0.0
 11
177.7727845513
 21
39.521383865101
 31
0.0
  0
LINE
  5
A62
330
1D
100
AcDbEntity
  8
0
100
AcDbLine
 10
177.685685714446
 20
39.481208284698
 30
0.0
 11
177.772784551299
 21
39.521383865101
 31
0.0
  0
LINE
  5
A63
330
1D
100
AcDbEntity
  8
0
100
AcDbLine
 10
177.5817
 20
39.433249356053
 30
0.0
 11
178.4884
 21
39.851449356053
 31
0.0
  0
LINE
  5
A64
330
1D
100
AcDbEntity
  8
0
100
AcDbLine
 10
177.5817
 20
39.433249356053
 30
0.0
 11
179.7017
 21
34.951749356053
 31
0.0
  0
LINE
  5
A65
330
1D
100
AcDbEntity
  8
0
100
AcDbLine
 10
177.5817
 20
39.433249356053
 30
0.0
 11
178.0457
 21
39.647249356053
 31
0.0
  0
LINE
  5
A66
330
1D
100
AcDbEntity
  8
0
100
AcDbLine
 10
176.6363
 20
38.997349356053
 30
0.0
 11
177.5372
 21
39.412749356053
 31
0.0
  0
LINE
  5
A67
330
1D
100
AcDbEntity
  8
0
100
AcDbLine
 10
176.6363
 20
38.997349356053
 30
0.0
 11
178.778
 21
34.525749356053
 31
0.0
  0
LINE
  5
A68
330
1D
100
AcDbEntity
  8
0
100
AcDbLine
 10
175.7047
 20
38.567649356053
 30
0.0
 11
176.592
 21
38.976849356053
 31
0.0
  0
LINE
  5
A69
330
1D
100
AcDbEntity
  8
0
100
AcDbLine
 10
175.7047
 20
38.567649356053
 30
0.0
 11
177.868
 21
34.106049356053
 31
0.0
  0
LINE
  5
A6B
330
1D
100
AcDbEntity
  8
0
100
AcDbLine
 10
178.0457
 20
39.647249356053
 30
0.0
 11
178.4884
 21
39.851449356053
 31
0.0
  0
LINE
  5
A6C
330
1D
100
AcDbEntity
  8
0
100
AcDbLine
 10
178.0457
 20
39.647249356053
 30
0.0
 11
180.165474855756
 21
35.165602516236
 31
0.0
  0
LINE
  5
A6E
330
1D
100
AcDbEntity
  8
0
100
AcDbLine
 10
187.351090993588
 20
38.479270455044
 30
0.0
 11
187.9726
 21
38.765949356053
 31
0.0
  0
LINE
  5
A6F
330
1D
100
AcDbEntity
  8
0
100
AcDbLine
 10
187.3511
 20
38.479249356053
 30
0.0
 11
187.9726
 21
38.765949356053
 31
0.0
  0
LINE
  5
A70
330
1D
100
AcDbEntity
  8
0
100
AcDbLine
 10
187.9927
 20
38.775049356053
 30
0.0
 11
188.5556
 21
39.034749356053
 31
0.0
  0
LINE
  5
A71
330
1D
100
AcDbEntity
  8
0
100
AcDbLine
 10
187.992675807341
 20
38.77510670617
 30
0.0
 11
188.5556
 21
39.034749356053
 31
0.0
  0
LINE
  5
A72
330
1D
100
AcDbEntity
  8
0
100
AcDbLine
 10
188.282
 20
38.908549356053
 30
0.0
 11
188.430993171929
 21
38.977265670764
 31
0.0
  0
LINE
  5
A73
330
1D
100
AcDbEntity
  8
0
100
AcDbLine
 10
188.564
 20
39.038649356053
 30
0.0
 11
189.0643
 21
39.269249356053
 31
0.0
  0
LINE
  5
A74
330
1D
100
AcDbEntity
  8
0
100
AcDbLine
 10
188.198163855444
 20
38.869885829229
 30
0.0
 11
188.2677
 21
38.901949356053
 31
0.0
  0
LINE
  5
A75
330
1D
100
AcDbEntity
  8
0
100
AcDbLine
 10
189.076290472023
 20
39.274872196958
 30
0.0
 11
189.4989
 21
39.469749356053
 31
0.0
  0
LINE
  5
A76
330
1D
100
AcDbEntity
  8
0
100
AcDbLine
 10
189.2569
 20
39.358149356053
 30
0.0
 11
189.394739531135
 21
39.421718029453
 31
0.0
  0
LINE
  5
A77
330
1D
100
AcDbEntity
  8
0
100
AcDbLine
 10
189.2569
 20
39.358149356053
 30
0.0
 11
189.361954545233
 21
39.406599948836
 31
0.0
  0
LINE
  5
A78
330
1D
100
AcDbEntity
  8
0
100
AcDbLine
 10
189.2569
 20
39.358149356053
 30
0.0
 11
189.361954545233
 21
39.406599948836
 31
0.0
  0
LINE
  5
A79
330
1D
100
AcDbEntity
  8
0
100
AcDbLine
 10
189.503
 20
39.471649356053
 30
0.0
 11
189.8558
 21
39.634349356053
 31
0.0
  0
LINE
  5
A7A
330
1D
100
AcDbEntity
  8
0
100
AcDbLine
 10
189.0763
 20
39.274849356053
 30
0.0
 11
189.4989
 21
39.469749356053
 31
0.0
  0
LINE
  5
A7B
330
1D
100
AcDbEntity
  8
0
100
AcDbLine
 10
187.992685378673
 20
38.775084016765
 30
0.0
 11
188.2677
 21
38.901949356053
 31
0.0
  0
LINE
  5
A7C
330
1D
100
AcDbEntity
  8
0
100
AcDbLine
 10
190.137793583616
 20
39.764364949622
 30
0.0
 11
190.21920351078
 21
39.801893404363
 31
0.0
  0
LINE
  5
A7D
330
1D
100
AcDbEntity
  8
0
100
AcDbLine
 10
190.137793583616
 20
39.764364949622
 30
0.0
 11
190.21920351078
 21
39.801893404363
 31
0.0
  0
LINE
  5
A7E
330
1D
100
AcDbEntity
  8
0
100
AcDbLine
 10
190.137788377926
 20
39.764377600876
 30
0.0
 11
190.3247
 21
39.850549356053
 31
0.0
  0
LINE
  5
A7F
330
1D
100
AcDbEntity
  8
0
100
AcDbLine
 10
189.863786994958
 20
39.637980982061
 30
0.0
 11
190.1319
 21
39.761549356053
 31
0.0
  0
LINE
  5
A80
330
1D
100
AcDbEntity
  8
0
100
AcDbLine
 10
178.954218906255
 20
40.066208875993
 30
0.0
 11
181.0521
 21
35.574449356053
 31
0.0
  0
LINE
  5
A81
330
1D
100
AcDbEntity
  8
0
100
AcDbLine
 10
178.5334
 20
39.872149356053
 30
0.0
 11
180.6313
 21
35.380349356053
 31
0.0
  0
LINE
  5
A82
330
1D
100
AcDbEntity
  8
0
100
AcDbLine
 10
178.5334
 20
39.872149356053
 30
0.0
 11
179.4381
 21
40.289349356053
 31
0.0
  0
LINE
  5
A83
330
1D
100
AcDbEntity
  8
0
100
AcDbLine
 10
178.4884
 20
39.851449356053
 30
0.0
 11
180.6082
 21
35.369749356053
 31
0.0
  0
LINE
  5
A84
330
1D
100
AcDbEntity
  8
0
100
AcDbLine
 10
179.4838
 20
40.310449356053
 30
0.0
 11
181.5597
 21
35.808449356053
 31
0.0
  0
LINE
  5
A85
330
1D
100
AcDbEntity
  8
0
100
AcDbLine
 10
179.4838
 20
40.310449356053
 30
0.0
 11
180.3777
 21
40.722649356053
 31
0.0
  0
LINE
  5
A86
330
1D
100
AcDbEntity
  8
0
100
AcDbLine
 10
190.328596144521
 20
39.852358784548
 30
0.0
 11
190.408333727877
 21
39.889124504013
 31
0.0
  0
LINE
  5
A87
330
1D
100
AcDbEntity
  8
0
100
AcDbLine
 10
190.328596144521
 20
39.852358784548
 30
0.0
 11
190.408333727877
 21
39.889124504013
 31
0.0
  0
LINE
  5
A88
330
1D
100
AcDbEntity
  8
0
100
AcDbLine
 10
190.328594092572
 20
39.852363802549
 30
0.0
 11
190.4266
 21
39.897549356053
 31
0.0
  0
LINE
  5
A89
330
1D
100
AcDbEntity
  8
0
100
AcDbLine
 10
190.3286
 20
39.852349356053
 30
0.0
 11
190.4266
 21
39.897549356053
 31
0.0
  0
LINE
  5
A8A
330
1D
100
AcDbEntity
  8
0
100
AcDbLine
 10
190.4548
 20
39.910549356053
 30
0.0
 11
192.0568
 21
35.977849356053
 31
0.0
  0
LINE
  5
A8B
330
1D
100
AcDbEntity
  8
0
100
AcDbLine
 10
190.1378
 20
39.764349356053
 30
0.0
 11
190.3247
 21
39.850549356053
 31
0.0
  0
LINE
  5
A8C
330
1D
100
AcDbEntity
  8
0
100
AcDbLine
 10
189.8638
 20
39.637949356053
 30
0.0
 11
190.1319
 21
39.761549356053
 31
0.0
  0
LINE
  5
A8D
330
1D
100
AcDbEntity
  8
0
100
AcDbLine
 10
178.0537
 20
39.650949356053
 30
0.0
 11
178.106294160538
 21
39.675199045644
 31
0.0
  0
LINE
  5
A8E
330
1D
100
AcDbEntity
  8
0
100
AcDbLine
 10
178.0537
 20
39.650949356053
 30
0.0
 11
178.101308496694
 21
39.672899356109
 31
0.0
  0
LINE
  5
A8F
330
1D
100
AcDbEntity
  8
0
100
AcDbLine
 10
178.0537
 20
39.650949356053
 30
0.0
 11
178.101308496694
 21
39.672899356109
 31
0.0
  0
LINE
  5
AA8
330
1D
100
AcDbEntity
  8
0
100
AcDbLine
 10
179.857003041696
 20
40.482542759999
 30
0.0
 11
181.933
 21
35.980649356053
 31
0.0
  0
LINE
  5
AA9
330
1D
100
AcDbEntity
  8
0
100
AcDbLine
 10
180.3777
 20
40.722649356053
 30
0.0
 11
182.4548
 21
36.221249356053
 31
0.0
  0
LINE
  5
AAA
330
1D
100
AcDbEntity
  8
0
100
AcDbLine
 10
180.4216
 20
40.742949356053
 30
0.0
 11
181.3009
 21
41.148449356053
 31
0.0
  0
LINE
  5
AAB
330
1D
100
AcDbEntity
  8
0
100
AcDbLine
 10
180.4216
 20
40.742949356053
 30
0.0
 11
182.4762
 21
36.231149356053
 31
0.0
  0
LINE
  5
AB5
330
1D
100
AcDbEntity
  8
0
100
AcDbLine
 10
180.746202529533
 20
40.892643801323
 30
0.0
 11
182.800790840348
 21
36.380869470197
 31
0.0
  0
LINE
  5
AB6
330
1D
100
AcDbEntity
  8
0
100
AcDbLine
 10
181.6143
 20
41.292949356053
 30
0.0
 11
182.1973
 21
41.561749356053
 31
0.0
  0
LINE
  5
AB7
330
1D
100
AcDbEntity
  8
0
100
AcDbLine
 10
181.6143
 20
41.292949356053
 30
0.0
 11
183.647894158097
 21
36.771562344636
 31
0.0
  0
LINE
  5
AB8
330
1D
100
AcDbEntity
  8
0
100
AcDbLine
 10
181.6143
 20
41.292949356053
 30
0.0
 11
183.647894158096
 21
36.771562344636
 31
0.0
  0
LINE
  5
AB9
330
1D
100
AcDbEntity
  8
0
100
AcDbLine
 10
181.3421
 20
41.167449356053
 30
0.0
 11
182.1973
 21
41.561749356053
 31
0.0
  0
LINE
  5
ABA
330
1D
100
AcDbEntity
  8
0
100
AcDbLine
 10
181.3421
 20
41.167449356053
 30
0.0
 11
183.3757
 21
36.646049356053
 31
0.0
  0
LINE
  5
ABB
330
1D
100
AcDbEntity
  8
0
100
AcDbLine
 10
181.3421
 20
41.167449356053
 30
0.0
 11
181.6143
 21
41.292949356053
 31
0.0
  0
LINE
  5
ABC
330
1D
100
AcDbEntity
  8
0
100
AcDbLine
 10
182.453917266255
 20
41.680110499476
 30
0.0
 11
184.4672
 21
37.149349356053
 31
0.0
  0
LINE
  5
ABD
330
1D
100
AcDbEntity
  8
0
100
AcDbLine
 10
183.0601
 20
41.959649356053
 30
0.0
 11
185.0707
 21
37.427649356053
 31
0.0
  0
LINE
  5
ABE
330
1D
100
AcDbEntity
  8
0
100
AcDbLine
 10
183.257815898423
 20
42.050813158615
 30
0.0
 11
185.2517
 21
37.511149356053
 31
0.0
  0
LINE
  5
ABF
330
1D
100
AcDbEntity
  8
0
100
AcDbLine
 10
183.1005
 20
41.978249356053
 30
0.0
 11
183.8788
 21
42.337249356053
 31
0.0
  0
LINE
  5
AC0
330
1D
100
AcDbEntity
  8
0
100
AcDbLine
 10
183.1005
 20
41.978249356053
 30
0.0
 11
185.0909
 21
37.436949356053
 31
0.0
  0
LINE
  5
AC1
330
1D
100
AcDbEntity
  8
0
100
AcDbLine
 10
183.8788
 20
42.337249356053
 30
0.0
 11
185.8759
 21
37.798949356053
 31
0.0
  0
LINE
  5
AC2
330
1D
100
AcDbEntity
  8
0
100
AcDbLine
 10
182.2365
 20
41.579849356053
 30
0.0
 11
184.2525
 21
37.050249356053
 31
0.0
  0
LINE
  5
AC3
330
1D
100
AcDbEntity
  8
0
100
AcDbLine
 10
182.2365
 20
41.579849356053
 30
0.0
 11
183.0601
 21
41.959649356053
 31
0.0
  0
LINE
  5
AC4
330
1D
100
AcDbEntity
  8
0
100
AcDbLine
 10
182.1973
 20
41.561749356053
 30
0.0
 11
184.2308
 21
37.040349356053
 31
0.0
  0
LINE
  5
AC5
330
1D
100
AcDbEntity
  8
0
100
AcDbLine
 10
181.3009
 20
41.148449356053
 30
0.0
 11
183.3538
 21
36.635949356053
 31
0.0
  0
LINE
  5
AC6
330
1D
100
AcDbEntity
  8
0
100
AcDbLine
 10
184.0191
 20
42.401949356053
 30
0.0
 11
184.6524
 21
42.693949356053
 31
0.0
  0
LINE
  5
AC7
330
1D
100
AcDbEntity
  8
0
100
AcDbLine
 10
184.0191
 20
42.401949356053
 30
0.0
 11
185.9947
 21
37.853749356053
 31
0.0
  0
LINE
  5
AC8
330
1D
100
AcDbEntity
  8
0
100
AcDbLine
 10
183.9202
 20
42.356349356053
 30
0.0
 11
185.8957
 21
37.808049356053
 31
0.0
  0
LINE
  5
AC9
330
1D
100
AcDbEntity
  8
0
100
AcDbLine
 10
183.9202
 20
42.356349356053
 30
0.0
 11
184.0191
 21
42.401949356053
 31
0.0
  0
LINE
  5
ACA
330
1D
100
AcDbEntity
  8
0
100
AcDbLine
 10
183.9202
 20
42.356349356053
 30
0.0
 11
184.6524
 21
42.693949356053
 31
0.0
  0
LINE
  5
ADD
330
1D
100
AcDbEntity
  8
0
100
AcDbLine
 10
183.07029
 20
45.364049356053
 30
0.0
 11
184.41706
 21
46.050449356053
 31
0.0
  0
LINE
  5
ADE
330
1D
100
AcDbEntity
  8
0
100
AcDbLine
 10
184.7315
 20
42.730449356053
 30
0.0
 11
185.376
 21
43.027649356053
 31
0.0
  0
LINE
  5
ADF
330
1D
100
AcDbEntity
  8
0
100
AcDbLine
 10
184.7315
 20
42.730449356053
 30
0.0
 11
186.6898
 21
38.174349356053
 31
0.0
  0
LINE
  5
AE0
330
1D
100
AcDbEntity
  8
0
100
AcDbLine
 10
184.769270697657
 20
42.747866658371
 30
0.0
 11
185.015760016793
 21
42.861562978764
 31
0.0
  0
LINE
  5
AE1
330
1D
100
AcDbEntity
  8
0
100
AcDbLine
 10
184.769270697657
 20
42.74786665837
 30
0.0
 11
185.015760016793
 21
42.861562978764
 31
0.0
  0
LINE
  5
AE2
330
1D
100
AcDbEntity
  8
0
100
AcDbLine
 10
184.706965016354
 20
42.719173176701
 30
0.0
 11
185.006257941182
 21
42.8571821066
 31
0.0
  0
LINE
  5
AE3
330
1D
100
AcDbEntity
  8
0
100
AcDbLine
 10
184.706965016354
 20
42.719173176701
 30
0.0
 11
185.006257941181
 21
42.857182106599
 31
0.0
  0
LINE
  5
AE4
330
1D
100
AcDbEntity
  8
0
100
AcDbLine
 10
184.6919
 20
42.712249356053
 30
0.0
 11
185.376
 21
43.027649356053
 31
0.0
  0
LINE
  5
AE5
330
1D
100
AcDbEntity
  8
0
100
AcDbLine
 10
184.6919
 20
42.712249356053
 30
0.0
 11
186.6501
 21
38.155949356053
 31
0.0
  0
LINE
  5
AE6
330
1D
100
AcDbEntity
  8
0
100
AcDbLine
 10
184.6524
 20
42.693949356053
 30
0.0
 11
186.6317
 21
38.147549356053
 31
0.0
  0
LINE
  5
AE7
330
1D
100
AcDbEntity
  8
0
100
AcDbLine
 10
186.0648
 20
43.345249356053
 30
0.0
 11
186.6278
 21
43.604949356053
 31
0.0
  0
LINE
  5
AE8
330
1D
100
AcDbEntity
  8
0
100
AcDbLine
 10
186.0648
 20
43.345249356053
 30
0.0
 11
187.9927
 21
38.775049356053
 31
0.0
  0
LINE
  5
AE9
330
1D
100
AcDbEntity
  8
0
100
AcDbLine
 10
186.0648
 20
43.345249356053
 30
0.0
 11
186.6226
 21
43.602549356053
 31
0.0
  0
LINE
  5
AEA
330
1D
100
AcDbEntity
  8
0
100
AcDbLine
 10
186.0648
 20
43.345249356053
 30
0.0
 11
187.9877
 21
38.772849356053
 31
0.0
  0
LINE
  5
AEB
330
1D
100
AcDbEntity
  8
0
100
AcDbLine
 10
186.6226
 20
43.602549356053
 30
0.0
 11
188.5556
 21
39.034749356053
 31
0.0
  0
LINE
  5
AEC
330
1D
100
AcDbEntity
  8
0
100
AcDbLine
 10
186.6278
 20
43.604949356053
 30
0.0
 11
188.5556
 21
39.034749356053
 31
0.0
  0
LINE
  5
AED
330
1D
100
AcDbEntity
  8
0
100
AcDbLine
 10
185.404000022236
 20
43.040649303961
 30
0.0
 11
186.0302
 21
43.329349356053
 31
0.0
  0
LINE
  5
AEE
330
1D
100
AcDbEntity
  8
0
100
AcDbLine
 10
185.404
 20
43.040649356053
 30
0.0
 11
186.0302
 21
43.329349356053
 31
0.0
  0
LINE
  5
AEF
330
1D
100
AcDbEntity
  8
0
100
AcDbLine
 10
185.404
 20
43.040649356053
 30
0.0
 11
187.3511
 21
38.479249356053
 31
0.0
  0
LINE
  5
AF0
330
1D
100
AcDbEntity
  8
0
100
AcDbLine
 10
186.6543
 20
43.617149356053
 30
0.0
 11
188.564
 21
39.038649356053
 31
0.0
  0
LINE
  5
AF1
330
1D
100
AcDbEntity
  8
0
100
AcDbLine
 10
186.6543
 20
43.617149356053
 30
0.0
 11
187.1493
 21
43.845449356053
 31
0.0
  0
LINE
  5
B06
330
1D
100
AcDbEntity
  8
0
100
AcDbLine
 10
184.41706
 20
46.050449356053
 30
0.0
 11
185.65683
 21
46.682449356053
 31
0.0
  0
LINE
  5
B12
330
1D
100
AcDbEntity
  8
0
100
AcDbLine
 10
185.65683
 20
46.682449356053
 30
0.0
 11
186.74741
 21
47.238149356053
 31
0.0
  0
LINE
  5
B13
330
1D
100
AcDbEntity
  8
0
100
AcDbLine
 10
187.1493
 20
43.845449356053
 30
0.0
 11
189.0643
 21
39.269249356053
 31
0.0
  0
LINE
  5
B14
330
1D
100
AcDbEntity
  8
0
100
AcDbLine
 10
187.201735483747
 20
43.869618710834
 30
0.0
 11
187.277902253395
 21
43.904769919375
 31
0.0
  0
LINE
  5
B15
330
1D
100
AcDbEntity
  8
0
100
AcDbLine
 10
187.201735483747
 20
43.869618710834
 30
0.0
 11
187.277902253395
 21
43.904769919375
 31
0.0
  0
LINE
  5
B16
330
1D
100
AcDbEntity
  8
0
100
AcDbLine
 10
187.166409918643
 20
43.853325578626
 30
0.0
 11
187.5951
 21
44.051049356053
 31
0.0
  0
LINE
  5
B17
330
1D
100
AcDbEntity
  8
0
100
AcDbLine
 10
187.1664
 20
43.853349356053
 30
0.0
 11
187.5951
 21
44.051049356053
 31
0.0
  0
LINE
  5
B18
330
1D
100
AcDbEntity
  8
0
100
AcDbLine
 10
187.1664
 20
43.853349356053
 30
0.0
 11
189.0763
 21
39.274849356053
 31
0.0
  0
LINE
  5
B19
330
1D
100
AcDbEntity
  8
0
100
AcDbLine
 10
187.5951
 20
44.051049356053
 30
0.0
 11
189.4989
 21
39.469749356053
 31
0.0
  0
LINE
  5
B1A
330
1D
100
AcDbEntity
  8
0
100
AcDbLine
 10
187.6143053105
 20
44.059936455027
 30
0.0
 11
187.674606918656
 21
44.087747212187
 31
0.0
  0
LINE
  5
B1B
330
1D
100
AcDbEntity
  8
0
100
AcDbLine
 10
187.6143053105
 20
44.059936455027
 30
0.0
 11
187.674606918656
 21
44.087747212187
 31
0.0
  0
LINE
  5
B1C
330
1D
100
AcDbEntity
  8
0
100
AcDbLine
 10
187.77038478176
 20
44.131878794748
 30
0.0
 11
187.817136351327
 21
44.153444693549
 31
0.0
  0
LINE
  5
B1D
330
1D
100
AcDbEntity
  8
0
100
AcDbLine
 10
187.77038478176
 20
44.131878794748
 30
0.0
 11
187.817136351327
 21
44.153444693549
 31
0.0
  0
LINE
  5
B1E
330
1D
100
AcDbEntity
  8
0
100
AcDbLine
 10
187.9612
 20
44.219849356053
 30
0.0
 11
189.8558
 21
39.634349356053
 31
0.0
  0
LINE
  5
B1F
330
1D
100
AcDbEntity
  8
0
100
AcDbLine
 10
187.976703512529
 20
44.227040814192
 30
0.0
 11
188.2384
 21
44.347749356053
 31
0.0
  0
LINE
  5
B20
330
1D
100
AcDbEntity
  8
0
100
AcDbLine
 10
187.614310215871
 20
44.059924538199
 30
0.0
 11
187.9612
 21
44.219849356053
 31
0.0
  0
LINE
  5
B21
330
1D
100
AcDbEntity
  8
0
100
AcDbLine
 10
187.9767
 20
44.227049356053
 30
0.0
 11
188.2384
 21
44.347749356053
 31
0.0
  0
LINE
  5
B22
330
1D
100
AcDbEntity
  8
0
100
AcDbLine
 10
187.9767
 20
44.227049356053
 30
0.0
 11
189.8638
 21
39.637949356053
 31
0.0
  0
LINE
  5
B23
330
1D
100
AcDbEntity
  8
0
100
AcDbLine
 10
187.6143
 20
44.059949356053
 30
0.0
 11
189.503
 21
39.471649356053
 31
0.0
  0
LINE
  5
B24
330
1D
100
AcDbEntity
  8
0
100
AcDbLine
 10
187.6143
 20
44.059949356053
 30
0.0
 11
187.9612
 21
44.219849356053
 31
0.0
  0
LINE
  5
B25
330
1D
100
AcDbEntity
  8
0
100
AcDbLine
 10
186.9709
 20
47.038749356053
 30
0.0
 11
187.6427
 21
46.802649356053
 31
0.0
  0
LINE
  5
B27
330
1D
100
AcDbEntity
  8
0
100
AcDbLine
 10
187.6427
 20
46.802649356053
 30
0.0
 11
188.5788
 21
44.504649356053
 31
0.0
  0
LINE
  5
B2C
330
1D
100
AcDbEntity
  8
0
100
AcDbLine
 10
186.74741
 20
47.238149356053
 30
0.0
 11
187.58179
 21
47.663049356053
 31
0.0
  0
LINE
  5
B33
330
1D
100
AcDbEntity
  8
0
100
AcDbLine
 10
186.14622
 20
52.542949356053
 30
0.0
 11
188.14378
 21
48.622549356053
 31
0.0
  0
LINE
  5
B34
330
1D
100
AcDbEntity
  8
0
100
AcDbLine
 10
187.58179
 20
47.663049356053
 30
0.0
 11
188.09518
 21
47.924549356053
 31
0.0
  0
LINE
  5
B35
330
1D
100
AcDbEntity
  8
0
100
AcDbLine
 10
188.2384
 20
44.347749356053
 30
0.0
 11
190.1319
 21
39.761549356053
 31
0.0
  0
LINE
  5
B36
330
1D
100
AcDbEntity
  8
0
100
AcDbLine
 10
188.249709053104
 20
44.352927354532
 30
0.0
 11
188.365253606207
 21
44.406215242978
 31
0.0
  0
LINE
  5
B37
330
1D
100
AcDbEntity
  8
0
100
AcDbLine
 10
188.249709053104
 20
44.352927354532
 30
0.0
 11
188.365253606207
 21
44.406215242978
 31
0.0
  0
LINE
  5
B38
330
1D
100
AcDbEntity
  8
0
100
AcDbLine
 10
188.249711344042
 20
44.352921786924
 30
0.0
 11
188.4367
 21
44.439149356053
 31
0.0
  0
LINE
  5
B39
330
1D
100
AcDbEntity
  8
0
100
AcDbLine
 10
188.5549
 20
44.493649356053
 30
0.0
 11
190.4266
 21
39.897549356053
 31
0.0
  0
LINE
  5
B3A
330
1D
100
AcDbEntity
  8
0
100
AcDbLine
 10
188.5581
 20
44.495149356053
 30
0.0
 11
190.4281
 21
39.898249356053
 31
0.0
  0
LINE
  5
B3B
330
1D
100
AcDbEntity
  8
0
100
AcDbLine
 10
188.4504
 20
44.445449356053
 30
0.0
 11
190.3286
 21
39.852349356053
 31
0.0
  0
LINE
  5
B3C
330
1D
100
AcDbEntity
  8
0
100
AcDbLine
 10
188.4504
 20
44.445449356053
 30
0.0
 11
188.5549
 21
44.493649356053
 31
0.0
  0
LINE
  5
B3D
330
1D
100
AcDbEntity
  8
0
100
AcDbLine
 10
188.4367
 20
44.439149356053
 30
0.0
 11
190.3247
 21
39.850549356053
 31
0.0
  0
LINE
  5
B3E
330
1D
100
AcDbEntity
  8
0
100
AcDbLine
 10
188.2497
 20
44.352949356053
 30
0.0
 11
188.4367
 21
44.439149356053
 31
0.0
  0
LINE
  5
B3F
330
1D
100
AcDbEntity
  8
0
100
AcDbLine
 10
188.2497
 20
44.352949356053
 30
0.0
 11
190.1378
 21
39.764349356053
 31
0.0
  0
LINE
  5
B40
330
1D
100
AcDbEntity
  8
0
100
AcDbLine
 10
189.637117309512
 20
41.903252100095
 30
0.0
 11
190.4548
 21
39.910549356053
 31
0.0
  0
LINE
  5
B41
330
1D
100
AcDbEntity
  8
0
100
AcDbLine
 10
189.637117309513
 20
41.903252100095
 30
0.0
 11
190.4548
 21
39.910549356053
 31
0.0
  0
LINE
  5
B42
330
1D
100
AcDbEntity
  8
0
100
AcDbLine
 10
188.5788
 20
44.504649356053
 30
0.0
 11
190.4548
 21
39.910549356053
 31
0.0
  0
LINE
  5
B5E
330
1D
100
AcDbEntity
  8
0
100
AcDbLine
 10
188.14378
 20
48.622549356053
 30
0.0
 11
188.28758
 21
48.022549356053
 31
0.0
  0
LINE
  5
B5F
330
1D
100
AcDbEntity
  8
0
100
AcDbLine
 10
188.09518
 20
47.924549356053
 30
0.0
 11
188.28758
 21
48.022549356053
 31
0.0
  0
LINE
  5
BB5
330
1D
100
AcDbEntity
  8
0
100
AcDbLine
 10
177.0983
 20
68.124849356053
 30
0.0
 11
186.14622
 21
52.542949356053
 31
0.0
  0
LINE
  5
BBA
330
1D
100
AcDbEntity
  8
0
100
AcDbLine
 10
166.9174
 20
37.134149356053
 30
0.0
 11
168.5852
 21
37.983949356053
 31
0.0
  0
LINE
  5
BBB
330
1D
100
AcDbEntity
  8
0
100
AcDbLine
 10
165.8917
 20
36.611049356053
 30
0.0
 11
166.9174
 21
37.134149356053
 31
0.0
  0
LINE
  5
BBC
330
1D
100
AcDbEntity
  8
0
100
AcDbLine
 10
165.5059
 20
36.414949356053
 30
0.0
 11
165.8917
 21
36.611049356053
 31
0.0
  0
LINE
  5
1320
330
1D
100
AcDbEntity
  8
0
100
AcDbLine
 10
153.6681
 20
256.767749356053
 30
0.0
 11
160.0543
 21
255.589749356053
 31
0.0
  0
LINE
  5
1321
330
1D
100
AcDbEntity
  8
0
100
AcDbLine
 10
149.7396
 20
228.123749356053
 30
0.0
 11
158.4361
 21
225.702749356053
 31
0.0
  0
LINE
  5
1703
330
1D
100
AcDbEntity
  8
0
100
AcDbLine
 10
74.454
 20
204.166749356053
 30
0.0
 11
104.6402
 21
239.908749356053
 31
0.0
  0
LINE
  5
1704
330
1D
100
AcDbEntity
  8
0
100
AcDbLine
 10
96.666
 20
185.528749356053
 30
0.0
 11
125.7833
 21
220.037749356053
 31
0.0
  0
LINE
  5
1707
330
1D
100
AcDbEntity
  8
0
100
AcDbLine
 10
89.994
 20
178.136749356053
 30
0.0
 11
90.2898
 21
178.045749356053
 31
0.0
  0
LINE
  5
1708
330
1D
100
AcDbEntity
  8
0
100
AcDbLine
 10
90.2898
 20
178.045749356053
 30
0.0
 11
96.5745
 21
185.537749356053
 31
0.0
  0
LINE
  5
1709
330
1D
100
AcDbEntity
  8
0
100
AcDbLine
 10
68.196
 20
196.449749356053
 30
0.0
 11
68.214
 21
196.735749356053
 31
0.0
  0
LINE
  5
170A
330
1D
100
AcDbEntity
  8
0
100
AcDbLine
 10
68.214
 20
196.735749356053
 30
0.0
 11
74.349
 21
203.981749356053
 31
0.0
  0
LINE
  5
170B
330
1D
100
AcDbEntity
  8
0
100
AcDbLine
 10
74.349
 20
203.981749356053
 30
0.0
 11
96.5745
 21
185.537749356053
 31
0.0
  0
LINE
  5
170C
330
1D
100
AcDbEntity
  8
0
100
AcDbLine
 10
96.5745
 20
185.537749356053
 30
0.0
 11
96.67359383639
 21
185.537749356053
 31
0.0
  0
LINE
  5
170D
330
1D
100
AcDbEntity
  8
0
100
AcDbLine
 10
96.67359383639
 20
185.537749356053
 30
0.0
 11
74.454
 21
204.166749356053
 31
0.0
  0
LINE
  5
170E
330
1D
100
AcDbEntity
  8
0
100
AcDbLine
 10
74.454
 20
204.166749356053
 30
0.0
 11
74.349
 21
203.981749356053
 31
0.0
  0
LINE
  5
170F
330
1D
100
AcDbEntity
  8
0
100
AcDbLine
 10
68.196
 20
196.449749356053
 30
0.0
 11
89.994
 21
178.136749356053
 31
0.0
  0
LINE
  5
1710
330
1D
100
AcDbEntity
  8
0
100
AcDbLine
 10
104.6402
 20
239.908749356053
 30
0.0
 11
110.8339
 21
245.290749356053
 31
0.0
  0
LINE
  5
1711
330
1D
100
AcDbEntity
  8
0
100
AcDbLine
 10
110.8339
 20
245.290749356053
 30
0.0
 11
116.2128
 21
248.930749356053
 31
0.0
  0
LINE
  5
1712
330
1D
100
AcDbEntity
  8
0
100
AcDbLine
 10
116.2128
 20
248.930749356053
 30
0.0
 11
121.9606
 21
251.951749356053
 31
0.0
  0
LINE
  5
1713
330
1D
100
AcDbEntity
  8
0
100
AcDbLine
 10
130.412
 20
223.618749356053
 30
0.0
 11
136.3928
 21
226.631749356053
 31
0.0
  0
LINE
  5
1714
330
1D
100
AcDbEntity
  8
0
100
AcDbLine
 10
125.7833
 20
220.037749356053
 30
0.0
 11
130.412
 21
223.618749356053
 31
0.0
  0
LINE
  5
1715
330
1D
100
AcDbEntity
  8
0
100
AcDbLine
 10
121.9606
 20
251.951749356053
 30
0.0
 11
128.0095
 21
254.317749356053
 31
0.0
  0
LINE
  5
1716
330
1D
100
AcDbEntity
  8
0
100
AcDbLine
 10
128.0095
 20
254.317749356053
 30
0.0
 11
134.2823
 21
255.998749356053
 31
0.0
  0
LINE
  5
1717
330
1D
100
AcDbEntity
  8
0
100
AcDbLine
 10
134.2823
 20
255.998749356053
 30
0.0
 11
140.7016
 21
256.973749356053
 31
0.0
  0
LINE
  5
1718
330
1D
100
AcDbEntity
  8
0
100
AcDbLine
 10
140.7016
 20
256.973749356053
 30
0.0
 11
147.1904
 21
257.231749356053
 31
0.0
  0
LINE
  5
1719
330
1D
100
AcDbEntity
  8
0
100
AcDbLine
 10
136.3928
 20
226.631749356053
 30
0.0
 11
143.0506
 21
228.062749356053
 31
0.0
  0
LINE
  5
171A
330
1D
100
AcDbEntity
  8
0
100
AcDbLine
 10
147.1904
 20
257.231749356053
 30
0.0
 11
153.6681
 21
256.767749356053
 31
0.0
  0
LINE
  5
171B
330
1D
100
AcDbEntity
  8
0
100
AcDbLine
 10
143.0506
 20
228.062749356053
 30
0.0
 11
149.7396
 21
228.123749356053
 31
0.0
  0
LINE
  5
171D
330
1D
100
AcDbEntity
  8
0
100
AcDbLine
 10
212.7565
 20
54.480049356053
 30
0.0
 11
212.9154
 21
40.085349356053
 31
0.0
  0
LINE
  5
171E
330
1D
100
AcDbEntity
  8
0
100
AcDbLine
 10
214.175
 20
67.620849356053
 30
0.0
 11
214.226
 21
18.971249356053
 31
0.0
  0
LINE
  5
173A
330
1D
100
AcDbEntity
  8
0
100
AcDbLine
 10
208.6322
 20
35.922149356053
 30
0.0
 11
209.3481
 21
34.203749356053
 31
0.0
  0
LINE
  5
173B
330
1D
100
AcDbEntity
  8
0
100
AcDbLine
 10
207.5689
 20
27.951349356053
 30
0.0
 11
209.4866
 21
27.973749356053
 31
0.0
  0
LINE
  5
173C
330
1D
100
AcDbEntity
  8
0
100
AcDbLine
 10
201.2121
 20
35.210449356053
 30
0.0
 11
212.9154
 21
40.085349356053
 31
0.0
  0
LINE
  5
18CA
330
1D
100
AcDbEntity
  8
0
100
AcDbLine
 10
196.143192088545
 20
33.162432178583
 30
0.0
 11
196.507382784285
 21
33.309578156359
 31
0.0
  0
LINE
  5
18CB
330
1D
100
AcDbEntity
  8
0
100
AcDbLine
 10
196.143192088545
 20
33.162432178583
 30
0.0
 11
196.507382784324
 21
33.309578156375
 31
0.0
  0
LINE
  5
18CC
330
1D
100
AcDbEntity
  8
0
100
AcDbLine
 10
196.143188137443
 20
33.16243688796
 30
0.0
 11
197.6632
 21
33.776549356053
 31
0.0
  0
LINE
  5
18CD
330
1D
100
AcDbEntity
  8
0
100
AcDbLine
 10
197.6632
 20
33.776549356053
 30
0.0
 11
199.5462
 21
34.537249356053
 31
0.0
  0
LINE
  5
18CE
330
1D
100
AcDbEntity
  8
0
100
AcDbLine
 10
201.3566
 20
27.985049356053
 30
0.0
 11
205.2646
 21
27.955249356053
 31
0.0
  0
LINE
  5
18CF
330
1D
100
AcDbEntity
  8
0
100
AcDbLine
 10
195.995346392917
 20
27.969261266255
 30
0.0
 11
201.3566
 21
27.985049356053
 31
0.0
  0
LINE
  5
18D0
330
1D
100
AcDbEntity
  8
0
100
AcDbLine
 10
199.5462
 20
34.537249356053
 30
0.0
 11
201.2121
 21
35.210449356053
 31
0.0
  0
LINE
  5
18D1
330
1D
100
AcDbEntity
  8
0
100
AcDbLine
 10
205.2646
 20
27.955249356053
 30
0.0
 11
207.5689
 21
27.951349356053
 31
0.0
  0
LINE
  5
18D3
330
1D
100
AcDbEntity
  8
0
100
AcDbLine
 10
207.6561
 20
37.506349356053
 30
0.0
 11
208.6322
 21
35.922149356053
 31
0.0
  0
LINE
  5
18D4
330
1D
100
AcDbEntity
  8
0
100
AcDbLine
 10
207.400447185034
 20
37.712475622428
 30
0.0
 11
207.6561
 21
37.506349356053
 31
0.0
  0
LINE
  5
1929
330
1D
100
AcDbEntity
  8
0
100
AcDbLine
 10
214.226
 20
18.971249356053
 30
0.0
 11
214.239
 21
16.739309356053
 31
0.0
  0
LINE
  5
192A
330
1D
100
AcDbEntity
  8
0
100
AcDbLine
 10
212.3911
 20
26.912849356053
 30
0.0
 11
212.479713253936
 21
16.848159943209
 31
0.0
  0
LINE
  5
1938
330
1D
100
AcDbEntity
  8
0
100
AcDbLine
 10
222.117
 20
16.701709356053
 30
0.0
 11
223.467
 21
16.684509356053
 31
0.0
  0
LINE
  5
1939
330
1D
100
AcDbEntity
  8
0
100
AcDbLine
 10
218.75
 20
16.238749356053
 30
0.0
 11
222.608905176021
 21
16.238749356053
 31
0.0
  0
LINE
  5
1976
330
1D
100
AcDbEntity
  8
0
100
AcDbLine
 10
215.268
 20
16.238749356053
 30
0.0
 11
216.505
 21
16.238749356053
 31
0.0
  0
LINE
  5
1977
330
1D
100
AcDbEntity
  8
0
100
AcDbLine
 10
215.137
 20
16.238749356053
 30
0.0
 11
216.591
 21
16.238749356053
 31
0.0
  0
LINE
  5
1978
330
1D
100
AcDbEntity
  8
0
100
AcDbLine
 10
201.33369933951
 20
16.728491637873
 30
0.0
 11
222.117
 21
16.701709356053
 31
0.0
  0
LINE
  5
1986
330
1D
100
AcDbEntity
  8
0
100
AcDbLine
 10
213.749
 20
16.238749356053
 30
0.0
 11
215.268
 21
16.238749356053
 31
0.0
  0
LINE
  5
1987
330
1D
100
AcDbEntity
  8
0
100
AcDbLine
 10
211.988
 20
16.238749356053
 30
0.0
 11
213.749
 21
16.238749356053
 31
0.0
  0
LINE
  5
1988
330
1D
100
AcDbEntity
  8
0
100
AcDbLine
 10
215.285877716088
 20
16.23924772103
 30
0.0
 11
215.848
 21
16.238749356053
 31
0.0
  0
LINE
  5
1989
330
1D
100
AcDbEntity
  8
0
100
AcDbLine
 10
213.32
 20
16.238749356053
 30
0.0
 11
215.137
 21
16.238749356053
 31
0.0
  0
LINE
  5
198A
330
1D
100
AcDbEntity
  8
0
100
AcDbLine
 10
201.566282804847
 20
16.238749356053
 30
0.0
 11
213.32
 21
16.238749356053
 31
0.0
  0
LINE
  5
19BA
330
1D
100
AcDbEntity
  8
0
100
AcDbLine
 10
217.479
 20
16.238749356053
 30
0.0
 11
218.184
 21
16.238749356053
 31
0.0
  0
LINE
  5
19BB
330
1D
100
AcDbEntity
  8
0
100
AcDbLine
 10
216.505
 20
16.238749356053
 30
0.0
 11
217.479
 21
16.238749356053
 31
0.0
  0
LINE
  5
19BC
330
1D
100
AcDbEntity
  8
0
100
AcDbLine
 10
218.333
 20
16.238749356053
 30
0.0
 11
218.597
 21
16.238749356053
 31
0.0
  0
LINE
  5
19BE
330
1D
100
AcDbEntity
  8
0
100
AcDbLine
 10
218.609
 20
16.238749356053
 30
0.0
 11
218.75
 21
16.238749356053
 31
0.0
  0
LINE
  5
19BF
330
1D
100
AcDbEntity
  8
0
100
AcDbLine
 10
218.184
 20
16.238749356053
 30
0.0
 11
218.447
 21
16.238749356053
 31
0.0
  0
LINE
  5
19C0
330
1D
100
AcDbEntity
  8
0
100
AcDbLine
 10
218.184
 20
16.238749356053
 30
0.0
 11
218.609
 21
16.238749356053
 31
0.0
  0
LINE
  5
19C1
330
1D
100
AcDbEntity
  8
0
100
AcDbLine
 10
218.447
 20
16.238749356053
 30
0.0
 11
218.597
 21
16.238749356053
 31
0.0
  0
LINE
  5
19C2
330
1D
100
AcDbEntity
  8
0
100
AcDbLine
 10
217.661
 20
16.238749356053
 30
0.0
 11
218.333
 21
16.238749356053
 31
0.0
  0
LINE
  5
19C3
330
1D
100
AcDbEntity
  8
0
100
AcDbLine
 10
216.591
 20
16.238749356053
 30
0.0
 11
217.661
 21
16.238749356053
 31
0.0
  0
LINE
  5
19C4
330
1D
100
AcDbEntity
  8
0
100
AcDbLine
 10
225.827
 20
7.038749356053
 30
0.0
 11
225.827
 21
13.838749356053
 31
0.0
  0
LINE
  5
19C5
330
1D
100
AcDbEntity
  8
0
100
AcDbLine
 10
225.827
 20
13.838749356053
 30
0.0
 11
225.827
 21
7.038749356053
 31
0.0
  0
LINE
  5
19DC
330
1D
100
AcDbEntity
  8
0
100
AcDbLine
 10
225.747
 20
7.038749356053
 30
0.0
 11
225.827
 21
7.038749356053
 31
0.0
  0
LINE
  5
19DD
330
1D
100
AcDbEntity
  8
0
100
AcDbLine
 10
225.59
 20
7.038749356053
 30
0.0
 11
225.827
 21
7.038749356053
 31
0.0
  0
LINE
  5
19E4
330
1D
100
AcDbEntity
  8
0
100
AcDbLine
 10
225.351
 20
7.038751356053
 30
0.0
 11
225.747
 21
7.038749356053
 31
0.0
  0
LINE
  5
19EB
330
1D
100
AcDbEntity
  8
0
100
AcDbLine
 10
223.677
 20
15.840979356053
 30
0.0
 11
224.552
 21
15.686999356053
 31
0.0
  0
LINE
  5
19EC
330
1D
100
AcDbEntity
  8
0
100
AcDbLine
 10
223.422906371793
 20
15.841438894761
 30
0.0
 11
223.677
 21
15.840979356053
 31
0.0
  0
LINE
  5
19ED
330
1D
100
AcDbEntity
  8
0
100
AcDbLine
 10
223.422034497268
 20
15.841847643948
 30
0.0
 11
223.677
 21
15.840979356053
 31
0.0
  0
LINE
  5
19EE
330
1D
100
AcDbEntity
  8
0
100
AcDbLine
 10
223.421651195916
 20
15.842027341957
 30
0.0
 11
223.677
 21
15.840979356053
 31
0.0
  0
LINE
  5
19EF
330
1D
100
AcDbEntity
  8
0
100
AcDbLine
 10
222.869
 20
16.101119356053
 30
0.0
 11
224.297
 21
15.431649356053
 31
0.0
  0
LINE
  5
19F0
330
1D
100
AcDbEntity
  8
0
100
AcDbLine
 10
223.886
 20
16.586739356053
 30
0.0
 11
224.626
 21
16.154299356053
 31
0.0
  0
LINE
  5
19F1
330
1D
100
AcDbEntity
  8
0
100
AcDbLine
 10
223.467
 20
16.684509356053
 30
0.0
 11
223.886
 21
16.586739356053
 31
0.0
  0
LINE
  5
19F4
330
1D
100
AcDbEntity
  8
0
100
AcDbLine
 10
224.552
 20
15.686999356053
 30
0.0
 11
225.242
 21
15.252959356053
 31
0.0
  0
LINE
  5
19F5
330
1D
100
AcDbEntity
  8
0
100
AcDbLine
 10
224.626
 20
16.154299356053
 30
0.0
 11
225.146
 21
15.314839356053
 31
0.0
  0
LINE
  5
19F7
330
1D
100
AcDbEntity
  8
0
100
AcDbLine
 10
225.242
 20
15.252959356053
 30
0.0
 11
225.675
 21
14.604109356053
 31
0.0
  0
LINE
  5
19F8
330
1D
100
AcDbEntity
  8
0
100
AcDbLine
 10
225.675
 20
14.604109356053
 30
0.0
 11
225.827
 21
13.838749356053
 31
0.0
  0
LINE
  5
19F9
330
1D
100
AcDbEntity
  8
0
100
AcDbLine
 10
224.297
 20
15.431649356053
 30
0.0
 11
224.709
 21
14.832629356053
 31
0.0
  0
LINE
  5
19FA
330
1D
100
AcDbEntity
  8
0
100
AcDbLine
 10
222.608905176021
 20
16.238749356053
 30
0.0
 11
222.869
 21
16.101119356053
 31
0.0
  0
LINE
  5
19FB
330
1D
100
AcDbEntity
  8
0
100
AcDbLine
 10
209.3481
 20
34.203749356053
 30
0.0
 11
209.7849
 21
32.394349356053
 31
0.0
  0
LINE
  5
19FC
330
1D
100
AcDbEntity
  8
0
100
AcDbLine
 10
209.9315
 20
30.538749356053
 30
0.0
 11
209.9315
 21
28.838749356053
 31
0.0
  0
LINE
  5
19FD
330
1D
100
AcDbEntity
  8
0
100
AcDbLine
 10
209.7849
 20
32.394349356053
 30
0.0
 11
209.9315
 21
30.538749356053
 31
0.0
  0
LINE
  5
19FE
330
1D
100
AcDbEntity
  8
0
100
AcDbLine
 10
209.4866
 20
27.973749356053
 30
0.0
 11
210.4052
 21
27.978549356053
 31
0.0
  0
LINE
  5
19FF
330
1D
100
AcDbEntity
  8
0
100
AcDbLine
 10
209.9315
 20
28.838749356053
 30
0.0
 11
210.0683
 21
28.338749356053
 31
0.0
  0
LINE
  5
1A00
330
1D
100
AcDbEntity
  8
0
100
AcDbLine
 10
209.9315
 20
28.838749356053
 30
0.0
 11
209.9315
 21
30.538749356053
 31
0.0
  0
LINE
  5
1A01
330
1D
100
AcDbEntity
  8
0
100
AcDbLine
 10
210.712359912718
 20
27.905775358884
 30
0.0
 11
211.6502
 21
27.740549356053
 31
0.0
  0
LINE
  5
1A02
330
1D
100
AcDbEntity
  8
0
100
AcDbLine
 10
210.0683
 20
28.338749356053
 30
0.0
 11
210.4052
 21
27.978549356053
 31
0.0
  0
LINE
  5
1A03
330
1D
100
AcDbEntity
  8
0
100
AcDbLine
 10
212.053
 20
27.457949356053
 30
0.0
 11
212.3911
 21
26.912849356053
 31
0.0
  0
LINE
  5
1A04
330
1D
100
AcDbEntity
  8
0
100
AcDbLine
 10
211.6502
 20
27.740549356053
 30
0.0
 11
212.053
 21
27.457949356053
 31
0.0
  0
LINE
  5
1A05
330
1D
100
AcDbEntity
  8
0
100
AcDbLine
 10
210.4052
 20
27.978549356053
 30
0.0
 11
210.712359912718
 21
27.905775358884
 31
0.0
  0
LINE
  5
1A06
330
1D
100
AcDbEntity
  8
0
100
AcDbLine
 10
175.762
 20
198.738749356053
 30
0.0
 11
175.762983254277
 21
70.424066130024
 31
0.0
  0
LINE
  5
1A07
330
1D
100
AcDbEntity
  8
0
100
AcDbLine
 10
204.763
 20
198.738749356053
 30
0.0
 11
204.763
 21
92.988649356053
 31
0.0
  0
LINE
  5
1A08
330
1D
100
AcDbEntity
  8
0
100
AcDbLine
 10
204.763
 20
92.988649356053
 30
0.0
 11
204.763
 21
198.738749356053
 31
0.0
  0
LINE
  5
1A09
330
1D
100
AcDbEntity
  8
0
100
AcDbLine
 10
208.0585
 20
57.366849356053
 30
0.0
 11
209.6794
 21
56.628349356053
 31
0.0
  0
LINE
  5
1A0A
330
1D
100
AcDbEntity
  8
0
100
AcDbLine
 10
204.399
 20
68.238749356053
 30
0.0
 11
213.21
 21
68.210849356053
 31
0.0
  0
LINE
  5
1A0B
330
1D
100
AcDbEntity
  8
0
100
AcDbLine
 10
191.6903
 20
62.979749356053
 30
0.0
 11
179.212511509679
 21
64.483854262963
 31
0.0
  0
LINE
  5
1A0C
330
1D
100
AcDbEntity
  8
0
100
AcDbLine
 10
177.0983
 20
68.124849356053
 30
0.0
 11
204.399
 21
68.238749356053
 31
0.0
  0
LINE
  5
1A18
330
1D
100
AcDbEntity
  8
0
100
AcDbLine
 10
204.759
 20
76.982349356053
 30
0.0
 11
204.763
 21
68.238749356053
 31
0.0
  0
LINE
  5
1A19
330
1D
100
AcDbEntity
  8
0
100
AcDbLine
 10
191.6903
 20
62.979749356053
 30
0.0
 11
197.657
 21
61.275049356053
 31
0.0
  0
LINE
  5
1A1A
330
1D
100
AcDbEntity
  8
0
100
AcDbLine
 10
199.677470180144
 20
60.58687413839
 30
0.0
 11
202.9883
 21
59.517849356053
 31
0.0
  0
LINE
  5
1A1B
330
1D
100
AcDbEntity
  8
0
100
AcDbLine
 10
202.9883
 20
59.517849356053
 30
0.0
 11
205.592418472691
 21
58.41306870938
 31
0.0
  0
LINE
  5
1A1C
330
1D
100
AcDbEntity
  8
0
100
AcDbLine
 10
202.9883
 20
59.517849356053
 30
0.0
 11
205.592418472691
 21
58.41306870938
 31
0.0
  0
LINE
  5
1A1D
330
1D
100
AcDbEntity
  8
0
100
AcDbLine
 10
199.677470180144
 20
60.58687413839
 30
0.0
 11
202.9883
 21
59.517849356053
 31
0.0
  0
LINE
  5
1A1E
330
1D
100
AcDbEntity
  8
0
100
AcDbLine
 10
204.399
 20
68.238749356053
 30
0.0
 11
204.763
 21
68.238749356053
 31
0.0
  0
LINE
  5
1A1F
330
1D
100
AcDbEntity
  8
0
100
AcDbLine
 10
205.592418472691
 20
58.41306870938
 30
0.0
 11
208.0585
 21
57.366849356053
 31
0.0
  0
LINE
  5
1A20
330
1D
100
AcDbEntity
  8
0
100
AcDbLine
 10
205.592418472691
 20
58.41306870938
 30
0.0
 11
208.0585
 21
57.366849356053
 31
0.0
  0
LINE
  5
1A21
330
1D
100
AcDbEntity
  8
0
100
AcDbLine
 10
199.677470180144
 20
60.58687413839
 30
0.0
 11
197.657
 21
61.275049356053
 31
0.0
  0
LINE
  5
1A22
330
1D
100
AcDbEntity
  8
0
100
AcDbLine
 10
204.5
 20
90.238649356053
 30
0.0
 11
204.522
 21
91.033849356053
 31
0.0
  0
LINE
  5
1A23
330
1D
100
AcDbEntity
  8
0
100
AcDbLine
 10
204.5
 20
90.238649356053
 30
0.0
 11
204.5
 21
79.738549356053
 31
0.0
  0
LINE
  5
1A24
330
1D
100
AcDbEntity
  8
0
100
AcDbLine
 10
204.502749999999
 20
90.338049356006
 30
0.0
 11
204.522
 21
91.033149356053
 31
0.0
  0
LINE
  5
1A25
330
1D
100
AcDbEntity
  8
0
100
AcDbLine
 10
204.522
 20
91.033849356053
 30
0.0
 11
204.581
 21
91.760049356053
 31
0.0
  0
LINE
  5
1A26
330
1D
100
AcDbEntity
  8
0
100
AcDbLine
 10
204.581
 20
91.760049356053
 30
0.0
 11
204.658
 21
92.365149356053
 31
0.0
  0
LINE
  5
1A27
330
1D
100
AcDbEntity
  8
0
100
AcDbLine
 10
204.658
 20
92.365149356053
 30
0.0
 11
204.725
 21
92.783549356053
 31
0.0
  0
LINE
  5
1A28
330
1D
100
AcDbEntity
  8
0
100
AcDbLine
 10
204.725
 20
92.783549356053
 30
0.0
 11
204.763
 21
92.988649356053
 31
0.0
  0
LINE
  5
1A29
330
1D
100
AcDbEntity
  8
0
100
AcDbLine
 10
204.522
 20
91.033149356053
 30
0.0
 11
204.581
 21
91.760049356053
 31
0.0
  0
LINE
  5
1A2A
330
1D
100
AcDbEntity
  8
0
100
AcDbLine
 10
204.522
 20
78.943649356053
 30
0.0
 11
204.632
 21
77.814849356053
 31
0.0
  0
LINE
  5
1A2B
330
1D
100
AcDbEntity
  8
0
100
AcDbLine
 10
204.522
 20
78.943649356053
 30
0.0
 11
204.668124676124
 21
77.578047837365
 31
0.0
  0
LINE
  5
1A2C
330
1D
100
AcDbEntity
  8
0
100
AcDbLine
 10
204.5
 20
79.738549356053
 30
0.0
 11
204.5
 21
90.238649356053
 31
0.0
  0
LINE
  5
1A2D
330
1D
100
AcDbEntity
  8
0
100
AcDbLine
 10
204.5
 20
79.738549356053
 30
0.0
 11
204.522
 21
78.943649356053
 31
0.0
  0
LINE
  5
1A2E
330
1D
100
AcDbEntity
  8
0
100
AcDbLine
 10
204.632
 20
77.814849356053
 30
0.0
 11
204.759
 21
76.982349356053
 31
0.0
  0
LINE
  5
1A2F
330
1D
100
AcDbEntity
  8
0
100
AcDbLine
 10
212.6764
 20
54.632649356053
 30
0.0
 11
212.7565
 21
54.480049356053
 31
0.0
  0
LINE
  5
1A30
330
1D
100
AcDbEntity
  8
0
100
AcDbLine
 10
210.3564
 20
56.166849356053
 30
0.0
 11
212.4195
 21
55.100849356053
 31
0.0
  0
LINE
  5
1A31
330
1D
100
AcDbEntity
  8
0
100
AcDbLine
 10
209.6794
 20
56.628349356053
 30
0.0
 11
210.3564
 21
56.166849356053
 31
0.0
  0
LINE
  5
1A32
330
1D
100
AcDbEntity
  8
0
100
AcDbLine
 10
212.4195
 20
55.100849356053
 30
0.0
 11
212.6764
 21
54.632649356053
 31
0.0
  0
LINE
  5
1A33
330
1D
100
AcDbEntity
  8
0
100
AcDbLine
 10
213.21
 20
68.210849356053
 30
0.0
 11
213.871
 21
68.105849356053
 31
0.0
  0
LINE
  5
1A34
330
1D
100
AcDbEntity
  8
0
100
AcDbLine
 10
213.871
 20
68.105849356053
 30
0.0
 11
214.175
 21
67.620849356053
 31
0.0
  0
LINE
  5
1A35
330
1D
100
AcDbEntity
  8
0
100
AcDbLine
 10
160.0543
 20
255.589749356053
 30
0.0
 11
166.2703
 21
253.710749356053
 31
0.0
  0
LINE
  5
1A36
330
1D
100
AcDbEntity
  8
0
100
AcDbLine
 10
158.4361
 20
225.702749356053
 30
0.0
 11
166.0193
 21
220.755749356053
 31
0.0
  0
LINE
  5
1A37
330
1D
100
AcDbEntity
  8
0
100
AcDbLine
 10
166.0193
 20
220.755749356053
 30
0.0
 11
170.427
 21
215.659749356053
 31
0.0
  0
LINE
  5
1A38
330
1D
100
AcDbEntity
  8
0
100
AcDbLine
 10
166.2703
 20
253.710749356053
 30
0.0
 11
172.24
 21
251.153749356053
 31
0.0
  0
LINE
  5
1A39
330
1D
100
AcDbEntity
  8
0
100
AcDbLine
 10
170.427
 20
215.659749356053
 30
0.0
 11
172.721
 21
211.785749356053
 31
0.0
  0
LINE
  5
1A3A
330
1D
100
AcDbEntity
  8
0
100
AcDbLine
 10
172.24
 20
251.153749356053
 30
0.0
 11
177.89
 21
247.951749356053
 31
0.0
  0
LINE
  5
1A3B
330
1D
100
AcDbEntity
  8
0
100
AcDbLine
 10
172.721
 20
211.785749356053
 30
0.0
 11
174.397
 21
207.609749356053
 31
0.0
  0
LINE
  5
1A3C
330
1D
100
AcDbEntity
  8
0
100
AcDbLine
 10
174.397
 20
207.609749356053
 30
0.0
 11
175.42
 21
203.226749356053
 31
0.0
  0
LINE
  5
1A3D
330
1D
100
AcDbEntity
  8
0
100
AcDbLine
 10
175.42
 20
203.226749356053
 30
0.0
 11
175.762
 21
198.738749356053
 31
0.0
  0
LINE
  5
1A3E
330
1D
100
AcDbEntity
  8
0
100
AcDbLine
 10
177.89
 20
247.951749356053
 30
0.0
 11
183.15
 21
244.142749356053
 31
0.0
  0
LINE
  5
1A3F
330
1D
100
AcDbEntity
  8
0
100
AcDbLine
 10
183.15
 20
244.142749356053
 30
0.0
 11
187.956
 21
239.774749356053
 31
0.0
  0
LINE
  5
1A40
330
1D
100
AcDbEntity
  8
0
100
AcDbLine
 10
201.545
 20
217.871749356053
 30
0.0
 11
203.325
 21
211.626749356053
 31
0.0
  0
LINE
  5
1A41
330
1D
100
AcDbEntity
  8
0
100
AcDbLine
 10
203.325
 20
211.626749356053
 30
0.0
 11
204.402
 21
205.222749356053
 31
0.0
  0
LINE
  5
1A42
330
1D
100
AcDbEntity
  8
0
100
AcDbLine
 10
187.956
 20
239.774749356053
 30
0.0
 11
192.247
 21
234.900749356053
 31
0.0
  0
LINE
  5
1A43
330
1D
100
AcDbEntity
  8
0
100
AcDbLine
 10
192.247
 20
234.900749356053
 30
0.0
 11
195.972
 21
229.581749356053
 31
0.0
  0
LINE
  5
1A44
330
1D
100
AcDbEntity
  8
0
100
AcDbLine
 10
195.972
 20
229.581749356053
 30
0.0
 11
199.084
 21
223.881749356053
 31
0.0
  0
LINE
  5
1A45
330
1D
100
AcDbEntity
  8
0
100
AcDbLine
 10
199.084
 20
223.881749356053
 30
0.0
 11
201.545
 21
217.871749356053
 31
0.0
  0
LINE
  5
1A46
330
1D
100
AcDbEntity
  8
0
100
AcDbLine
 10
204.402
 20
205.222749356053
 30
0.0
 11
204.763
 21
198.738749356053
 31
0.0
  0
LINE
  5
1A47
330
1D
100
AcDbEntity
  8
0
100
AcDbLine
 10
224.709
 20
14.832629356053
 30
0.0
 11
224.709
 21
7.038750123495
 31
0.0
  0
LINE
  5
1A48
330
1D
100
AcDbEntity
  8
0
100
AcDbLine
 10
123.3715
 20
76.358149356053
 30
0.0
 11
123.230663505181
 21
76.637179731761
 31
0.0
  0
LINE
  5
1A49
330
1D
100
AcDbEntity
  8
0
100
AcDbLine
 10
123.230663505181
 20
76.637179731761
 30
0.0
 11
123.196
 21
76.890049356053
 31
0.0
  0
LINE
  5
1A4A
330
1D
100
AcDbEntity
  8
0
100
AcDbLine
 10
134.4203
 20
76.765749356053
 30
0.0
 11
142.951403194736
 21
75.026526865679
 31
0.0
  0
LINE
  5
1A4B
330
1D
100
AcDbEntity
  8
0
100
AcDbLine
 10
192.4199
 20
33.501449356053
 30
0.0
 11
173.7613
 21
24.896849356053
 31
0.0
  0
LINE
  5
1A4C
330
1D
100
AcDbEntity
  8
0
100
AcDbLine
 10
174.2855
 20
26.230449356053
 30
0.0
 11
191.3062
 21
34.079649356053
 31
0.0
  0
LINE
  5
1A4D
330
1D
100
AcDbEntity
  8
0
100
AcDbLine
 10
168.5852
 20
37.983949356053
 30
0.0
 11
183.07029
 21
45.364049356053
 31
0.0
  0
ENDSEC
  0
SECTION
  2
OBJECTS
  0
DICTIONARY
  5
C
330
0
100
AcDbDictionary
281
     1
  3
ACAD_GROUP
350
D
  3
ACAD_LAYOUT
350
1A
  3
ACAD_MLEADERSTYLE
350
1A50
  3
ACAD_MLINESTYLE
350
17
  3
ACAD_PLOTSETTINGS
350
19
  3
ACAD_PLOTSTYLENAME
350
E
  3
ACAD_SCALELIST
350
BC2
  3
AcDbVariableDictionary
350
1A4E
  3
DWGPROPS
350
1A56
  0
DICTIONARY
  5
D
102
{ACAD_REACTORS
330
C
102
}
330
C
100
AcDbDictionary
281
     1
  0
DICTIONARY
  5
1A
102
{ACAD_REACTORS
330
C
102
}
330
C
100
AcDbDictionary
281
     1
  3
Layout1
350
1C
  3
Model
350
1E
  0
DICTIONARY
  5
1A50
102
{ACAD_REACTORS
330
C
102
}
330
C
100
AcDbDictionary
281
     1
  0
DICTIONARY
  5
17
102
{ACAD_REACTORS
330
C
102
}
330
C
100
AcDbDictionary
281
     1
  3
Standard
350
18
  0
DICTIONARY
  5
19
102
{ACAD_REACTORS
330
C
102
}
330
C
100
AcDbDictionary
281
     1
  0
ACDBDICTIONARYWDFLT
  5
E
102
{ACAD_REACTORS
330
C
102
}
330
C
100
AcDbDictionary
281
     1
  3
Normal
350
F
100
AcDbDictionaryWithDefault
340
F
  0
DICTIONARY
  5
BC2
102
{ACAD_REACTORS
330
C
102
}
330
C
100
AcDbDictionary
281
     1
  3
A0
350
BC3
  3
A1
350
BC4
  3
A2
350
BC5
  3
A3
350
BC6
  3
A4
350
BC7
  3
A5
350
BC8
  3
A6
350
BC9
  3
A7
350
BCA
  3
A8
350
BCB
  3
A9
350
BCC
  3
B0
350
BCD
  3
B1
350
BCE
  3
B2
350
BCF
  3
B3
350
BD0
  3
B4
350
BD1
  3
B5
350
BD2
  3
B6
350
BD3
  3
B7
350
BD4
  3
B8
350
BD5
  3
B9
350
BD6
  3
C0
350
BD7
  3
C1
350
BD8
  3
C2
350
BD9
  3
C3
350
BDA
  3
C4
350
BDB
  3
C5
350
BDC
  3
C6
350
BDD
  3
C7
350
BDE
  3
C8
350
BDF
  3
C9
350
BE0
  3
D0
350
BE1
  3
D1
350
BE2
  3
D2
350
BE3
  0
DICTIONARY
  5
1A4E
102
{ACAD_REACTORS
330
C
102
}
330
C
100
AcDbDictionary
281
     1
  3
CANNOSCALE
350
1A54
  0
XRECORD
  5
1A56
102
{ACAD_REACTORS
330
C
102
}
330
C
100
AcDbXrecord
280
     1
  1
DWGPROPS COOKIE
  2

  3

  4

  6

  7

  8
MARTIN
  9

300
=
301
=
302
=
303
=
304
=
305
=
306
=
307
=
308
=
309
=
 40
0.0
 41
2456646.591508056
 42
2456646.60103515
  1

 90
        0
  0
LAYOUT
  5
1C
102
{ACAD_REACTORS
330
1A
102
}
330
1A
100
AcDbPlotSettings
  1

  2
none_device
  4

  6

 40
0.0
 41
0.0
 42
0.0
 43
0.0
 44
0.0
 45
0.0
 46
0.0
 47
0.0
 48
0.0
 49
0.0
140
0.0
141
0.0
142
1.0
143
1.0
 70
   688
 72
     0
 73
     0
 74
     5
  7

 75
    16
147
1.0
148
0.0
149
0.0
100
AcDbLayout
  1
Layout1
 70
     1
 71
     1
 10
0.0
 20
0.0
 11
12.0
 21
9.0
 12
0.0
 22
0.0
 32
0.0
 14
1.000000000000E+20
 24
1.000000000000E+20
 34
1.000000000000E+20
 15
-1.000000000000E+20
 25
-1.000000000000E+20
 35
-1.000000000000E+20
146
0.0
 13
0.0
 23
0.0
 33
0.0
 16
1.0
 26
0.0
 36
0.0
 17
0.0
 27
1.0
 37
0.0
 76
     0
330
1B
  0
LAYOUT
  5
1E
102
{ACAD_REACTORS
330
1A
102
}
330
1A
100
AcDbPlotSettings
  1

  2
none_device
  4

  6

 40
0.0
 41
0.0
 42
0.0
 43
0.0
 44
0.0
 45
0.0
 46
0.0
 47
0.0
 48
0.0
 49
0.0
140
0.0
141
0.0
142
1.0
143
1.0
 70
  1712
 72
     0
 73
     0
 74
     0
  7

 75
     0
147
1.0
148
0.0
149
0.0
100
AcDbLayout
  1
Model
 70
     1
 71
     0
 10
0.0
 20
0.0
 11
12.0
 21
9.0
 12
0.0
 22
0.0
 32
0.0
 14
-0.232
 24
7.038749356053
 34
0.0
 15
225.827
 25
257.231749356053
 35
0.0
146
0.0
 13
0.0
 23
0.0
 33
0.0
 16
1.0
 26
0.0
 36
0.0
 17
0.0
 27
1.0
 37
0.0
 76
     0
330
1D
331
BBD
  0
MLINESTYLE
  5
18
102
{ACAD_REACTORS
330
17
102
}
330
17
100
AcDbMlineStyle
  2
Standard
 70
     0
  3

 62
   256
 51
90.0
 52
90.0
 71
     2
 49
0.5
 62
   256
  6
BYLAYER
 49
-0.5
 62
   256
  6
BYLAYER
  0
ACDBPLACEHOLDER
  5
F
102
{ACAD_REACTORS
330
E
102
}
330
E
  0
SCALE
  5
BC3
102
{ACAD_REACTORS
330
BC2
102
}
330
BC2
100
AcDbScale
 70
     0
300
1:1
140
1.0
141
1.0
290
     1
  0
SCALE
  5
BC4
102
{ACAD_REACTORS
330
BC2
102
}
330
BC2
100
AcDbScale
 70
     0
300
1:2
140
1.0
141
2.0
290
     0
  0
SCALE
  5
BC5
102
{ACAD_REACTORS
330
BC2
102
}
330
BC2
100
AcDbScale
 70
     0
300
1:4
140
1.0
141
4.0
290
     0
  0
SCALE
  5
BC6
102
{ACAD_REACTORS
330
BC2
102
}
330
BC2
100
AcDbScale
 70
     0
300
1:5
140
1.0
141
5.0
290
     0
  0
SCALE
  5
BC7
102
{ACAD_REACTORS
330
BC2
102
}
330
BC2
100
AcDbScale
 70
     0
300
1:8
140
1.0
141
8.0
290
     0
  0
SCALE
  5
BC8
102
{ACAD_REACTORS
330
BC2
102
}
330
BC2
100
AcDbScale
 70
     0
300
1:10
140
1.0
141
10.0
290
     0
  0
SCALE
  5
BC9
102
{ACAD_REACTORS
330
BC2
102
}
330
BC2
100
AcDbScale
 70
     0
300
1:16
140
1.0
141
16.0
290
     0
  0
SCALE
  5
BCA
102
{ACAD_REACTORS
330
BC2
102
}
330
BC2
100
AcDbScale
 70
     0
300
1:20
140
1.0
141
20.0
290
     0
  0
SCALE
  5
BCB
102
{ACAD_REACTORS
330
BC2
102
}
330
BC2
100
AcDbScale
 70
     0
300
1:30
140
1.0
141
30.0
290
     0
  0
SCALE
  5
BCC
102
{ACAD_REACTORS
330
BC2
102
}
330
BC2
100
AcDbScale
 70
     0
300
1:40
140
1.0
141
40.0
290
     0
  0
SCALE
  5
BCD
102
{ACAD_REACTORS
330
BC2
102
}
330
BC2
100
AcDbScale
 70
     0
300
1:50
140
1.0
141
50.0
290
     0
  0
SCALE
  5
BCE
102
{ACAD_REACTORS
330
BC2
102
}
330
BC2
100
AcDbScale
 70
     0
300
1:100
140
1.0
141
100.0
290
     0
  0
SCALE
  5
BCF
102
{ACAD_REACTORS
330
BC2
102
}
330
BC2
100
AcDbScale
 70
     0
300
2:1
140
2.0
141
1.0
290
     0
  0
SCALE
  5
BD0
102
{ACAD_REACTORS
330
BC2
102
}
330
BC2
100
AcDbScale
 70
     0
300
4:1
140
4.0
141
1.0
290
     0
  0
SCALE
  5
BD1
102
{ACAD_REACTORS
330
BC2
102
}
330
BC2
100
AcDbScale
 70
     0
300
8:1
140
8.0
141
1.0
290
     0
  0
SCALE
  5
BD2
102
{ACAD_REACTORS
330
BC2
102
}
330
BC2
100
AcDbScale
 70
     0
300
10:1
140
10.0
141
1.0
290
     0
  0
SCALE
  5
BD3
102
{ACAD_REACTORS
330
BC2
102
}
330
BC2
100
AcDbScale
 70
     0
300
100:1
140
100.0
141
1.0
290
     0
  0
SCALE
  5
BD4
102
{ACAD_REACTORS
330
BC2
102
}
330
BC2
100
AcDbScale
 70
     0
300
1/128" = 1'-0"
140
0.0078125
141
12.0
290
     0
  0
SCALE
  5
BD5
102
{ACAD_REACTORS
330
BC2
102
}
330
BC2
100
AcDbScale
 70
     0
300
1/64" = 1'-0"
140
0.015625
141
12.0
290
     0
  0
SCALE
  5
BD6
102
{ACAD_REACTORS
330
BC2
102
}
330
BC2
100
AcDbScale
 70
     0
300
1/32" = 1'-0"
140
0.03125
141
12.0
290
     0
  0
SCALE
  5
BD7
102
{ACAD_REACTORS
330
BC2
102
}
330
BC2
100
AcDbScale
 70
     0
300
1/16" = 1'-0"
140
0.0625
141
12.0
290
     0
  0
SCALE
  5
BD8
102
{ACAD_REACTORS
330
BC2
102
}
330
BC2
100
AcDbScale
 70
     0
300
3/32" = 1'-0"
140
0.09375
141
12.0
290
     0
  0
SCALE
  5
BD9
102
{ACAD_REACTORS
330
BC2
102
}
330
BC2
100
AcDbScale
 70
     0
300
1/8" = 1'-0"
140
0.125
141
12.0
290
     0
  0
SCALE
  5
BDA
102
{ACAD_REACTORS
330
BC2
102
}
330
BC2
100
AcDbScale
 70
     0
300
3/16" = 1'-0"
140
0.1875
141
12.0
290
     0
  0
SCALE
  5
BDB
102
{ACAD_REACTORS
330
BC2
102
}
330
BC2
100
AcDbScale
 70
     0
300
1/4" = 1'-0"
140
0.25
141
12.0
290
     0
  0
SCALE
  5
BDC
102
{ACAD_REACTORS
330
BC2
102
}
330
BC2
100
AcDbScale
 70
     0
300
3/8" = 1'-0"
140
0.375
141
12.0
290
     0
  0
SCALE
  5
BDD
102
{ACAD_REACTORS
330
BC2
102
}
330
BC2
100
AcDbScale
 70
     0
300
1/2" = 1'-0"
140
0.5
141
12.0
290
     0
  0
SCALE
  5
BDE
102
{ACAD_REACTORS
330
BC2
102
}
330
BC2
100
AcDbScale
 70
     0
300
3/4" = 1'-0"
140
0.75
141
12.0
290
     0
  0
SCALE
  5
BDF
102
{ACAD_REACTORS
330
BC2
102
}
330
BC2
100
AcDbScale
 70
     0
300
1" = 1'-0"
140
1.0
141
12.0
290
     0
  0
SCALE
  5
BE0
102
{ACAD_REACTORS
330
BC2
102
}
330
BC2
100
AcDbScale
 70
     0
300
1-1/2" = 1'-0"
140
1.5
141
12.0
290
     0
  0
SCALE
  5
BE1
102
{ACAD_REACTORS
330
BC2
102
}
330
BC2
100
AcDbScale
 70
     0
300
3" = 1'-0"
140
3.0
141
12.0
290
     0
  0
SCALE
  5
BE2
102
{ACAD_REACTORS
330
BC2
102
}
330
BC2
100
AcDbScale
 70
     0
300
6" = 1'-0"
140
6.0
141
12.0
290
     0
  0
SCALE
  5
BE3
102
{ACAD_REACTORS
330
BC2
102
}
330
BC2
100
AcDbScale
 70
     0
300
1'-0" = 1'-0"
140
12.0
141
12.0
290
     0
  0
DICTIONARYVAR
  5
1A54
102
{ACAD_REACTORS
330
1A4E
102
}
330
1A4E
100
DictionaryVariables
280
     0
  1
1:1
  0
ENDSEC
  0
SECTION
  2
THUMBNAILIMAGE
 90
    16364
310
28000000B40000005500000001000800000000000000000000000000000000000000000000000000FFFFFF000000FF0000FFFF0000FF0000FFFF0000FF000000FF00FF000000000080808000C0C0C0000000FF007F7FFF000000A5005252A50000007F003F3F7F0000004C0026264C000000260013132600003FFF007F9FFF
310
000029A5005267A500001F7F003F4F7F0000134C00262F4C000009260013172600007FFF007FBFFF000052A500527CA500003F7F003F5F7F0000264C0026394C0000132600131C260000BFFF007FDFFF00007CA5005291A500005F7F003F6F7F0000394C0026424C00001C26001321260000FFFF007FFFFF0000A5A50052A5
310
A500007F7F003F7F7F00004C4C00264C4C00002626001326260000FFBF007FFFDF0000A57C0052A59100007F5F003F7F6F00004C3900264C420000261C001326210000FF7F007FFFBF0000A5520052A57C00007F3F003F7F5F00004C2600264C39000026130013261C0000FF3F007FFF9F0000A5290052A56700007F1F003F
310
7F4F00004C1300264C2F00002609001326170000FF00007FFF7F0000A5000052A55200007F00003F7F3F00004C0000264C260000260000132613003FFF00009FFF7F0029A5000067A552001F7F00004F7F3F00134C00002F4C260009260000172613007FFF0000BFFF7F0052A500007CA552003F7F00005F7F3F00264C0000
310
394C2600132600001C261300BFFF0000DFFF7F007CA5000091A552005F7F00006F7F3F00394C0000424C26001C26000021261300FFFF0000FFFF7F00A5A50000A5A552007F7F00007F7F3F004C4C00004C4C26002626000026261300FFBF0000FFDF7F00A57C0000A59152007F5F00007F6F3F004C3900004C422600261C00
310
0026211300FF7F0000FFBF7F00A5520000A57C52007F3F00007F5F3F004C2600004C39260026130000261C1300FF3F0000FF9F7F00A5290000A56752007F1F00007F4F3F004C1300004C2F26002609000026171300FF000000FF7F7F00A5000000A55252007F0000007F3F3F004C0000004C2626002600000026131300FF00
310
3F00FF7F9F00A5002900A55267007F001F007F3F4F004C0013004C262F002600090026131700FF007F00FF7FBF00A5005200A5527C007F003F007F3F5F004C0026004C2639002600130026131C00FF00BF00FF7FDF00A5007C00A55291007F005F007F3F6F004C0039004C26420026001C0026132100FF00FF00FF7FFF00A5
310
00A500A552A5007F007F007F3F7F004C004C004C264C002600260026132600BF00FF00DF7FFF007C00A5009152A5005F007F006F3F7F0039004C0042264C001C002600211326007F00FF00BF7FFF005200A5007C52A5003F007F005F3F7F0026004C0039264C00130026001C1326003F00FF009F7FFF002900A5006752A500
310
1F007F004F3F7F0013004C002F264C000900260017132600000000002D2D2D005B5B5B0089898900B7B7B700B3B3B30000000000000000000000000000000000000000000000000000000000000000000000000000000000000000000000000000000000000000000000000000000000000000000000000000000000000000
310
00000000000000000000000000000000000000000000000000000000000000000000000000000000000000000000000000000000000000000000000000000000000000000000000000000000000000000000000000000000000000000000000000000000000000000000000000000000000000000000000000000000000000
310
00000000000000000000000000000000000000000000000000000000000000000000000000000000000000000000000000000000000000000000000000000000000000000000000000000000000000000000000000000000000000000000000000000000000000000000000000000000000000000000000000000000000000
310
00000000000000000000000000000000000000000000000000000000000000000000000000000000000000000000000000000000000000000000000000000000000000000000000000000000000000000000000000000000000000000000000000000000000000000000000000000000000000000000000000000000000000
310
00000000070707070707070707070707070707070707070707070707000000000000000000000000000000000000000000000000000000000000000000000000000000000000000000000000000000000000000000000000000000000000000000000000000000000000000000000000000000000000000000000000000000
310
00000000000000000000000000000000000000000000000000000000000000000000000000000000000000000000000000000000000000000007000007000000000000000000000000000000070000070700000000000000000000000000000000000000000000000000000000000000000000000000000000000000000000
310
00000000000000000000000000000000000000000000000000000000000000000000000000000000000000000000000000000000000000000000000000000000000000000000000000000000000000000000000000000000000000000000000000000000000000000000000000000700000007070707070707070707070707
310
07070000000707000000000000000000000000000000000000000000000000000000000000000000000000000000000000000000000000000000000000000000000000000000000000000000000000000000000000000000000000000000000000000000000000000000000000000000000000000000000000000000000000
310
00000000000000000000000000000000000000000000000000000000000000000000000007070707070707070000000000000007070707070707070700000000000000000000000000000000000000000000000000000000000000000000000000000000000000000000000000000000000000000000000000000000000000
310
00000000000000000000000000000000000000000000000000000000000000000000000000000000000000000000000000000000000000000000000000000000000000000000000000000000000000000000000000000000000000000707000007000000000000070000000707000000000000000000000000000000000000
310
00000000000000000000000000000000000000000000000000000000000000000000000000000000000000000000000000000000000000000000000000000000000000000000000000000000000000000000000000000000000000000000000000000000000000000000000000000000000000000000000000000000000000
310
00000000000000000000000000000000000007070007000000000000000700000007070000000000000000000000000000000000000000000000000000000000000000000000000000000000000000000000000000000000000000000000000000000000000000000000000000000000000000000000000000000000000000
310
00000000000000000000000000000000000000000000000000000000000000000000000000000000000000000000000000000000000000000000000000000000000000000000000707070700000000000007000000000707000000000000000000000000000000000000000000000000000000000000000000000000000000
310
00000000000000000000000000000000000000000000000000000000000000000000000000000000000000000000000000000000000000000000000000000000000000000000000000000000000000000000000000000000000000000000000000000000000000000000000000000000000000000000000000000000070707
310
00070700000000070707070707070000000000000000000000000000000000000000000000000000000000000000000000000000000000000000000000000000000000000000000000000000000000000000000000000000000000000000000000000000000000000000000000000000000000000000000000000000000000
310
00000000000000000000000000000000000000000000000000000000000000000000000000000000000000000000000000000707070700000707000700000000070007000000000000000000000000000000000000000000000000000000000000000000000000000000000000000000000000000000000000000000000000
310
00000000000000000000000000000000000000000000000000000000000000000000000000000000000000000000000000000000000000000000000000000000000000000000000000000000000000000000000000000000000000000000000000000000000000070707070707000007070707070007000700000000000000
310
00000000000000000000000000000000000000000000000000000000000000000000000000000000000000000000000000000000000000000000000000000000000000000000000000000000000000000000000000000000000000000000000000000000000000000000000000000000000000000000000000000000000000
310
00000000000000000000000000000000000000000000000000000000000707070707070707070000000007070007000000000000000000000000000000000000000000000000000000000000000000000000000000000000000000000000000000000000000000000000000000000000000000000000000000000000000000
310
00000000000000000000000000000000000000000000000000000000000000000000000000000000000000000000000000000000000000000000000000000000000000000000000000000000000000000007000007070707070707000000000000000700000000000000000000000000000000000000000000000000000000
310
00000000000000000000000000000000000000000000000000000000000000000000000000000000000000000000000000000000000000000000000000000000000000000000000000000000000000000000000000000000000000000000000000000000000000000000000000000000000000000000000000000000000000
310
00000000000000070000000007070707070000000000000707000000000000000000000000000000000000000000000000000000000000000000000000000000000000000000000000000000000000000000000000000000000000000000000000000000000000000000000000000000000000000000000000000000000000
310
00000000000000000000000000000000000000000000000000000000000000000000000000000000000000000000000000000000000000000000000700000000000000070700000000000000070700000000000000000000000000000000000000000000000000000000000000000000000000000000000000000000000000
310
00000000000000000000000000000000000000000000000000000000000000000000000000000000000000000000000000000000000000000000000000000000000000000000000000000000000000000000000000000000000000000000000000000000000000000000000000000000070000000000000000070000000000
310
00000707000000000000000000000000000000000000000000000000000000000000000000000000000000000000000000000000000000000000000000000000000000000000000000000000000000000000000000000000000000000000000000000000000000000000000000000000000000000000000000000000000000
310
00000000000000000000000000000000000000000000000000000000000000000000000000070000000000000000000700000000000000070700000000000000000000000000000000000000000000000000000000000000000000000000000000000000000000000000000000000000000000000000000000000000000000
310
00000000000000000000000000000000000000000000000000000000000000000000000000000000000000000000000000000000000000000000000000000000000000000000000000000000000000000000000000000000000007000000000000000007000000000000000707070000000000000000000000000000000000
310
00000000000000000000000000000000000000000000000000000000000000000000000000000000000000000000000000000000000000000000000000000000000000000000000000000000000000000000000000000000000000000000000000000000000000000000000000000000000000000000000000000000000000
310
00000000000000000000000000000007000000000000000000070000000007070700000700000000000000000000000000000000000000000000000000000000000000000000000000000000000000000000000000000000000000000000000000000000000000000000000000000000000000000000000000000000000000
310
00000000000000000000000000000000000000000000000000000000000000000000000000000000000000000000000000000000000000000000000000000000000000070000000000000000000700000707000000000000070000000000000000000000000000000000000000000000000000000000000000000000000000
310
00000000000000000000000000000000000000000000000000000000000000000000000000000000000000000000000000000000000000000000000000000000000000000000000000000000000000000000000000000000000000000000000000000000000000000000000000000000000000000000070707000000000000
310
00000007070700000000000000000700000000000000000000000000000000000000000000000000000000000000000000000000000000000000000000000000000000000000000000000000000000000000000000000000000000000000000000000000000000000000000000000000000000000000000000000000000000
310
00000000000000000000000000000000000000000000000000000000000000000000000000000000000007070007000000000000000000070707070707070707070707070000000000000000000000000000000000000000000000000000000000000000000000000000000000000000000000000000000000000000000000
310
00000000000000000000000000000000000000000000000000000000000000000000000000000000000000000000000000000000000000000000000000000000000000000000000000000000000000000000000000000000000000000707070000070000000000000000000700000000000000000007000000000000000000
310
00000000000000000000000000000000000000000000000000000000000000000000000000000000000000000000000000000000000000000000000000000000000000000000000000000000000000000000000000000000000000000000000000000000000000000000000000000000000000000000000000000000000000
310
00000000000000000000000000000000000707000000070700000000000000000007000000000000000000070000000000000000000000000000000000000000000000000000000000000000000000000000000000000000000000000000000000000000000000000000000000000000000000000000000000000000000000
310
00000000000000000000000000000000000000000000000000000000000000000000000000000000000000000000000000000000000000000000000000000000000000000007070707070707000000000000000000070700000000000000000007000000000000000000000000000000000000000000000000000000000000
310
00000000000000000000000000000000000000000000000000000000000000000000000000000000000000000000000000000000000000000000000000000000000000000000000000000000000000000000000000000000000000000000000000000000000000000000000000000000000000000000000000000000000000
310
00070000000000000000000707000000000000000000070000000000000000000000000000000000000000000000000000000000000000000000000000000000000000000000000000000000000000000000000000000000000000000000000000000000000000000000000000000000000000000000000000000000000000
310
00000000000000000000000000000000000000000000000000000000000000000000000000000000000000000000000000000000000700000000000000000007000700000000000000000007000000000000000000000000000000000000000000000000000000000000000000000000000000000000000000000000000000
310
00000000000000000000000000000000000000000000000000000000000000000000000000000000000000000000000000000000000000000000000000000000000000000000000000000000000000000000000000000000000000000000000000000000000000000000070000000000000000070000070000000000000000
310
00070000000000000000000000000000000000000000000000000000000000000000000000000000000000000000000000000000000000000000000000000000000000000000000000000000000000000000000000000000000000000000000000000000000000000000000000000000000000000000000000000000000000
310
00000000000000000000000000000000000000000000000000000000000000070000000000000000070000000700000000000000000007000000000000000000000000000000000000000000000000000000000000000000000000000000000000000000000000000000000000000000000000000000000000000000000000
310
00000000000000000000000000000000000000000000000000000000000000000000000000000000000000000000000000000000000000000000000000000000000000000000000000000000000000000000000007000000000000000007000000070000000000000000000700000000000000000000000000000000000000
310
00000000000000000000000000000000000000000000000000000000000000000000000000000000000000000000000000000000000000000000000000000000000000000000000000000000000000000000000000000000000000000000000000000000000000000000000000000000000000000000000000000000000000
310
00000000000000000007000000000000000007000000000700000000000000000007000000000000000000000000000000000000000000000000000000000000000000000000000000000000000000000000000000000000000000000000000000000000000000000000000000000000000000000000000000000000000000
310
00000000000000000000000000000000000000000000000000000000000000000000000000000000000000000000000000000000000000000000000000000700000000000000070000000000070000000000000000000700000000000000000000000000000000000000000000000000000000000000000000000000000000
310
00000000000000000000000000000000000000000000000000000000000000000000000000000000000000000000000000000000000000000000000000000000000000000000000000000000000000000000000000000000000000000000000000000000000000000000000000000000000007000000000000000700000000
310
00000700000000000000000007000000000000000000000000000000000000000000000000000000000000000000000000000000000000000000000000000000000000000000000000000000000000000000000000000000000000000000000000000000000000000000000000000000000000000000000000000000000000
310
00000000000000000000000000000000000000000000000000000000000000000000000000000007000000000000000007000000000000070000000000000000000700000000000000000000000000000000000000000000000000000000000000000000000000000000000000000000000000000000000000000000000000
310
00000000000000000000000000000000000000000000000000000000000000000000000000000000000000000000000000000000000000000000000000000000000000000000000000000000000000000000000000000000000000070000000000000000070000000000000007000000000000000000070000000000000000
310
00000000000000000000000000000000000000000000000000000000000000000000000000000000000000000000000000000000000000000000000000000000000000000000000000000000000000000000000000000000000000000000000000000000000000000000000000000000000000000000000000000000000000
310
00000000000000000000000000000000070000000000000000000700000000000000070000000000000000000700000000000000000000000000000000000000000000000000000000000000000000000000000000000000000000000000000000000000000000000000000000000000000000000000000000000000000000
310
00000000000000000000000000000000000000000000000000000000000000000000000000000000000000000000000000000000000000000000000000000000000000000700000000000000000007000000000000000007000000000000000000070000000000000000000000000000000000000000000000000000000000
310
00000000000000000000000000000000000000000000000000000000000000000000000000000000000000000000000000000000000000000000000000000000000000000000000000000000000000000000000000000000000000000000000000000000000000000000000000000000000000000000000007000000000000
310
00000007000000000000000000070000000000000000000700000000000000000000000000000000000000000000000000000000000000000000000000000000000000000000000000000000000000000000000000000000000000000000000000000000000000000000000000000000000000000000000000000000000000
310
00000000000000000000000000000000000000000000000000000000000000000000000000000000000000000007000000000000000000070000000000000000000007000000000000000000070000000000000000000000000000000000000000000000000000000000000000000000000000000000000000000000000000
310
00000000000000000000000000000000000000000000000000000000000000000000000000000000000000000000000000000000000000000000000000000000000000000000000000000000000000000000000000000000000000000000000000000700000000000000000700000000000000000000000700000000000000
310
00000700000000000000000000000000000000000000000000000000000000000000000000000000000000000000000000000000000000000000000000000000000000000000000000000000000000000000000000000000000000000000000000000000000000000000000000000000000000000000000000000000000000
310
00000000000000000000000000000000000000000000000700000000000000000700000000000000000000000007000000000000000000070000000000000000000000000000000000000000000000000000000000000000000000000000000000000000000000000000000000000000000000000000000000000000000000
310
00000000000000000000000000000000000000000000000000000000000000000000000000000000000000000000000000000000000000000000000000000000000000000000000000000007000000000000000007000000000000000000000000000700000000000000000007000000000000000000000000000000000000
310
00000000000000000000000000000000000000000000000000000000000000000000000000000000000000000000000000000000000000000000000000000000000000000000000000000000000000000000000000000000000000000000000000000000000000000000000000000000000000000000000000000000000000
310
00070000000000000007000000000000000000000000000007000000000000000000070000000000000000000000000000000000000000000000000000000000000000000000000000000000000000000000000000000000000000000000000000000000000000000000000000000000000000000000000000000000000000
310
00000000000000000000000000000000000000000000000000000000000000000000000000000000000000000000000000000000000700000000000000070000000000000000000000000000000700000000000000000007000000000000000000000000000000000000000000000000000000000000000000000000000000
310
00000000000000000000000000000000000000000000000000000000000000000000000000000000000000000000000000000000000000000000000000000000000000000000000000000000000000000000000000000000000000000000000000000000000000000007000000000000000700000000000000000000000000
310
00000007000000000000000000070000000000000000000000000000000000000000000000000000000000000000000000000000000000000000000000000000000000000000000000000000000000000000000000000000000000000000000000000000000000000000000000000000000000000000000000000000000000
310
00000000000000000000000000000000000000000000000000000000000007000000000000000700000000000000000000000000000000000700000000000000000007000000000000000000000000000000000000000000000000000000000000000000000000000000000000000000000000000000000000000000000000
310
00000000000000000000000000000000000000000000000000000000000000000000000000000000000000000000000000000000000000000000000000000000000000000000000000000000000700000000070000000000000007000000000000000000000000000000000000070000000000000000000700000000000000
310
00000000000000000000000000000000000000000000000000000000000000000000000000000000000000000000000000000000000000000000000000000000000000000000000000000000000000000000000000000000000000000000000000000000000000000000000000000000000000000000000000000000000000
310
07070700070007070000000000000000070000000000000000000000000000000000000700000000000000000007000000000000000000000000000000000000000000000000000000000000000000000000000000000000000000000000000000000000000000000000000000000000000000000000000000000000000000
310
00000000000000000000000000000000000000000000000000000000000000000000000000000000000000000000000000000007070700000007070000000000000000000700000000000000000000000000000000000000070000000000000000000700000000000000000000000000000000000000000000000000000000
310
00000000000000000000000000000000000000000000000000000000000000000000000000000000000000000000000000000000000000000000000000000000000000000000000000000000000000000000000000000000000000000000000000000000000000070700000000070707000000000000000007000000000000
310
00000000000000000000000000000700000000000000000007000000000000000000000000000000000000000000000000000000000000000000000000000000000000000000000000000000000000000000000000000000000000000000000000000000000000000000000000000000000000000000000000000000000000
310
00000000000000000000000000000000000000000000000000000000070700000000070707000000000000000007000000000000000000000000000000000000000000070000000000000000000700000000000000000000000000000000000000000000000000000000000000000000000000000000000000000000000000
310
00000000000000000000000000000000000000000000000000000000000000000000000000000000000000000000000000000000000000000000000000000000000000000000000000000000000000070707000000000707000000000000000000070000000000000000000000000000000000000000000007000000000000
310
00000007000000000000000000000000000000000000000000000000000000000000000000000000000000000000000000000000000000000000000000000000000000000000000000000000000000000000000000000000000000000000000000000000000000000000000000000000000000000000000000000000000000
310
00000000070700000000070700000000000000000000070000000000000000000000000000000000000000000000070000000000000000000700000000000000000000000000000000000000000000000000000000000000000000000000000000000000000000000000000000000000000000000000000000000000000000
310
00000000000000000000000000000000000000000000000000000000000000000000000000000000000000000000000000000000000000070707000000000707000000000000000000000700000000000000000000000000000000000000000000000007000000000000000000070000000000000000000000000000000000
310
00000000000000000000000000000000000000000000000000000000000000000000000000000000000000000000000000000000000000000000000000000000000000000000000000000000000000000000000000000000000000000000000000000000000000000000000707070000000707070000000000000000000007
310
00000000000000000000000000000000000000000000000000070000000000000000000700000000000000000000000000000000000000000000000000000000000000000000000000000000000000000000000000000000000000000000000000000000000000000000000000000000000000000000000000000000000000
310
00000000000000000000000000000000000000000000000000000000000000000707070000000707070000000000000000000007000000000000000000000000000000000000000000000000000007000000000000000000070000000000000000000000000000000000000000000000000000000000000000000000000000
310
00000000000000000000000000000000000000000000000000000000000000000000000000000000000000000000000000000000000000000000000000000000000000000000000000000000000000000000000007070000000007070700000000000000000000070000000000000000000000000000000000000000000000
310
00000000070000000000000000000700000000000000000000000000000000000000000000000000000000000000000000000000000000000000000000000000000000000000000000000000000000000000000000000000000000000000000000000000000000000000000000000000000000000000000000000000000000
310
00000000000000000707070000000007070700000000000000000000070007000000000000000000000000000000000000000000000000000007000000000000000000070000000000000000000000000000000000000000000000000000000000000000000000000000000000000000000000000000000000000000000000
310
00000000000000000000000000000000000000000000000000000000000000000000000000000000000000000000000000000000000000000000000007070700000000070700000000000000000000070707070007000000000000000000000000000000000000000000000000000700000000000000000007000000000000
310
00000000000000000000000000000000000000000000000000000000000000000000000000000000000000000000000000000000000000000000000000000000000000000000000000000000000000000000000000000000000000000000000000000000000000000000000000000000070700000000000700000000000000
310
00000000070007000000000700000000000000000000000000000000000000000000000007000000000000000000070000000000000000000000000000000000000000000000000000000000000000000000000000000000000000000000000000000000000000000000000000000000000000000000000000000000000000
310
00000000000000000000000000000000000000000000000000000000000000000000000000070700000000000700000000000000000000000700070000000007000700000000000000000000000000000000000000000000000700000000000000000007000000000000000000000000000000000000000000000000000000
310
00000000000000000000000000000000000000000000000000000000000000000000000000000000000000000000000000000000000000000000000000000000000000000000000000000000000000000000000000000000000707000000000007000000000000000000000007070700000000070000000700000000000000
310
00000000000000000000000000000007000000000000000000070000000000000000000000000000000000000000000000000000000000000000000000000000000000000000000000000000000000000000000000000000000000000000000000000000000000000000000000000000000000000000000000000000000000
310
00000000000000000000000000000707000000000707000000000000000000000007070000000007070000000007000000000000000000000000000000000000000000000700000000000000000007000000000000000000000000000000000000000000000000000000000000000000000000000000000000000000000000
310
00000000000000000000000000000000000000000000000000000000000000000000000000000000000000000000000000000000000000000000000000000000000007000000000007000000000000000000000007070007000000070000000000000007000000000000000000000000000000000000000000070000000000
310
00000000070000000000000000000000000000000000000000000000000000000000000000000000000000000000000000000000000000000000000000000000000000000000000000000000000000000000000000000000000000000000000000000000000000000000000000000000000000000000070700000007070000
310
00000000000000000007000000000700070000000000000000000700000000000000000000000000000000000000000700000000000000000007000000000000000000000000000000000000000000000000000000000000000000000000000000000000000000000000000000000000000000000000000000000000000000
310
00000000000000000000000000000000000000000000000000000000000000000000000000000000000000000700000007000000000000000000000000070000000000000700000000000000000000000700000000000000000000000000000000000000070000000000000000000700000000000000000000000000000000
310
00000000000000000000000000000000000000000000000000000000000000000000000000000000000000000000000000000000000000000000000000000000000000000000000000000000000000000000000000000000000000000000000007000000070000000000000000000000000700000000000000000700000000
310
00000000000000070000000000000000000000000000000000000700000000000000000700000000000000000000000000000000000000000000000000000000000000000000000000000000000000000000000000000000000000000000000000000000000000000000000000000000000000000000000000000000000000
310
00000000000000000000000000000000000000000000070700070000000000000000000000000700000000000000000007000000000000000000000000070000000000000000000000000000000007000000000000000000070000000000000000000000000000000000000000000000000000000000000000000000000000
310
00000000000000000000000000000000000000000000000000000000000000000000000000000000000000000000000000000000000000000000000000000000000000000000000000000000070700000000000000000000000007000000000000000000000007000000000000000000000007000000000000000000000000
310
00000000070000000000000000000700000000000000000000000000000000000000000000000000000000000000000000000000000000000000000000000000000000000000000000000000000000000000000000000000000000000000000000000000000000000000000000000000000000000000000000000000000000
310
00000000070000000000000007070707000000000000000000000000000700000000000000000000000700000000000000000000000000000007000000000000000000070000000000000000000000000000000000000000000000000000000000000000000000000000000000000000000000000000000000000000000000
310
00000000000000000000000000000000000000000000000000000000000000000000000000000000000000000000000000000000000000000007000000000007070000000000000000000000000000000000000700000000000000000000000700000000000000000000000007070000000000000000000700000000000000
310
00000000000000000000000000000000000000000000000000000000000000000000000000000000000000000000000000000000000000000000000000000000000000000000000000000000000000000000000000000000000000000000000000000000000000000000000000000007070707070000000000000000000000
310
00000000000000000007000000000000000000000000070700000000000000000007000000000000000000000007000000000000000000000000000000000000000000000000000000000000000000000000000000000000000000000000000000000000000000000000000000000000000000000000000000000000000000
310
00000000000000000000000000000000000000000000000000000000000000000000000000000000000000000000000000000000000000000000000000000007000000000000000000000000000707000000000007070000000000000000000000070000000000000000000000000000000000000000000000000000000000
310
00000000000000000000000000000000000000000000000000000000000000000000000000000000000000000000000000000000000000000000000000000000000000000000000000000000000000000000000000000000000000000000000000000000000000000000000000000000000000000007000000000000000000
310
00000000000707070707000000000000000000000000000700000000000000000000000000000000000000000000000000000000000000000000000000000000000000000000000000000000000000000000000000000000000000000000000000000000000000000000000000000000000000000000000000000000000000
310
00000000000000000000000000000000000000000000000000000000000000000000000000000000000000000700000000000000000000000000000000000000000000000000000000000007000000000000000000000000000000000000000000000000000000000000000000000000000000000000000000000000000000
310
00000000000000000000000000000000000000000000000000000000000000000000000000000000000000000000000000000000000000000000000000000000000000000000000000000000000000000000000000000000000000000000000000070000000000000000000000000000000000000000000000000000000000
310
00070000000000000000000000000000000000000000000000000000000000000000000000000000000000000000000000000000000000000000000000000000000000000000000000000000000000000000000000000000000000000000000000000000000000000000000000000000000000000000000000000000000000
310
00000000000000000000000000000000000000000000000007000000000000000000000000000000000000000000000000000000000700000000000000000000000000000000000000000000000000000000000000000000000000000000000000000000000000000000000000000000000000000000000000000000000000
310
00000000000000000000000000000000000000000000000000000000000000000000000000000000000000000000000000000000000000000000000000000000000000000000000000000000000007000000000000000000000000000000000000000000000000000007000000000000000000000000000000000000000000
310
00000000000000000000000000000000000000000000000000000000000000000000000000000000000000000000000000000000000000000000000000000000000000000000000000000000000000000000000000000000000000000000000000000000000000000000000000000000000000000000000000000000000000
310
00000000000707000000000000000000000000000000000000000000000007000000000000000000000000000000000000000000000000000000000000000000000000000000000000000000000000000000000000000000000000000000000000000000000000000000000000000000000000000000000000000000000000
310
00000000000000000000000000000000000000000000000000000000000000000000000000000000000000000000000000000000000000000000000007070000000000000000000000000000000000000007070000000000000000000000000000000000000000000000000000000000000000000000000000000000000000
310
00000000000000000000000000000000000000000000000000000000000000000000000000000000000000000000000000000000000000000000000000000000000000000000000000000000000000000000000000000000000000000000000000000000000000000000000000000000000000070700000000000000000000
310
00000000000707000000000000000000000000000000000000000000000000000000000000000000000000000000000000000000000000000000000000000000000000000000000000000000000000000000000000000000000000000000000000000000000000000000000000000000000000000000000000000000000000
310
00000000000000000000000000000000000000000000000000000000000000000000000000000000000000070700000000000000000000000707000000000000000000000000000000000000000000000000000000000000000000000000000000000000000000000000000000000000000000000000000000000000000000
310
00000000000000000000000000000000000000000000000000000000000000000000000000000000000000000000000000000000000000000000000000000000000000000000000000000000000000000000000000000000000000000000000000000707070707070707070707000000000000000000000000000000000000
310
00000000000000000000000000000000000000000000000000000000000000000000000000000000000000000000000000000000000000000000000000000000000000000000000000000000000000000000000000000000000000000000000000000000000000000000000000000000000000000000000000000000000000
310
000000000000000000000000000000000000000000000000000000000000000000000000000000000000000000000000000000000000000000000000000000000000000000000000000000000000000000000000000000000000000000000000000000000000000000000000
  0
ENDSEC
  0
EOF
