  0
SECTION
  2
HEADER
  9
$ACADVER
  1
AC1015
  9
$ACADMAINTVER
 70
     6
  9
$DWGCODEPAGE
  3
ANSI_1252
  9
$INSBASE
 10
0.0
 20
0.0
 30
0.0
  9
$EXTMIN
 10
-18.885561569769
 20
-1.581660188231
 30
0.0
  9
$EXTMAX
 10
263.391438430231
 20
248.611339811769
 30
0.0
  9
$LIMMIN
 10
0.0
 20
0.0
  9
$LIMMAX
 10
12.0
 20
9.0
  9
$ORTHOMODE
 70
     0
  9
$REGENMODE
 70
     1
  9
$FILLMODE
 70
     1
  9
$QTEXTMODE
 70
     0
  9
$MIRRTEXT
 70
     1
  9
$LTSCALE
 40
1.0
  9
$ATTMODE
 70
     1
  9
$TEXTSIZE
 40
0.2
  9
$TRACEWID
 40
0.05
  9
$TEXTSTYLE
  7
Standard
  9
$CLAYER
  8
0
  9
$CELTYPE
  6
ByBlock
  9
$CECOLOR
 62
   256
  9
$CELTSCALE
 40
1.0
  9
$DISPSILH
 70
     0
  9
$DIMSCALE
 40
1.0
  9
$DIMASZ
 40
0.18
  9
$DIMEXO
 40
0.0625
  9
$DIMDLI
 40
0.38
  9
$DIMRND
 40
0.0
  9
$DIMDLE
 40
0.0
  9
$DIMEXE
 40
0.18
  9
$DIMTP
 40
0.0
  9
$DIMTM
 40
0.0
  9
$DIMTXT
 40
0.18
  9
$DIMCEN
 40
0.09
  9
$DIMTSZ
 40
0.0
  9
$DIMTOL
 70
     0
  9
$DIMLIM
 70
     0
  9
$DIMTIH
 70
     1
  9
$DIMTOH
 70
     1
  9
$DIMSE1
 70
     0
  9
$DIMSE2
 70
     0
  9
$DIMTAD
 70
     0
  9
$DIMZIN
 70
     0
  9
$DIMBLK
  1

  9
$DIMASO
 70
     1
  9
$DIMSHO
 70
     1
  9
$DIMPOST
  1

  9
$DIMAPOST
  1

  9
$DIMALT
 70
     0
  9
$DIMALTD
 70
     2
  9
$DIMALTF
 40
25.4
  9
$DIMLFAC
 40
1.0
  9
$DIMTOFL
 70
     0
  9
$DIMTVP
 40
0.0
  9
$DIMTIX
 70
     0
  9
$DIMSOXD
 70
     0
  9
$DIMSAH
 70
     0
  9
$DIMBLK1
  1

  9
$DIMBLK2
  1

  9
$DIMSTYLE
  2
Standard
  9
$DIMCLRD
 70
     0
  9
$DIMCLRE
 70
     0
  9
$DIMCLRT
 70
     0
  9
$DIMTFAC
 40
1.0
  9
$DIMGAP
 40
0.09
  9
$DIMJUST
 70
     0
  9
$DIMSD1
 70
     0
  9
$DIMSD2
 70
     0
  9
$DIMTOLJ
 70
     1
  9
$DIMTZIN
 70
     0
  9
$DIMALTZ
 70
     0
  9
$DIMALTTZ
 70
     0
  9
$DIMUPT
 70
     0
  9
$DIMDEC
 70
     4
  9
$DIMTDEC
 70
     4
  9
$DIMALTU
 70
     2
  9
$DIMALTTD
 70
     2
  9
$DIMTXSTY
  7
Standard
  9
$DIMAUNIT
 70
     0
  9
$DIMADEC
 70
     0
  9
$DIMALTRND
 40
0.0
  9
$DIMAZIN
 70
     0
  9
$DIMDSEP
 70
    46
  9
$DIMATFIT
 70
     3
  9
$DIMFRAC
 70
     0
  9
$DIMLDRBLK
  1

  9
$DIMLUNIT
 70
     2
  9
$DIMLWD
 70
    -2
  9
$DIMLWE
 70
    -2
  9
$DIMTMOVE
 70
     2
  9
$LUNITS
 70
     2
  9
$LUPREC
 70
     4
  9
$SKETCHINC
 40
0.1
  9
$FILLETRAD
 40
0.5
  9
$AUNITS
 70
     0
  9
$AUPREC
 70
     0
  9
$MENU
  1
.
  9
$ELEVATION
 40
0.0
  9
$PELEVATION
 40
0.0
  9
$THICKNESS
 40
0.0
  9
$LIMCHECK
 70
     0
  9
$CHAMFERA
 40
0.5
  9
$CHAMFERB
 40
0.5
  9
$CHAMFERC
 40
1.0
  9
$CHAMFERD
 40
0.0
  9
$SKPOLY
 70
     0
  9
$TDCREATE
 40
2456646.60763581
  9
$TDUCREATE
 40
2456646.565969144
  9
$TDUPDATE
 40
2456646.612186412
  9
$TDUUPDATE
 40
2456646.570519745
  9
$TDINDWG
 40
0.0045502546
  9
$TDUSRTIMER
 40
0.0045502546
  9
$USRTIMER
 70
     1
  9
$ANGBASE
 50
0.0
  9
$ANGDIR
 70
     0
  9
$PDMODE
 70
     0
  9
$PDSIZE
 40
0.0
  9
$PLINEWID
 40
0.0
  9
$SPLFRAME
 70
     0
  9
$SPLINETYPE
 70
     6
  9
$SPLINESEGS
 70
     8
  9
$HANDSEED
  5
ADD
  9
$SURFTAB1
 70
     6
  9
$SURFTAB2
 70
     6
  9
$SURFTYPE
 70
     6
  9
$SURFU
 70
     6
  9
$SURFV
 70
     6
  9
$UCSBASE
  2

  9
$UCSNAME
  2

  9
$UCSORG
 10
0.0
 20
0.0
 30
0.0
  9
$UCSXDIR
 10
1.0
 20
0.0
 30
0.0
  9
$UCSYDIR
 10
0.0
 20
1.0
 30
0.0
  9
$UCSORTHOREF
  2

  9
$UCSORTHOVIEW
 70
     0
  9
$UCSORGTOP
 10
0.0
 20
0.0
 30
0.0
  9
$UCSORGBOTTOM
 10
0.0
 20
0.0
 30
0.0
  9
$UCSORGLEFT
 10
0.0
 20
0.0
 30
0.0
  9
$UCSORGRIGHT
 10
0.0
 20
0.0
 30
0.0
  9
$UCSORGFRONT
 10
0.0
 20
0.0
 30
0.0
  9
$UCSORGBACK
 10
0.0
 20
0.0
 30
0.0
  9
$PUCSBASE
  2

  9
$PUCSNAME
  2

  9
$PUCSORG
 10
0.0
 20
0.0
 30
0.0
  9
$PUCSXDIR
 10
1.0
 20
0.0
 30
0.0
  9
$PUCSYDIR
 10
0.0
 20
1.0
 30
0.0
  9
$PUCSORTHOREF
  2

  9
$PUCSORTHOVIEW
 70
     0
  9
$PUCSORGTOP
 10
0.0
 20
0.0
 30
0.0
  9
$PUCSORGBOTTOM
 10
0.0
 20
0.0
 30
0.0
  9
$PUCSORGLEFT
 10
0.0
 20
0.0
 30
0.0
  9
$PUCSORGRIGHT
 10
0.0
 20
0.0
 30
0.0
  9
$PUCSORGFRONT
 10
0.0
 20
0.0
 30
0.0
  9
$PUCSORGBACK
 10
0.0
 20
0.0
 30
0.0
  9
$USERI1
 70
     0
  9
$USERI2
 70
     0
  9
$USERI3
 70
     0
  9
$USERI4
 70
     0
  9
$USERI5
 70
     0
  9
$USERR1
 40
0.0
  9
$USERR2
 40
0.0
  9
$USERR3
 40
0.0
  9
$USERR4
 40
0.0
  9
$USERR5
 40
0.0
  9
$WORLDVIEW
 70
     1
  9
$SHADEDGE
 70
     3
  9
$SHADEDIF
 70
    70
  9
$TILEMODE
 70
     1
  9
$MAXACTVP
 70
    64
  9
$PINSBASE
 10
0.0
 20
0.0
 30
0.0
  9
$PLIMCHECK
 70
     0
  9
$PEXTMIN
 10
1.000000000000E+20
 20
1.000000000000E+20
 30
1.000000000000E+20
  9
$PEXTMAX
 10
-1.000000000000E+20
 20
-1.000000000000E+20
 30
-1.000000000000E+20
  9
$PLIMMIN
 10
0.0
 20
0.0
  9
$PLIMMAX
 10
12.0
 20
9.0
  9
$UNITMODE
 70
     0
  9
$VISRETAIN
 70
     1
  9
$PLINEGEN
 70
     0
  9
$PSLTSCALE
 70
     1
  9
$TREEDEPTH
 70
  3020
  9
$CMLSTYLE
  2
Standard
  9
$CMLJUST
 70
     0
  9
$CMLSCALE
 40
1.0
  9
$PROXYGRAPHICS
 70
     1
  9
$MEASUREMENT
 70
     0
  9
$CELWEIGHT
370
    -1
  9
$ENDCAPS
280
     0
  9
$JOINSTYLE
280
     0
  9
$LWDISPLAY
290
     0
  9
$INSUNITS
 70
     0
  9
$HYPERLINKBASE
  1

  9
$STYLESHEET
  1

  9
$XEDIT
290
     1
  9
$CEPSNTYPE
380
     0
  9
$PSTYLEMODE
290
     1
  9
$FINGERPRINTGUID
  2
{688FD8CD-6B95-43C7-A773-D662F4C03F4A}
  9
$VERSIONGUID
  2
{FAEB1C32-E019-11D5-929B-00C0DF256EC4}
  9
$EXTNAMES
290
     1
  9
$PSVPSCALE
 40
0.0
  9
$OLESTARTUP
290
     0
  0
ENDSEC
  0
SECTION
  2
CLASSES
  0
CLASS
  1
ACDBDICTIONARYWDFLT
  2
AcDbDictionaryWithDefault
  3
ObjectDBX Classes
 90
        0
280
     0
281
     0
  0
CLASS
  1
SCALE
  2
AcDbScale
  3
ObjectDBX Classes
 90
     1153
280
     0
281
     0
  0
CLASS
  1
DICTIONARYVAR
  2
AcDbDictionaryVar
  3
ObjectDBX Classes
 90
        0
280
     0
281
     0
  0
CLASS
  1
ACDBPLACEHOLDER
  2
AcDbPlaceHolder
  3
ObjectDBX Classes
 90
        0
280
     0
281
     0
  0
CLASS
  1
LAYOUT
  2
AcDbLayout
  3
ObjectDBX Classes
 90
        0
280
     0
281
     0
  0
ENDSEC
  0
SECTION
  2
TABLES
  0
TABLE
  2
VPORT
  5
8
330
0
100
AcDbSymbolTable
 70
     1
  0
VPORT
  5
A92
330
8
100
AcDbSymbolTableRecord
100
AcDbViewportTableRecord
  2
*Active
 70
     0
 10
0.0
 20
0.0
 11
1.0
 21
1.0
 12
122.252938430231
 22
123.514839811769
 13
0.0
 23
0.0
 14
0.5
 24
0.5
 15
0.5
 25
0.5
 16
0.0
 26
0.0
 36
1.0
 17
0.0
 27
0.0
 37
0.0
 40
255.19686
 41
1.729542302358
 42
50.0
 43
0.0
 44
0.0
 50
0.0
 51
0.0
 71
    16
 72
   100
 73
     1
 74
     3
 75
     0
 76
     0
 77
     0
 78
     0
281
     0
 65
     1
110
0.0
120
0.0
130
0.0
111
1.0
121
0.0
131
0.0
112
0.0
122
1.0
132
0.0
 79
     0
146
0.0
  0
ENDTAB
  0
TABLE
  2
LTYPE
  5
5
330
0
100
AcDbSymbolTable
 70
     1
  0
LTYPE
  5
14
330
5
100
AcDbSymbolTableRecord
100
AcDbLinetypeTableRecord
  2
ByBlock
 70
     0
  3

 72
    65
 73
     0
 40
0.0
  0
LTYPE
  5
15
330
5
100
AcDbSymbolTableRecord
100
AcDbLinetypeTableRecord
  2
ByLayer
 70
     0
  3

 72
    65
 73
     0
 40
0.0
  0
LTYPE
  5
16
330
5
100
AcDbSymbolTableRecord
100
AcDbLinetypeTableRecord
  2
Continuous
 70
     0
  3
Solid line
 72
    65
 73
     0
 40
0.0
  0
ENDTAB
  0
TABLE
  2
LAYER
  5
2
330
0
100
AcDbSymbolTable
 70
     1
  0
LAYER
  5
10
330
2
100
AcDbSymbolTableRecord
100
AcDbLayerTableRecord
  2
0
 70
     0
 62
     7
  6
Continuous
370
    -3
390
F
  0
ENDTAB
  0
TABLE
  2
STYLE
  5
3
330
0
100
AcDbSymbolTable
 70
     1
  0
STYLE
  5
11
330
3
100
AcDbSymbolTableRecord
100
AcDbTextStyleTableRecord
  2
Standard
 70
     0
 40
0.0
 41
1.0
 50
0.0
 71
     0
 42
0.2
  3
txt
  4

  0
ENDTAB
  0
TABLE
  2
VIEW
  5
6
330
0
100
AcDbSymbolTable
 70
     0
  0
ENDTAB
  0
TABLE
  2
UCS
  5
7
330
0
100
AcDbSymbolTable
 70
     0
  0
ENDTAB
  0
TABLE
  2
APPID
  5
9
330
0
100
AcDbSymbolTable
 70
     1
  0
APPID
  5
12
330
9
100
AcDbSymbolTableRecord
100
AcDbRegAppTableRecord
  2
ACAD
 70
     0
  0
ENDTAB
  0
TABLE
  2
DIMSTYLE
  5
A
330
0
100
AcDbSymbolTable
 70
     1
100
AcDbDimStyleTable
  0
DIMSTYLE
105
20
330
A
100
AcDbSymbolTableRecord
100
AcDbDimStyleTableRecord
  2
Standard
 70
     0
340
11
  0
ENDTAB
  0
TABLE
  2
BLOCK_RECORD
  5
1
330
0
100
AcDbSymbolTable
 70
     0
  0
BLOCK_RECORD
  5
1D
330
1
100
AcDbSymbolTableRecord
100
AcDbBlockTableRecord
  2
*Model_Space
340
1E
  0
BLOCK_RECORD
  5
1B
330
1
100
AcDbSymbolTableRecord
100
AcDbBlockTableRecord
  2
*Paper_Space
340
1C
  0
ENDTAB
  0
ENDSEC
  0
SECTION
  2
BLOCKS
  0
BLOCK
  5
A95
330
1D
100
AcDbEntity
  8
0
100
AcDbBlockBegin
  2
*Model_Space
 70
     0
 10
0.0
 20
0.0
 30
0.0
  3
*Model_Space
  1
*Model_Space
  0
ENDBLK
  5
A96
330
1D
100
AcDbEntity
  8
0
100
AcDbBlockEnd
  0
BLOCK
  5
A93
330
1B
100
AcDbEntity
 67
     1
  8
0
100
AcDbBlockBegin
  2
*Paper_Space
 70
     0
 10
0.0
 20
0.0
 30
0.0
  3
*Paper_Space
  1
*Paper_Space
  0
ENDBLK
  5
A94
330
1B
100
AcDbEntity
 67
     1
  8
0
100
AcDbBlockEnd
  0
ENDSEC
  0
SECTION
  2
ENTITIES
  0
LINE
  5
2C
330
1D
100
AcDbEntity
  8
0
100
AcDbLine
 10
192.811038430231
 20
-1.581653188231
 30
0.0
 11
192.863238430231
 21
6.692899811769
 31
0.0
  0
LINE
  5
39
330
1D
100
AcDbEntity
  8
0
100
AcDbLine
 10
193.206438430231
 20
5.501119811769
 30
0.0
 11
193.988438430231
 21
5.501119811769
 31
0.0
  0
LINE
  5
3A
330
1D
100
AcDbEntity
  8
0
100
AcDbLine
 10
193.323438430231
 20
5.501119811769
 30
0.0
 11
193.714438430231
 21
5.501119811769
 31
0.0
  0
LINE
  5
3B
330
1D
100
AcDbEntity
  8
0
100
AcDbLine
 10
193.246438430231
 20
5.501119811769
 30
0.0
 11
193.377438430231
 21
6.210199811769
 31
0.0
  0
LINE
  5
3C
330
1D
100
AcDbEntity
  8
0
100
AcDbLine
 10
193.714438430231
 20
5.501119811769
 30
0.0
 11
194.414438430231
 21
5.501119811769
 31
0.0
  0
LINE
  5
3D
330
1D
100
AcDbEntity
  8
0
100
AcDbLine
 10
195.417438430231
 20
5.501119811769
 30
0.0
 11
196.714438430231
 21
5.501119811769
 31
0.0
  0
LINE
  5
3E
330
1D
100
AcDbEntity
  8
0
100
AcDbLine
 10
195.385438430231
 20
5.501119811769
 30
0.0
 11
197.475438430231
 21
5.501119811769
 31
0.0
  0
LINE
  5
3F
330
1D
100
AcDbEntity
  8
0
100
AcDbLine
 10
195.992438430231
 20
5.501109811769
 30
0.0
 11
199.148438430231
 21
5.501109811769
 31
0.0
  0
LINE
  5
40
330
1D
100
AcDbEntity
  8
0
100
AcDbLine
 10
194.414438430231
 20
5.501119811769
 30
0.0
 11
195.417438430231
 21
5.501119811769
 31
0.0
  0
LINE
  5
41
330
1D
100
AcDbEntity
  8
0
100
AcDbLine
 10
193.988438430231
 20
5.501119811769
 30
0.0
 11
195.992438430231
 21
5.501109811769
 31
0.0
  0
LINE
  5
42
330
1D
100
AcDbEntity
  8
0
100
AcDbLine
 10
193.988438430231
 20
5.501119811769
 30
0.0
 11
195.385438430231
 21
5.501119811769
 31
0.0
  0
LINE
  5
43
330
1D
100
AcDbEntity
  8
0
100
AcDbLine
 10
194.883438430231
 20
5.501119811769
 30
0.0
 11
196.034438430231
 21
5.501119811769
 31
0.0
  0
LINE
  5
46
330
1D
100
AcDbEntity
  8
0
100
AcDbLine
 10
192.965438430231
 20
-1.444048188231
 30
0.0
 11
193.206438430231
 21
5.501119811769
 31
0.0
  0
LINE
  5
77
330
1D
100
AcDbEntity
  8
0
100
AcDbLine
 10
199.148438430231
 20
5.501109811769
 30
0.0
 11
202.236438430231
 21
5.501119811769
 31
0.0
  0
LINE
  5
7B
330
1D
100
AcDbEntity
  8
0
100
AcDbLine
 10
198.292438430231
 20
5.501119811769
 30
0.0
 11
200.139438430231
 21
5.501119811769
 31
0.0
  0
LINE
  5
7C
330
1D
100
AcDbEntity
  8
0
100
AcDbLine
 10
196.714438430231
 20
5.501119811769
 30
0.0
 11
198.292438430231
 21
5.501119811769
 31
0.0
  0
LINE
  5
7D
330
1D
100
AcDbEntity
  8
0
100
AcDbLine
 10
197.475438430231
 20
5.501119811769
 30
0.0
 11
199.191438430231
 21
5.501119811769
 31
0.0
  0
LINE
  5
7E
330
1D
100
AcDbEntity
  8
0
100
AcDbLine
 10
197.475438430231
 20
5.501119811769
 30
0.0
 11
199.669305900111
 21
5.501111498516
 31
0.0
  0
LINE
  5
A1
330
1D
100
AcDbEntity
  8
0
100
AcDbLine
 10
200.139438430231
 20
5.501119811769
 30
0.0
 11
202.236438430231
 21
5.501119811769
 31
0.0
  0
LINE
  5
A2
330
1D
100
AcDbEntity
  8
0
100
AcDbLine
 10
199.191438430231
 20
5.501119811769
 30
0.0
 11
201.166438430231
 21
5.501119811769
 31
0.0
  0
LINE
  5
A3
330
1D
100
AcDbEntity
  8
0
100
AcDbLine
 10
201.166438430231
 20
5.501119811769
 30
0.0
 11
203.383438430231
 21
5.501119811769
 31
0.0
  0
LINE
  5
A5
330
1D
100
AcDbEntity
  8
0
100
AcDbLine
 10
192.863238430231
 20
6.692899811769
 30
0.0
 11
193.744038430231
 21
7.809099811769
 31
0.0
  0
LINE
  5
A6
330
1D
100
AcDbEntity
  8
0
100
AcDbLine
 10
194.052438430231
 20
7.069669811769
 30
0.0
 11
195.130438430231
 21
7.393709811769
 31
0.0
  0
LINE
  5
A7
330
1D
100
AcDbEntity
  8
0
100
AcDbLine
 10
195.259438430231
 20
7.393709811769
 30
0.0
 11
195.701438430231
 21
7.393709811769
 31
0.0
  0
LINE
  5
AF
330
1D
100
AcDbEntity
  8
0
100
AcDbLine
 10
195.258438430231
 20
7.393709811769
 30
0.0
 11
195.701438430231
 21
7.393709811769
 31
0.0
  0
LINE
  5
B2
330
1D
100
AcDbEntity
  8
0
100
AcDbLine
 10
195.130438430231
 20
7.393709811769
 30
0.0
 11
195.259438430231
 21
7.393709811769
 31
0.0
  0
LINE
  5
B3
330
1D
100
AcDbEntity
  8
0
100
AcDbLine
 10
195.130438430231
 20
7.393709811769
 30
0.0
 11
195.258438430231
 21
7.393709811769
 31
0.0
  0
LINE
  5
BE
330
1D
100
AcDbEntity
  8
0
100
AcDbLine
 10
193.377438430231
 20
6.210199811769
 30
0.0
 11
194.052438430231
 21
7.069669811769
 31
0.0
  0
LINE
  5
CD
330
1D
100
AcDbEntity
  8
0
100
AcDbLine
 10
193.744038430231
 20
7.809099811769
 30
0.0
 11
194.662738430231
 21
8.088039811769
 31
0.0
  0
LINE
  5
D0
330
1D
100
AcDbEntity
  8
0
100
AcDbLine
 10
201.5970952161
 20
7.796836589416
 30
0.0
 11
202.247438430231
 21
8.490639811769
 31
0.0
  0
LINE
  5
D6
330
1D
100
AcDbEntity
  8
0
100
AcDbLine
 10
202.236438430231
 20
5.501119811769
 30
0.0
 11
204.566438430231
 21
5.501119811769
 31
0.0
  0
LINE
  5
D7
330
1D
100
AcDbEntity
  8
0
100
AcDbLine
 10
202.236438430231
 20
5.501119811769
 30
0.0
 11
205.789438430231
 21
5.501109811769
 31
0.0
  0
LINE
  5
DB
330
1D
100
AcDbEntity
  8
0
100
AcDbLine
 10
172.226438430231
 20
48.046839811769
 30
0.0
 11
184.250438430231
 21
33.724739811769
 31
0.0
  0
LINE
  5
DC
330
1D
100
AcDbEntity
  8
0
100
AcDbLine
 10
172.186438430231
 20
48.018139811769
 30
0.0
 11
172.254438430231
 21
48.078439811769
 31
0.0
  0
LINE
  5
E8
330
1D
100
AcDbEntity
  8
0
100
AcDbLine
 10
171.788438430231
 20
49.225639811769
 30
0.0
 11
171.835438430231
 21
50.074739811769
 31
0.0
  0
LINE
  5
E9
330
1D
100
AcDbEntity
  8
0
100
AcDbLine
 10
171.788438430231
 20
49.225639811769
 30
0.0
 11
172.186438430231
 21
48.018139811769
 31
0.0
  0
LINE
  5
EA
330
1D
100
AcDbEntity
  8
0
100
AcDbLine
 10
170.726138430231
 20
55.825439811769
 30
0.0
 11
173.374138430231
 21
52.311439811769
 31
0.0
  0
LINE
  5
F0
330
1D
100
AcDbEntity
  8
0
100
AcDbLine
 10
173.374138430231
 20
52.311439811769
 30
0.0
 11
173.964738430231
 21
52.005539811769
 31
0.0
  0
LINE
  5
F8
330
1D
100
AcDbEntity
  8
0
100
AcDbLine
 10
172.271438430231
 20
50.529139811769
 30
0.0
 11
173.216438430231
 21
51.320839811769
 31
0.0
  0
LINE
  5
F9
330
1D
100
AcDbEntity
  8
0
100
AcDbLine
 10
171.835438430231
 20
50.074739811769
 30
0.0
 11
172.271438430231
 21
50.529139811769
 31
0.0
  0
LINE
  5
128
330
1D
100
AcDbEntity
  8
0
100
AcDbLine
 10
184.754438430231
 20
33.104039811769
 30
0.0
 11
201.969438430231
 21
12.617839811769
 31
0.0
  0
LINE
  5
1B6
330
1D
100
AcDbEntity
  8
0
100
AcDbLine
 10
38.606738997361
 20
155.018088393988
 30
0.0
 11
38.947438430231
 21
154.836339811769
 31
0.0
  0
LINE
  5
1B7
330
1D
100
AcDbEntity
  8
0
100
AcDbLine
 10
38.606738997361
 20
155.018088393988
 30
0.0
 11
38.947438430231
 21
154.836339811769
 31
0.0
  0
LINE
  5
1B8
330
1D
100
AcDbEntity
  8
0
100
AcDbLine
 10
38.329438430231
 20
155.165339811769
 30
0.0
 11
38.660165324836
 21
155.787345877661
 31
0.0
  0
LINE
  5
1B9
330
1D
100
AcDbEntity
  8
0
100
AcDbLine
 10
38.329438430231
 20
155.165339811769
 30
0.0
 11
38.732438430231
 21
154.951339811769
 31
0.0
  0
LINE
  5
1BA
330
1D
100
AcDbEntity
  8
0
100
AcDbLine
 10
38.329438430231
 20
155.165339811769
 30
0.0
 11
38.635991791988
 21
155.741882130046
 31
0.0
  0
LINE
  5
1BB
330
1D
100
AcDbEntity
  8
0
100
AcDbLine
 10
38.329438430231
 20
155.165339811769
 30
0.0
 11
38.606738997361
 21
155.018088393988
 31
0.0
  0
LINE
  5
1BC
330
1D
100
AcDbEntity
  8
0
100
AcDbLine
 10
38.321438430231
 20
155.568339811769
 30
0.0
 11
38.486827599502
 21
155.879391220642
 31
0.0
  0
LINE
  5
1BD
330
1D
100
AcDbEntity
  8
0
100
AcDbLine
 10
37.967438430231
 20
155.757339811769
 30
0.0
 11
38.357061618525
 21
156.489698626825
 31
0.0
  0
LINE
  5
1BE
330
1D
100
AcDbEntity
  8
0
100
AcDbLine
 10
37.967438430231
 20
155.757339811769
 30
0.0
 11
38.321438430231
 21
155.568339811769
 31
0.0
  0
LINE
  5
1BF
330
1D
100
AcDbEntity
  8
0
100
AcDbLine
 10
38.184438430231
 20
155.641339811769
 30
0.0
 11
38.321438430231
 21
155.568339811769
 31
0.0
  0
LINE
  5
1C0
330
1D
100
AcDbEntity
  8
0
100
AcDbLine
 10
39.938438430231
 20
154.310339811769
 30
0.0
 11
40.328597924516
 21
155.04412220464
 31
0.0
  0
LINE
  5
1C1
330
1D
100
AcDbEntity
  8
0
100
AcDbLine
 10
39.938438430231
 20
154.310339811769
 30
0.0
 11
40.018438430231
 21
154.267339811769
 31
0.0
  0
LINE
  5
1C2
330
1D
100
AcDbEntity
  8
0
100
AcDbLine
 10
40.018438430231
 20
154.267339811769
 30
0.0
 11
40.40879433588
 21
155.001491600242
 31
0.0
  0
LINE
  5
1C3
330
1D
100
AcDbEntity
  8
0
100
AcDbLine
 10
39.400438430231
 20
154.597339811769
 30
0.0
 11
39.730551781857
 21
155.217840414132
 31
0.0
  0
LINE
  5
1C4
330
1D
100
AcDbEntity
  8
0
100
AcDbLine
 10
39.400438430231
 20
154.597339811769
 30
0.0
 11
39.938438430231
 21
154.310339811769
 31
0.0
  0
LINE
  5
1C5
330
1D
100
AcDbEntity
  8
0
100
AcDbLine
 10
39.615438430231
 20
154.482339811769
 30
0.0
 11
40.018438430231
 21
154.267339811769
 31
0.0
  0
LINE
  5
1C6
330
1D
100
AcDbEntity
  8
0
100
AcDbLine
 10
38.947438430231
 20
154.836339811769
 30
0.0
 11
39.615438430231
 21
154.482339811769
 31
0.0
  0
LINE
  5
1C7
330
1D
100
AcDbEntity
  8
0
100
AcDbLine
 10
38.947438430231
 20
154.836339811769
 30
0.0
 11
39.173438430231
 21
154.716339811769
 31
0.0
  0
LINE
  5
1C8
330
1D
100
AcDbEntity
  8
0
100
AcDbLine
 10
38.732438430231
 20
154.951339811769
 30
0.0
 11
39.06310568468
 21
155.573233710977
 31
0.0
  0
LINE
  5
1C9
330
1D
100
AcDbEntity
  8
0
100
AcDbLine
 10
38.732438430231
 20
154.951339811769
 30
0.0
 11
39.400438430231
 21
154.597339811769
 31
0.0
  0
LINE
  5
1CA
330
1D
100
AcDbEntity
  8
0
100
AcDbLine
 10
40.237438430231
 20
154.549339811769
 30
0.0
 11
40.87751182279
 21
154.208797331746
 31
0.0
  0
LINE
  5
1CB
330
1D
100
AcDbEntity
  8
0
100
AcDbLine
 10
40.237438430231
 20
154.549339811769
 30
0.0
 11
40.487438430231
 21
154.417339811769
 31
0.0
  0
LINE
  5
1CC
330
1D
100
AcDbEntity
  8
0
100
AcDbLine
 10
40.237438430231
 20
154.549339811769
 30
0.0
 11
40.698593646423
 21
155.417136688245
 31
0.0
  0
LINE
  5
1CD
330
1D
100
AcDbEntity
  8
0
100
AcDbLine
 10
40.237438430231
 20
154.549339811769
 30
0.0
 11
41.111438430231
 21
154.084339811769
 31
0.0
  0
LINE
  5
1CE
330
1D
100
AcDbEntity
  8
0
100
AcDbLine
 10
40.237438430231
 20
154.549339811769
 30
0.0
 11
40.398324296383
 21
154.852093087051
 31
0.0
  0
LINE
  5
1CF
330
1D
100
AcDbEntity
  8
0
100
AcDbLine
 10
40.237438430231
 20
154.549339811769
 30
0.0
 11
40.87751182279
 21
154.208797331746
 31
0.0
  0
LINE
  5
1D0
330
1D
100
AcDbEntity
  8
0
100
AcDbLine
 10
38.935438430231
 20
155.641339811769
 30
0.0
 11
39.46469564776
 21
156.636163016176
 31
0.0
  0
LINE
  5
1D1
330
1D
100
AcDbEntity
  8
0
100
AcDbLine
 10
38.935438430231
 20
155.641339811769
 30
0.0
 11
39.603438430231
 21
155.285339811769
 31
0.0
  0
LINE
  5
1D2
330
1D
100
AcDbEntity
  8
0
100
AcDbLine
 10
39.603438430231
 20
155.285339811769
 30
0.0
 11
40.13280758448
 21
156.280937177481
 31
0.0
  0
LINE
  5
1D3
330
1D
100
AcDbEntity
  8
0
100
AcDbLine
 10
39.603438430231
 20
155.285339811769
 30
0.0
 11
40.006438430231
 21
155.071339811769
 31
0.0
  0
LINE
  5
1D4
330
1D
100
AcDbEntity
  8
0
100
AcDbLine
 10
40.006438430231
 20
155.071339811769
 30
0.0
 11
40.526766836531
 21
156.051532022783
 31
0.0
  0
LINE
  5
1D5
330
1D
100
AcDbEntity
  8
0
100
AcDbLine
 10
38.720438430231
 20
155.755339811769
 30
0.0
 11
39.108438430167
 21
155.549142207013
 31
0.0
  0
LINE
  5
1D6
330
1D
100
AcDbEntity
  8
0
100
AcDbLine
 10
38.720438430231
 20
155.755339811769
 30
0.0
 11
39.108438430167
 21
155.549142207013
 31
0.0
  0
LINE
  5
1D7
330
1D
100
AcDbEntity
  8
0
100
AcDbLine
 10
35.489438430231
 20
156.396339811769
 30
0.0
 11
35.861794361872
 21
157.096638613981
 31
0.0
  0
LINE
  5
1D8
330
1D
100
AcDbEntity
  8
0
100
AcDbLine
 10
37.309438430231
 20
156.107339811769
 30
0.0
 11
37.830683152992
 21
157.088702477436
 31
0.0
  0
LINE
  5
1D9
330
1D
100
AcDbEntity
  8
0
100
AcDbLine
 10
37.309438430231
 20
156.107339811769
 30
0.0
 11
37.967438430231
 21
155.757339811769
 31
0.0
  0
LINE
  5
1DA
330
1D
100
AcDbEntity
  8
0
100
AcDbLine
 10
37.612438430231
 20
155.945339811769
 30
0.0
 11
38.184438430231
 21
155.641339811769
 31
0.0
  0
LINE
  5
1DB
330
1D
100
AcDbEntity
  8
0
100
AcDbLine
 10
36.954438430231
 20
156.295339811769
 30
0.0
 11
37.612438430231
 21
155.945339811769
 31
0.0
  0
LINE
  5
1DC
330
1D
100
AcDbEntity
  8
0
100
AcDbLine
 10
36.737438430231
 20
156.411339811769
 30
0.0
 11
37.222313349893
 21
157.322739421144
 31
0.0
  0
LINE
  5
1DD
330
1D
100
AcDbEntity
  8
0
100
AcDbLine
 10
36.737438430231
 20
156.411339811769
 30
0.0
 11
37.309438430231
 21
156.107339811769
 31
0.0
  0
LINE
  5
1DE
330
1D
100
AcDbEntity
  8
0
100
AcDbLine
 10
34.128438430231
 20
157.120339811769
 30
0.0
 11
34.24389581324
 21
157.337483303136
 31
0.0
  0
LINE
  5
1DF
330
1D
100
AcDbEntity
  8
0
100
AcDbLine
 10
34.128438430231
 20
157.120339811769
 30
0.0
 11
34.800438430231
 21
156.762339811769
 31
0.0
  0
LINE
  5
1E0
330
1D
100
AcDbEntity
  8
0
100
AcDbLine
 10
35.301438430231
 20
156.496339811769
 30
0.0
 11
35.417158853228
 21
156.7139780088
 31
0.0
  0
LINE
  5
1E1
330
1D
100
AcDbEntity
  8
0
100
AcDbLine
 10
35.322476355012
 20
156.485411097433
 30
0.0
 11
35.489438430231
 21
156.396339811769
 31
0.0
  0
LINE
  5
1E2
330
1D
100
AcDbEntity
  8
0
100
AcDbLine
 10
35.322438430231
 20
156.485339811769
 30
0.0
 11
35.438159487202
 21
156.702855962518
 31
0.0
  0
LINE
  5
1E3
330
1D
100
AcDbEntity
  8
0
100
AcDbLine
 10
34.800438430231
 20
156.762339811769
 30
0.0
 11
34.91611246934
 21
156.980013962041
 31
0.0
  0
LINE
  5
1E4
330
1D
100
AcDbEntity
  8
0
100
AcDbLine
 10
34.800438430231
 20
156.762339811769
 30
0.0
 11
35.301438430231
 21
156.496339811769
 31
0.0
  0
LINE
  5
1E5
330
1D
100
AcDbEntity
  8
0
100
AcDbLine
 10
35.214438430231
 20
156.821339811769
 30
0.0
 11
35.604536038783
 21
157.55542125406
 31
0.0
  0
LINE
  5
1E6
330
1D
100
AcDbEntity
  8
0
100
AcDbLine
 10
35.214438430231
 20
156.821339811769
 30
0.0
 11
35.518438430231
 21
156.660339811769
 31
0.0
  0
LINE
  5
1E7
330
1D
100
AcDbEntity
  8
0
100
AcDbLine
 10
35.518438430231
 20
156.660339811769
 30
0.0
 11
35.908453863329
 21
157.393851265284
 31
0.0
  0
LINE
  5
1E8
330
1D
100
AcDbEntity
  8
0
100
AcDbLine
 10
34.723438430231
 20
157.082339811769
 30
0.0
 11
34.805256612061
 21
157.038976175399
 31
0.0
  0
LINE
  5
1E9
330
1D
100
AcDbEntity
  8
0
100
AcDbLine
 10
36.600438430231
 20
156.483339811769
 30
0.0
 11
36.737438430231
 21
156.411339811769
 31
0.0
  0
LINE
  5
1EA
330
1D
100
AcDbEntity
  8
0
100
AcDbLine
 10
36.600438430231
 20
156.483339811769
 30
0.0
 11
37.075922855563
 21
157.379055141791
 31
0.0
  0
LINE
  5
1EB
330
1D
100
AcDbEntity
  8
0
100
AcDbLine
 10
36.600438430231
 20
156.483339811769
 30
0.0
 11
36.954438430231
 21
156.295339811769
 31
0.0
  0
LINE
  5
1EC
330
1D
100
AcDbEntity
  8
0
100
AcDbLine
 10
36.600438430231
 20
156.483339811769
 30
0.0
 11
36.696781415305
 21
156.664830275122
 31
0.0
  0
LINE
  5
1ED
330
1D
100
AcDbEntity
  8
0
100
AcDbLine
 10
38.397438430231
 20
155.927339811769
 30
0.0
 11
38.926481542221
 21
156.922323981922
 31
0.0
  0
LINE
  5
1EE
330
1D
100
AcDbEntity
  8
0
100
AcDbLine
 10
38.397438430231
 20
155.927339811769
 30
0.0
 11
38.935438430231
 21
155.641339811769
 31
0.0
  0
LINE
  5
1EF
330
1D
100
AcDbEntity
  8
0
100
AcDbLine
 10
38.317438430231
 20
155.969339811769
 30
0.0
 11
38.397438430231
 21
155.927339811769
 31
0.0
  0
LINE
  5
1F0
330
1D
100
AcDbEntity
  8
0
100
AcDbLine
 10
38.317438430231
 20
155.969339811769
 30
0.0
 11
38.778741913798
 21
156.836924425165
 31
0.0
  0
LINE
  5
1F1
330
1D
100
AcDbEntity
  8
0
100
AcDbLine
 10
38.317438430231
 20
155.969339811769
 30
0.0
 11
38.720438430231
 21
155.755339811769
 31
0.0
  0
LINE
  5
1F2
330
1D
100
AcDbEntity
  8
0
100
AcDbLine
 10
38.448357722792
 20
155.807039993519
 30
0.0
 11
38.624714946865
 21
155.720673494809
 31
0.0
  0
LINE
  5
1F3
330
1D
100
AcDbEntity
  8
0
100
AcDbLine
 10
41.62143843024
 20
153.41517467415
 30
0.0
 11
41.735438430231
 21
153.354339811769
 31
0.0
  0
LINE
  5
1F4
330
1D
100
AcDbEntity
  8
0
100
AcDbLine
 10
41.735438430231
 20
153.354339811769
 30
0.0
 11
41.905232081018
 21
153.264165208598
 31
0.0
  0
LINE
  5
1F5
330
1D
100
AcDbEntity
  8
0
100
AcDbLine
 10
41.735438430231
 20
153.354339811769
 30
0.0
 11
41.905232081018
 21
153.264165208598
 31
0.0
  0
LINE
  5
1F6
330
1D
100
AcDbEntity
  8
0
100
AcDbLine
 10
41.62143843024
 20
153.41517467415
 30
0.0
 11
41.735438430231
 21
153.354339811769
 31
0.0
  0
LINE
  5
1F7
330
1D
100
AcDbEntity
  8
0
100
AcDbLine
 10
41.429438430231
 20
153.517339811769
 30
0.0
 11
41.594497667223
 21
153.828101658813
 31
0.0
  0
LINE
  5
1F8
330
1D
100
AcDbEntity
  8
0
100
AcDbLine
 10
41.429438430231
 20
153.517339811769
 30
0.0
 11
42.083438430231
 21
153.169339811769
 31
0.0
  0
LINE
  5
1F9
330
1D
100
AcDbEntity
  8
0
100
AcDbLine
 10
40.712438430231
 20
153.898339811769
 30
0.0
 11
40.866438430231
 21
153.816339811769
 31
0.0
  0
LINE
  5
1FA
330
1D
100
AcDbEntity
  8
0
100
AcDbLine
 10
40.712438430231
 20
153.898339811769
 30
0.0
 11
40.877668514823
 21
154.209092026242
 31
0.0
  0
LINE
  5
1FB
330
1D
100
AcDbEntity
  8
0
100
AcDbLine
 10
40.866438430231
 20
153.816339811769
 30
0.0
 11
41.031592846346
 21
154.126949714708
 31
0.0
  0
LINE
  5
1FC
330
1D
100
AcDbEntity
  8
0
100
AcDbLine
 10
40.866438430231
 20
153.816339811769
 30
0.0
 11
41.429438430231
 21
153.517339811769
 31
0.0
  0
LINE
  5
1FD
330
1D
100
AcDbEntity
  8
0
100
AcDbLine
 10
41.735438430231
 20
153.753339811769
 30
0.0
 11
41.985438430231
 21
153.620339811769
 31
0.0
  0
LINE
  5
1FE
330
1D
100
AcDbEntity
  8
0
100
AcDbLine
 10
41.735438430231
 20
153.753339811769
 30
0.0
 11
42.158764470916
 21
154.549499330245
 31
0.0
  0
LINE
  5
1FF
330
1D
100
AcDbEntity
  8
0
100
AcDbLine
 10
42.083438430231
 20
153.169339811769
 30
0.0
 11
42.473645121227
 21
153.903210968636
 31
0.0
  0
LINE
  5
200
330
1D
100
AcDbEntity
  8
0
100
AcDbLine
 10
42.083438430231
 20
153.169339811769
 30
0.0
 11
42.451438430231
 21
152.973339811769
 31
0.0
  0
LINE
  5
201
330
1D
100
AcDbEntity
  8
0
100
AcDbLine
 10
42.451438430231
 20
152.973339811769
 30
0.0
 11
42.8417264485
 21
153.707363922804
 31
0.0
  0
LINE
  5
202
330
1D
100
AcDbEntity
  8
0
100
AcDbLine
 10
41.985438430231
 20
153.620339811769
 30
0.0
 11
42.420262001062
 21
154.438123013139
 31
0.0
  0
LINE
  5
203
330
1D
100
AcDbEntity
  8
0
100
AcDbLine
 10
41.111438430231
 20
154.084339811769
 30
0.0
 11
41.735438430231
 21
153.753339811769
 31
0.0
  0
LINE
  5
204
330
1D
100
AcDbEntity
  8
0
100
AcDbLine
 10
41.111438430231
 20
154.084339811769
 30
0.0
 11
41.600226045665
 21
155.004135036978
 31
0.0
  0
LINE
  5
205
330
1D
100
AcDbEntity
  8
0
100
AcDbLine
 10
40.487438430231
 20
154.417339811769
 30
0.0
 11
40.956493333692
 21
155.299003181959
 31
0.0
  0
LINE
  5
206
330
1D
100
AcDbEntity
  8
0
100
AcDbLine
 10
40.487438430231
 20
154.417339811769
 30
0.0
 11
41.111438430231
 21
154.084339811769
 31
0.0
  0
LINE
  5
207
330
1D
100
AcDbEntity
  8
0
100
AcDbLine
 10
40.487438430231
 20
154.417339811769
 30
0.0
 11
40.877668514823
 21
154.209092026242
 31
0.0
  0
LINE
  5
208
330
1D
100
AcDbEntity
  8
0
100
AcDbLine
 10
40.343605860957
 20
154.878890059545
 30
0.0
 11
40.398324296383
 21
154.852093087051
 31
0.0
  0
LINE
  5
209
330
1D
100
AcDbEntity
  8
0
100
AcDbLine
 10
40.343605860957
 20
154.878890059545
 30
0.0
 11
40.398324296383
 21
154.852093087051
 31
0.0
  0
LINE
  5
20A
330
1D
100
AcDbEntity
  8
0
100
AcDbLine
 10
28.238438430231
 20
160.000339811769
 30
0.0
 11
28.458790983273
 21
160.414527517966
 31
0.0
  0
LINE
  5
20B
330
1D
100
AcDbEntity
  8
0
100
AcDbLine
 10
28.085438430231
 20
160.082339811769
 30
0.0
 11
28.189580304868
 21
160.278091045777
 31
0.0
  0
LINE
  5
20C
330
1D
100
AcDbEntity
  8
0
100
AcDbLine
 10
28.085438430231
 20
160.082339811769
 30
0.0
 11
28.238438430231
 21
160.000339811769
 31
0.0
  0
LINE
  5
20D
330
1D
100
AcDbEntity
  8
0
100
AcDbLine
 10
27.96170142387
 20
160.147834710341
 30
0.0
 11
28.085438430231
 21
160.082339811769
 31
0.0
  0
LINE
  5
20E
330
1D
100
AcDbEntity
  8
0
100
AcDbLine
 10
27.961438430231
 20
160.147339811769
 30
0.0
 11
28.065882906024
 21
160.343882291776
 31
0.0
  0
LINE
  5
20F
330
1D
100
AcDbEntity
  8
0
100
AcDbLine
 10
30.532438430231
 20
159.032339811769
 30
0.0
 11
30.813918949334
 21
159.56172702874
 31
0.0
  0
LINE
  5
210
330
1D
100
AcDbEntity
  8
0
100
AcDbLine
 10
30.532438430231
 20
159.032339811769
 30
0.0
 11
30.782438430231
 21
158.899339811769
 31
0.0
  0
LINE
  5
211
330
1D
100
AcDbEntity
  8
0
100
AcDbLine
 10
29.059374600442
 20
160.095275981983
 30
0.0
 11
29.378438430231
 21
159.925339811769
 31
0.0
  0
LINE
  5
212
330
1D
100
AcDbEntity
  8
0
100
AcDbLine
 10
29.341438430231
 20
159.945339811769
 30
0.0
 11
29.506371327257
 21
160.255687960224
 31
0.0
  0
LINE
  5
213
330
1D
100
AcDbEntity
  8
0
100
AcDbLine
 10
29.378438430231
 20
159.925339811769
 30
0.0
 11
29.54357805079
 21
160.235921888347
 31
0.0
  0
LINE
  5
214
330
1D
100
AcDbEntity
  8
0
100
AcDbLine
 10
29.059374600442
 20
160.095275981983
 30
0.0
 11
29.378438430231
 21
159.925339811769
 31
0.0
  0
LINE
  5
215
330
1D
100
AcDbEntity
  8
0
100
AcDbLine
 10
27.870438430231
 20
160.195339811769
 30
0.0
 11
28.238438430231
 21
160.000339811769
 31
0.0
  0
LINE
  5
216
330
1D
100
AcDbEntity
  8
0
100
AcDbLine
 10
28.850438430231
 20
160.206339811769
 30
0.0
 11
29.015461119493
 21
160.516526229816
 31
0.0
  0
LINE
  5
217
330
1D
100
AcDbEntity
  8
0
100
AcDbLine
 10
28.850438430231
 20
160.206339811769
 30
0.0
 11
29.341438430231
 21
159.945339811769
 31
0.0
  0
LINE
  5
218
330
1D
100
AcDbEntity
  8
0
100
AcDbLine
 10
28.850438430231
 20
160.206339811769
 30
0.0
 11
29.059374600442
 21
160.095275981983
 31
0.0
  0
LINE
  5
219
330
1D
100
AcDbEntity
  8
0
100
AcDbLine
 10
28.850438430231
 20
160.206339811769
 30
0.0
 11
29.059374600442
 21
160.095275981983
 31
0.0
  0
LINE
  5
21A
330
1D
100
AcDbEntity
  8
0
100
AcDbLine
 10
29.612438430231
 20
160.200339811769
 30
0.0
 11
30.107138039151
 21
161.130206488812
 31
0.0
  0
LINE
  5
21B
330
1D
100
AcDbEntity
  8
0
100
AcDbLine
 10
29.612438430231
 20
160.200339811769
 30
0.0
 11
29.708438430231
 21
160.148339811769
 31
0.0
  0
LINE
  5
21C
330
1D
100
AcDbEntity
  8
0
100
AcDbLine
 10
29.708438430231
 20
160.148339811769
 30
0.0
 11
30.215205565245
 21
161.101429013509
 31
0.0
  0
LINE
  5
21D
330
1D
100
AcDbEntity
  8
0
100
AcDbLine
 10
34.571438430231
 20
157.163339811769
 30
0.0
 11
34.961467334438
 21
157.897291966969
 31
0.0
  0
LINE
  5
21E
330
1D
100
AcDbEntity
  8
0
100
AcDbLine
 10
34.571438430231
 20
157.163339811769
 30
0.0
 11
35.214438430231
 21
156.821339811769
 31
0.0
  0
LINE
  5
21F
330
1D
100
AcDbEntity
  8
0
100
AcDbLine
 10
34.525284584072
 20
157.18787827331
 30
0.0
 11
34.723438430231
 21
157.082339811769
 31
0.0
  0
LINE
  5
220
330
1D
100
AcDbEntity
  8
0
100
AcDbLine
 10
32.114438430233
 20
158.191673145102
 30
0.0
 11
32.280438430231
 21
158.102339811769
 31
0.0
  0
LINE
  5
221
330
1D
100
AcDbEntity
  8
0
100
AcDbLine
 10
31.406438430231
 20
158.567339811769
 30
0.0
 11
31.670788883385
 21
158.427339811779
 31
0.0
  0
LINE
  5
222
330
1D
100
AcDbEntity
  8
0
100
AcDbLine
 10
31.406438430231
 20
158.567339811769
 30
0.0
 11
32.280438430231
 21
158.102339811769
 31
0.0
  0
LINE
  5
223
330
1D
100
AcDbEntity
  8
0
100
AcDbLine
 10
31.906438430231
 20
158.302339811769
 30
0.0
 11
32.302743033362
 21
159.047679459403
 31
0.0
  0
LINE
  5
224
330
1D
100
AcDbEntity
  8
0
100
AcDbLine
 10
31.906438430231
 20
158.302339811769
 30
0.0
 11
32.530438430231
 21
157.970339811769
 31
0.0
  0
LINE
  5
225
330
1D
100
AcDbEntity
  8
0
100
AcDbLine
 10
32.530438430231
 20
157.970339811769
 30
0.0
 11
32.811297533227
 21
158.498259211969
 31
0.0
  0
LINE
  5
226
330
1D
100
AcDbEntity
  8
0
100
AcDbLine
 10
32.530438430231
 20
157.970339811769
 30
0.0
 11
32.780438430231
 21
157.837339811769
 31
0.0
  0
LINE
  5
227
330
1D
100
AcDbEntity
  8
0
100
AcDbLine
 10
31.282438430231
 20
158.633339811769
 30
0.0
 11
31.666019760574
 21
159.35475049269
 31
0.0
  0
LINE
  5
228
330
1D
100
AcDbEntity
  8
0
100
AcDbLine
 10
31.282438430231
 20
158.633339811769
 30
0.0
 11
31.906438430231
 21
158.302339811769
 31
0.0
  0
LINE
  5
229
330
1D
100
AcDbEntity
  8
0
100
AcDbLine
 10
31.282438430231
 20
158.633339811769
 30
0.0
 11
31.642006874572
 21
159.309588877484
 31
0.0
  0
LINE
  5
22A
330
1D
100
AcDbEntity
  8
0
100
AcDbLine
 10
32.780438430231
 20
157.837339811769
 30
0.0
 11
33.061095456792
 21
158.365178266409
 31
0.0
  0
LINE
  5
22B
330
1D
100
AcDbEntity
  8
0
100
AcDbLine
 10
32.533438430231
 20
158.646339811769
 30
0.0
 11
32.9495244053
 21
159.428882763814
 31
0.0
  0
LINE
  5
22C
330
1D
100
AcDbEntity
  8
0
100
AcDbLine
 10
32.533438430231
 20
158.646339811769
 30
0.0
 11
33.034438430231
 21
158.379339811769
 31
0.0
  0
LINE
  5
22D
330
1D
100
AcDbEntity
  8
0
100
AcDbLine
 10
31.032438430231
 20
158.766339811769
 30
0.0
 11
31.282438430231
 21
158.633339811769
 31
0.0
  0
LINE
  5
22E
330
1D
100
AcDbEntity
  8
0
100
AcDbLine
 10
31.032438430231
 20
158.766339811769
 30
0.0
 11
31.41075817285
 21
159.477854897461
 31
0.0
  0
LINE
  5
22F
330
1D
100
AcDbEntity
  8
0
100
AcDbLine
 10
32.512438430231
 20
158.657339811769
 30
0.0
 11
32.927809525932
 21
159.438538272906
 31
0.0
  0
LINE
  5
230
330
1D
100
AcDbEntity
  8
0
100
AcDbLine
 10
32.512438430231
 20
158.657339811769
 30
0.0
 11
32.62621620802
 21
158.596895367319
 31
0.0
  0
LINE
  5
231
330
1D
100
AcDbEntity
  8
0
100
AcDbLine
 10
32.512438430231
 20
158.657339811769
 30
0.0
 11
32.62621620802
 21
158.596895367319
 31
0.0
  0
LINE
  5
232
330
1D
100
AcDbEntity
  8
0
100
AcDbLine
 10
33.867438430231
 20
157.258339811769
 30
0.0
 11
34.233002745588
 21
157.064634417576
 31
0.0
  0
LINE
  5
233
330
1D
100
AcDbEntity
  8
0
100
AcDbLine
 10
33.867438430231
 20
157.258339811769
 30
0.0
 11
34.233002745588
 21
157.064634417576
 31
0.0
  0
LINE
  5
234
330
1D
100
AcDbEntity
  8
0
100
AcDbLine
 10
33.680438430231
 20
157.358339811769
 30
0.0
 11
33.796414973692
 21
157.576583211444
 31
0.0
  0
LINE
  5
235
330
1D
100
AcDbEntity
  8
0
100
AcDbLine
 10
33.680438430231
 20
157.358339811769
 30
0.0
 11
34.128438430231
 21
157.120339811769
 31
0.0
  0
LINE
  5
236
330
1D
100
AcDbEntity
  8
0
100
AcDbLine
 10
33.971438430231
 20
157.482339811769
 30
0.0
 11
34.136688614733
 21
157.793637334173
 31
0.0
  0
LINE
  5
237
330
1D
100
AcDbEntity
  8
0
100
AcDbLine
 10
33.971438430231
 20
157.482339811769
 30
0.0
 11
34.571438430231
 21
157.163339811769
 31
0.0
  0
LINE
  5
238
330
1D
100
AcDbEntity
  8
0
100
AcDbLine
 10
33.776438430231
 20
157.587339811769
 30
0.0
 11
33.971438430231
 21
157.482339811769
 31
0.0
  0
LINE
  5
239
330
1D
100
AcDbEntity
  8
0
100
AcDbLine
 10
33.776438430231
 20
157.587339811769
 30
0.0
 11
33.941443606715
 21
157.897493311762
 31
0.0
  0
LINE
  5
23A
330
1D
100
AcDbEntity
  8
0
100
AcDbLine
 10
34.154438430231
 20
157.784339811769
 30
0.0
 11
34.319742226574
 21
158.095230657712
 31
0.0
  0
LINE
  5
23B
330
1D
100
AcDbEntity
  8
0
100
AcDbLine
 10
34.040660652434
 20
157.844784256224
 30
0.0
 11
34.133438430231
 21
157.795339811769
 31
0.0
  0
LINE
  5
23C
330
1D
100
AcDbEntity
  8
0
100
AcDbLine
 10
33.061095456792
 20
158.365178266409
 30
0.0
 11
33.706438430231
 21
158.022339811769
 31
0.0
  0
LINE
  5
23D
330
1D
100
AcDbEntity
  8
0
100
AcDbLine
 10
33.034438430231
 20
158.379339811769
 30
0.0
 11
33.199723575099
 21
158.690371601952
 31
0.0
  0
LINE
  5
23E
330
1D
100
AcDbEntity
  8
0
100
AcDbLine
 10
33.034438430231
 20
158.379339811769
 30
0.0
 11
33.706438430231
 21
158.022339811769
 31
0.0
  0
LINE
  5
23F
330
1D
100
AcDbEntity
  8
0
100
AcDbLine
 10
33.706438430231
 20
158.022339811769
 30
0.0
 11
33.871947925076
 21
158.333617519857
 31
0.0
  0
LINE
  5
240
330
1D
100
AcDbEntity
  8
0
100
AcDbLine
 10
33.706438430231
 20
158.022339811769
 30
0.0
 11
34.154438430231
 21
157.784339811769
 31
0.0
  0
LINE
  5
241
330
1D
100
AcDbEntity
  8
0
100
AcDbLine
 10
33.721438430231
 20
158.413339811769
 30
0.0
 11
34.514438430231
 21
157.991339811769
 31
0.0
  0
LINE
  5
242
330
1D
100
AcDbEntity
  8
0
100
AcDbLine
 10
34.023438430231
 20
158.253339811769
 30
0.0
 11
34.552547260528
 21
159.247884098749
 31
0.0
  0
LINE
  5
243
330
1D
100
AcDbEntity
  8
0
100
AcDbLine
 10
34.023438430231
 20
158.253339811769
 30
0.0
 11
34.514438430231
 21
157.991339811769
 31
0.0
  0
LINE
  5
244
330
1D
100
AcDbEntity
  8
0
100
AcDbLine
 10
34.514438430231
 20
157.991339811769
 30
0.0
 11
35.043264688947
 21
158.986976456643
 31
0.0
  0
LINE
  5
245
330
1D
100
AcDbEntity
  8
0
100
AcDbLine
 10
34.551438430231
 20
157.972339811769
 30
0.0
 11
35.080659120213
 21
158.967094356835
 31
0.0
  0
LINE
  5
246
330
1D
100
AcDbEntity
  8
0
100
AcDbLine
 10
33.352438430231
 20
158.609339811769
 30
0.0
 11
33.881629294937
 21
159.604601864028
 31
0.0
  0
LINE
  5
247
330
1D
100
AcDbEntity
  8
0
100
AcDbLine
 10
33.352438430231
 20
158.609339811769
 30
0.0
 11
34.023438430231
 21
158.253339811769
 31
0.0
  0
LINE
  5
248
330
1D
100
AcDbEntity
  8
0
100
AcDbLine
 10
33.419438430231
 20
158.573339811769
 30
0.0
 11
33.993281126873
 21
158.269339811763
 31
0.0
  0
LINE
  5
249
330
1D
100
AcDbEntity
  8
0
100
AcDbLine
 10
33.419438430231
 20
158.573339811769
 30
0.0
 11
33.721438430231
 21
158.413339811769
 31
0.0
  0
LINE
  5
24A
330
1D
100
AcDbEntity
  8
0
100
AcDbLine
 10
33.419438430231
 20
158.573339811769
 30
0.0
 11
33.993281126873
 21
158.269339811763
 31
0.0
  0
LINE
  5
24B
330
1D
100
AcDbEntity
  8
0
100
AcDbLine
 10
32.929438430231
 20
158.834339811769
 30
0.0
 11
33.419438430231
 21
158.573339811769
 31
0.0
  0
LINE
  5
24C
330
1D
100
AcDbEntity
  8
0
100
AcDbLine
 10
30.782438430231
 20
158.899339811769
 30
0.0
 11
31.068526063573
 21
159.437391739865
 31
0.0
  0
LINE
  5
24D
330
1D
100
AcDbEntity
  8
0
100
AcDbLine
 10
30.782438430231
 20
158.899339811769
 30
0.0
 11
31.406438430231
 21
158.567339811769
 31
0.0
  0
LINE
  5
24E
330
1D
100
AcDbEntity
  8
0
100
AcDbLine
 10
32.892438430231
 20
158.854339811769
 30
0.0
 11
33.421453376266
 21
159.84927100953
 31
0.0
  0
LINE
  5
24F
330
1D
100
AcDbEntity
  8
0
100
AcDbLine
 10
32.892438430231
 20
158.854339811769
 30
0.0
 11
33.352438430231
 21
158.609339811769
 31
0.0
  0
LINE
  5
250
330
1D
100
AcDbEntity
  8
0
100
AcDbLine
 10
30.598438430231
 20
159.651339811769
 30
0.0
 11
31.316122860831
 21
159.29987197837
 31
0.0
  0
LINE
  5
251
330
1D
100
AcDbEntity
  8
0
100
AcDbLine
 10
35.763773475269
 20
157.121747361862
 30
0.0
 11
36.696781415305
 21
156.664830275122
 31
0.0
  0
LINE
  5
252
330
1D
100
AcDbEntity
  8
0
100
AcDbLine
 10
43.314438430231
 20
152.914339811769
 30
0.0
 11
43.47933155611
 21
153.224458299843
 31
0.0
  0
LINE
  5
253
330
1D
100
AcDbEntity
  8
0
100
AcDbLine
 10
43.314438430231
 20
152.914339811769
 30
0.0
 11
43.668438430231
 21
152.725339811769
 31
0.0
  0
LINE
  5
254
330
1D
100
AcDbEntity
  8
0
100
AcDbLine
 10
43.314438430231
 20
152.914339811769
 30
0.0
 11
43.451438430231
 21
152.840339811769
 31
0.0
  0
LINE
  5
255
330
1D
100
AcDbEntity
  8
0
100
AcDbLine
 10
43.451438430231
 20
152.840339811769
 30
0.0
 11
43.656303678444
 21
152.731818535181
 31
0.0
  0
LINE
  5
256
330
1D
100
AcDbEntity
  8
0
100
AcDbLine
 10
43.451438430231
 20
152.840339811769
 30
0.0
 11
43.986993985747
 21
152.555895367346
 31
0.0
  0
LINE
  5
257
330
1D
100
AcDbEntity
  8
0
100
AcDbLine
 10
43.451438430231
 20
152.840339811769
 30
0.0
 11
43.656303678444
 21
152.731818535181
 31
0.0
  0
LINE
  5
258
330
1D
100
AcDbEntity
  8
0
100
AcDbLine
 10
43.451438430231
 20
152.840339811769
 30
0.0
 11
43.986993985747
 21
152.555895367346
 31
0.0
  0
LINE
  5
259
330
1D
100
AcDbEntity
  8
0
100
AcDbLine
 10
44.326438430231
 20
152.375339811769
 30
0.0
 11
44.491773062208
 21
152.686288651036
 31
0.0
  0
LINE
  5
25A
330
1D
100
AcDbEntity
  8
0
100
AcDbLine
 10
44.326438430231
 20
152.375339811769
 30
0.0
 11
44.898438430231
 21
152.072339811769
 31
0.0
  0
LINE
  5
25B
330
1D
100
AcDbEntity
  8
0
100
AcDbLine
 10
44.326438430231
 20
152.375339811769
 30
0.0
 11
44.425863322943
 21
152.322672429791
 31
0.0
  0
LINE
  5
25C
330
1D
100
AcDbEntity
  8
0
100
AcDbLine
 10
44.326438430231
 20
152.375339811769
 30
0.0
 11
44.425863322943
 21
152.322672429791
 31
0.0
  0
LINE
  5
25D
330
1D
100
AcDbEntity
  8
0
100
AcDbLine
 10
44.681438430231
 20
152.186339811769
 30
0.0
 11
45.035438430231
 21
151.998339811769
 31
0.0
  0
LINE
  5
25E
330
1D
100
AcDbEntity
  8
0
100
AcDbLine
 10
44.425863322943
 20
152.322672429791
 30
0.0
 11
44.681438430231
 21
152.186339811769
 31
0.0
  0
LINE
  5
25F
330
1D
100
AcDbEntity
  8
0
100
AcDbLine
 10
43.668438430231
 20
152.725339811769
 30
0.0
 11
43.833610265286
 21
153.035982474928
 31
0.0
  0
LINE
  5
260
330
1D
100
AcDbEntity
  8
0
100
AcDbLine
 10
43.668438430231
 20
152.725339811769
 30
0.0
 11
44.326438430231
 21
152.375339811769
 31
0.0
  0
LINE
  5
261
330
1D
100
AcDbEntity
  8
0
100
AcDbLine
 10
44.646438430231
 20
152.604339811769
 30
0.0
 11
45.175657124917
 21
153.599654204544
 31
0.0
  0
LINE
  5
262
330
1D
100
AcDbEntity
  8
0
100
AcDbLine
 10
44.646438430231
 20
152.604339811769
 30
0.0
 11
44.949438430231
 21
152.443339811769
 31
0.0
  0
LINE
  5
263
330
1D
100
AcDbEntity
  8
0
100
AcDbLine
 10
44.898438430231
 20
152.072339811769
 30
0.0
 11
45.342052699309
 21
152.906183459184
 31
0.0
  0
LINE
  5
264
330
1D
100
AcDbEntity
  8
0
100
AcDbLine
 10
44.898438430231
 20
152.072339811769
 30
0.0
 11
45.035438430231
 21
151.998339811769
 31
0.0
  0
LINE
  5
265
330
1D
100
AcDbEntity
  8
0
100
AcDbLine
 10
45.035438430231
 20
151.998339811769
 30
0.0
 11
45.48314465059
 21
152.840828513978
 31
0.0
  0
LINE
  5
266
330
1D
100
AcDbEntity
  8
0
100
AcDbLine
 10
44.949438430231
 20
152.443339811769
 30
0.0
 11
45.478847064544
 21
153.43844762813
 31
0.0
  0
LINE
  5
267
330
1D
100
AcDbEntity
  8
0
100
AcDbLine
 10
44.755438430231
 20
152.546339811769
 30
0.0
 11
44.949438430231
 21
152.443339811769
 31
0.0
  0
LINE
  5
268
330
1D
100
AcDbEntity
  8
0
100
AcDbLine
 10
44.002438430231
 20
152.946339811769
 30
0.0
 11
44.531595899527
 21
153.942102589454
 31
0.0
  0
LINE
  5
269
330
1D
100
AcDbEntity
  8
0
100
AcDbLine
 10
44.002438430231
 20
152.946339811769
 30
0.0
 11
44.646438430231
 21
152.604339811769
 31
0.0
  0
LINE
  5
26A
330
1D
100
AcDbEntity
  8
0
100
AcDbLine
 10
44.154438430231
 20
152.865339811769
 30
0.0
 11
44.755438430231
 21
152.546339811769
 31
0.0
  0
LINE
  5
26B
330
1D
100
AcDbEntity
  8
0
100
AcDbLine
 10
43.511438430231
 20
153.207339811769
 30
0.0
 11
44.154438430231
 21
152.865339811769
 31
0.0
  0
LINE
  5
26C
330
1D
100
AcDbEntity
  8
0
100
AcDbLine
 10
43.402438430231
 20
153.265339811769
 30
0.0
 11
43.931838184202
 21
154.260994727117
 31
0.0
  0
LINE
  5
26D
330
1D
100
AcDbEntity
  8
0
100
AcDbLine
 10
43.402438430231
 20
153.265339811769
 30
0.0
 11
44.002438430231
 21
152.946339811769
 31
0.0
  0
LINE
  5
26E
330
1D
100
AcDbEntity
  8
0
100
AcDbLine
 10
43.402438430231
 20
153.265339811769
 30
0.0
 11
43.47933155611
 21
153.224458299843
 31
0.0
  0
LINE
  5
26F
330
1D
100
AcDbEntity
  8
0
100
AcDbLine
 10
43.208438430231
 20
153.369339811769
 30
0.0
 11
43.402438430231
 21
153.265339811769
 31
0.0
  0
LINE
  5
270
330
1D
100
AcDbEntity
  8
0
100
AcDbLine
 10
43.208438430231
 20
153.369339811769
 30
0.0
 11
43.737046546221
 21
154.364565752961
 31
0.0
  0
LINE
  5
271
330
1D
100
AcDbEntity
  8
0
100
AcDbLine
 10
43.208438430231
 20
153.369339811769
 30
0.0
 11
43.253358506781
 21
153.453912152054
 31
0.0
  0
LINE
  5
272
330
1D
100
AcDbEntity
  8
0
100
AcDbLine
 10
42.819846474487
 20
153.666213726738
 30
0.0
 11
43.253358506781
 21
153.453912152054
 31
0.0
  0
LINE
  5
273
330
1D
100
AcDbEntity
  8
0
100
AcDbLine
 10
22.182438430231
 20
162.993339811769
 30
0.0
 11
22.38066624036
 21
163.366151646367
 31
0.0
  0
LINE
  5
274
330
1D
100
AcDbEntity
  8
0
100
AcDbLine
 10
24.098940942842
 20
162.201138806718
 30
0.0
 11
24.357327319139
 21
162.063562033982
 31
0.0
  0
LINE
  5
275
330
1D
100
AcDbEntity
  8
0
100
AcDbLine
 10
24.098940942842
 20
162.201138806718
 30
0.0
 11
24.357327319139
 21
162.063562033981
 31
0.0
  0
LINE
  5
276
330
1D
100
AcDbEntity
  8
0
100
AcDbLine
 10
25.267438430231
 20
161.579339811769
 30
0.0
 11
25.643208507861
 21
162.286059680878
 31
0.0
  0
LINE
  5
277
330
1D
100
AcDbEntity
  8
0
100
AcDbLine
 10
25.267438430231
 20
161.579339811769
 30
0.0
 11
25.571438430231
 21
161.418339811769
 31
0.0
  0
LINE
  5
278
330
1D
100
AcDbEntity
  8
0
100
AcDbLine
 10
25.571438430231
 20
161.418339811769
 30
0.0
 11
25.946956656876
 21
162.124586018642
 31
0.0
  0
LINE
  5
279
330
1D
100
AcDbEntity
  8
0
100
AcDbLine
 10
25.376438430231
 20
161.521339811769
 30
0.0
 11
25.571438430231
 21
161.418339811769
 31
0.0
  0
LINE
  5
27A
330
1D
100
AcDbEntity
  8
0
100
AcDbLine
 10
24.357327319139
 20
162.063562033981
 30
0.0
 11
24.776438430231
 21
161.840339811769
 31
0.0
  0
LINE
  5
27B
330
1D
100
AcDbEntity
  8
0
100
AcDbLine
 10
25.946956656876
 20
162.124586018642
 30
0.0
 11
26.184438430231
 21
161.998339811769
 31
0.0
  0
LINE
  5
27C
330
1D
100
AcDbEntity
  8
0
100
AcDbLine
 10
24.624438430231
 20
161.921339811769
 30
0.0
 11
25.000134399535
 21
162.627920303559
 31
0.0
  0
LINE
  5
27D
330
1D
100
AcDbEntity
  8
0
100
AcDbLine
 10
24.624438430231
 20
161.921339811769
 30
0.0
 11
25.267438430231
 21
161.579339811769
 31
0.0
  0
LINE
  5
27E
330
1D
100
AcDbEntity
  8
0
100
AcDbLine
 10
24.776438430231
 20
161.840339811769
 30
0.0
 11
25.376438430231
 21
161.521339811769
 31
0.0
  0
LINE
  5
27F
330
1D
100
AcDbEntity
  8
0
100
AcDbLine
 10
24.357327319139
 20
162.063562033981
 30
0.0
 11
24.776438430231
 21
161.840339811769
 31
0.0
  0
LINE
  5
280
330
1D
100
AcDbEntity
  8
0
100
AcDbLine
 10
24.305704101851
 20
163.020608468497
 30
0.0
 11
24.723438430231
 21
162.798339811769
 31
0.0
  0
LINE
  5
281
330
1D
100
AcDbEntity
  8
0
100
AcDbLine
 10
24.238438430231
 20
163.056339811769
 30
0.0
 11
24.585492641193
 21
163.709422656038
 31
0.0
  0
LINE
  5
282
330
1D
100
AcDbEntity
  8
0
100
AcDbLine
 10
24.238438430231
 20
163.056339811769
 30
0.0
 11
24.831438430231
 21
162.741339811769
 31
0.0
  0
LINE
  5
283
330
1D
100
AcDbEntity
  8
0
100
AcDbLine
 10
24.831438430231
 20
162.741339811769
 30
0.0
 11
25.207999733546
 21
163.449547758152
 31
0.0
  0
LINE
  5
284
330
1D
100
AcDbEntity
  8
0
100
AcDbLine
 10
24.831438430231
 20
162.741339811769
 30
0.0
 11
25.041438430231
 21
162.630339811769
 31
0.0
  0
LINE
  5
285
330
1D
100
AcDbEntity
  8
0
100
AcDbLine
 10
25.041438430231
 20
162.630339811769
 30
0.0
 11
25.428331513877
 21
163.357566960474
 31
0.0
  0
LINE
  5
286
330
1D
100
AcDbEntity
  8
0
100
AcDbLine
 10
24.723438430231
 20
162.798339811769
 30
0.0
 11
25.041438430231
 21
162.630339811769
 31
0.0
  0
LINE
  5
287
330
1D
100
AcDbEntity
  8
0
100
AcDbLine
 10
24.305704101851
 20
163.020608468497
 30
0.0
 11
24.723438430231
 21
162.798339811769
 31
0.0
  0
LINE
  5
288
330
1D
100
AcDbEntity
  8
0
100
AcDbLine
 10
24.023438430231
 20
162.241339811769
 30
0.0
 11
24.399090426782
 21
162.947437547565
 31
0.0
  0
LINE
  5
289
330
1D
100
AcDbEntity
  8
0
100
AcDbLine
 10
24.023438430231
 20
162.241339811769
 30
0.0
 11
24.624438430231
 21
161.921339811769
 31
0.0
  0
LINE
  5
28A
330
1D
100
AcDbEntity
  8
0
100
AcDbLine
 10
23.829438430231
 20
162.344339811769
 30
0.0
 11
24.023438430231
 21
162.241339811769
 31
0.0
  0
LINE
  5
28B
330
1D
100
AcDbEntity
  8
0
100
AcDbLine
 10
23.829438430231
 20
162.344339811769
 30
0.0
 11
24.204978948034
 21
163.050627942163
 31
0.0
  0
LINE
  5
28C
330
1D
100
AcDbEntity
  8
0
100
AcDbLine
 10
23.829438430231
 20
162.344339811769
 30
0.0
 11
24.098940942842
 21
162.201138806718
 31
0.0
  0
LINE
  5
28D
330
1D
100
AcDbEntity
  8
0
100
AcDbLine
 10
23.829438430231
 20
162.344339811769
 30
0.0
 11
24.098940942842
 21
162.201138806718
 31
0.0
  0
LINE
  5
28E
330
1D
100
AcDbEntity
  8
0
100
AcDbLine
 10
21.917438430231
 20
163.134339811769
 30
0.0
 11
22.01111206635
 21
163.310514083745
 31
0.0
  0
LINE
  5
28F
330
1D
100
AcDbEntity
  8
0
100
AcDbLine
 10
21.917438430231
 20
163.134339811769
 30
0.0
 11
22.182438430231
 21
162.993339811769
 31
0.0
  0
LINE
  5
290
330
1D
100
AcDbEntity
  8
0
100
AcDbLine
 10
21.299438430231
 20
163.463339811769
 30
0.0
 11
21.393567709704
 21
163.640270779041
 31
0.0
  0
LINE
  5
291
330
1D
100
AcDbEntity
  8
0
100
AcDbLine
 10
21.299438430231
 20
163.463339811769
 30
0.0
 11
21.917438430231
 21
163.134339811769
 31
0.0
  0
LINE
  5
292
330
1D
100
AcDbEntity
  8
0
100
AcDbLine
 10
22.528438430231
 20
163.287339811769
 30
0.0
 11
22.842788694634
 21
163.878880724655
 31
0.0
  0
LINE
  5
293
330
1D
100
AcDbEntity
  8
0
100
AcDbLine
 10
22.210438430231
 20
163.457339811769
 30
0.0
 11
22.325927978534
 21
163.674420805118
 31
0.0
  0
LINE
  5
294
330
1D
100
AcDbEntity
  8
0
100
AcDbLine
 10
22.210438430231
 20
163.457339811769
 30
0.0
 11
22.528438430231
 21
163.287339811769
 31
0.0
  0
LINE
  5
295
330
1D
100
AcDbEntity
  8
0
100
AcDbLine
 10
22.318438430231
 20
163.399339811769
 30
0.0
 11
22.528438430231
 21
163.287339811769
 31
0.0
  0
LINE
  5
296
330
1D
100
AcDbEntity
  8
0
100
AcDbLine
 10
22.011438430231
 20
163.310339811769
 30
0.0
 11
22.116122341616
 21
163.507332859071
 31
0.0
  0
LINE
  5
297
330
1D
100
AcDbEntity
  8
0
100
AcDbLine
 10
22.011438430231
 20
163.310339811769
 30
0.0
 11
22.276438430231
 21
163.170339811769
 31
0.0
  0
LINE
  5
298
330
1D
100
AcDbEntity
  8
0
100
AcDbLine
 10
22.276438430231
 20
163.170339811769
 30
0.0
 11
22.380624413107
 21
163.366173954235
 31
0.0
  0
LINE
  5
299
330
1D
100
AcDbEntity
  8
0
100
AcDbLine
 10
23.600438430231
 20
163.396339811769
 30
0.0
 11
23.915328568459
 21
163.989192673293
 31
0.0
  0
LINE
  5
29A
330
1D
100
AcDbEntity
  8
0
100
AcDbLine
 10
23.600438430231
 20
163.396339811769
 30
0.0
 11
24.238438430231
 21
163.056339811769
 31
0.0
  0
LINE
  5
29B
330
1D
100
AcDbEntity
  8
0
100
AcDbLine
 10
24.084438430231
 20
163.138339811769
 30
0.0
 11
24.167132547916
 21
163.094339811749
 31
0.0
  0
LINE
  5
29C
330
1D
100
AcDbEntity
  8
0
100
AcDbLine
 10
23.492438430231
 20
163.453339811769
 30
0.0
 11
24.084438430231
 21
163.138339811769
 31
0.0
  0
LINE
  5
29D
330
1D
100
AcDbEntity
  8
0
100
AcDbLine
 10
24.064438430231
 20
163.125339811769
 30
0.0
 11
26.184438430231
 21
161.998339811769
 31
0.0
  0
LINE
  5
29E
330
1D
100
AcDbEntity
  8
0
100
AcDbLine
 10
24.064438430231
 20
163.125339811769
 30
0.0
 11
24.204978948034
 21
163.050627942163
 31
0.0
  0
LINE
  5
29F
330
1D
100
AcDbEntity
  8
0
100
AcDbLine
 10
27.049438430254
 20
160.632365765955
 30
0.0
 11
27.522438430231
 21
160.380339811769
 31
0.0
  0
LINE
  5
2A0
330
1D
100
AcDbEntity
  8
0
100
AcDbLine
 10
27.049438430254
 20
160.632365765955
 30
0.0
 11
27.522438430231
 21
160.380339811769
 31
0.0
  0
LINE
  5
2A1
330
1D
100
AcDbEntity
  8
0
100
AcDbLine
 10
27.024862041339
 20
160.645423145104
 30
0.0
 11
27.216438430231
 21
160.543339811769
 31
0.0
  0
LINE
  5
2A2
330
1D
100
AcDbEntity
  8
0
100
AcDbLine
 10
26.938438430231
 20
160.691339811769
 30
0.0
 11
27.04278759891
 21
160.887591815908
 31
0.0
  0
LINE
  5
2A3
330
1D
100
AcDbEntity
  8
0
100
AcDbLine
 10
26.938438430231
 20
160.691339811769
 30
0.0
 11
27.593438430231
 21
160.343339811769
 31
0.0
  0
LINE
  5
2A4
330
1D
100
AcDbEntity
  8
0
100
AcDbLine
 10
27.584630290679
 20
160.347421207127
 30
0.0
 11
27.870438430231
 21
160.195339811769
 31
0.0
  0
LINE
  5
2A5
330
1D
100
AcDbEntity
  8
0
100
AcDbLine
 10
27.522438430231
 20
160.380339811769
 30
0.0
 11
27.753261891306
 21
160.25816327287
 31
0.0
  0
LINE
  5
2A6
330
1D
100
AcDbEntity
  8
0
100
AcDbLine
 10
27.522438430231
 20
160.380339811769
 30
0.0
 11
27.753261891306
 21
160.25816327287
 31
0.0
  0
LINE
  5
2A7
330
1D
100
AcDbEntity
  8
0
100
AcDbLine
 10
27.593438430231
 20
160.343339811769
 30
0.0
 11
27.697775527196
 21
160.539569112343
 31
0.0
  0
LINE
  5
2A8
330
1D
100
AcDbEntity
  8
0
100
AcDbLine
 10
27.593438430231
 20
160.343339811769
 30
0.0
 11
27.961438430231
 21
160.147339811769
 31
0.0
  0
LINE
  5
2A9
330
1D
100
AcDbEntity
  8
0
100
AcDbLine
 10
27.216438430231
 20
160.543339811769
 30
0.0
 11
27.27841882249
 21
160.510359419558
 31
0.0
  0
LINE
  5
2AA
330
1D
100
AcDbEntity
  8
0
100
AcDbLine
 10
27.216438430231
 20
160.543339811769
 30
0.0
 11
27.27841882249
 21
160.510359419558
 31
0.0
  0
LINE
  5
2AB
330
1D
100
AcDbEntity
  8
0
100
AcDbLine
 10
27.393773002743
 20
160.449421596145
 30
0.0
 11
27.807438430231
 21
160.229339811769
 31
0.0
  0
LINE
  5
2AC
330
1D
100
AcDbEntity
  8
0
100
AcDbLine
 10
27.393773002743
 20
160.449421596144
 30
0.0
 11
27.807438430231
 21
160.229339811769
 31
0.0
  0
LINE
  5
2AD
330
1D
100
AcDbEntity
  8
0
100
AcDbLine
 10
27.162438430231
 20
160.824339811769
 30
0.0
 11
27.524916096975
 21
161.505674297182
 31
0.0
  0
LINE
  5
2AE
330
1D
100
AcDbEntity
  8
0
100
AcDbLine
 10
27.162438430231
 20
160.824339811769
 30
0.0
 11
27.835438430231
 21
160.466339811769
 31
0.0
  0
LINE
  5
2AF
330
1D
100
AcDbEntity
  8
0
100
AcDbLine
 10
26.375438430231
 20
160.990339811769
 30
0.0
 11
26.751110806582
 21
161.697276008799
 31
0.0
  0
LINE
  5
2B0
330
1D
100
AcDbEntity
  8
0
100
AcDbLine
 10
26.375438430231
 20
160.990339811769
 30
0.0
 11
26.938438430231
 21
160.691339811769
 31
0.0
  0
LINE
  5
2B1
330
1D
100
AcDbEntity
  8
0
100
AcDbLine
 10
27.088438430231
 20
160.863339811769
 30
0.0
 11
27.611105096931
 21
160.585673145084
 31
0.0
  0
LINE
  5
2B2
330
1D
100
AcDbEntity
  8
0
100
AcDbLine
 10
27.088438430231
 20
160.863339811769
 30
0.0
 11
27.611105096931
 21
160.585673145085
 31
0.0
  0
LINE
  5
2B3
330
1D
100
AcDbEntity
  8
0
100
AcDbLine
 10
27.807438430231
 20
160.229339811769
 30
0.0
 11
27.961438430231
 21
160.147339811769
 31
0.0
  0
LINE
  5
2B4
330
1D
100
AcDbEntity
  8
0
100
AcDbLine
 10
27.835438430231
 20
160.466339811769
 30
0.0
 11
27.951079601505
 21
160.68406082293
 31
0.0
  0
LINE
  5
2B5
330
1D
100
AcDbEntity
  8
0
100
AcDbLine
 10
27.835438430231
 20
160.466339811769
 30
0.0
 11
28.283438430231
 21
160.228339811769
 31
0.0
  0
LINE
  5
2B6
330
1D
100
AcDbEntity
  8
0
100
AcDbLine
 10
28.011438430205
 20
160.372839811783
 30
0.0
 11
28.262438430231
 21
160.239339811769
 31
0.0
  0
LINE
  5
2B7
330
1D
100
AcDbEntity
  8
0
100
AcDbLine
 10
27.756438430231
 20
160.787339811769
 30
0.0
 11
28.246438430231
 21
160.527339811769
 31
0.0
  0
LINE
  5
2B8
330
1D
100
AcDbEntity
  8
0
100
AcDbLine
 10
27.719438430231
 20
160.807339811769
 30
0.0
 11
28.049906486223
 21
161.428859073624
 31
0.0
  0
LINE
  5
2B9
330
1D
100
AcDbEntity
  8
0
100
AcDbLine
 10
27.719438430231
 20
160.807339811769
 30
0.0
 11
28.179438430231
 21
160.563339811769
 31
0.0
  0
LINE
  5
2BA
330
1D
100
AcDbEntity
  8
0
100
AcDbLine
 10
28.098438430259
 20
161.004339811754
 30
0.0
 11
28.626438430231
 21
160.723339811769
 31
0.0
  0
LINE
  5
2BB
330
1D
100
AcDbEntity
  8
0
100
AcDbLine
 10
28.692556077303
 20
160.290339811762
 30
0.0
 11
28.850438430231
 21
160.206339811769
 31
0.0
  0
LINE
  5
2BC
330
1D
100
AcDbEntity
  8
0
100
AcDbLine
 10
28.692556077303
 20
160.290339811762
 30
0.0
 11
28.850438430231
 21
160.206339811769
 31
0.0
  0
LINE
  5
2BD
330
1D
100
AcDbEntity
  8
0
100
AcDbLine
 10
28.283438430231
 20
160.228339811769
 30
0.0
 11
28.399304987387
 21
160.44612945328
 31
0.0
  0
LINE
  5
2BE
330
1D
100
AcDbEntity
  8
0
100
AcDbLine
 10
28.179438430231
 20
160.563339811769
 30
0.0
 11
28.344411801565
 21
160.873433528919
 31
0.0
  0
LINE
  5
2BF
330
1D
100
AcDbEntity
  8
0
100
AcDbLine
 10
28.179438430231
 20
160.563339811769
 30
0.0
 11
28.850438430231
 21
160.206339811769
 31
0.0
  0
LINE
  5
2C0
330
1D
100
AcDbEntity
  8
0
100
AcDbLine
 10
28.246438430231
 20
160.527339811769
 30
0.0
 11
28.692556077303
 21
160.290339811762
 31
0.0
  0
LINE
  5
2C1
330
1D
100
AcDbEntity
  8
0
100
AcDbLine
 10
28.246438430231
 20
160.527339811769
 30
0.0
 11
28.692556077303
 21
160.290339811762
 31
0.0
  0
LINE
  5
2C2
330
1D
100
AcDbEntity
  8
0
100
AcDbLine
 10
28.855438430231
 20
160.601339811769
 30
0.0
 11
29.083438430231
 21
160.480339811769
 31
0.0
  0
LINE
  5
2C3
330
1D
100
AcDbEntity
  8
0
100
AcDbLine
 10
29.083438430231
 20
160.480339811769
 30
0.0
 11
29.513090275133
 21
161.28839642316
 31
0.0
  0
LINE
  5
2C4
330
1D
100
AcDbEntity
  8
0
100
AcDbLine
 10
29.083438430231
 20
160.480339811769
 30
0.0
 11
29.612438430231
 21
160.200339811769
 31
0.0
  0
LINE
  5
2C5
330
1D
100
AcDbEntity
  8
0
100
AcDbLine
 10
29.292438430231
 20
160.369339811769
 30
0.0
 11
29.708438430231
 21
160.148339811769
 31
0.0
  0
LINE
  5
2C6
330
1D
100
AcDbEntity
  8
0
100
AcDbLine
 10
29.12382010963
 20
160.458965765963
 30
0.0
 11
29.292438430231
 21
160.369339811769
 31
0.0
  0
LINE
  5
2C7
330
1D
100
AcDbEntity
  8
0
100
AcDbLine
 10
28.793438430231
 20
161.033339811769
 30
0.0
 11
29.322396343528
 21
162.028727067142
 31
0.0
  0
LINE
  5
2C8
330
1D
100
AcDbEntity
  8
0
100
AcDbLine
 10
28.418438430231
 20
160.834339811769
 30
0.0
 11
28.583634930063
 21
161.14502886257
 31
0.0
  0
LINE
  5
2C9
330
1D
100
AcDbEntity
  8
0
100
AcDbLine
 10
28.418438430231
 20
160.834339811769
 30
0.0
 11
29.083438430231
 21
160.480339811769
 31
0.0
  0
LINE
  5
2CA
330
1D
100
AcDbEntity
  8
0
100
AcDbLine
 10
28.626438430231
 20
160.723339811769
 30
0.0
 11
28.970726565785
 21
160.54033981179
 31
0.0
  0
LINE
  5
2CB
330
1D
100
AcDbEntity
  8
0
100
AcDbLine
 10
28.626438430231
 20
160.723339811769
 30
0.0
 11
28.970726565785
 21
160.54033981179
 31
0.0
  0
LINE
  5
2CC
330
1D
100
AcDbEntity
  8
0
100
AcDbLine
 10
28.098438430259
 20
161.004339811754
 30
0.0
 11
28.626438430231
 21
160.723339811769
 31
0.0
  0
LINE
  5
2CD
330
1D
100
AcDbEntity
  8
0
100
AcDbLine
 10
26.222438430231
 20
161.072339811769
 30
0.0
 11
26.375438430231
 21
160.990339811769
 31
0.0
  0
LINE
  5
2CE
330
1D
100
AcDbEntity
  8
0
100
AcDbLine
 10
26.222438430231
 20
161.072339811769
 30
0.0
 11
26.598146710345
 21
161.778543341482
 31
0.0
  0
LINE
  5
2CF
330
1D
100
AcDbEntity
  8
0
100
AcDbLine
 10
27.422438430231
 20
161.762339811769
 30
0.0
 11
27.951615371361
 21
162.757575677621
 31
0.0
  0
LINE
  5
2D0
330
1D
100
AcDbEntity
  8
0
100
AcDbLine
 10
27.422438430231
 20
161.762339811769
 30
0.0
 11
28.077438430231
 21
161.414339811769
 31
0.0
  0
LINE
  5
2D1
330
1D
100
AcDbEntity
  8
0
100
AcDbLine
 10
28.077438430231
 20
161.414339811769
 30
0.0
 11
28.606505280188
 21
162.40936862649
 31
0.0
  0
LINE
  5
2D2
330
1D
100
AcDbEntity
  8
0
100
AcDbLine
 10
28.077438430231
 20
161.414339811769
 30
0.0
 11
28.639438430231
 21
161.115339811769
 31
0.0
  0
LINE
  5
2D3
330
1D
100
AcDbEntity
  8
0
100
AcDbLine
 10
28.639438430231
 20
161.115339811769
 30
0.0
 11
29.168814750814
 21
162.110386889329
 31
0.0
  0
LINE
  5
2D4
330
1D
100
AcDbEntity
  8
0
100
AcDbLine
 10
28.639438430231
 20
161.115339811769
 30
0.0
 11
28.793438430231
 21
161.033339811769
 31
0.0
  0
LINE
  5
2D5
330
1D
100
AcDbEntity
  8
0
100
AcDbLine
 10
27.770438430231
 20
161.577339811769
 30
0.0
 11
28.225773002734
 21
161.335421596149
 31
0.0
  0
LINE
  5
2D6
330
1D
100
AcDbEntity
  8
0
100
AcDbLine
 10
27.770438430231
 20
161.577339811769
 30
0.0
 11
28.225773002734
 21
161.335421596149
 31
0.0
  0
LINE
  5
2D7
330
1D
100
AcDbEntity
  8
0
100
AcDbLine
 10
27.207438430231
 20
161.876339811769
 30
0.0
 11
27.770438430231
 21
161.577339811769
 31
0.0
  0
LINE
  5
2D8
330
1D
100
AcDbEntity
  8
0
100
AcDbLine
 10
27.054438430231
 20
161.958339811769
 30
0.0
 11
27.207438430231
 21
161.876339811769
 31
0.0
  0
LINE
  5
2D9
330
1D
100
AcDbEntity
  8
0
100
AcDbLine
 10
27.054438430231
 20
161.958339811769
 30
0.0
 11
27.583710888418
 21
162.953191663418
 31
0.0
  0
LINE
  5
2DA
330
1D
100
AcDbEntity
  8
0
100
AcDbLine
 10
27.054438430231
 20
161.958339811769
 30
0.0
 11
27.422438430231
 21
161.762339811769
 31
0.0
  0
LINE
  5
2DB
330
1D
100
AcDbEntity
  8
0
100
AcDbLine
 10
26.661438430231
 20
161.091339811769
 30
0.0
 11
27.010069154204
 21
161.746646763645
 31
0.0
  0
LINE
  5
2DC
330
1D
100
AcDbEntity
  8
0
100
AcDbLine
 10
26.661438430231
 20
161.091339811769
 30
0.0
 11
27.162438430231
 21
160.824339811769
 31
0.0
  0
LINE
  5
2DD
330
1D
100
AcDbEntity
  8
0
100
AcDbLine
 10
26.640438430231
 20
161.101339811769
 30
0.0
 11
26.988680371933
 21
161.756657714843
 31
0.0
  0
LINE
  5
2DE
330
1D
100
AcDbEntity
  8
0
100
AcDbLine
 10
26.640438430231
 20
161.101339811769
 30
0.0
 11
27.088438430231
 21
160.863339811769
 31
0.0
  0
LINE
  5
2DF
330
1D
100
AcDbEntity
  8
0
100
AcDbLine
 10
28.002438430231
 20
161.055339811769
 30
0.0
 11
28.167751578444
 21
161.366248246001
 31
0.0
  0
LINE
  5
2E0
330
1D
100
AcDbEntity
  8
0
100
AcDbLine
 10
28.002438430231
 20
161.055339811769
 30
0.0
 11
28.418438430231
 21
160.834339811769
 31
0.0
  0
LINE
  5
2E1
330
1D
100
AcDbEntity
  8
0
100
AcDbLine
 10
26.184438430231
 20
161.998339811769
 30
0.0
 11
26.911766595189
 21
161.611922205252
 31
0.0
  0
LINE
  5
2E2
330
1D
100
AcDbEntity
  8
0
100
AcDbLine
 10
26.184438430231
 20
161.998339811769
 30
0.0
 11
26.598146710345
 21
161.778543341482
 31
0.0
  0
LINE
  5
2E3
330
1D
100
AcDbEntity
  8
0
100
AcDbLine
 10
29.533616694318
 20
160.217187324417
 30
0.0
 11
30.245438430231
 21
159.839339811769
 31
0.0
  0
LINE
  5
2E4
330
1D
100
AcDbEntity
  8
0
100
AcDbLine
 10
47.347110430233
 20
150.769475811768
 30
0.0
 11
47.430438430231
 21
150.724339811769
 31
0.0
  0
LINE
  5
2E5
330
1D
100
AcDbEntity
  8
0
100
AcDbLine
 10
47.357438430231
 20
150.764339811769
 30
0.0
 11
47.522712800689
 21
151.074999304694
 31
0.0
  0
LINE
  5
2E6
330
1D
100
AcDbEntity
  8
0
100
AcDbLine
 10
47.430438430231
 20
150.724339811769
 30
0.0
 11
47.596068850576
 21
151.036021337593
 31
0.0
  0
LINE
  5
2E7
330
1D
100
AcDbEntity
  8
0
100
AcDbLine
 10
47.430438430231
 20
150.724339811769
 30
0.0
 11
47.959438430231
 21
150.444339811769
 31
0.0
  0
LINE
  5
2E8
330
1D
100
AcDbEntity
  8
0
100
AcDbLine
 10
47.430438430231
 20
150.724339811769
 30
0.0
 11
47.919056750838
 21
150.465713857573
 31
0.0
  0
LINE
  5
2E9
330
1D
100
AcDbEntity
  8
0
100
AcDbLine
 10
47.430438430231
 20
150.724339811769
 30
0.0
 11
47.919056750838
 21
150.465713857573
 31
0.0
  0
LINE
  5
2EA
330
1D
100
AcDbEntity
  8
0
100
AcDbLine
 10
47.379438430231
 20
150.752339811769
 30
0.0
 11
47.544768445662
 21
151.063279968586
 31
0.0
  0
LINE
  5
2EB
330
1D
100
AcDbEntity
  8
0
100
AcDbLine
 10
46.856438430231
 20
151.030339811769
 30
0.0
 11
47.303080936047
 21
151.870351169884
 31
0.0
  0
LINE
  5
2EC
330
1D
100
AcDbEntity
  8
0
100
AcDbLine
 10
46.856438430231
 20
151.030339811769
 30
0.0
 11
47.357438430231
 21
150.764339811769
 31
0.0
  0
LINE
  5
2ED
330
1D
100
AcDbEntity
  8
0
100
AcDbLine
 10
46.930438430231
 20
150.990339811769
 30
0.0
 11
47.379438430231
 21
150.752339811769
 31
0.0
  0
LINE
  5
2EE
330
1D
100
AcDbEntity
  8
0
100
AcDbLine
 10
48.072150294656
 20
150.384339811759
 30
0.0
 11
48.13556680461
 21
150.350581248566
 31
0.0
  0
LINE
  5
2EF
330
1D
100
AcDbEntity
  8
0
100
AcDbLine
 10
48.072150294656
 20
150.384339811759
 30
0.0
 11
48.13556680461
 21
150.350581248566
 31
0.0
  0
LINE
  5
2F0
330
1D
100
AcDbEntity
  8
0
100
AcDbLine
 10
47.919056750838
 20
150.465713857573
 30
0.0
 11
48.072150294656
 21
150.384339811759
 31
0.0
  0
LINE
  5
2F1
330
1D
100
AcDbEntity
  8
0
100
AcDbLine
 10
47.919056750838
 20
150.465713857573
 30
0.0
 11
48.072150294656
 21
150.384339811759
 31
0.0
  0
LINE
  5
2F2
330
1D
100
AcDbEntity
  8
0
100
AcDbLine
 10
47.959438430231
 20
150.444339811769
 30
0.0
 11
48.12473684007
 21
150.755044490538
 31
0.0
  0
LINE
  5
2F3
330
1D
100
AcDbEntity
  8
0
100
AcDbLine
 10
47.959438430231
 20
150.444339811769
 30
0.0
 11
48.624438430231
 21
150.090339811769
 31
0.0
  0
LINE
  5
2F4
330
1D
100
AcDbEntity
  8
0
100
AcDbLine
 10
48.135438430231
 20
150.350339811769
 30
0.0
 11
48.345438430231
 21
150.238339811769
 31
0.0
  0
LINE
  5
2F5
330
1D
100
AcDbEntity
  8
0
100
AcDbLine
 10
47.834574023423
 20
150.909314388055
 30
0.0
 11
48.246438430231
 21
150.690339811769
 31
0.0
  0
LINE
  5
2F6
330
1D
100
AcDbEntity
  8
0
100
AcDbLine
 10
48.857907566044
 20
149.966117589541
 30
0.0
 11
49.015438430231
 21
149.882339811769
 31
0.0
  0
LINE
  5
2F7
330
1D
100
AcDbEntity
  8
0
100
AcDbLine
 10
48.857907566044
 20
149.966117589541
 30
0.0
 11
48.902465457117
 21
149.942420892925
 31
0.0
  0
LINE
  5
2F8
330
1D
100
AcDbEntity
  8
0
100
AcDbLine
 10
48.624438430231
 20
150.090339811769
 30
0.0
 11
48.789720325414
 21
150.401189467672
 31
0.0
  0
LINE
  5
2F9
330
1D
100
AcDbEntity
  8
0
100
AcDbLine
 10
48.624438430231
 20
150.090339811769
 30
0.0
 11
49.040438430231
 21
149.869339811769
 31
0.0
  0
LINE
  5
2FA
330
1D
100
AcDbEntity
  8
0
100
AcDbLine
 10
48.857907566044
 20
149.966117589542
 30
0.0
 11
49.015438430231
 21
149.882339811769
 31
0.0
  0
LINE
  5
2FB
330
1D
100
AcDbEntity
  8
0
100
AcDbLine
 10
48.857907566044
 20
149.966117589542
 30
0.0
 11
48.902465457117
 21
149.942420892925
 31
0.0
  0
LINE
  5
2FC
330
1D
100
AcDbEntity
  8
0
100
AcDbLine
 10
49.577438430231
 20
149.583339811769
 30
0.0
 11
50.020376952975
 21
150.416384999378
 31
0.0
  0
LINE
  5
2FD
330
1D
100
AcDbEntity
  8
0
100
AcDbLine
 10
49.577438430231
 20
149.583339811769
 30
0.0
 11
49.894438430231
 21
149.415339811769
 31
0.0
  0
LINE
  5
2FE
330
1D
100
AcDbEntity
  8
0
100
AcDbLine
 10
48.897763339975
 20
149.944946309966
 30
0.0
 11
49.015438430231
 21
149.882339811769
 31
0.0
  0
LINE
  5
2FF
330
1D
100
AcDbEntity
  8
0
100
AcDbLine
 10
48.897763339975
 20
149.944946309966
 30
0.0
 11
49.015438430231
 21
149.882339811769
 31
0.0
  0
LINE
  5
300
330
1D
100
AcDbEntity
  8
0
100
AcDbLine
 10
49.040438430231
 20
149.869339811769
 30
0.0
 11
49.500738609046
 21
150.735037485663
 31
0.0
  0
LINE
  5
301
330
1D
100
AcDbEntity
  8
0
100
AcDbLine
 10
48.944438430231
 20
149.920339811769
 30
0.0
 11
49.040438430231
 21
149.869339811769
 31
0.0
  0
LINE
  5
302
330
1D
100
AcDbEntity
  8
0
100
AcDbLine
 10
49.015438430231
 20
149.882339811769
 30
0.0
 11
49.092438430231
 21
149.841339811769
 31
0.0
  0
LINE
  5
303
330
1D
100
AcDbEntity
  8
0
100
AcDbLine
 10
49.015438430231
 20
149.882339811769
 30
0.0
 11
49.577438430231
 21
149.583339811769
 31
0.0
  0
LINE
  5
304
330
1D
100
AcDbEntity
  8
0
100
AcDbLine
 10
49.015438430231
 20
149.882339811769
 30
0.0
 11
49.684438430231
 21
149.526339811769
 31
0.0
  0
LINE
  5
305
330
1D
100
AcDbEntity
  8
0
100
AcDbLine
 10
48.938438430231
 20
149.923339811769
 30
0.0
 11
49.577438430231
 21
149.583339811769
 31
0.0
  0
LINE
  5
306
330
1D
100
AcDbEntity
  8
0
100
AcDbLine
 10
48.938438430231
 20
149.923339811769
 30
0.0
 11
49.015438430231
 21
149.882339811769
 31
0.0
  0
LINE
  5
307
330
1D
100
AcDbEntity
  8
0
100
AcDbLine
 10
49.092438430231
 20
149.841339811769
 30
0.0
 11
49.684438430231
 21
149.526339811769
 31
0.0
  0
LINE
  5
308
330
1D
100
AcDbEntity
  8
0
100
AcDbLine
 10
48.871172758554
 20
149.959071155071
 30
0.0
 11
49.092438430231
 21
149.841339811769
 31
0.0
  0
LINE
  5
309
330
1D
100
AcDbEntity
  8
0
100
AcDbLine
 10
48.345438430231
 20
150.238339811769
 30
0.0
 11
48.938438430231
 21
149.923339811769
 31
0.0
  0
LINE
  5
30A
330
1D
100
AcDbEntity
  8
0
100
AcDbLine
 10
48.345438430231
 20
150.238339811769
 30
0.0
 11
49.015438430231
 21
149.882339811769
 31
0.0
  0
LINE
  5
30B
330
1D
100
AcDbEntity
  8
0
100
AcDbLine
 10
48.345438430231
 20
150.238339811769
 30
0.0
 11
48.871172758554
 21
149.959071155071
 31
0.0
  0
LINE
  5
30C
330
1D
100
AcDbEntity
  8
0
100
AcDbLine
 10
48.345438430231
 20
150.238339811769
 30
0.0
 11
48.975153620056
 21
149.903744875086
 31
0.0
  0
LINE
  5
30D
330
1D
100
AcDbEntity
  8
0
100
AcDbLine
 10
48.399438430231
 20
150.609339811769
 30
0.0
 11
48.928683284256
 21
151.604139777002
 31
0.0
  0
LINE
  5
30E
330
1D
100
AcDbEntity
  8
0
100
AcDbLine
 10
48.399438430231
 20
150.609339811769
 30
0.0
 11
48.999438430231
 21
150.289339811769
 31
0.0
  0
LINE
  5
30F
330
1D
100
AcDbEntity
  8
0
100
AcDbLine
 10
48.999438430231
 20
150.289339811769
 30
0.0
 11
49.528845105735
 21
151.285007744613
 31
0.0
  0
LINE
  5
310
330
1D
100
AcDbEntity
  8
0
100
AcDbLine
 10
48.999438430231
 20
150.289339811769
 30
0.0
 11
49.193438430231
 21
150.186339811769
 31
0.0
  0
LINE
  5
311
330
1D
100
AcDbEntity
  8
0
100
AcDbLine
 10
49.193438430231
 20
150.186339811769
 30
0.0
 11
49.722779528982
 21
151.181884412828
 31
0.0
  0
LINE
  5
312
330
1D
100
AcDbEntity
  8
0
100
AcDbLine
 10
48.246438430231
 20
150.690339811769
 30
0.0
 11
48.509892975679
 21
150.550430720864
 31
0.0
  0
LINE
  5
313
330
1D
100
AcDbEntity
  8
0
100
AcDbLine
 10
48.246438430231
 20
150.690339811769
 30
0.0
 11
48.509892975679
 21
150.550430720864
 31
0.0
  0
LINE
  5
314
330
1D
100
AcDbEntity
  8
0
100
AcDbLine
 10
47.834574023423
 20
150.909314388055
 30
0.0
 11
48.246438430231
 21
150.690339811769
 31
0.0
  0
LINE
  5
315
330
1D
100
AcDbEntity
  8
0
100
AcDbLine
 10
47.755438430231
 20
150.951339811769
 30
0.0
 11
48.28193523721
 21
151.941535084532
 31
0.0
  0
LINE
  5
316
330
1D
100
AcDbEntity
  8
0
100
AcDbLine
 10
47.755438430231
 20
150.951339811769
 30
0.0
 11
48.399438430231
 21
150.609339811769
 31
0.0
  0
LINE
  5
317
330
1D
100
AcDbEntity
  8
0
100
AcDbLine
 10
46.070673106241
 20
151.448031580594
 30
0.0
 11
46.184438430231
 21
151.387339811769
 31
0.0
  0
LINE
  5
318
330
1D
100
AcDbEntity
  8
0
100
AcDbLine
 10
46.070673106241
 20
151.448031580594
 30
0.0
 11
46.184438430231
 21
151.387339811769
 31
0.0
  0
LINE
  5
319
330
1D
100
AcDbEntity
  8
0
100
AcDbLine
 10
45.757438430231
 20
151.614339811769
 30
0.0
 11
46.070673106241
 21
151.448031580594
 31
0.0
  0
LINE
  5
31A
330
1D
100
AcDbEntity
  8
0
100
AcDbLine
 10
46.468438430215
 20
151.236464811778
 30
0.0
 11
46.930438430231
 21
150.990339811769
 31
0.0
  0
LINE
  5
31B
330
1D
100
AcDbEntity
  8
0
100
AcDbLine
 10
46.468438430215
 20
151.236464811778
 30
0.0
 11
46.930438430231
 21
150.990339811769
 31
0.0
  0
LINE
  5
31C
330
1D
100
AcDbEntity
  8
0
100
AcDbLine
 10
46.184438430231
 20
151.387339811769
 30
0.0
 11
46.606054604181
 21
152.180283542541
 31
0.0
  0
LINE
  5
31D
330
1D
100
AcDbEntity
  8
0
100
AcDbLine
 10
46.184438430231
 20
151.387339811769
 30
0.0
 11
46.856438430231
 21
151.030339811769
 31
0.0
  0
LINE
  5
31E
330
1D
100
AcDbEntity
  8
0
100
AcDbLine
 10
46.184438430231
 20
151.387339811769
 30
0.0
 11
46.468438430215
 21
151.236464811778
 31
0.0
  0
LINE
  5
31F
330
1D
100
AcDbEntity
  8
0
100
AcDbLine
 10
45.736438430231
 20
151.626339811769
 30
0.0
 11
46.141125681115
 21
152.387013930841
 31
0.0
  0
LINE
  5
320
330
1D
100
AcDbEntity
  8
0
100
AcDbLine
 10
45.736438430231
 20
151.626339811769
 30
0.0
 11
46.184438430231
 21
151.387339811769
 31
0.0
  0
LINE
  5
321
330
1D
100
AcDbEntity
  8
0
100
AcDbLine
 10
47.452438430231
 20
151.112339811769
 30
0.0
 11
47.755438430231
 21
150.951339811769
 31
0.0
  0
LINE
  5
322
330
1D
100
AcDbEntity
  8
0
100
AcDbLine
 10
47.452438430231
 20
151.112339811769
 30
0.0
 11
47.9650852027
 21
152.07648698981
 31
0.0
  0
LINE
  5
323
330
1D
100
AcDbEntity
  8
0
100
AcDbLine
 10
49.153438430231
 20
162.809339811769
 30
0.0
 11
58.336438430231
 21
157.927339811769
 31
0.0
  0
LINE
  5
324
330
1D
100
AcDbEntity
  8
0
100
AcDbLine
 10
45.298375527416
 20
152.493131985065
 30
0.0
 11
46.021909266615
 21
152.162927699114
 31
0.0
  0
LINE
  5
325
330
1D
100
AcDbEntity
  8
0
100
AcDbLine
 10
22.066194951962
 20
163.533983290034
 30
0.0
 11
22.318438430231
 21
163.399339811769
 31
0.0
  0
LINE
  5
326
330
1D
100
AcDbEntity
  8
0
100
AcDbLine
 10
22.496438430231
 20
163.584339811769
 30
0.0
 11
22.826808580251
 21
164.205674939495
 31
0.0
  0
LINE
  5
327
330
1D
100
AcDbEntity
  8
0
100
AcDbLine
 10
22.066194951962
 20
163.533983290034
 30
0.0
 11
22.318438430231
 21
163.399339811769
 31
0.0
  0
LINE
  5
328
330
1D
100
AcDbEntity
  8
0
100
AcDbLine
 10
20.416438430231
 20
163.932339811769
 30
0.0
 11
20.681438430231
 21
163.791339811769
 31
0.0
  0
LINE
  5
329
330
1D
100
AcDbEntity
  8
0
100
AcDbLine
 10
20.416438430231
 20
163.932339811769
 30
0.0
 11
20.886127302215
 21
164.815695027875
 31
0.0
  0
LINE
  5
32A
330
1D
100
AcDbEntity
  8
0
100
AcDbLine
 10
18.957438430231
 20
164.934339811769
 30
0.0
 11
19.333151335408
 21
165.640952155264
 31
0.0
  0
LINE
  5
32B
330
1D
100
AcDbEntity
  8
0
100
AcDbLine
 10
17.598574023367
 20
165.657314388085
 30
0.0
 11
18.010438430231
 21
165.438339811769
 31
0.0
  0
LINE
  5
32C
330
1D
100
AcDbEntity
  8
0
100
AcDbLine
 10
17.519438430231
 20
165.699339811769
 30
0.0
 11
17.895071331567
 21
166.405801690106
 31
0.0
  0
LINE
  5
32D
330
1D
100
AcDbEntity
  8
0
100
AcDbLine
 10
17.519438430231
 20
165.699339811769
 30
0.0
 11
18.163438430231
 21
165.357339811769
 31
0.0
  0
LINE
  5
32E
330
1D
100
AcDbEntity
  8
0
100
AcDbLine
 10
17.519438430231
 20
165.699339811769
 30
0.0
 11
17.598574023367
 21
165.657314388085
 31
0.0
  0
LINE
  5
32F
330
1D
100
AcDbEntity
  8
0
100
AcDbLine
 10
17.519438430231
 20
165.699339811769
 30
0.0
 11
17.598574023367
 21
165.657314388085
 31
0.0
  0
LINE
  5
330
330
1D
100
AcDbEntity
  8
0
100
AcDbLine
 10
17.598574023367
 20
165.657314388085
 30
0.0
 11
18.010438430231
 21
165.438339811769
 31
0.0
  0
LINE
  5
331
330
1D
100
AcDbEntity
  8
0
100
AcDbLine
 10
18.273892975667
 20
165.29843072087
 30
0.0
 11
18.763438430231
 21
165.037339811769
 31
0.0
  0
LINE
  5
332
330
1D
100
AcDbEntity
  8
0
100
AcDbLine
 10
18.273892975667
 20
165.29843072087
 30
0.0
 11
18.763438430231
 21
165.037339811769
 31
0.0
  0
LINE
  5
333
330
1D
100
AcDbEntity
  8
0
100
AcDbLine
 10
19.958438430231
 20
165.332339811769
 30
0.0
 11
20.273681962718
 21
165.925225944219
 31
0.0
  0
LINE
  5
334
330
1D
100
AcDbEntity
  8
0
100
AcDbLine
 10
19.958438430231
 20
165.332339811769
 30
0.0
 11
20.275438430231
 21
165.164339811769
 31
0.0
  0
LINE
  5
335
330
1D
100
AcDbEntity
  8
0
100
AcDbLine
 10
20.275438430231
 20
165.164339811769
 30
0.0
 11
20.574840924652
 21
165.72711446848
 31
0.0
  0
LINE
  5
336
330
1D
100
AcDbEntity
  8
0
100
AcDbLine
 10
20.065438430231
 20
165.275339811769
 30
0.0
 11
20.275438430231
 21
165.164339811769
 31
0.0
  0
LINE
  5
337
330
1D
100
AcDbEntity
  8
0
100
AcDbLine
 10
19.252172758603
 20
165.708071155045
 30
0.0
 11
19.473438430231
 21
165.590339811769
 31
0.0
  0
LINE
  5
338
330
1D
100
AcDbEntity
  8
0
100
AcDbLine
 10
19.473438430231
 20
165.566339811769
 30
0.0
 11
20.886127302215
 21
164.815695027875
 31
0.0
  0
LINE
  5
339
330
1D
100
AcDbEntity
  8
0
100
AcDbLine
 10
19.333151335408
 20
165.640952155264
 30
0.0
 11
19.473438430231
 21
165.566339811769
 31
0.0
  0
LINE
  5
33A
330
1D
100
AcDbEntity
  8
0
100
AcDbLine
 10
19.319438430231
 20
165.672339811769
 30
0.0
 11
19.6663352257
 21
166.324757001117
 31
0.0
  0
LINE
  5
33B
330
1D
100
AcDbEntity
  8
0
100
AcDbLine
 10
19.319438430231
 20
165.672339811769
 30
0.0
 11
19.958438430231
 21
165.332339811769
 31
0.0
  0
LINE
  5
33C
330
1D
100
AcDbEntity
  8
0
100
AcDbLine
 10
19.252172758603
 20
165.708071155045
 30
0.0
 11
19.473438430231
 21
165.590339811769
 31
0.0
  0
LINE
  5
33D
330
1D
100
AcDbEntity
  8
0
100
AcDbLine
 10
19.473438430231
 20
165.590339811769
 30
0.0
 11
20.065438430231
 21
165.275339811769
 31
0.0
  0
LINE
  5
33E
330
1D
100
AcDbEntity
  8
0
100
AcDbLine
 10
18.163438430231
 20
165.357339811769
 30
0.0
 11
18.538858118395
 21
166.06340069494
 31
0.0
  0
LINE
  5
33F
330
1D
100
AcDbEntity
  8
0
100
AcDbLine
 10
18.163438430231
 20
165.357339811769
 30
0.0
 11
18.763438430231
 21
165.037339811769
 31
0.0
  0
LINE
  5
340
330
1D
100
AcDbEntity
  8
0
100
AcDbLine
 10
18.010438430231
 20
165.438339811769
 30
0.0
 11
18.273892975667
 21
165.29843072087
 31
0.0
  0
LINE
  5
341
330
1D
100
AcDbEntity
  8
0
100
AcDbLine
 10
18.010438430231
 20
165.438339811769
 30
0.0
 11
18.273892975667
 21
165.29843072087
 31
0.0
  0
LINE
  5
342
330
1D
100
AcDbEntity
  8
0
100
AcDbLine
 10
18.763438430231
 20
165.037339811769
 30
0.0
 11
18.957438430231
 21
164.934339811769
 31
0.0
  0
LINE
  5
343
330
1D
100
AcDbEntity
  8
0
100
AcDbLine
 10
18.763438430231
 20
165.037339811769
 30
0.0
 11
19.139060054976
 21
165.744180504979
 31
0.0
  0
LINE
  5
344
330
1D
100
AcDbEntity
  8
0
100
AcDbLine
 10
20.681438430231
 20
163.791339811769
 30
0.0
 11
20.775484780298
 21
163.968315211734
 31
0.0
  0
LINE
  5
345
330
1D
100
AcDbEntity
  8
0
100
AcDbLine
 10
20.681438430231
 20
163.791339811769
 30
0.0
 11
21.299438430231
 21
163.463339811769
 31
0.0
  0
LINE
  5
346
330
1D
100
AcDbEntity
  8
0
100
AcDbLine
 10
22.231438430231
 20
163.724339811769
 30
0.0
 11
22.496438430231
 21
163.584339811769
 31
0.0
  0
LINE
  5
347
330
1D
100
AcDbEntity
  8
0
100
AcDbLine
 10
22.231438430231
 20
163.724339811769
 30
0.0
 11
22.562077142036
 21
164.346532148041
 31
0.0
  0
LINE
  5
348
330
1D
100
AcDbEntity
  8
0
100
AcDbLine
 10
21.572438430231
 20
163.796339811769
 30
0.0
 11
21.687986233982
 21
164.013653359611
 31
0.0
  0
LINE
  5
349
330
1D
100
AcDbEntity
  8
0
100
AcDbLine
 10
21.572438430231
 20
163.796339811769
 30
0.0
 11
22.210438430231
 21
163.457339811769
 31
0.0
  0
LINE
  5
34A
330
1D
100
AcDbEntity
  8
0
100
AcDbLine
 10
20.979438430231
 20
164.112339811769
 30
0.0
 11
21.094909117185
 21
164.329385352209
 31
0.0
  0
LINE
  5
34B
330
1D
100
AcDbEntity
  8
0
100
AcDbLine
 10
20.979438430231
 20
164.112339811769
 30
0.0
 11
21.572438430231
 21
163.796339811769
 31
0.0
  0
LINE
  5
34C
330
1D
100
AcDbEntity
  8
0
100
AcDbLine
 10
21.061438430231
 20
165.144339811769
 30
0.0
 11
21.590662745889
 21
166.139664776042
 31
0.0
  0
LINE
  5
34D
330
1D
100
AcDbEntity
  8
0
100
AcDbLine
 10
21.061438430231
 20
165.144339811769
 30
0.0
 11
21.326438430231
 21
165.004339811769
 31
0.0
  0
LINE
  5
34E
330
1D
100
AcDbEntity
  8
0
100
AcDbLine
 10
21.061438430231
 20
165.144339811769
 30
0.0
 11
21.944438430231
 21
164.675339811769
 31
0.0
  0
LINE
  5
34F
330
1D
100
AcDbEntity
  8
0
100
AcDbLine
 10
20.995438430231
 20
164.382339811769
 30
0.0
 11
21.326222699145
 21
165.004453782909
 31
0.0
  0
LINE
  5
350
330
1D
100
AcDbEntity
  8
0
100
AcDbLine
 10
20.995438430231
 20
164.382339811769
 30
0.0
 11
21.613438430231
 21
164.053339811769
 31
0.0
  0
LINE
  5
351
330
1D
100
AcDbEntity
  8
0
100
AcDbLine
 10
20.730438430231
 20
164.522339811769
 30
0.0
 11
21.120742206926
 21
165.256809219031
 31
0.0
  0
LINE
  5
352
330
1D
100
AcDbEntity
  8
0
100
AcDbLine
 10
20.730438430231
 20
164.522339811769
 30
0.0
 11
20.995438430231
 21
164.382339811769
 31
0.0
  0
LINE
  5
353
330
1D
100
AcDbEntity
  8
0
100
AcDbLine
 10
20.730438430231
 20
164.522339811769
 30
0.0
 11
21.613438430231
 21
164.053339811769
 31
0.0
  0
LINE
  5
354
330
1D
100
AcDbEntity
  8
0
100
AcDbLine
 10
20.769438430231
 20
164.223339811769
 30
0.0
 11
20.885002238722
 21
164.440683460113
 31
0.0
  0
LINE
  5
355
330
1D
100
AcDbEntity
  8
0
100
AcDbLine
 10
20.769438430231
 20
164.223339811769
 30
0.0
 11
21.087438430231
 21
164.054339811769
 31
0.0
  0
LINE
  5
356
330
1D
100
AcDbEntity
  8
0
100
AcDbLine
 10
20.769438430231
 20
164.223339811769
 30
0.0
 11
20.979438430231
 21
164.112339811769
 31
0.0
  0
LINE
  5
357
330
1D
100
AcDbEntity
  8
0
100
AcDbLine
 10
22.562438430231
 20
164.346339811769
 30
0.0
 11
23.091647490428
 21
165.341636084727
 31
0.0
  0
LINE
  5
358
330
1D
100
AcDbEntity
  8
0
100
AcDbLine
 10
22.562438430231
 20
164.346339811769
 30
0.0
 11
22.827438430231
 21
164.205339811769
 31
0.0
  0
LINE
  5
359
330
1D
100
AcDbEntity
  8
0
100
AcDbLine
 10
21.326438430231
 20
165.004339811769
 30
0.0
 11
21.944438430231
 21
164.675339811769
 31
0.0
  0
LINE
  5
35A
330
1D
100
AcDbEntity
  8
0
100
AcDbLine
 10
21.326438430231
 20
165.004339811769
 30
0.0
 11
21.85552886541
 21
165.998849522195
 31
0.0
  0
LINE
  5
35B
330
1D
100
AcDbEntity
  8
0
100
AcDbLine
 10
21.944438430231
 20
164.675339811769
 30
0.0
 11
22.562438430231
 21
164.346339811769
 31
0.0
  0
LINE
  5
35C
330
1D
100
AcDbEntity
  8
0
100
AcDbLine
 10
21.944438430231
 20
164.675339811769
 30
0.0
 11
22.473478602056
 21
165.670318452282
 31
0.0
  0
LINE
  5
35D
330
1D
100
AcDbEntity
  8
0
100
AcDbLine
 10
22.827438430231
 20
164.205339811769
 30
0.0
 11
23.356688385196
 21
165.200712996506
 31
0.0
  0
LINE
  5
35E
330
1D
100
AcDbEntity
  8
0
100
AcDbLine
 10
21.613438430231
 20
164.053339811769
 30
0.0
 11
22.231438430231
 21
163.724339811769
 31
0.0
  0
LINE
  5
35F
330
1D
100
AcDbEntity
  8
0
100
AcDbLine
 10
21.613438430231
 20
164.053339811769
 30
0.0
 11
21.944223062162
 21
164.675454465644
 31
0.0
  0
LINE
  5
360
330
1D
100
AcDbEntity
  8
0
100
AcDbLine
 10
21.087438430231
 20
164.054339811769
 30
0.0
 11
21.276930069014
 21
163.953811383682
 31
0.0
  0
LINE
  5
361
330
1D
100
AcDbEntity
  8
0
100
AcDbLine
 10
21.087438430231
 20
164.054339811769
 30
0.0
 11
21.276930069014
 21
163.953811383682
 31
0.0
  0
LINE
  5
362
330
1D
100
AcDbEntity
  8
0
100
AcDbLine
 10
20.775438430231
 20
163.968339811769
 30
0.0
 11
20.879830428332
 21
164.164672366238
 31
0.0
  0
LINE
  5
363
330
1D
100
AcDbEntity
  8
0
100
AcDbLine
 10
20.775438430231
 20
163.968339811769
 30
0.0
 11
21.393438430231
 21
163.640339811769
 31
0.0
  0
LINE
  5
364
330
1D
100
AcDbEntity
  8
0
100
AcDbLine
 10
20.510438430231
 20
164.108339811769
 30
0.0
 11
20.730441081491
 21
164.522338411104
 31
0.0
  0
LINE
  5
365
330
1D
100
AcDbEntity
  8
0
100
AcDbLine
 10
20.510438430231
 20
164.108339811769
 30
0.0
 11
20.775438430231
 21
163.968339811769
 31
0.0
  0
LINE
  5
366
330
1D
100
AcDbEntity
  8
0
100
AcDbLine
 10
21.393438430231
 20
163.640339811769
 30
0.0
 11
22.011438430231
 21
163.310339811769
 31
0.0
  0
LINE
  5
367
330
1D
100
AcDbEntity
  8
0
100
AcDbLine
 10
21.393438430231
 20
163.640339811769
 30
0.0
 11
21.497638101357
 21
163.83619968348
 31
0.0
  0
LINE
  5
368
330
1D
100
AcDbEntity
  8
0
100
AcDbLine
 10
23.282438430231
 20
163.565339811769
 30
0.0
 11
23.492438430231
 21
163.453339811769
 31
0.0
  0
LINE
  5
369
330
1D
100
AcDbEntity
  8
0
100
AcDbLine
 10
23.282438430231
 20
163.565339811769
 30
0.0
 11
23.581831681687
 21
164.12841593751
 31
0.0
  0
LINE
  5
36A
330
1D
100
AcDbEntity
  8
0
100
AcDbLine
 10
23.282438430231
 20
163.565339811769
 30
0.0
 11
23.600438430231
 21
163.396339811769
 31
0.0
  0
LINE
  5
36B
330
1D
100
AcDbEntity
  8
0
100
AcDbLine
 10
48.946438430231
 20
163.486339811769
 30
0.0
 11
57.952438430231
 21
158.697339811769
 31
0.0
  0
LINE
  5
36C
330
1D
100
AcDbEntity
  8
0
100
AcDbLine
 10
55.571381105389
 20
146.795747455082
 30
0.0
 11
56.009438430231
 21
146.562339811769
 31
0.0
  0
LINE
  5
36D
330
1D
100
AcDbEntity
  8
0
100
AcDbLine
 10
55.571381105389
 20
146.795747455082
 30
0.0
 11
56.009438430231
 21
146.562339811769
 31
0.0
  0
LINE
  5
36E
330
1D
100
AcDbEntity
  8
0
100
AcDbLine
 10
56.379438430231
 20
146.365339811769
 30
0.0
 11
56.531023335889
 21
146.284886981582
 31
0.0
  0
LINE
  5
36F
330
1D
100
AcDbEntity
  8
0
100
AcDbLine
 10
56.379438430231
 20
146.365339811769
 30
0.0
 11
56.531023335889
 21
146.284886981582
 31
0.0
  0
LINE
  5
370
330
1D
100
AcDbEntity
  8
0
100
AcDbLine
 10
56.379438430231
 20
146.365339811769
 30
0.0
 11
56.572362799967
 21
146.26286922354
 31
0.0
  0
LINE
  5
371
330
1D
100
AcDbEntity
  8
0
100
AcDbLine
 10
56.379438430231
 20
146.365339811769
 30
0.0
 11
56.572362799967
 21
146.26286922354
 31
0.0
  0
LINE
  5
372
330
1D
100
AcDbEntity
  8
0
100
AcDbLine
 10
56.531023335889
 20
146.284886981582
 30
0.0
 11
56.725438430231
 21
146.181339811769
 31
0.0
  0
LINE
  5
373
330
1D
100
AcDbEntity
  8
0
100
AcDbLine
 10
56.531023335889
 20
146.284886981582
 30
0.0
 11
56.725438430231
 21
146.181339811769
 31
0.0
  0
LINE
  5
374
330
1D
100
AcDbEntity
  8
0
100
AcDbLine
 10
56.207158668336
 20
146.457333859383
 30
0.0
 11
56.379438430231
 21
146.365339811769
 31
0.0
  0
LINE
  5
375
330
1D
100
AcDbEntity
  8
0
100
AcDbLine
 10
56.357438430231
 20
146.377339811769
 30
0.0
 11
56.860277127985
 21
147.323040706586
 31
0.0
  0
LINE
  5
376
330
1D
100
AcDbEntity
  8
0
100
AcDbLine
 10
56.357438430231
 20
146.377339811769
 30
0.0
 11
56.725438430231
 21
146.181339811769
 31
0.0
  0
LINE
  5
377
330
1D
100
AcDbEntity
  8
0
100
AcDbLine
 10
56.72553140197
 20
146.181514665965
 30
0.0
 11
57.262438430231
 21
145.896339811769
 31
0.0
  0
LINE
  5
378
330
1D
100
AcDbEntity
  8
0
100
AcDbLine
 10
57.262438430231
 20
145.896339811769
 30
0.0
 11
57.791478601741
 21
146.891318451691
 31
0.0
  0
LINE
  5
379
330
1D
100
AcDbEntity
  8
0
100
AcDbLine
 10
56.997438430231
 20
146.037339811769
 30
0.0
 11
57.51757254224
 21
147.015568610285
 31
0.0
  0
LINE
  5
37A
330
1D
100
AcDbEntity
  8
0
100
AcDbLine
 10
56.997438430231
 20
146.037339811769
 30
0.0
 11
57.262438430231
 21
145.896339811769
 31
0.0
  0
LINE
  5
37B
330
1D
100
AcDbEntity
  8
0
100
AcDbLine
 10
56.725588736796
 20
146.181622496958
 30
0.0
 11
56.997438430231
 21
146.037339811769
 31
0.0
  0
LINE
  5
37C
330
1D
100
AcDbEntity
  8
0
100
AcDbLine
 10
56.725438430231
 20
146.181339811769
 30
0.0
 11
57.236740227391
 21
147.14295746223
 31
0.0
  0
LINE
  5
37D
330
1D
100
AcDbEntity
  8
0
100
AcDbLine
 10
56.009438430231
 20
146.562339811769
 30
0.0
 11
56.252352760477
 21
146.433332023592
 31
0.0
  0
LINE
  5
37E
330
1D
100
AcDbEntity
  8
0
100
AcDbLine
 10
56.009438430231
 20
146.562339811769
 30
0.0
 11
56.252352760477
 21
146.433332023592
 31
0.0
  0
LINE
  5
37F
330
1D
100
AcDbEntity
  8
0
100
AcDbLine
 10
55.702438430231
 20
146.726339811769
 30
0.0
 11
56.186160170264
 21
147.635571836431
 31
0.0
  0
LINE
  5
380
330
1D
100
AcDbEntity
  8
0
100
AcDbLine
 10
55.702438430231
 20
146.726339811769
 30
0.0
 11
56.357438430231
 21
146.377339811769
 31
0.0
  0
LINE
  5
381
330
1D
100
AcDbEntity
  8
0
100
AcDbLine
 10
49.684438430231
 20
149.526339811769
 30
0.0
 11
49.894438430231
 21
149.415339811769
 31
0.0
  0
LINE
  5
382
330
1D
100
AcDbEntity
  8
0
100
AcDbLine
 10
49.894438430231
 20
149.415339811769
 30
0.0
 11
50.347746094151
 21
150.267886493858
 31
0.0
  0
LINE
  5
383
330
1D
100
AcDbEntity
  8
0
100
AcDbLine
 10
51.992438430231
 20
148.698339811769
 30
0.0
 11
52.521634648455
 21
149.693611932518
 31
0.0
  0
LINE
  5
384
330
1D
100
AcDbEntity
  8
0
100
AcDbLine
 10
51.992438430231
 20
148.698339811769
 30
0.0
 11
52.530438430231
 21
148.412339811769
 31
0.0
  0
LINE
  5
385
330
1D
100
AcDbEntity
  8
0
100
AcDbLine
 10
52.530438430231
 20
148.412339811769
 30
0.0
 11
53.05960235795
 21
149.407551202984
 31
0.0
  0
LINE
  5
386
330
1D
100
AcDbEntity
  8
0
100
AcDbLine
 10
52.530438430231
 20
148.412339811769
 30
0.0
 11
52.610438430231
 21
148.370339811769
 31
0.0
  0
LINE
  5
387
330
1D
100
AcDbEntity
  8
0
100
AcDbLine
 10
53.472438430231
 20
147.911339811769
 30
0.0
 11
53.995522986447
 21
148.894560516477
 31
0.0
  0
LINE
  5
388
330
1D
100
AcDbEntity
  8
0
100
AcDbLine
 10
53.472438430231
 20
147.911339811769
 30
0.0
 11
53.673169057517
 21
147.80466084499
 31
0.0
  0
LINE
  5
389
330
1D
100
AcDbEntity
  8
0
100
AcDbLine
 10
53.472438430231
 20
147.911339811769
 30
0.0
 11
53.673169057517
 21
147.80466084499
 31
0.0
  0
LINE
  5
38A
330
1D
100
AcDbEntity
  8
0
100
AcDbLine
 10
53.472438430231
 20
147.911339811769
 30
0.0
 11
53.836874711342
 21
148.596355824719
 31
0.0
  0
LINE
  5
38B
330
1D
100
AcDbEntity
  8
0
100
AcDbLine
 10
54.931707802957
 20
147.135018778542
 30
0.0
 11
55.094438430231
 21
147.048339811769
 31
0.0
  0
LINE
  5
38C
330
1D
100
AcDbEntity
  8
0
100
AcDbLine
 10
54.671438430231
 20
147.273339811769
 30
0.0
 11
55.201254070006
 21
148.268716854154
 31
0.0
  0
LINE
  5
38D
330
1D
100
AcDbEntity
  8
0
100
AcDbLine
 10
54.671438430231
 20
147.273339811769
 30
0.0
 11
55.132438430231
 21
147.028339811769
 31
0.0
  0
LINE
  5
38E
330
1D
100
AcDbEntity
  8
0
100
AcDbLine
 10
55.496438430231
 20
146.835339811769
 30
0.0
 11
55.571381105389
 21
146.795747455082
 31
0.0
  0
LINE
  5
38F
330
1D
100
AcDbEntity
  8
0
100
AcDbLine
 10
55.496438430231
 20
146.835339811769
 30
0.0
 11
56.379438430231
 21
146.365339811769
 31
0.0
  0
LINE
  5
390
330
1D
100
AcDbEntity
  8
0
100
AcDbLine
 10
55.538225350067
 20
146.813413651429
 30
0.0
 11
56.009438430231
 21
146.562339811769
 31
0.0
  0
LINE
  5
391
330
1D
100
AcDbEntity
  8
0
100
AcDbLine
 10
55.538225350067
 20
146.813413651429
 30
0.0
 11
56.009438430231
 21
146.562339811769
 31
0.0
  0
LINE
  5
392
330
1D
100
AcDbEntity
  8
0
100
AcDbLine
 10
55.140438430231
 20
147.024339811769
 30
0.0
 11
55.60796661945
 21
147.903631379565
 31
0.0
  0
LINE
  5
393
330
1D
100
AcDbEntity
  8
0
100
AcDbLine
 10
55.140438430231
 20
147.024339811769
 30
0.0
 11
55.702438430231
 21
146.726339811769
 31
0.0
  0
LINE
  5
394
330
1D
100
AcDbEntity
  8
0
100
AcDbLine
 10
55.140438430231
 20
147.024339811769
 30
0.0
 11
55.496534373528
 21
146.835520254647
 31
0.0
  0
LINE
  5
395
330
1D
100
AcDbEntity
  8
0
100
AcDbLine
 10
55.132438430231
 20
147.028339811769
 30
0.0
 11
55.661754558709
 21
148.023837450631
 31
0.0
  0
LINE
  5
396
330
1D
100
AcDbEntity
  8
0
100
AcDbLine
 10
54.931707802957
 20
147.135018778542
 30
0.0
 11
55.094438430231
 21
147.048339811769
 31
0.0
  0
LINE
  5
397
330
1D
100
AcDbEntity
  8
0
100
AcDbLine
 10
53.673169057517
 20
147.80466084499
 30
0.0
 11
54.000438430231
 21
147.630339811769
 31
0.0
  0
LINE
  5
398
330
1D
100
AcDbEntity
  8
0
100
AcDbLine
 10
53.673169057517
 20
147.80466084499
 30
0.0
 11
54.000438430231
 21
147.630339811769
 31
0.0
  0
LINE
  5
399
330
1D
100
AcDbEntity
  8
0
100
AcDbLine
 10
54.000438430231
 20
147.630339811769
 30
0.0
 11
54.529504978543
 21
148.625931495333
 31
0.0
  0
LINE
  5
39A
330
1D
100
AcDbEntity
  8
0
100
AcDbLine
 10
54.000438430231
 20
147.630339811769
 30
0.0
 11
54.671438430231
 21
147.273339811769
 31
0.0
  0
LINE
  5
39B
330
1D
100
AcDbEntity
  8
0
100
AcDbLine
 10
53.510438430231
 20
147.891339811769
 30
0.0
 11
54.034617974132
 21
148.877176951843
 31
0.0
  0
LINE
  5
39C
330
1D
100
AcDbEntity
  8
0
100
AcDbLine
 10
53.510438430231
 20
147.891339811769
 30
0.0
 11
54.000438430231
 21
147.630339811769
 31
0.0
  0
LINE
  5
39D
330
1D
100
AcDbEntity
  8
0
100
AcDbLine
 10
52.610438430231
 20
148.370339811769
 30
0.0
 11
53.139378742644
 21
149.365130644273
 31
0.0
  0
LINE
  5
39E
330
1D
100
AcDbEntity
  8
0
100
AcDbLine
 10
51.324438430231
 20
149.053339811769
 30
0.0
 11
51.853719428813
 21
150.048771380986
 31
0.0
  0
LINE
  5
39F
330
1D
100
AcDbEntity
  8
0
100
AcDbLine
 10
51.324438430231
 20
149.053339811769
 30
0.0
 11
51.992438430231
 21
148.698339811769
 31
0.0
  0
LINE
  5
3A0
330
1D
100
AcDbEntity
  8
0
100
AcDbLine
 10
50.921438430231
 20
149.267339811769
 30
0.0
 11
51.371087801731
 21
150.113485114686
 31
0.0
  0
LINE
  5
3A1
330
1D
100
AcDbEntity
  8
0
100
AcDbLine
 10
50.921438430231
 20
149.267339811769
 30
0.0
 11
51.324438430231
 21
149.053339811769
 31
0.0
  0
LINE
  5
3A2
330
1D
100
AcDbEntity
  8
0
100
AcDbLine
 10
52.946638458897
 20
149.002639333199
 30
0.0
 11
53.836874711342
 21
148.596355824719
 31
0.0
  0
LINE
  5
3A3
330
1D
100
AcDbEntity
  8
0
100
AcDbLine
 10
50.313869943378
 20
150.204174798155
 30
0.0
 11
51.20352041505
 21
149.798158626651
 31
0.0
  0
LINE
  5
3A4
330
1D
100
AcDbEntity
  8
0
100
AcDbLine
 10
57.748795989903
 20
146.81104423177
 30
0.0
 11
59.115438430231
 21
146.187339811769
 31
0.0
  0
LINE
  5
3A5
330
1D
100
AcDbEntity
  8
0
100
AcDbLine
 10
59.115438430231
 20
146.187339811769
 30
0.0
 11
60.674438430231
 21
145.925339811769
 31
0.0
  0
LINE
  5
3A6
330
1D
100
AcDbEntity
  8
0
100
AcDbLine
 10
60.674438430231
 20
145.925339811769
 30
0.0
 11
63.117438430231
 21
145.192339811769
 31
0.0
  0
LINE
  5
3A7
330
1D
100
AcDbEntity
  8
0
100
AcDbLine
 10
63.117438430231
 20
145.192339811769
 30
0.0
 11
66.028438430231
 21
145.343339811769
 31
0.0
  0
LINE
  5
3A8
330
1D
100
AcDbEntity
  8
0
100
AcDbLine
 10
66.028438430231
 20
145.343339811769
 30
0.0
 11
68.526438430231
 21
146.846339811769
 31
0.0
  0
LINE
  5
3A9
330
1D
100
AcDbEntity
  8
0
100
AcDbLine
 10
68.526438430231
 20
146.846339811769
 30
0.0
 11
70.141438430231
 21
148.819339811769
 31
0.0
  0
LINE
  5
3AA
330
1D
100
AcDbEntity
  8
0
100
AcDbLine
 10
70.141438430231
 20
148.819339811769
 30
0.0
 11
71.315438430231
 21
151.025339811769
 31
0.0
  0
LINE
  5
3AB
330
1D
100
AcDbEntity
  8
0
100
AcDbLine
 10
69.726438430231
 20
151.871339811769
 30
0.0
 11
71.315438430231
 21
151.025339811769
 31
0.0
  0
LINE
  5
3AC
330
1D
100
AcDbEntity
  8
0
100
AcDbLine
 10
91.657438430231
 20
138.407339811769
 30
0.0
 11
100.986438430231
 21
130.883339811769
 31
0.0
  0
LINE
  5
3AD
330
1D
100
AcDbEntity
  8
0
100
AcDbLine
 10
82.276438430231
 20
145.324339811769
 30
0.0
 11
91.657438430231
 21
138.407339811769
 31
0.0
  0
LINE
  5
3AE
330
1D
100
AcDbEntity
  8
0
100
AcDbLine
 10
100.986438430231
 20
130.883339811769
 30
0.0
 11
112.698438430231
 21
120.590339811769
 31
0.0
  0
LINE
  5
3AF
330
1D
100
AcDbEntity
  8
0
100
AcDbLine
 10
136.496838430231
 20
96.262939811769
 30
0.0
 11
149.845538430231
 21
80.548239811769
 31
0.0
  0
LINE
  5
3B0
330
1D
100
AcDbEntity
  8
0
100
AcDbLine
 10
124.595438430231
 20
109.025339811769
 30
0.0
 11
136.496838430231
 21
96.262939811769
 31
0.0
  0
LINE
  5
3B1
330
1D
100
AcDbEntity
  8
0
100
AcDbLine
 10
140.713838430231
 20
125.487339811769
 30
0.0
 11
154.863938430231
 21
112.467339811769
 31
0.0
  0
LINE
  5
3B2
330
1D
100
AcDbEntity
  8
0
100
AcDbLine
 10
113.632438430231
 20
147.436339811769
 30
0.0
 11
127.281438430231
 21
136.793339811769
 31
0.0
  0
LINE
  5
3B3
330
1D
100
AcDbEntity
  8
0
100
AcDbLine
 10
127.281438430231
 20
136.793339811769
 30
0.0
 11
140.713838430231
 21
125.487339811769
 31
0.0
  0
LINE
  5
3B4
330
1D
100
AcDbEntity
  8
0
100
AcDbLine
 10
112.698438430231
 20
120.590339811769
 30
0.0
 11
124.595438430231
 21
109.025339811769
 31
0.0
  0
LINE
  5
3B5
330
1D
100
AcDbEntity
  8
0
100
AcDbLine
 10
72.521438430231
 20
152.063339811769
 30
0.0
 11
82.276438430231
 21
145.324339811769
 31
0.0
  0
LINE
  5
3B6
330
1D
100
AcDbEntity
  8
0
100
AcDbLine
 10
71.95826387612
 20
152.381707315415
 30
0.0
 11
72.521438430231
 21
152.063339811769
 31
0.0
  0
LINE
  5
3B7
330
1D
100
AcDbEntity
  8
0
100
AcDbLine
 10
71.784438430231
 20
151.909339811769
 30
0.0
 11
72.011495760068
 21
152.351614865599
 31
0.0
  0
LINE
  5
3B8
330
1D
100
AcDbEntity
  8
0
100
AcDbLine
 10
70.667438430231
 20
151.937339811769
 30
0.0
 11
71.784438430231
 21
151.909339811769
 31
0.0
  0
LINE
  5
3B9
330
1D
100
AcDbEntity
  8
0
100
AcDbLine
 10
70.667438430231
 20
151.937339811769
 30
0.0
 11
71.315438430231
 21
151.025339811769
 31
0.0
  0
LINE
  5
3BA
330
1D
100
AcDbEntity
  8
0
100
AcDbLine
 10
65.399438430231
 20
154.171339811769
 30
0.0
 11
69.726438430231
 21
151.871339811769
 31
0.0
  0
LINE
  5
3BB
330
1D
100
AcDbEntity
  8
0
100
AcDbLine
 10
69.078438430231
 20
152.782339811769
 30
0.0
 11
70.667438430231
 21
151.937339811769
 31
0.0
  0
LINE
  5
3BC
330
1D
100
AcDbEntity
  8
0
100
AcDbLine
 10
70.195438430231
 20
152.754339811769
 30
0.0
 11
71.784438430231
 21
151.909339811769
 31
0.0
  0
LINE
  5
3BD
330
1D
100
AcDbEntity
  8
0
100
AcDbLine
 10
64.839438430231
 20
155.035339811769
 30
0.0
 11
69.078438430231
 21
152.782339811769
 31
0.0
  0
LINE
  5
3BE
330
1D
100
AcDbEntity
  8
0
100
AcDbLine
 10
58.336438430231
 20
157.927339811769
 30
0.0
 11
65.399438430231
 21
154.171339811769
 31
0.0
  0
LINE
  5
3BF
330
1D
100
AcDbEntity
  8
0
100
AcDbLine
 10
102.972438430231
 20
155.397339811769
 30
0.0
 11
113.632438430231
 21
147.436339811769
 31
0.0
  0
LINE
  5
3C0
330
1D
100
AcDbEntity
  8
0
100
AcDbLine
 10
65.869438430231
 20
155.055339811769
 30
0.0
 11
70.195438430231
 21
152.754339811769
 31
0.0
  0
LINE
  5
3C1
330
1D
100
AcDbEntity
  8
0
100
AcDbLine
 10
57.952438430231
 20
158.697339811769
 30
0.0
 11
64.839438430231
 21
155.035339811769
 31
0.0
  0
LINE
  5
3C2
330
1D
100
AcDbEntity
  8
0
100
AcDbLine
 10
92.903438430231
 20
162.753339811769
 30
0.0
 11
102.972438430231
 21
155.397339811769
 31
0.0
  0
LINE
  5
3C3
330
1D
100
AcDbEntity
  8
0
100
AcDbLine
 10
58.805438430231
 20
158.810339811769
 30
0.0
 11
65.869438430231
 21
155.055339811769
 31
0.0
  0
LINE
  5
3C4
330
1D
100
AcDbEntity
  8
0
100
AcDbLine
 10
49.623438430231
 20
163.692339811769
 30
0.0
 11
58.805438430231
 21
158.810339811769
 31
0.0
  0
LINE
  5
3C5
330
1D
100
AcDbEntity
  8
0
100
AcDbLine
 10
15.719773002734
 20
166.656421596149
 30
0.0
 11
16.133438430231
 21
166.436339811769
 31
0.0
  0
LINE
  5
3C6
330
1D
100
AcDbEntity
  8
0
100
AcDbLine
 10
15.848438430231
 20
166.588339811769
 30
0.0
 11
16.411438430231
 21
166.288339811769
 31
0.0
  0
LINE
  5
3C7
330
1D
100
AcDbEntity
  8
0
100
AcDbLine
 10
15.848438430231
 20
166.588339811769
 30
0.0
 11
16.223857217644
 21
167.293999193861
 31
0.0
  0
LINE
  5
3C8
330
1D
100
AcDbEntity
  8
0
100
AcDbLine
 10
15.919438430231
 20
166.550339811769
 30
0.0
 11
15.975685584677
 21
166.520534933734
 31
0.0
  0
LINE
  5
3C9
330
1D
100
AcDbEntity
  8
0
100
AcDbLine
 10
15.919438430231
 20
166.550339811769
 30
0.0
 11
15.975685584677
 21
166.520534933734
 31
0.0
  0
LINE
  5
3CA
330
1D
100
AcDbEntity
  8
0
100
AcDbLine
 10
16.565438430231
 20
166.206339811769
 30
0.0
 11
16.940657145796
 21
166.913175068063
 31
0.0
  0
LINE
  5
3CB
330
1D
100
AcDbEntity
  8
0
100
AcDbLine
 10
16.411438430231
 20
166.288339811769
 30
0.0
 11
16.786893543417
 21
166.994867165335
 31
0.0
  0
LINE
  5
3CC
330
1D
100
AcDbEntity
  8
0
100
AcDbLine
 10
16.411438430231
 20
166.288339811769
 30
0.0
 11
16.565438430231
 21
166.206339811769
 31
0.0
  0
LINE
  5
3CD
330
1D
100
AcDbEntity
  8
0
100
AcDbLine
 10
17.216438430231
 20
165.860339811769
 30
0.0
 11
17.591968550631
 21
166.567008313095
 31
0.0
  0
LINE
  5
3CE
330
1D
100
AcDbEntity
  8
0
100
AcDbLine
 10
17.216438430231
 20
165.860339811769
 30
0.0
 11
17.519438430231
 21
165.699339811769
 31
0.0
  0
LINE
  5
3CF
330
1D
100
AcDbEntity
  8
0
100
AcDbLine
 10
15.918438430231
 20
166.802339811769
 30
0.0
 11
16.278833162132
 21
167.480142896472
 31
0.0
  0
LINE
  5
3D0
330
1D
100
AcDbEntity
  8
0
100
AcDbLine
 10
14.548438430231
 20
167.278339811769
 30
0.0
 11
14.701438430231
 21
167.198339811769
 31
0.0
  0
LINE
  5
3D1
330
1D
100
AcDbEntity
  8
0
100
AcDbLine
 10
14.548438430231
 20
167.278339811769
 30
0.0
 11
14.653109118301
 21
167.47530797558
 31
0.0
  0
LINE
  5
3D2
330
1D
100
AcDbEntity
  8
0
100
AcDbLine
 10
14.548438430231
 20
167.278339811769
 30
0.0
 11
14.877587990353
 21
167.103926322031
 31
0.0
  0
LINE
  5
3D3
330
1D
100
AcDbEntity
  8
0
100
AcDbLine
 10
14.548438430231
 20
167.278339811769
 30
0.0
 11
14.914017740576
 21
167.084401880734
 31
0.0
  0
LINE
  5
3D4
330
1D
100
AcDbEntity
  8
0
100
AcDbLine
 10
14.548438430231
 20
167.278339811769
 30
0.0
 11
14.877587990353
 21
167.103926322031
 31
0.0
  0
LINE
  5
3D5
330
1D
100
AcDbEntity
  8
0
100
AcDbLine
 10
14.701438430231
 20
167.198339811769
 30
0.0
 11
14.80563926399
 21
167.394201868835
 31
0.0
  0
LINE
  5
3D6
330
1D
100
AcDbEntity
  8
0
100
AcDbLine
 10
14.701438430231
 20
167.198339811769
 30
0.0
 11
14.82660106803
 21
167.131645688608
 31
0.0
  0
LINE
  5
3D7
330
1D
100
AcDbEntity
  8
0
100
AcDbLine
 10
15.264438430231
 20
166.898339811769
 30
0.0
 11
15.919438430231
 21
166.550339811769
 31
0.0
  0
LINE
  5
3D8
330
1D
100
AcDbEntity
  8
0
100
AcDbLine
 10
15.194438430231
 20
166.936339811769
 30
0.0
 11
15.298678149735
 21
167.132274960783
 31
0.0
  0
LINE
  5
3D9
330
1D
100
AcDbEntity
  8
0
100
AcDbLine
 10
15.194438430231
 20
166.936339811769
 30
0.0
 11
15.848438430231
 21
166.588339811769
 31
0.0
  0
LINE
  5
3DA
330
1D
100
AcDbEntity
  8
0
100
AcDbLine
 10
14.979438430231
 20
167.049339811769
 30
0.0
 11
15.480246569764
 21
166.784258416421
 31
0.0
  0
LINE
  5
3DB
330
1D
100
AcDbEntity
  8
0
100
AcDbLine
 10
14.979438430231
 20
167.049339811769
 30
0.0
 11
15.480246569764
 21
166.784258416421
 31
0.0
  0
LINE
  5
3DC
330
1D
100
AcDbEntity
  8
0
100
AcDbLine
 10
14.979438430231
 20
167.049339811769
 30
0.0
 11
15.695438430231
 21
166.669339811769
 31
0.0
  0
LINE
  5
3DD
330
1D
100
AcDbEntity
  8
0
100
AcDbLine
 10
14.822556077221
 20
167.664339811806
 30
0.0
 11
14.980438430231
 21
167.580339811769
 31
0.0
  0
LINE
  5
3DE
330
1D
100
AcDbEntity
  8
0
100
AcDbLine
 10
14.822556077221
 20
167.664339811806
 30
0.0
 11
14.980438430231
 21
167.580339811769
 31
0.0
  0
LINE
  5
3DF
330
1D
100
AcDbEntity
  8
0
100
AcDbLine
 10
15.508438430231
 20
167.300339811769
 30
0.0
 11
15.838812857541
 21
167.921331147447
 31
0.0
  0
LINE
  5
3E0
330
1D
100
AcDbEntity
  8
0
100
AcDbLine
 10
15.555438430231
 20
167.673339811769
 30
0.0
 11
15.720746952429
 21
167.984239545743
 31
0.0
  0
LINE
  5
3E1
330
1D
100
AcDbEntity
  8
0
100
AcDbLine
 10
15.048438430231
 20
167.544339811769
 30
0.0
 11
15.213591006982
 21
167.85494625537
 31
0.0
  0
LINE
  5
3E2
330
1D
100
AcDbEntity
  8
0
100
AcDbLine
 10
15.048438430231
 20
167.544339811769
 30
0.0
 11
15.508438430231
 21
167.300339811769
 31
0.0
  0
LINE
  5
3E3
330
1D
100
AcDbEntity
  8
0
100
AcDbLine
 10
14.980438430231
 20
167.580339811769
 30
0.0
 11
15.471438430231
 21
167.319339811769
 31
0.0
  0
LINE
  5
3E4
330
1D
100
AcDbEntity
  8
0
100
AcDbLine
 10
14.826438430231
 20
167.131339811769
 30
0.0
 11
14.930839423677
 21
167.327689284001
 31
0.0
  0
LINE
  5
3E5
330
1D
100
AcDbEntity
  8
0
100
AcDbLine
 10
14.826438430231
 20
167.131339811769
 30
0.0
 11
14.979438430231
 21
167.049339811769
 31
0.0
  0
LINE
  5
3E6
330
1D
100
AcDbEntity
  8
0
100
AcDbLine
 10
14.826438430231
 20
167.131339811769
 30
0.0
 11
15.194438430231
 21
166.936339811769
 31
0.0
  0
LINE
  5
3E7
330
1D
100
AcDbEntity
  8
0
100
AcDbLine
 10
15.396438430231
 20
167.080339811769
 30
0.0
 11
15.770832821751
 21
167.784472394754
 31
0.0
  0
LINE
  5
3E8
330
1D
100
AcDbEntity
  8
0
100
AcDbLine
 10
15.396438430231
 20
167.080339811769
 30
0.0
 11
15.897438430231
 21
166.813339811769
 31
0.0
  0
LINE
  5
3E9
330
1D
100
AcDbEntity
  8
0
100
AcDbLine
 10
14.724438430231
 20
167.437339811769
 30
0.0
 11
14.840106303436
 21
167.65500235911
 31
0.0
  0
LINE
  5
3EA
330
1D
100
AcDbEntity
  8
0
100
AcDbLine
 10
14.724438430231
 20
167.437339811769
 30
0.0
 11
15.396438430231
 21
167.080339811769
 31
0.0
  0
LINE
  5
3EB
330
1D
100
AcDbEntity
  8
0
100
AcDbLine
 10
12.213438430231
 20
168.772339811769
 30
0.0
 11
12.463438430231
 21
168.640339811769
 31
0.0
  0
LINE
  5
3EC
330
1D
100
AcDbEntity
  8
0
100
AcDbLine
 10
12.213438430231
 20
168.772339811769
 30
0.0
 11
12.499137358931
 21
169.309964952358
 31
0.0
  0
LINE
  5
3ED
330
1D
100
AcDbEntity
  8
0
100
AcDbLine
 10
12.463438430231
 20
168.640339811769
 30
0.0
 11
12.744412404396
 21
169.168475130619
 31
0.0
  0
LINE
  5
3EE
330
1D
100
AcDbEntity
  8
0
100
AcDbLine
 10
13.849438430231
 20
168.580339811769
 30
0.0
 11
14.356533533221
 21
169.533031249938
 31
0.0
  0
LINE
  5
3EF
330
1D
100
AcDbEntity
  8
0
100
AcDbLine
 10
13.849438430231
 20
168.580339811769
 30
0.0
 11
14.265438430231
 21
168.359339811769
 31
0.0
  0
LINE
  5
3F0
330
1D
100
AcDbEntity
  8
0
100
AcDbLine
 10
13.849438430231
 20
168.580339811769
 30
0.0
 11
13.945438430231
 21
168.529339811769
 31
0.0
  0
LINE
  5
3F1
330
1D
100
AcDbEntity
  8
0
100
AcDbLine
 10
15.568524100013
 20
168.065347599931
 30
0.0
 11
16.118438430231
 21
167.772339811769
 31
0.0
  0
LINE
  5
3F2
330
1D
100
AcDbEntity
  8
0
100
AcDbLine
 10
15.811438430231
 20
167.936339811769
 30
0.0
 11
16.340308851059
 21
168.930999197479
 31
0.0
  0
LINE
  5
3F3
330
1D
100
AcDbEntity
  8
0
100
AcDbLine
 10
15.811438430231
 20
167.936339811769
 30
0.0
 11
16.466438430231
 21
167.587339811769
 31
0.0
  0
LINE
  5
3F4
330
1D
100
AcDbEntity
  8
0
100
AcDbLine
 10
15.568524100013
 20
168.065347599931
 30
0.0
 11
16.118438430231
 21
167.772339811769
 31
0.0
  0
LINE
  5
3F5
330
1D
100
AcDbEntity
  8
0
100
AcDbLine
 10
15.139438430231
 20
167.894339811769
 30
0.0
 11
15.304828111483
 21
168.205392183538
 31
0.0
  0
LINE
  5
3F6
330
1D
100
AcDbEntity
  8
0
100
AcDbLine
 10
15.139438430231
 20
167.894339811769
 30
0.0
 11
15.555438430231
 21
167.673339811769
 31
0.0
  0
LINE
  5
3F7
330
1D
100
AcDbEntity
  8
0
100
AcDbLine
 10
14.376438430231
 20
167.901339811769
 30
0.0
 11
14.541858787732
 21
168.2124498771
 31
0.0
  0
LINE
  5
3F8
330
1D
100
AcDbEntity
  8
0
100
AcDbLine
 10
14.376438430231
 20
167.901339811769
 30
0.0
 11
15.048438430231
 21
167.544339811769
 31
0.0
  0
LINE
  5
3F9
330
1D
100
AcDbEntity
  8
0
100
AcDbLine
 10
13.945438430231
 20
168.529339811769
 30
0.0
 11
14.44029074803
 21
169.460020528736
 31
0.0
  0
LINE
  5
3FA
330
1D
100
AcDbEntity
  8
0
100
AcDbLine
 10
13.945438430231
 20
168.529339811769
 30
0.0
 11
14.474438430231
 21
168.248339811769
 31
0.0
  0
LINE
  5
3FB
330
1D
100
AcDbEntity
  8
0
100
AcDbLine
 10
15.248438430231
 20
168.235339811769
 30
0.0
 11
15.777440344092
 21
169.230246499605
 31
0.0
  0
LINE
  5
3FC
330
1D
100
AcDbEntity
  8
0
100
AcDbLine
 10
15.248438430231
 20
168.235339811769
 30
0.0
 11
15.811438430231
 21
167.936339811769
 31
0.0
  0
LINE
  5
3FD
330
1D
100
AcDbEntity
  8
0
100
AcDbLine
 10
15.095438430231
 20
168.317339811769
 30
0.0
 11
15.624401089208
 21
169.311609346481
 31
0.0
  0
LINE
  5
3FE
330
1D
100
AcDbEntity
  8
0
100
AcDbLine
 10
15.095438430231
 20
168.317339811769
 30
0.0
 11
15.248438430231
 21
168.235339811769
 31
0.0
  0
LINE
  5
3FF
330
1D
100
AcDbEntity
  8
0
100
AcDbLine
 10
14.474438430231
 20
168.248339811769
 30
0.0
 11
14.90384776502
 21
169.055940328529
 31
0.0
  0
LINE
  5
400
330
1D
100
AcDbEntity
  8
0
100
AcDbLine
 10
14.474438430231
 20
168.248339811769
 30
0.0
 11
15.139438430231
 21
167.894339811769
 31
0.0
  0
LINE
  5
401
330
1D
100
AcDbEntity
  8
0
100
AcDbLine
 10
13.886438430231
 20
168.162339811769
 30
0.0
 11
14.051591006982
 21
168.47294625537
 31
0.0
  0
LINE
  5
402
330
1D
100
AcDbEntity
  8
0
100
AcDbLine
 10
13.886438430231
 20
168.162339811769
 30
0.0
 11
14.376438430231
 21
167.901339811769
 31
0.0
  0
LINE
  5
403
330
1D
100
AcDbEntity
  8
0
100
AcDbLine
 10
13.849438430231
 20
168.182339811769
 30
0.0
 11
14.014311432522
 21
168.492751029302
 31
0.0
  0
LINE
  5
404
330
1D
100
AcDbEntity
  8
0
100
AcDbLine
 10
13.849438430231
 20
168.182339811769
 30
0.0
 11
14.004535728496
 21
168.474346025772
 31
0.0
  0
LINE
  5
405
330
1D
100
AcDbEntity
  8
0
100
AcDbLine
 10
11.963438430231
 20
168.906339811769
 30
0.0
 11
12.341661157977
 21
169.617269646136
 31
0.0
  0
LINE
  5
406
330
1D
100
AcDbEntity
  8
0
100
AcDbLine
 10
11.714438430231
 20
169.038339811769
 30
0.0
 11
11.963438430231
 21
168.906339811769
 31
0.0
  0
LINE
  5
407
330
1D
100
AcDbEntity
  8
0
100
AcDbLine
 10
11.714438430231
 20
169.038339811769
 30
0.0
 11
12.097871245291
 21
169.759471176407
 31
0.0
  0
LINE
  5
408
330
1D
100
AcDbEntity
  8
0
100
AcDbLine
 10
14.275438430231
 20
167.676339811769
 30
0.0
 11
14.390968792425
 21
167.893620556854
 31
0.0
  0
LINE
  5
409
330
1D
100
AcDbEntity
  8
0
100
AcDbLine
 10
14.275438430231
 20
167.676339811769
 30
0.0
 11
14.724438430231
 21
167.437339811769
 31
0.0
  0
LINE
  5
40A
330
1D
100
AcDbEntity
  8
0
100
AcDbLine
 10
16.466438430231
 20
167.587339811769
 30
0.0
 11
16.995395054735
 21
168.582724641904
 31
0.0
  0
LINE
  5
40B
330
1D
100
AcDbEntity
  8
0
100
AcDbLine
 10
16.466438430231
 20
167.587339811769
 30
0.0
 11
16.834438430231
 21
167.392339811769
 31
0.0
  0
LINE
  5
40C
330
1D
100
AcDbEntity
  8
0
100
AcDbLine
 10
15.964438430231
 20
167.854339811769
 30
0.0
 11
16.118438430231
 21
167.772339811769
 31
0.0
  0
LINE
  5
40D
330
1D
100
AcDbEntity
  8
0
100
AcDbLine
 10
16.118438430231
 20
167.772339811769
 30
0.0
 11
16.282651510377
 21
167.685265972119
 31
0.0
  0
LINE
  5
40E
330
1D
100
AcDbEntity
  8
0
100
AcDbLine
 10
16.118438430231
 20
167.772339811769
 30
0.0
 11
16.282651510377
 21
167.685265972119
 31
0.0
  0
LINE
  5
40F
330
1D
100
AcDbEntity
  8
0
100
AcDbLine
 10
16.834438430231
 20
167.392339811769
 30
0.0
 11
17.363594355651
 21
168.38697262153
 31
0.0
  0
LINE
  5
410
330
1D
100
AcDbEntity
  8
0
100
AcDbLine
 10
15.897438430231
 20
166.813339811769
 30
0.0
 11
16.258470529352
 21
167.492341608411
 31
0.0
  0
LINE
  5
411
330
1D
100
AcDbEntity
  8
0
100
AcDbLine
 10
18.726438430231
 20
165.987339811769
 30
0.0
 11
19.102916367823
 21
166.695390970221
 31
0.0
  0
LINE
  5
412
330
1D
100
AcDbEntity
  8
0
100
AcDbLine
 10
18.726438430231
 20
165.987339811769
 30
0.0
 11
19.319438430231
 21
165.672339811769
 31
0.0
  0
LINE
  5
413
330
1D
100
AcDbEntity
  8
0
100
AcDbLine
 10
18.516438430231
 20
166.099339811769
 30
0.0
 11
18.903215281485
 21
166.826760386117
 31
0.0
  0
LINE
  5
414
330
1D
100
AcDbEntity
  8
0
100
AcDbLine
 10
18.516438430231
 20
166.099339811769
 30
0.0
 11
18.726438430231
 21
165.987339811769
 31
0.0
  0
LINE
  5
415
330
1D
100
AcDbEntity
  8
0
100
AcDbLine
 10
38.469438430231
 20
168.491339811769
 30
0.0
 11
49.153438430231
 21
162.809339811769
 31
0.0
  0
LINE
  5
416
330
1D
100
AcDbEntity
  8
0
100
AcDbLine
 10
17.354438430231
 20
166.693339811769
 30
0.0
 11
19.473438430231
 21
165.566339811769
 31
0.0
  0
LINE
  5
417
330
1D
100
AcDbEntity
  8
0
100
AcDbLine
 10
17.354438430231
 20
166.693339811769
 30
0.0
 11
17.591968550631
 21
166.567008313095
 31
0.0
  0
LINE
  5
418
330
1D
100
AcDbEntity
  8
0
100
AcDbLine
 10
11.589438430231
 20
169.104339811769
 30
0.0
 11
12.213438430231
 21
168.772339811769
 31
0.0
  0
LINE
  5
419
330
1D
100
AcDbEntity
  8
0
100
AcDbLine
 10
11.119558912072
 20
169.354339811815
 30
0.0
 11
11.589438430231
 21
169.104339811769
 31
0.0
  0
LINE
  5
41A
330
1D
100
AcDbEntity
  8
0
100
AcDbLine
 10
11.119558912072
 20
169.354339811815
 30
0.0
 11
11.589438430231
 21
169.104339811769
 31
0.0
  0
LINE
  5
41B
330
1D
100
AcDbEntity
  8
0
100
AcDbLine
 10
11.089438430231
 20
169.370339811769
 30
0.0
 11
11.714438430231
 21
169.038339811769
 31
0.0
  0
LINE
  5
41C
330
1D
100
AcDbEntity
  8
0
100
AcDbLine
 10
11.089438430231
 20
169.370339811769
 30
0.0
 11
11.486085269392
 21
170.116323110978
 31
0.0
  0
LINE
  5
41D
330
1D
100
AcDbEntity
  8
0
100
AcDbLine
 10
12.939438430231
 20
169.041339811769
 30
0.0
 11
13.292438430231
 21
168.852339811769
 31
0.0
  0
LINE
  5
41E
330
1D
100
AcDbEntity
  8
0
100
AcDbLine
 10
38.527438430231
 20
169.026339811769
 30
0.0
 11
48.946438430231
 21
163.486339811769
 31
0.0
  0
LINE
  5
41F
330
1D
100
AcDbEntity
  8
0
100
AcDbLine
 10
4.482834656644
 20
173.162037924978
 30
0.0
 11
4.818438430231
 21
172.983339811769
 31
0.0
  0
LINE
  5
420
330
1D
100
AcDbEntity
  8
0
100
AcDbLine
 10
5.947396763562
 20
172.782298145104
 30
0.0
 11
6.563488430271
 21
172.454589811748
 31
0.0
  0
LINE
  5
421
330
1D
100
AcDbEntity
  8
0
100
AcDbLine
 10
6.097438430231
 20
172.702339811769
 30
0.0
 11
6.820438430231
 21
172.317339811769
 31
0.0
  0
LINE
  5
422
330
1D
100
AcDbEntity
  8
0
100
AcDbLine
 10
6.563488430271
 20
172.454589811748
 30
0.0
 11
6.820438430231
 21
172.317339811769
 31
0.0
  0
LINE
  5
423
330
1D
100
AcDbEntity
  8
0
100
AcDbLine
 10
6.563488430271
 20
172.454589811748
 30
0.0
 11
6.820438430231
 21
172.317339811769
 31
0.0
  0
LINE
  5
424
330
1D
100
AcDbEntity
  8
0
100
AcDbLine
 10
6.249438430231
 20
172.622339811769
 30
0.0
 11
6.771339968663
 21
173.603336846201
 31
0.0
  0
LINE
  5
425
330
1D
100
AcDbEntity
  8
0
100
AcDbLine
 10
6.249438430231
 20
172.622339811769
 30
0.0
 11
6.820438430231
 21
172.317339811769
 31
0.0
  0
LINE
  5
426
330
1D
100
AcDbEntity
  8
0
100
AcDbLine
 10
5.947396763562
 20
172.782298145104
 30
0.0
 11
6.563488430271
 21
172.454589811748
 31
0.0
  0
LINE
  5
427
330
1D
100
AcDbEntity
  8
0
100
AcDbLine
 10
6.958438430231
 20
172.244339811769
 30
0.0
 11
7.43457701118
 21
173.139825151445
 31
0.0
  0
LINE
  5
428
330
1D
100
AcDbEntity
  8
0
100
AcDbLine
 10
6.820438430231
 20
172.317339811769
 30
0.0
 11
6.958438430231
 21
172.244339811769
 31
0.0
  0
LINE
  5
429
330
1D
100
AcDbEntity
  8
0
100
AcDbLine
 10
6.820438430231
 20
172.317339811769
 30
0.0
 11
7.305464686371
 21
173.230056951917
 31
0.0
  0
LINE
  5
42A
330
1D
100
AcDbEntity
  8
0
100
AcDbLine
 10
5.590438430231
 20
172.971339811769
 30
0.0
 11
5.980559513373
 21
173.705465428288
 31
0.0
  0
LINE
  5
42B
330
1D
100
AcDbEntity
  8
0
100
AcDbLine
 10
5.590438430231
 20
172.971339811769
 30
0.0
 11
6.249438430231
 21
172.622339811769
 31
0.0
  0
LINE
  5
42C
330
1D
100
AcDbEntity
  8
0
100
AcDbLine
 10
5.590438430231
 20
172.971339811769
 30
0.0
 11
5.678435462831
 21
172.924737437904
 31
0.0
  0
LINE
  5
42D
330
1D
100
AcDbEntity
  8
0
100
AcDbLine
 10
5.590438430231
 20
172.971339811769
 30
0.0
 11
5.678435462831
 21
172.924737437904
 31
0.0
  0
LINE
  5
42E
330
1D
100
AcDbEntity
  8
0
100
AcDbLine
 10
5.571438430231
 20
173.381339811769
 30
0.0
 11
6.032488808255
 21
174.247957401984
 31
0.0
  0
LINE
  5
42F
330
1D
100
AcDbEntity
  8
0
100
AcDbLine
 10
5.491438430231
 20
173.424339811769
 30
0.0
 11
5.571438430231
 21
173.381339811769
 31
0.0
  0
LINE
  5
430
330
1D
100
AcDbEntity
  8
0
100
AcDbLine
 10
5.491438430231
 20
173.424339811769
 30
0.0
 11
6.02025081752
 21
174.418326886918
 31
0.0
  0
LINE
  5
431
330
1D
100
AcDbEntity
  8
0
100
AcDbLine
 10
5.236438430231
 20
173.159339811769
 30
0.0
 11
5.402000972167
 21
173.470893604741
 31
0.0
  0
LINE
  5
432
330
1D
100
AcDbEntity
  8
0
100
AcDbLine
 10
5.236438430231
 20
173.159339811769
 30
0.0
 11
5.590438430231
 21
172.971339811769
 31
0.0
  0
LINE
  5
433
330
1D
100
AcDbEntity
  8
0
100
AcDbLine
 10
5.236438430231
 20
173.159339811769
 30
0.0
 11
5.363787620894
 21
173.398984135412
 31
0.0
  0
LINE
  5
434
330
1D
100
AcDbEntity
  8
0
100
AcDbLine
 10
4.818438430231
 20
172.983339811769
 30
0.0
 11
4.897438430231
 21
172.942339811769
 31
0.0
  0
LINE
  5
435
330
1D
100
AcDbEntity
  8
0
100
AcDbLine
 10
4.897438430231
 20
172.942339811769
 30
0.0
 11
5.227658029223
 21
173.563040122972
 31
0.0
  0
LINE
  5
436
330
1D
100
AcDbEntity
  8
0
100
AcDbLine
 10
4.495438430231
 20
173.155339811769
 30
0.0
 11
4.897438430231
 21
172.942339811769
 31
0.0
  0
LINE
  5
437
330
1D
100
AcDbEntity
  8
0
100
AcDbLine
 10
4.495438430231
 20
173.155339811769
 30
0.0
 11
4.825497996337
 21
173.777104474144
 31
0.0
  0
LINE
  5
438
330
1D
100
AcDbEntity
  8
0
100
AcDbLine
 10
2.299895920097
 20
174.323024022302
 30
0.0
 11
2.361438430231
 21
174.290339811769
 31
0.0
  0
LINE
  5
439
330
1D
100
AcDbEntity
  8
0
100
AcDbLine
 10
2.299895920097
 20
174.323024022302
 30
0.0
 11
2.361438430231
 21
174.290339811769
 31
0.0
  0
LINE
  5
43A
330
1D
100
AcDbEntity
  8
0
100
AcDbLine
 10
2.146438430231
 20
174.404339811769
 30
0.0
 11
2.299895920097
 21
174.323024022302
 31
0.0
  0
LINE
  5
43B
330
1D
100
AcDbEntity
  8
0
100
AcDbLine
 10
4.953438430231
 20
173.709339811769
 30
0.0
 11
5.482231560547
 21
174.704416980319
 31
0.0
  0
LINE
  5
43C
330
1D
100
AcDbEntity
  8
0
100
AcDbLine
 10
4.953438430231
 20
173.709339811769
 30
0.0
 11
5.491438430231
 21
173.424339811769
 31
0.0
  0
LINE
  5
43D
330
1D
100
AcDbEntity
  8
0
100
AcDbLine
 10
5.168438430231
 20
173.594339811769
 30
0.0
 11
5.571438430231
 21
173.381339811769
 31
0.0
  0
LINE
  5
43E
330
1D
100
AcDbEntity
  8
0
100
AcDbLine
 10
3.827438430231
 20
173.510339811769
 30
0.0
 11
4.158121409227
 21
174.132263284513
 31
0.0
  0
LINE
  5
43F
330
1D
100
AcDbEntity
  8
0
100
AcDbLine
 10
3.827438430231
 20
173.510339811769
 30
0.0
 11
4.495438430231
 21
173.155339811769
 31
0.0
  0
LINE
  5
440
330
1D
100
AcDbEntity
  8
0
100
AcDbLine
 10
3.827438430231
 20
173.510339811769
 30
0.0
 11
4.482834656644
 21
173.162037924978
 31
0.0
  0
LINE
  5
441
330
1D
100
AcDbEntity
  8
0
100
AcDbLine
 10
3.827438430231
 20
173.510339811769
 30
0.0
 11
4.482834656644
 21
173.162037924978
 31
0.0
  0
LINE
  5
442
330
1D
100
AcDbEntity
  8
0
100
AcDbLine
 10
4.285438430231
 20
174.064339811769
 30
0.0
 11
4.814550777094
 21
175.059454193622
 31
0.0
  0
LINE
  5
443
330
1D
100
AcDbEntity
  8
0
100
AcDbLine
 10
4.285438430231
 20
174.064339811769
 30
0.0
 11
4.953438430231
 21
173.709339811769
 31
0.0
  0
LINE
  5
444
330
1D
100
AcDbEntity
  8
0
100
AcDbLine
 10
4.673438430214
 20
173.858142206988
 30
0.0
 11
5.168438430231
 21
173.594339811769
 31
0.0
  0
LINE
  5
445
330
1D
100
AcDbEntity
  8
0
100
AcDbLine
 10
4.726438430231
 20
173.829339811769
 30
0.0
 11
5.168438430231
 21
173.594339811769
 31
0.0
  0
LINE
  5
446
330
1D
100
AcDbEntity
  8
0
100
AcDbLine
 10
4.673438430214
 20
173.858142206988
 30
0.0
 11
5.168438430231
 21
173.594339811769
 31
0.0
  0
LINE
  5
447
330
1D
100
AcDbEntity
  8
0
100
AcDbLine
 10
3.320438430231
 20
174.179339811769
 30
0.0
 11
3.781945049667
 21
175.046814980357
 31
0.0
  0
LINE
  5
448
330
1D
100
AcDbEntity
  8
0
100
AcDbLine
 10
3.288438430231
 20
173.797339811769
 30
0.0
 11
3.678686148913
 21
174.530872531122
 31
0.0
  0
LINE
  5
449
330
1D
100
AcDbEntity
  8
0
100
AcDbLine
 10
3.288438430231
 20
173.797339811769
 30
0.0
 11
3.827438430231
 21
173.510339811769
 31
0.0
  0
LINE
  5
44A
330
1D
100
AcDbEntity
  8
0
100
AcDbLine
 10
3.209438430231
 20
173.839339811769
 30
0.0
 11
3.599511635004
 21
174.57295991787
 31
0.0
  0
LINE
  5
44B
330
1D
100
AcDbEntity
  8
0
100
AcDbLine
 10
3.209438430231
 20
173.839339811769
 30
0.0
 11
3.288438430231
 21
173.797339811769
 31
0.0
  0
LINE
  5
44C
330
1D
100
AcDbEntity
  8
0
100
AcDbLine
 10
3.209438430231
 20
173.839339811769
 30
0.0
 11
3.546964048448
 21
174.474132401515
 31
0.0
  0
LINE
  5
44D
330
1D
100
AcDbEntity
  8
0
100
AcDbLine
 10
3.882438430231
 20
174.279339811769
 30
0.0
 11
4.403257271303
 21
175.258301744135
 31
0.0
  0
LINE
  5
44E
330
1D
100
AcDbEntity
  8
0
100
AcDbLine
 10
3.882438430231
 20
174.279339811769
 30
0.0
 11
3.962438430231
 21
174.236339811769
 31
0.0
  0
LINE
  5
44F
330
1D
100
AcDbEntity
  8
0
100
AcDbLine
 10
3.882438430231
 20
174.279339811769
 30
0.0
 11
4.285438430231
 21
174.064339811769
 31
0.0
  0
LINE
  5
450
330
1D
100
AcDbEntity
  8
0
100
AcDbLine
 10
3.962438430231
 20
174.236339811769
 30
0.0
 11
4.130889886557
 21
174.146791268072
 31
0.0
  0
LINE
  5
451
330
1D
100
AcDbEntity
  8
0
100
AcDbLine
 10
3.962438430231
 20
174.236339811769
 30
0.0
 11
4.130889886557
 21
174.146791268071
 31
0.0
  0
LINE
  5
452
330
1D
100
AcDbEntity
  8
0
100
AcDbLine
 10
3.070438430231
 20
174.311339811769
 30
0.0
 11
3.320438430231
 21
174.179339811769
 31
0.0
  0
LINE
  5
453
330
1D
100
AcDbEntity
  8
0
100
AcDbLine
 10
3.070438430231
 20
174.311339811769
 30
0.0
 11
3.539786191918
 21
175.194553331365
 31
0.0
  0
LINE
  5
454
330
1D
100
AcDbEntity
  8
0
100
AcDbLine
 10
2.514438430231
 20
174.209339811769
 30
0.0
 11
2.679651781697
 21
174.519884609785
 31
0.0
  0
LINE
  5
455
330
1D
100
AcDbEntity
  8
0
100
AcDbLine
 10
2.361438430231
 20
174.290339811769
 30
0.0
 11
2.526847729637
 21
174.601429079874
 31
0.0
  0
LINE
  5
456
330
1D
100
AcDbEntity
  8
0
100
AcDbLine
 10
2.361438430231
 20
174.290339811769
 30
0.0
 11
2.514438430231
 21
174.209339811769
 31
0.0
  0
LINE
  5
457
330
1D
100
AcDbEntity
  8
0
100
AcDbLine
 10
5.192726774891
 20
173.497381268984
 30
0.0
 11
5.363787620894
 21
173.398984135412
 31
0.0
  0
LINE
  5
458
330
1D
100
AcDbEntity
  8
0
100
AcDbLine
 10
9.450438430231
 20
170.520339811769
 30
0.0
 11
9.615807203234
 21
170.831352860887
 31
0.0
  0
LINE
  5
459
330
1D
100
AcDbEntity
  8
0
100
AcDbLine
 10
11.045438430231
 20
170.071339811769
 30
0.0
 11
11.460839953978
 21
170.852595499667
 31
0.0
  0
LINE
  5
45A
330
1D
100
AcDbEntity
  8
0
100
AcDbLine
 10
10.996438430231
 20
170.496339811769
 30
0.0
 11
11.525321256257
 21
171.491022528235
 31
0.0
  0
LINE
  5
45B
330
1D
100
AcDbEntity
  8
0
100
AcDbLine
 10
10.224438430231
 20
170.508339811769
 30
0.0
 11
10.375823367462
 21
170.427979979137
 31
0.0
  0
LINE
  5
45C
330
1D
100
AcDbEntity
  8
0
100
AcDbLine
 10
10.224438430231
 20
170.508339811769
 30
0.0
 11
10.375823367462
 21
170.427979979137
 31
0.0
  0
LINE
  5
45D
330
1D
100
AcDbEntity
  8
0
100
AcDbLine
 10
10.523438430231
 20
170.349339811769
 30
0.0
 11
10.688533921559
 21
170.659663072891
 31
0.0
  0
LINE
  5
45E
330
1D
100
AcDbEntity
  8
0
100
AcDbLine
 10
10.523438430231
 20
170.349339811769
 30
0.0
 11
11.024438430231
 21
170.082339811769
 31
0.0
  0
LINE
  5
45F
330
1D
100
AcDbEntity
  8
0
100
AcDbLine
 10
11.024438430231
 20
170.082339811769
 30
0.0
 11
11.440515123119
 21
170.865308412762
 31
0.0
  0
LINE
  5
460
330
1D
100
AcDbEntity
  8
0
100
AcDbLine
 10
10.215438430231
 20
169.834339811769
 30
0.0
 11
10.496811518928
 21
170.363524981779
 31
0.0
  0
LINE
  5
461
330
1D
100
AcDbEntity
  8
0
100
AcDbLine
 10
10.215438430231
 20
169.834339811769
 30
0.0
 11
10.465438430231
 21
169.702339811769
 31
0.0
  0
LINE
  5
462
330
1D
100
AcDbEntity
  8
0
100
AcDbLine
 10
10.215438430231
 20
169.834339811769
 30
0.0
 11
11.089438430231
 21
169.370339811769
 31
0.0
  0
LINE
  5
463
330
1D
100
AcDbEntity
  8
0
100
AcDbLine
 10
10.465438430231
 20
169.702339811769
 30
0.0
 11
11.089438430231
 21
169.370339811769
 31
0.0
  0
LINE
  5
464
330
1D
100
AcDbEntity
  8
0
100
AcDbLine
 10
10.465438430231
 20
169.702339811769
 30
0.0
 11
10.746302617944
 21
170.230567879395
 31
0.0
  0
LINE
  5
465
330
1D
100
AcDbEntity
  8
0
100
AcDbLine
 10
9.315438430231
 20
170.313339811769
 30
0.0
 11
9.430992107383
 21
170.530664405859
 31
0.0
  0
LINE
  5
466
330
1D
100
AcDbEntity
  8
0
100
AcDbLine
 10
8.725438430218
 20
170.627566002252
 30
0.0
 11
8.793438430231
 21
170.591339811769
 31
0.0
  0
LINE
  5
467
330
1D
100
AcDbEntity
  8
0
100
AcDbLine
 10
7.506438430231
 20
171.275339811769
 30
0.0
 11
7.878642198842
 21
171.975352437292
 31
0.0
  0
LINE
  5
468
330
1D
100
AcDbEntity
  8
0
100
AcDbLine
 10
7.506438430231
 20
171.275339811769
 30
0.0
 11
7.69132731912
 21
171.177117589547
 31
0.0
  0
LINE
  5
469
330
1D
100
AcDbEntity
  8
0
100
AcDbLine
 10
8.562045717705
 20
170.714125236858
 30
0.0
 11
8.627438430231
 21
170.679339811769
 31
0.0
  0
LINE
  5
46A
330
1D
100
AcDbEntity
  8
0
100
AcDbLine
 10
8.627438430231
 20
170.679339811769
 30
0.0
 11
8.861438430191
 21
170.555100290832
 31
0.0
  0
LINE
  5
46B
330
1D
100
AcDbEntity
  8
0
100
AcDbLine
 10
8.627438430231
 20
170.679339811769
 30
0.0
 11
8.861438430191
 21
170.555100290832
 31
0.0
  0
LINE
  5
46C
330
1D
100
AcDbEntity
  8
0
100
AcDbLine
 10
8.656438430231
 20
170.943339811769
 30
0.0
 11
9.046838792165
 21
171.677159448416
 31
0.0
  0
LINE
  5
46D
330
1D
100
AcDbEntity
  8
0
100
AcDbLine
 10
8.656438430231
 20
170.943339811769
 30
0.0
 11
9.256438430231
 21
170.623339811769
 31
0.0
  0
LINE
  5
46E
330
1D
100
AcDbEntity
  8
0
100
AcDbLine
 10
8.195438430231
 20
170.908339811769
 30
0.0
 11
8.311408070129
 21
171.126570220395
 31
0.0
  0
LINE
  5
46F
330
1D
100
AcDbEntity
  8
0
100
AcDbLine
 10
8.195438430231
 20
170.908339811769
 30
0.0
 11
8.867438430231
 21
170.552339811769
 31
0.0
  0
LINE
  5
470
330
1D
100
AcDbEntity
  8
0
100
AcDbLine
 10
8.012438430231
 20
171.285339811769
 30
0.0
 11
8.402818086252
 21
172.019536268141
 31
0.0
  0
LINE
  5
471
330
1D
100
AcDbEntity
  8
0
100
AcDbLine
 10
8.012438430231
 20
171.285339811769
 30
0.0
 11
8.656438430231
 21
170.943339811769
 31
0.0
  0
LINE
  5
472
330
1D
100
AcDbEntity
  8
0
100
AcDbLine
 10
7.709438430231
 20
171.446339811769
 30
0.0
 11
8.099679822105
 21
172.180691823953
 31
0.0
  0
LINE
  5
473
330
1D
100
AcDbEntity
  8
0
100
AcDbLine
 10
7.709438430231
 20
171.446339811769
 30
0.0
 11
8.012438430231
 21
171.285339811769
 31
0.0
  0
LINE
  5
474
330
1D
100
AcDbEntity
  8
0
100
AcDbLine
 10
7.694438430231
 20
171.175339811769
 30
0.0
 11
7.810094050338
 21
171.392856132438
 31
0.0
  0
LINE
  5
475
330
1D
100
AcDbEntity
  8
0
100
AcDbLine
 10
7.694438430231
 20
171.175339811769
 30
0.0
 11
8.195438430231
 21
170.908339811769
 31
0.0
  0
LINE
  5
476
330
1D
100
AcDbEntity
  8
0
100
AcDbLine
 10
7.673438430231
 20
171.187339811769
 30
0.0
 11
7.788796077897
 21
171.404172876871
 31
0.0
  0
LINE
  5
477
330
1D
100
AcDbEntity
  8
0
100
AcDbLine
 10
8.725438430218
 20
170.627566002252
 30
0.0
 11
8.793438430231
 21
170.591339811769
 31
0.0
  0
LINE
  5
478
330
1D
100
AcDbEntity
  8
0
100
AcDbLine
 10
9.256438430231
 20
170.623339811769
 30
0.0
 11
9.450438430231
 21
170.520339811769
 31
0.0
  0
LINE
  5
479
330
1D
100
AcDbEntity
  8
0
100
AcDbLine
 10
9.256438430231
 20
170.623339811769
 30
0.0
 11
9.421935360464
 21
170.93477013735
 31
0.0
  0
LINE
  5
47A
330
1D
100
AcDbEntity
  8
0
100
AcDbLine
 10
9.851438430231
 20
170.707339811769
 30
0.0
 11
10.016164387726
 21
171.016968475218
 31
0.0
  0
LINE
  5
47B
330
1D
100
AcDbEntity
  8
0
100
AcDbLine
 10
9.851438430231
 20
170.707339811769
 30
0.0
 11
10.523438430231
 21
170.349339811769
 31
0.0
  0
LINE
  5
47C
330
1D
100
AcDbEntity
  8
0
100
AcDbLine
 10
9.374438430231
 20
171.358339811769
 30
0.0
 11
9.903525833301
 21
172.353407281227
 31
0.0
  0
LINE
  5
47D
330
1D
100
AcDbEntity
  8
0
100
AcDbLine
 10
9.374438430231
 20
171.358339811769
 30
0.0
 11
9.864438430231
 21
171.098339811769
 31
0.0
  0
LINE
  5
47E
330
1D
100
AcDbEntity
  8
0
100
AcDbLine
 10
9.337438430231
 20
171.378339811769
 30
0.0
 11
9.866157567998
 21
172.373277741944
 31
0.0
  0
LINE
  5
47F
330
1D
100
AcDbEntity
  8
0
100
AcDbLine
 10
9.864438430231
 20
171.098339811769
 30
0.0
 11
10.393295364031
 21
172.092973832099
 31
0.0
  0
LINE
  5
480
330
1D
100
AcDbEntity
  8
0
100
AcDbLine
 10
9.864438430231
 20
171.098339811769
 30
0.0
 11
10.536438430231
 21
170.740339811769
 31
0.0
  0
LINE
  5
481
330
1D
100
AcDbEntity
  8
0
100
AcDbLine
 10
9.521438430218
 20
171.280339811776
 30
0.0
 11
9.797438430231
 21
171.133339811769
 31
0.0
  0
LINE
  5
482
330
1D
100
AcDbEntity
  8
0
100
AcDbLine
 10
9.521438430218
 20
171.280339811776
 30
0.0
 11
9.797438430231
 21
171.133339811769
 31
0.0
  0
LINE
  5
483
330
1D
100
AcDbEntity
  8
0
100
AcDbLine
 10
9.797438430231
 20
171.133339811769
 30
0.0
 11
10.468438430231
 21
170.776339811769
 31
0.0
  0
LINE
  5
484
330
1D
100
AcDbEntity
  8
0
100
AcDbLine
 10
9.403438430231
 20
170.945339811769
 30
0.0
 11
9.56836531287
 21
171.255346146016
 31
0.0
  0
LINE
  5
485
330
1D
100
AcDbEntity
  8
0
100
AcDbLine
 10
9.403438430231
 20
170.945339811769
 30
0.0
 11
9.851438430231
 21
170.707339811769
 31
0.0
  0
LINE
  5
486
330
1D
100
AcDbEntity
  8
0
100
AcDbLine
 10
9.424438430231
 20
170.933339811769
 30
0.0
 11
9.925438430231
 21
170.666339811769
 31
0.0
  0
LINE
  5
487
330
1D
100
AcDbEntity
  8
0
100
AcDbLine
 10
10.536438430231
 20
170.740339811769
 30
0.0
 11
11.065337975199
 21
171.735617230255
 31
0.0
  0
LINE
  5
488
330
1D
100
AcDbEntity
  8
0
100
AcDbLine
 10
10.536438430231
 20
170.740339811769
 30
0.0
 11
10.996438430231
 21
170.496339811769
 31
0.0
  0
LINE
  5
489
330
1D
100
AcDbEntity
  8
0
100
AcDbLine
 10
10.468438430231
 20
170.776339811769
 30
0.0
 11
10.545458038079
 21
170.735555498041
 31
0.0
  0
LINE
  5
48A
330
1D
100
AcDbEntity
  8
0
100
AcDbLine
 10
10.468438430231
 20
170.776339811769
 30
0.0
 11
10.545458038079
 21
170.735555498041
 31
0.0
  0
LINE
  5
48B
330
1D
100
AcDbEntity
  8
0
100
AcDbLine
 10
9.925438430231
 20
170.666339811769
 30
0.0
 11
10.455438430221
 21
170.385566002251
 31
0.0
  0
LINE
  5
48C
330
1D
100
AcDbEntity
  8
0
100
AcDbLine
 10
9.925438430231
 20
170.666339811769
 30
0.0
 11
10.455438430221
 21
170.385566002251
 31
0.0
  0
LINE
  5
48D
330
1D
100
AcDbEntity
  8
0
100
AcDbLine
 10
8.793438430231
 20
170.591339811769
 30
0.0
 11
9.294438430231
 21
170.324339811769
 31
0.0
  0
LINE
  5
48E
330
1D
100
AcDbEntity
  8
0
100
AcDbLine
 10
8.867438430231
 20
170.552339811769
 30
0.0
 11
9.315438430231
 21
170.313339811769
 31
0.0
  0
LINE
  5
48F
330
1D
100
AcDbEntity
  8
0
100
AcDbLine
 10
8.867438430231
 20
170.552339811769
 30
0.0
 11
8.982841466686
 21
170.769258192326
 31
0.0
  0
LINE
  5
490
330
1D
100
AcDbEntity
  8
0
100
AcDbLine
 10
7.055091316452
 20
172.426117231433
 30
0.0
 11
7.955016039962
 21
171.908465090144
 31
0.0
  0
LINE
  5
491
330
1D
100
AcDbEntity
  8
0
100
AcDbLine
 10
1.143438430231
 20
174.937339811769
 30
0.0
 11
1.533709025283
 21
175.671746778176
 31
0.0
  0
LINE
  5
492
330
1D
100
AcDbEntity
  8
0
100
AcDbLine
 10
1.143438430231
 20
174.937339811769
 30
0.0
 11
1.798438430231
 21
174.589339811769
 31
0.0
  0
LINE
  5
493
330
1D
100
AcDbEntity
  8
0
100
AcDbLine
 10
1.143438430231
 20
174.937339811769
 30
0.0
 11
1.448254447547
 21
174.775391759821
 31
0.0
  0
LINE
  5
494
330
1D
100
AcDbEntity
  8
0
100
AcDbLine
 10
1.143438430231
 20
174.937339811769
 30
0.0
 11
1.448254447547
 21
174.775391759821
 31
0.0
  0
LINE
  5
495
330
1D
100
AcDbEntity
  8
0
100
AcDbLine
 10
1.491438430231
 20
174.752339811769
 30
0.0
 11
2.146438430231
 21
174.404339811769
 31
0.0
  0
LINE
  5
496
330
1D
100
AcDbEntity
  8
0
100
AcDbLine
 10
2.679651781697
 20
174.519884609785
 30
0.0
 11
3.070438430231
 21
174.311339811769
 31
0.0
  0
LINE
  5
497
330
1D
100
AcDbEntity
  8
0
100
AcDbLine
 10
2.446438430231
 20
174.644339811769
 30
0.0
 11
3.070438430231
 21
174.311339811769
 31
0.0
  0
LINE
  5
498
330
1D
100
AcDbEntity
  8
0
100
AcDbLine
 10
2.446438430231
 20
174.644339811769
 30
0.0
 11
2.935344374963
 21
175.563316374549
 31
0.0
  0
LINE
  5
499
330
1D
100
AcDbEntity
  8
0
100
AcDbLine
 10
1.798438430231
 20
174.589339811769
 30
0.0
 11
2.361438430231
 21
174.290339811769
 31
0.0
  0
LINE
  5
49A
330
1D
100
AcDbEntity
  8
0
100
AcDbLine
 10
1.798438430231
 20
174.589339811769
 30
0.0
 11
1.963806401335
 21
174.900351352738
 31
0.0
  0
LINE
  5
49B
330
1D
100
AcDbEntity
  8
0
100
AcDbLine
 10
3.481348299876
 20
174.481795530537
 30
0.0
 11
3.534716127475
 21
174.451097440451
 31
0.0
  0
LINE
  5
49C
330
1D
100
AcDbEntity
  8
0
100
AcDbLine
 10
27.168438430231
 20
174.499339811769
 30
0.0
 11
38.469438430231
 21
168.491339811769
 31
0.0
  0
LINE
  5
49D
330
1D
100
AcDbEntity
  8
0
100
AcDbLine
 10
12.247123569854
 20
169.439571197748
 30
0.0
 11
12.939438430231
 21
169.041339811769
 31
0.0
  0
LINE
  5
49E
330
1D
100
AcDbEntity
  8
0
100
AcDbLine
 10
-18.734561569769
 20
190.412339811769
 30
0.0
 11
-17.231561569769
 21
187.914339811769
 31
0.0
  0
LINE
  5
49F
330
1D
100
AcDbEntity
  8
0
100
AcDbLine
 10
-18.885561569769
 20
193.324339811769
 30
0.0
 11
-18.152561569769
 21
195.766339811769
 31
0.0
  0
LINE
  5
4A0
330
1D
100
AcDbEntity
  8
0
100
AcDbLine
 10
-18.885561569769
 20
193.324339811769
 30
0.0
 11
-18.734561569769
 21
190.412339811769
 31
0.0
  0
LINE
  5
4A1
330
1D
100
AcDbEntity
  8
0
100
AcDbLine
 10
-17.231561569769
 20
187.914339811769
 30
0.0
 11
-15.258561569769
 21
186.299339811769
 31
0.0
  0
LINE
  5
4A2
330
1D
100
AcDbEntity
  8
0
100
AcDbLine
 10
-18.152561569769
 20
195.766339811769
 30
0.0
 11
-16.979561569769
 21
197.973339811769
 31
0.0
  0
LINE
  5
4A3
330
1D
100
AcDbEntity
  8
0
100
AcDbLine
 10
-16.979561569769
 20
197.973339811769
 30
0.0
 11
-15.389561569769
 21
197.128339811769
 31
0.0
  0
LINE
  5
4A4
330
1D
100
AcDbEntity
  8
0
100
AcDbLine
 10
-16.979561569769
 20
197.973339811769
 30
0.0
 11
-15.861561569769
 21
197.945339811769
 31
0.0
  0
LINE
  5
4A5
330
1D
100
AcDbEntity
  8
0
100
AcDbLine
 10
-15.258561569769
 20
186.299339811769
 30
0.0
 11
-14.168561569769
 21
185.153339811769
 31
0.0
  0
LINE
  5
4A6
330
1D
100
AcDbEntity
  8
0
100
AcDbLine
 10
-15.389561569769
 20
197.128339811769
 30
0.0
 11
-11.063561569769
 21
194.828339811769
 31
0.0
  0
LINE
  5
4A7
330
1D
100
AcDbEntity
  8
0
100
AcDbLine
 10
-15.861561569769
 20
197.945339811769
 30
0.0
 11
-14.272561569769
 21
197.100339811769
 31
0.0
  0
LINE
  5
4A8
330
1D
100
AcDbEntity
  8
0
100
AcDbLine
 10
-16.509561569769
 20
198.856339811769
 30
0.0
 11
-14.920561569769
 21
198.011339811769
 31
0.0
  0
LINE
  5
4A9
330
1D
100
AcDbEntity
  8
0
100
AcDbLine
 10
-16.509561569769
 20
198.856339811769
 30
0.0
 11
-15.861561569769
 21
197.945339811769
 31
0.0
  0
LINE
  5
4AA
330
1D
100
AcDbEntity
  8
0
100
AcDbLine
 10
-16.509561569769
 20
198.856339811769
 30
0.0
 11
-11.580561569769
 21
208.127339811769
 31
0.0
  0
LINE
  5
4AB
330
1D
100
AcDbEntity
  8
0
100
AcDbLine
 10
-11.717574624601
 20
182.573290203415
 30
0.0
 11
-11.607561569769
 21
182.514339811769
 31
0.0
  0
LINE
  5
4AC
330
1D
100
AcDbEntity
  8
0
100
AcDbLine
 10
-11.607502054636
 20
182.514451806699
 30
0.0
 11
-11.466561569769
 21
182.439339811769
 31
0.0
  0
LINE
  5
4AD
330
1D
100
AcDbEntity
  8
0
100
AcDbLine
 10
-11.607460917115
 20
182.514529218839
 30
0.0
 11
-11.466561569769
 21
182.439339811769
 31
0.0
  0
LINE
  5
4AE
330
1D
100
AcDbEntity
  8
0
100
AcDbLine
 10
-11.717574624601
 20
182.573290203415
 30
0.0
 11
-11.607561569769
 21
182.514339811769
 31
0.0
  0
LINE
  5
4AF
330
1D
100
AcDbEntity
  8
0
100
AcDbLine
 10
-11.466561569769
 20
182.439339811769
 30
0.0
 11
-11.338318946816
 21
182.371569319965
 31
0.0
  0
LINE
  5
4B0
330
1D
100
AcDbEntity
  8
0
100
AcDbLine
 10
-11.466561569769
 20
182.439339811769
 30
0.0
 11
-11.338318946816
 21
182.371569319965
 31
0.0
  0
LINE
  5
4B1
330
1D
100
AcDbEntity
  8
0
100
AcDbLine
 10
-12.490561569769
 20
182.984339811769
 30
0.0
 11
-11.990879518497
 21
182.719136392971
 31
0.0
  0
LINE
  5
4B2
330
1D
100
AcDbEntity
  8
0
100
AcDbLine
 10
-12.490561569769
 20
182.984339811769
 30
0.0
 11
-11.990879518497
 21
182.719136392971
 31
0.0
  0
LINE
  5
4B3
330
1D
100
AcDbEntity
  8
0
100
AcDbLine
 10
-12.490561569769
 20
182.984339811769
 30
0.0
 11
-11.607561569769
 21
182.514339811769
 31
0.0
  0
LINE
  5
4B4
330
1D
100
AcDbEntity
  8
0
100
AcDbLine
 10
-12.538171459883
 20
183.010125526057
 30
0.0
 11
-12.290355220535
 21
182.878514414929
 31
0.0
  0
LINE
  5
4B5
330
1D
100
AcDbEntity
  8
0
100
AcDbLine
 10
-12.468561569769
 20
182.973339811769
 30
0.0
 11
-11.965690342039
 21
183.918566347384
 31
0.0
  0
LINE
  5
4B6
330
1D
100
AcDbEntity
  8
0
100
AcDbLine
 10
-12.468561569769
 20
182.973339811769
 30
0.0
 11
-11.814561569769
 21
182.625339811769
 31
0.0
  0
LINE
  5
4B7
330
1D
100
AcDbEntity
  8
0
100
AcDbLine
 10
-13.373561569769
 20
183.454339811769
 30
0.0
 11
-13.108561569769
 21
183.313339811769
 31
0.0
  0
LINE
  5
4B8
330
1D
100
AcDbEntity
  8
0
100
AcDbLine
 10
-13.373561569769
 20
183.454339811769
 30
0.0
 11
-12.844522741079
 21
184.449315926216
 31
0.0
  0
LINE
  5
4B9
330
1D
100
AcDbEntity
  8
0
100
AcDbLine
 10
-13.373561569769
 20
183.454339811769
 30
0.0
 11
-12.837271521446
 21
183.168885312662
 31
0.0
  0
LINE
  5
4BA
330
1D
100
AcDbEntity
  8
0
100
AcDbLine
 10
-13.108561569769
 20
183.313339811769
 30
0.0
 11
-12.837259146535
 21
183.168908586455
 31
0.0
  0
LINE
  5
4BB
330
1D
100
AcDbEntity
  8
0
100
AcDbLine
 10
-13.108561569769
 20
183.313339811769
 30
0.0
 11
-12.588343422029
 21
184.291726658317
 31
0.0
  0
LINE
  5
4BC
330
1D
100
AcDbEntity
  8
0
100
AcDbLine
 10
-12.65439530472
 20
183.071544631052
 30
0.0
 11
-12.490561569769
 21
182.984339811769
 31
0.0
  0
LINE
  5
4BD
330
1D
100
AcDbEntity
  8
0
100
AcDbLine
 10
-12.65439530472
 20
183.071544631052
 30
0.0
 11
-12.490561569769
 21
182.984339811769
 31
0.0
  0
LINE
  5
4BE
330
1D
100
AcDbEntity
  8
0
100
AcDbLine
 10
-12.650783791998
 20
183.069636108069
 30
0.0
 11
-12.490561569769
 21
182.984339811769
 31
0.0
  0
LINE
  5
4BF
330
1D
100
AcDbEntity
  8
0
100
AcDbLine
 10
-12.650783791998
 20
183.069636108069
 30
0.0
 11
-12.490561569769
 21
182.984339811769
 31
0.0
  0
LINE
  5
4C0
330
1D
100
AcDbEntity
  8
0
100
AcDbLine
 10
-12.837561569769
 20
183.168339811769
 30
0.0
 11
-12.326040263955
 21
184.130370297463
 31
0.0
  0
LINE
  5
4C1
330
1D
100
AcDbEntity
  8
0
100
AcDbLine
 10
-12.837561569769
 20
183.168339811769
 30
0.0
 11
-12.468561569769
 21
182.973339811769
 31
0.0
  0
LINE
  5
4C2
330
1D
100
AcDbEntity
  8
0
100
AcDbLine
 10
-12.837561569769
 20
183.168339811769
 30
0.0
 11
-11.967561569769
 21
182.706339811769
 31
0.0
  0
LINE
  5
4C3
330
1D
100
AcDbEntity
  8
0
100
AcDbLine
 10
-12.837561569769
 20
183.168339811769
 30
0.0
 11
-12.650783791998
 21
183.069636108069
 31
0.0
  0
LINE
  5
4C4
330
1D
100
AcDbEntity
  8
0
100
AcDbLine
 10
-12.837561569769
 20
183.168339811769
 30
0.0
 11
-12.650783791998
 21
183.069636108069
 31
0.0
  0
LINE
  5
4C5
330
1D
100
AcDbEntity
  8
0
100
AcDbLine
 10
-12.538171459883
 20
183.010125526057
 30
0.0
 11
-12.290355220535
 21
182.878514414929
 31
0.0
  0
LINE
  5
4C6
330
1D
100
AcDbEntity
  8
0
100
AcDbLine
 10
-11.990879518497
 20
182.719136392971
 30
0.0
 11
-11.717574624601
 21
182.573290203415
 31
0.0
  0
LINE
  5
4C7
330
1D
100
AcDbEntity
  8
0
100
AcDbLine
 10
-12.006561569788
 20
182.727504949394
 30
0.0
 11
-11.466561569769
 21
182.439339811769
 31
0.0
  0
LINE
  5
4C8
330
1D
100
AcDbEntity
  8
0
100
AcDbLine
 10
-11.967561569769
 20
182.706339811769
 30
0.0
 11
-11.67853472413
 21
182.552856590292
 31
0.0
  0
LINE
  5
4C9
330
1D
100
AcDbEntity
  8
0
100
AcDbLine
 10
-11.967561569769
 20
182.706339811769
 30
0.0
 11
-11.466561569769
 21
182.439339811769
 31
0.0
  0
LINE
  5
4CA
330
1D
100
AcDbEntity
  8
0
100
AcDbLine
 10
-11.967561569769
 20
182.706339811769
 30
0.0
 11
-11.831954282327
 21
182.634327666024
 31
0.0
  0
LINE
  5
4CB
330
1D
100
AcDbEntity
  8
0
100
AcDbLine
 10
-11.967561569769
 20
182.706339811769
 30
0.0
 11
-11.831954282327
 21
182.634327666024
 31
0.0
  0
LINE
  5
4CC
330
1D
100
AcDbEntity
  8
0
100
AcDbLine
 10
-11.967561569769
 20
182.706339811769
 30
0.0
 11
-11.656863895361
 21
182.540758416426
 31
0.0
  0
LINE
  5
4CD
330
1D
100
AcDbEntity
  8
0
100
AcDbLine
 10
-11.967561569769
 20
182.706339811769
 30
0.0
 11
-11.656863895361
 21
182.540758416426
 31
0.0
  0
LINE
  5
4CE
330
1D
100
AcDbEntity
  8
0
100
AcDbLine
 10
-12.006561569788
 20
182.727504949394
 30
0.0
 11
-11.466561569769
 21
182.439339811769
 31
0.0
  0
LINE
  5
4CF
330
1D
100
AcDbEntity
  8
0
100
AcDbLine
 10
-11.814561569769
 20
182.625339811769
 30
0.0
 11
-11.251561569769
 21
182.325339811769
 31
0.0
  0
LINE
  5
4D0
330
1D
100
AcDbEntity
  8
0
100
AcDbLine
 10
-11.814561569769
 20
182.625339811769
 30
0.0
 11
-11.330809067631
 21
183.535144837089
 31
0.0
  0
LINE
  5
4D1
330
1D
100
AcDbEntity
  8
0
100
AcDbLine
 10
-11.814561569769
 20
182.625339811769
 30
0.0
 11
-11.330809067631
 21
183.535144837089
 31
0.0
  0
LINE
  5
4D2
330
1D
100
AcDbEntity
  8
0
100
AcDbLine
 10
-11.243561569769
 20
182.321339811769
 30
0.0
 11
-10.71438284763
 21
183.316579027207
 31
0.0
  0
LINE
  5
4D3
330
1D
100
AcDbEntity
  8
0
100
AcDbLine
 10
-11.243561569769
 20
182.321339811769
 30
0.0
 11
-10.783561569769
 21
182.077339811769
 31
0.0
  0
LINE
  5
4D4
330
1D
100
AcDbEntity
  8
0
100
AcDbLine
 10
-11.251561569769
 20
182.325339811769
 30
0.0
 11
-10.783912144117
 21
183.204859391854
 31
0.0
  0
LINE
  5
4D5
330
1D
100
AcDbEntity
  8
0
100
AcDbLine
 10
-11.251561569769
 20
182.325339811769
 30
0.0
 11
-11.196979291297
 21
182.296630951014
 31
0.0
  0
LINE
  5
4D6
330
1D
100
AcDbEntity
  8
0
100
AcDbLine
 10
-11.251561569769
 20
182.325339811769
 30
0.0
 11
-11.196979291297
 21
182.296630951014
 31
0.0
  0
LINE
  5
4D7
330
1D
100
AcDbEntity
  8
0
100
AcDbLine
 10
-14.168561569769
 20
185.153339811769
 30
0.0
 11
-12.887177007932
 21
184.369095015394
 31
0.0
  0
LINE
  5
4D8
330
1D
100
AcDbEntity
  8
0
100
AcDbLine
 10
-14.168561569769
 20
185.153339811769
 30
0.0
 11
-12.887177007932
 21
184.369095015394
 31
0.0
  0
LINE
  5
4D9
330
1D
100
AcDbEntity
  8
0
100
AcDbLine
 10
-10.783561569769
 20
182.077339811769
 30
0.0
 11
-10.254403459513
 21
183.071976728277
 31
0.0
  0
LINE
  5
4DA
330
1D
100
AcDbEntity
  8
0
100
AcDbLine
 10
-10.783561569769
 20
182.077339811769
 30
0.0
 11
-10.111561569769
 21
181.720339811769
 31
0.0
  0
LINE
  5
4DB
330
1D
100
AcDbEntity
  8
0
100
AcDbLine
 10
-11.063561569769
 20
194.828339811769
 30
0.0
 11
-3.999561569769
 21
191.072339811769
 31
0.0
  0
LINE
  5
4DC
330
1D
100
AcDbEntity
  8
0
100
AcDbLine
 10
-14.272561569769
 20
197.100339811769
 30
0.0
 11
-10.034561569769
 21
194.847339811769
 31
0.0
  0
LINE
  5
4DD
330
1D
100
AcDbEntity
  8
0
100
AcDbLine
 10
-14.920561569769
 20
198.011339811769
 30
0.0
 11
-10.593561569769
 21
195.710339811769
 31
0.0
  0
LINE
  5
4DE
330
1D
100
AcDbEntity
  8
0
100
AcDbLine
 10
-11.580561569769
 20
208.127339811769
 30
0.0
 11
-10.669561569769
 21
208.775339811769
 31
0.0
  0
LINE
  5
4DF
330
1D
100
AcDbEntity
  8
0
100
AcDbLine
 10
-10.044561569769
 20
181.684339811769
 30
0.0
 11
-9.584561569769
 21
181.439339811769
 31
0.0
  0
LINE
  5
4E0
330
1D
100
AcDbEntity
  8
0
100
AcDbLine
 10
-10.557679216864
 20
181.957339811788
 30
0.0
 11
-10.044561569769
 21
181.684339811769
 31
0.0
  0
LINE
  5
4E1
330
1D
100
AcDbEntity
  8
0
100
AcDbLine
 10
-10.557679216864
 20
181.957339811788
 30
0.0
 11
-10.044561569769
 21
181.684339811769
 31
0.0
  0
LINE
  5
4E2
330
1D
100
AcDbEntity
  8
0
100
AcDbLine
 10
-10.111561569769
 20
181.720339811769
 30
0.0
 11
-9.621561569769
 21
181.459339811769
 31
0.0
  0
LINE
  5
4E3
330
1D
100
AcDbEntity
  8
0
100
AcDbLine
 10
-10.111561569769
 20
181.720339811769
 30
0.0
 11
-9.582987046434
 21
182.714938994802
 31
0.0
  0
LINE
  5
4E4
330
1D
100
AcDbEntity
  8
0
100
AcDbLine
 10
-5.066561569769
 20
178.639339811769
 30
0.0
 11
-4.901699220495
 21
178.949224845281
 31
0.0
  0
LINE
  5
4E5
330
1D
100
AcDbEntity
  8
0
100
AcDbLine
 10
-5.066561569769
 20
178.639339811769
 30
0.0
 11
-4.401561569769
 21
178.284339811769
 31
0.0
  0
LINE
  5
4E6
330
1D
100
AcDbEntity
  8
0
100
AcDbLine
 10
-5.110561569769
 20
179.060339811769
 30
0.0
 11
-4.581143128967
 21
180.056029871892
 31
0.0
  0
LINE
  5
4E7
330
1D
100
AcDbEntity
  8
0
100
AcDbLine
 10
-5.110561569769
 20
179.060339811769
 30
0.0
 11
-4.510561569769
 21
178.741339811769
 31
0.0
  0
LINE
  5
4E8
330
1D
100
AcDbEntity
  8
0
100
AcDbLine
 10
-5.001561569769
 20
179.002339811769
 30
0.0
 11
-4.358561569769
 21
178.660339811769
 31
0.0
  0
LINE
  5
4E9
330
1D
100
AcDbEntity
  8
0
100
AcDbLine
 10
-5.482561569769
 20
178.860339811769
 30
0.0
 11
-5.022382351192
 21
179.725319919104
 31
0.0
  0
LINE
  5
4EA
330
1D
100
AcDbEntity
  8
0
100
AcDbLine
 10
-5.482561569769
 20
178.860339811769
 30
0.0
 11
-5.386561569769
 21
178.808339811769
 31
0.0
  0
LINE
  5
4EB
330
1D
100
AcDbEntity
  8
0
100
AcDbLine
 10
-5.482561569769
 20
178.860339811769
 30
0.0
 11
-5.066561569769
 21
178.639339811769
 31
0.0
  0
LINE
  5
4EC
330
1D
100
AcDbEntity
  8
0
100
AcDbLine
 10
-5.386561569769
 20
178.808339811769
 30
0.0
 11
-4.858561569769
 21
178.527339811769
 31
0.0
  0
LINE
  5
4ED
330
1D
100
AcDbEntity
  8
0
100
AcDbLine
 10
-4.858561569769
 20
178.527339811769
 30
0.0
 11
-4.605600145416
 21
178.393262660423
 31
0.0
  0
LINE
  5
4EE
330
1D
100
AcDbEntity
  8
0
100
AcDbLine
 10
-4.858561569769
 20
178.527339811769
 30
0.0
 11
-4.605600145416
 21
178.393262660423
 31
0.0
  0
LINE
  5
4EF
330
1D
100
AcDbEntity
  8
0
100
AcDbLine
 10
-4.858561569769
 20
178.527339811769
 30
0.0
 11
-4.621021569737
 21
178.401436478419
 31
0.0
  0
LINE
  5
4F0
330
1D
100
AcDbEntity
  8
0
100
AcDbLine
 10
-4.858561569769
 20
178.527339811769
 30
0.0
 11
-4.621021569737
 21
178.401436478419
 31
0.0
  0
LINE
  5
4F1
330
1D
100
AcDbEntity
  8
0
100
AcDbLine
 10
-7.112561569769
 20
180.124339811769
 30
0.0
 11
-7.032561569769
 21
180.083339811769
 31
0.0
  0
LINE
  5
4F2
330
1D
100
AcDbEntity
  8
0
100
AcDbLine
 10
-7.032561569769
 20
180.083339811769
 30
0.0
 11
-6.583122649645
 21
180.928131818179
 31
0.0
  0
LINE
  5
4F3
330
1D
100
AcDbEntity
  8
0
100
AcDbLine
 10
-7.877561569769
 20
180.531339811769
 30
0.0
 11
-7.435561569769
 21
180.296339811769
 31
0.0
  0
LINE
  5
4F4
330
1D
100
AcDbEntity
  8
0
100
AcDbLine
 10
-7.877561569769
 20
180.531339811769
 30
0.0
 11
-7.675543574898
 21
180.424234413305
 31
0.0
  0
LINE
  5
4F5
330
1D
100
AcDbEntity
  8
0
100
AcDbLine
 10
-7.877561569769
 20
180.531339811769
 30
0.0
 11
-7.112561569769
 21
180.124339811769
 31
0.0
  0
LINE
  5
4F6
330
1D
100
AcDbEntity
  8
0
100
AcDbLine
 10
-7.877561569769
 20
180.531339811769
 30
0.0
 11
-7.675543574898
 21
180.424234413305
 31
0.0
  0
LINE
  5
4F7
330
1D
100
AcDbEntity
  8
0
100
AcDbLine
 10
-7.877561569769
 20
180.531339811769
 30
0.0
 11
-7.451931940187
 21
180.305043515498
 31
0.0
  0
LINE
  5
4F8
330
1D
100
AcDbEntity
  8
0
100
AcDbLine
 10
-7.877561569769
 20
180.531339811769
 30
0.0
 11
-7.739036979593
 21
180.457897188812
 31
0.0
  0
LINE
  5
4F9
330
1D
100
AcDbEntity
  8
0
100
AcDbLine
 10
-7.877561569769
 20
180.531339811769
 30
0.0
 11
-7.451931940187
 21
180.305043515498
 31
0.0
  0
LINE
  5
4FA
330
1D
100
AcDbEntity
  8
0
100
AcDbLine
 10
-6.750600365167
 20
180.613330787405
 30
0.0
 11
-5.916931603345
 21
180.103101143759
 31
0.0
  0
LINE
  5
4FB
330
1D
100
AcDbEntity
  8
0
100
AcDbLine
 10
-7.651561569769
 20
180.411339811769
 30
0.0
 11
-7.112561569769
 21
180.124339811769
 31
0.0
  0
LINE
  5
4FC
330
1D
100
AcDbEntity
  8
0
100
AcDbLine
 10
-7.435561569769
 20
180.296339811769
 30
0.0
 11
-7.032561569769
 21
180.083339811769
 31
0.0
  0
LINE
  5
4FD
330
1D
100
AcDbEntity
  8
0
100
AcDbLine
 10
-7.435561569769
 20
180.296339811769
 30
0.0
 11
-6.906416422364
 21
181.292079402253
 31
0.0
  0
LINE
  5
4FE
330
1D
100
AcDbEntity
  8
0
100
AcDbLine
 10
-5.305561569769
 20
179.164339811769
 30
0.0
 11
-4.776285530266
 21
180.159762054326
 31
0.0
  0
LINE
  5
4FF
330
1D
100
AcDbEntity
  8
0
100
AcDbLine
 10
-5.305561569769
 20
179.164339811769
 30
0.0
 11
-5.110561569769
 21
179.060339811769
 31
0.0
  0
LINE
  5
500
330
1D
100
AcDbEntity
  8
0
100
AcDbLine
 10
-6.336561569769
 20
179.314339811769
 30
0.0
 11
-6.018561569769
 21
179.144339811769
 31
0.0
  0
LINE
  5
501
330
1D
100
AcDbEntity
  8
0
100
AcDbLine
 10
-6.336561569769
 20
179.314339811769
 30
0.0
 11
-5.882984365286
 21
180.166910382495
 31
0.0
  0
LINE
  5
502
330
1D
100
AcDbEntity
  8
0
100
AcDbLine
 10
-6.018561569769
 20
179.144339811769
 30
0.0
 11
-5.404789417875
 21
178.818213229493
 31
0.0
  0
LINE
  5
503
330
1D
100
AcDbEntity
  8
0
100
AcDbLine
 10
-6.018561569769
 20
179.144339811769
 30
0.0
 11
-5.404789417875
 21
178.818213229493
 31
0.0
  0
LINE
  5
504
330
1D
100
AcDbEntity
  8
0
100
AcDbLine
 10
-6.018561569769
 20
179.144339811769
 30
0.0
 11
-5.575986771042
 21
179.978060141567
 31
0.0
  0
LINE
  5
505
330
1D
100
AcDbEntity
  8
0
100
AcDbLine
 10
-3.81397333447
 20
177.972825105884
 30
0.0
 11
-3.372561569769
 21
177.737339811769
 31
0.0
  0
LINE
  5
506
330
1D
100
AcDbEntity
  8
0
100
AcDbLine
 10
-3.81397333447
 20
177.972825105884
 30
0.0
 11
-3.372561569769
 21
177.737339811769
 31
0.0
  0
LINE
  5
507
330
1D
100
AcDbEntity
  8
0
100
AcDbLine
 10
-3.799561569769
 20
177.965339811769
 30
0.0
 11
-3.634405499378
 21
178.275952825943
 31
0.0
  0
LINE
  5
508
330
1D
100
AcDbEntity
  8
0
100
AcDbLine
 10
-3.799561569769
 20
177.965339811769
 30
0.0
 11
-3.298561569769
 21
177.698339811769
 31
0.0
  0
LINE
  5
509
330
1D
100
AcDbEntity
  8
0
100
AcDbLine
 10
-4.596452658866
 20
178.388379415723
 30
0.0
 11
-4.401561569769
 21
178.284339811769
 31
0.0
  0
LINE
  5
50A
330
1D
100
AcDbEntity
  8
0
100
AcDbLine
 10
-4.596452658866
 20
178.388379415723
 30
0.0
 11
-4.401561569769
 21
178.284339811769
 31
0.0
  0
LINE
  5
50B
330
1D
100
AcDbEntity
  8
0
100
AcDbLine
 10
-3.757561569769
 20
178.341339811769
 30
0.0
 11
-3.563561569769
 21
178.238339811769
 31
0.0
  0
LINE
  5
50C
330
1D
100
AcDbEntity
  8
0
100
AcDbLine
 10
-3.563561569769
 20
178.238339811769
 30
0.0
 11
-3.050703177774
 21
179.202338812697
 31
0.0
  0
LINE
  5
50D
330
1D
100
AcDbEntity
  8
0
100
AcDbLine
 10
-3.872561569769
 20
178.003339811769
 30
0.0
 11
-3.707091303153
 21
178.31454374238
 31
0.0
  0
LINE
  5
50E
330
1D
100
AcDbEntity
  8
0
100
AcDbLine
 10
-3.872561569769
 20
178.003339811769
 30
0.0
 11
-3.81397333447
 21
177.972825105884
 31
0.0
  0
LINE
  5
50F
330
1D
100
AcDbEntity
  8
0
100
AcDbLine
 10
-4.401561569769
 20
178.284339811769
 30
0.0
 11
-3.872561569769
 21
178.003339811769
 31
0.0
  0
LINE
  5
510
330
1D
100
AcDbEntity
  8
0
100
AcDbLine
 10
-4.401561569769
 20
178.284339811769
 30
0.0
 11
-4.236250953158
 21
178.5954195344
 31
0.0
  0
LINE
  5
511
330
1D
100
AcDbEntity
  8
0
100
AcDbLine
 10
-3.820561569769
 20
177.976339811769
 30
0.0
 11
-3.655480762516
 21
178.287142269774
 31
0.0
  0
LINE
  5
512
330
1D
100
AcDbEntity
  8
0
100
AcDbLine
 10
-3.820561569769
 20
177.976339811769
 30
0.0
 11
-3.372561569769
 21
177.737339811769
 31
0.0
  0
LINE
  5
513
330
1D
100
AcDbEntity
  8
0
100
AcDbLine
 10
-4.510561569769
 20
178.741339811769
 30
0.0
 11
-3.981119513966
 21
179.737074285195
 31
0.0
  0
LINE
  5
514
330
1D
100
AcDbEntity
  8
0
100
AcDbLine
 10
-4.510561569769
 20
178.741339811769
 30
0.0
 11
-3.866561569769
 21
178.399339811769
 31
0.0
  0
LINE
  5
515
330
1D
100
AcDbEntity
  8
0
100
AcDbLine
 10
-4.358561569769
 20
178.660339811769
 30
0.0
 11
-3.757561569769
 21
178.341339811769
 31
0.0
  0
LINE
  5
516
330
1D
100
AcDbEntity
  8
0
100
AcDbLine
 10
-3.866561569769
 20
178.399339811769
 30
0.0
 11
-3.563561569769
 21
178.238339811769
 31
0.0
  0
LINE
  5
517
330
1D
100
AcDbEntity
  8
0
100
AcDbLine
 10
-3.866561569769
 20
178.399339811769
 30
0.0
 11
-3.339980273928
 21
179.389693984776
 31
0.0
  0
LINE
  5
518
330
1D
100
AcDbEntity
  8
0
100
AcDbLine
 10
-9.584561569769
 20
181.439339811769
 30
0.0
 11
-9.061795618491
 21
182.422518374024
 31
0.0
  0
LINE
  5
519
330
1D
100
AcDbEntity
  8
0
100
AcDbLine
 10
-9.584561569769
 20
181.439339811769
 30
0.0
 11
-9.061795618491
 21
182.422518374024
 31
0.0
  0
LINE
  5
51A
330
1D
100
AcDbEntity
  8
0
100
AcDbLine
 10
-9.621561569769
 20
181.459339811769
 30
0.0
 11
-9.097540347977
 21
182.444879191624
 31
0.0
  0
LINE
  5
51B
330
1D
100
AcDbEntity
  8
0
100
AcDbLine
 10
-9.621561569769
 20
181.459339811769
 30
0.0
 11
-9.097540347977
 21
182.444879191624
 31
0.0
  0
LINE
  5
51C
330
1D
100
AcDbEntity
  8
0
100
AcDbLine
 10
-9.220121971405
 20
182.124750174612
 30
0.0
 11
-8.385132336983
 21
181.613712118336
 31
0.0
  0
LINE
  5
51D
330
1D
100
AcDbEntity
  8
0
100
AcDbLine
 10
-8.473110113447
 20
180.848791268074
 30
0.0
 11
-8.318561569769
 21
180.766339811769
 31
0.0
  0
LINE
  5
51E
330
1D
100
AcDbEntity
  8
0
100
AcDbLine
 10
-8.641561569769
 20
180.938339811769
 30
0.0
 11
-8.112566065094
 21
181.933234445694
 31
0.0
  0
LINE
  5
51F
330
1D
100
AcDbEntity
  8
0
100
AcDbLine
 10
-8.641561569769
 20
180.938339811769
 30
0.0
 11
-8.103561569769
 21
180.652339811769
 31
0.0
  0
LINE
  5
520
330
1D
100
AcDbEntity
  8
0
100
AcDbLine
 10
-8.641561569769
 20
180.938339811769
 30
0.0
 11
-8.473110113447
 21
180.848791268074
 31
0.0
  0
LINE
  5
521
330
1D
100
AcDbEntity
  8
0
100
AcDbLine
 10
-8.641561569769
 20
180.938339811769
 30
0.0
 11
-8.473110113447
 21
180.848791268074
 31
0.0
  0
LINE
  5
522
330
1D
100
AcDbEntity
  8
0
100
AcDbLine
 10
-8.721561569769
 20
180.981339811769
 30
0.0
 11
-8.641561569769
 21
180.938339811769
 31
0.0
  0
LINE
  5
523
330
1D
100
AcDbEntity
  8
0
100
AcDbLine
 10
-8.473110113447
 20
180.848791268074
 30
0.0
 11
-8.318561569769
 21
180.766339811769
 31
0.0
  0
LINE
  5
524
330
1D
100
AcDbEntity
  8
0
100
AcDbLine
 10
-8.721561569769
 20
180.981339811769
 30
0.0
 11
-8.222744104661
 21
181.91894665513
 31
0.0
  0
LINE
  5
525
330
1D
100
AcDbEntity
  8
0
100
AcDbLine
 10
-8.721561569769
 20
180.981339811769
 30
0.0
 11
-8.641561569769
 21
180.938339811769
 31
0.0
  0
LINE
  5
526
330
1D
100
AcDbEntity
  8
0
100
AcDbLine
 10
-8.103561569769
 20
180.652339811769
 30
0.0
 11
-7.574326447368
 21
181.647121484865
 31
0.0
  0
LINE
  5
527
330
1D
100
AcDbEntity
  8
0
100
AcDbLine
 10
-8.103561569769
 20
180.652339811769
 30
0.0
 11
-7.435561569769
 21
180.296339811769
 31
0.0
  0
LINE
  5
528
330
1D
100
AcDbEntity
  8
0
100
AcDbLine
 10
-8.318561569769
 20
180.766339811769
 30
0.0
 11
-7.651561569769
 21
180.411339811769
 31
0.0
  0
LINE
  5
529
330
1D
100
AcDbEntity
  8
0
100
AcDbLine
 10
-3.999561569769
 20
191.072339811769
 30
0.0
 11
5.182438430231
 21
186.189339811769
 31
0.0
  0
LINE
  5
52A
330
1D
100
AcDbEntity
  8
0
100
AcDbLine
 10
-9.220121971405
 20
182.124750174612
 30
0.0
 11
-8.385132336983
 21
181.613712118336
 31
0.0
  0
LINE
  5
52B
330
1D
100
AcDbEntity
  8
0
100
AcDbLine
 10
-6.750600365167
 20
180.613330787405
 30
0.0
 11
-5.916931603345
 21
180.103101143759
 31
0.0
  0
LINE
  5
52C
330
1D
100
AcDbEntity
  8
0
100
AcDbLine
 10
-10.034561569769
 20
194.847339811769
 30
0.0
 11
-3.147561569769
 21
191.185339811769
 31
0.0
  0
LINE
  5
52D
330
1D
100
AcDbEntity
  8
0
100
AcDbLine
 10
-10.593561569769
 20
195.710339811769
 30
0.0
 11
-3.530561569769
 21
191.955339811769
 31
0.0
  0
LINE
  5
52E
330
1D
100
AcDbEntity
  8
0
100
AcDbLine
 10
-10.669561569769
 20
208.775339811769
 30
0.0
 11
-6.170561569769
 21
209.781339811769
 31
0.0
  0
LINE
  5
52F
330
1D
100
AcDbEntity
  8
0
100
AcDbLine
 10
-6.170561569769
 20
209.781339811769
 30
0.0
 11
-1.023561569769
 21
209.875339811769
 31
0.0
  0
LINE
  5
530
330
1D
100
AcDbEntity
  8
0
100
AcDbLine
 10
0.680438430231
 20
175.981339811769
 30
0.0
 11
1.209637254331
 21
176.976616833452
 31
0.0
  0
LINE
  5
531
330
1D
100
AcDbEntity
  8
0
100
AcDbLine
 10
0.680438430231
 20
175.981339811769
 30
0.0
 11
1.209637254331
 21
176.976616833452
 31
0.0
  0
LINE
  5
532
330
1D
100
AcDbEntity
  8
0
100
AcDbLine
 10
0.243438430231
 20
175.815339811769
 30
0.0
 11
0.408627502524
 21
176.125838973213
 31
0.0
  0
LINE
  5
533
330
1D
100
AcDbEntity
  8
0
100
AcDbLine
 10
0.408627502524
 20
176.125838973213
 30
0.0
 11
0.486438430231
 21
176.084339811769
 31
0.0
  0
LINE
  5
534
330
1D
100
AcDbEntity
  8
0
100
AcDbLine
 10
-0.113561569769
 20
176.404339811769
 30
0.0
 11
0.415570084458
 21
177.398926999958
 31
0.0
  0
LINE
  5
535
330
1D
100
AcDbEntity
  8
0
100
AcDbLine
 10
-0.113561569769
 20
176.404339811769
 30
0.0
 11
0.486438430231
 21
176.084339811769
 31
0.0
  0
LINE
  5
536
330
1D
100
AcDbEntity
  8
0
100
AcDbLine
 10
-0.266561569769
 20
176.485339811769
 30
0.0
 11
-0.003107024295
 21
176.34543072085
 31
0.0
  0
LINE
  5
537
330
1D
100
AcDbEntity
  8
0
100
AcDbLine
 10
-0.266561569769
 20
176.485339811769
 30
0.0
 11
-0.003107024295
 21
176.34543072085
 31
0.0
  0
LINE
  5
538
330
1D
100
AcDbEntity
  8
0
100
AcDbLine
 10
0.486438430231
 20
176.084339811769
 30
0.0
 11
0.680438430231
 21
175.981339811769
 31
0.0
  0
LINE
  5
539
330
1D
100
AcDbEntity
  8
0
100
AcDbLine
 10
0.486438430231
 20
176.084339811769
 30
0.0
 11
1.015709943957
 21
177.079753542589
 31
0.0
  0
LINE
  5
53A
330
1D
100
AcDbEntity
  8
0
100
AcDbLine
 10
-0.768561569769
 20
176.352339811769
 30
0.0
 11
-0.602866939688
 21
176.664142166776
 31
0.0
  0
LINE
  5
53B
330
1D
100
AcDbEntity
  8
0
100
AcDbLine
 10
-0.768561569769
 20
176.352339811769
 30
0.0
 11
-0.110561569769
 21
176.003339811769
 31
0.0
  0
LINE
  5
53C
330
1D
100
AcDbEntity
  8
0
100
AcDbLine
 10
-0.757561569769
 20
176.746339811769
 30
0.0
 11
-0.228222709908
 21
177.741316475937
 31
0.0
  0
LINE
  5
53D
330
1D
100
AcDbEntity
  8
0
100
AcDbLine
 10
-0.757561569769
 20
176.746339811769
 30
0.0
 11
-0.113561569769
 21
176.404339811769
 31
0.0
  0
LINE
  5
53E
330
1D
100
AcDbEntity
  8
0
100
AcDbLine
 10
-1.060561569769
 20
176.907339811769
 30
0.0
 11
-0.531396257367
 21
177.902553807191
 31
0.0
  0
LINE
  5
53F
330
1D
100
AcDbEntity
  8
0
100
AcDbLine
 10
-1.060561569769
 20
176.907339811769
 30
0.0
 11
-0.757561569769
 21
176.746339811769
 31
0.0
  0
LINE
  5
540
330
1D
100
AcDbEntity
  8
0
100
AcDbLine
 10
-0.678425976652
 20
176.704314388095
 30
0.0
 11
-0.266561569769
 21
176.485339811769
 31
0.0
  0
LINE
  5
541
330
1D
100
AcDbEntity
  8
0
100
AcDbLine
 10
-0.678425976652
 20
176.704314388095
 30
0.0
 11
-0.266561569769
 21
176.485339811769
 31
0.0
  0
LINE
  5
542
330
1D
100
AcDbEntity
  8
0
100
AcDbLine
 10
-1.340561569769
 20
176.657339811769
 30
0.0
 11
-0.896806729199
 21
177.491920268048
 31
0.0
  0
LINE
  5
543
330
1D
100
AcDbEntity
  8
0
100
AcDbLine
 10
-1.340561569769
 20
176.657339811769
 30
0.0
 11
-0.768561569769
 21
176.352339811769
 31
0.0
  0
LINE
  5
544
330
1D
100
AcDbEntity
  8
0
100
AcDbLine
 10
-1.477561569769
 20
176.730339811769
 30
0.0
 11
-1.029675823613
 21
177.572212380422
 31
0.0
  0
LINE
  5
545
330
1D
100
AcDbEntity
  8
0
100
AcDbLine
 10
-1.477561569769
 20
176.730339811769
 30
0.0
 11
-1.340561569769
 21
176.657339811769
 31
0.0
  0
LINE
  5
546
330
1D
100
AcDbEntity
  8
0
100
AcDbLine
 10
-1.477561569769
 20
176.730339811769
 30
0.0
 11
-1.214391770701
 21
177.225009348888
 31
0.0
  0
LINE
  5
547
330
1D
100
AcDbEntity
  8
0
100
AcDbLine
 10
-0.110561569769
 20
176.003339811769
 30
0.0
 11
0.243438430231
 21
175.815339811769
 31
0.0
  0
LINE
  5
548
330
1D
100
AcDbEntity
  8
0
100
AcDbLine
 10
-0.110561569769
 20
176.003339811769
 30
0.0
 11
0.05488602155
 21
176.314501096399
 31
0.0
  0
LINE
  5
549
330
1D
100
AcDbEntity
  8
0
100
AcDbLine
 10
-2.178561569769
 20
177.102339811769
 30
0.0
 11
-1.774057708355
 21
177.863530784205
 31
0.0
  0
LINE
  5
54A
330
1D
100
AcDbEntity
  8
0
100
AcDbLine
 10
-2.178561569769
 20
177.102339811769
 30
0.0
 11
-1.892746996951
 21
177.640182570202
 31
0.0
  0
LINE
  5
54B
330
1D
100
AcDbEntity
  8
0
100
AcDbLine
 10
-2.626561569769
 20
177.340339811769
 30
0.0
 11
-2.178561569769
 21
177.102339811769
 31
0.0
  0
LINE
  5
54C
330
1D
100
AcDbEntity
  8
0
100
AcDbLine
 10
-2.626561569769
 20
177.340339811769
 30
0.0
 11
-2.205205234098
 21
178.133243587201
 31
0.0
  0
LINE
  5
54D
330
1D
100
AcDbEntity
  8
0
100
AcDbLine
 10
0.775438430231
 20
175.134339811769
 30
0.0
 11
1.143438430231
 21
174.937339811769
 31
0.0
  0
LINE
  5
54E
330
1D
100
AcDbEntity
  8
0
100
AcDbLine
 10
1.572438430231
 20
175.108339811769
 30
0.0
 11
2.007396340228
 21
175.926375668056
 31
0.0
  0
LINE
  5
54F
330
1D
100
AcDbEntity
  8
0
100
AcDbLine
 10
1.572438430231
 20
175.108339811769
 30
0.0
 11
1.822438430231
 21
174.975339811769
 31
0.0
  0
LINE
  5
550
330
1D
100
AcDbEntity
  8
0
100
AcDbLine
 10
1.822438430231
 20
174.975339811769
 30
0.0
 11
2.446438430231
 21
174.644339811769
 31
0.0
  0
LINE
  5
551
330
1D
100
AcDbEntity
  8
0
100
AcDbLine
 10
1.822438430231
 20
174.975339811769
 30
0.0
 11
2.245959540685
 21
175.771866202676
 31
0.0
  0
LINE
  5
552
330
1D
100
AcDbEntity
  8
0
100
AcDbLine
 10
0.775438430231
 20
175.134339811769
 30
0.0
 11
1.165557690584
 21
175.867631073242
 31
0.0
  0
LINE
  5
553
330
1D
100
AcDbEntity
  8
0
100
AcDbLine
 10
0.775438430231
 20
175.134339811769
 30
0.0
 11
1.143438430231
 21
174.937339811769
 31
0.0
  0
LINE
  5
554
330
1D
100
AcDbEntity
  8
0
100
AcDbLine
 10
0.725874015573
 20
176.066791615511
 30
0.0
 11
1.143661251286
 21
175.826473229407
 31
0.0
  0
LINE
  5
555
330
1D
100
AcDbEntity
  8
0
100
AcDbLine
 10
0.725874015573
 20
176.066791615511
 30
0.0
 11
1.143661251286
 21
175.826473229407
 31
0.0
  0
LINE
  5
556
330
1D
100
AcDbEntity
  8
0
100
AcDbLine
 10
-3.230561569759
 20
177.662113621288
 30
0.0
 11
-2.626561569769
 21
177.340339811769
 31
0.0
  0
LINE
  5
557
330
1D
100
AcDbEntity
  8
0
100
AcDbLine
 10
-3.230561569759
 20
177.662113621288
 30
0.0
 11
-2.626561569769
 21
177.340339811769
 31
0.0
  0
LINE
  5
558
330
1D
100
AcDbEntity
  8
0
100
AcDbLine
 10
-3.298561569769
 20
177.698339811769
 30
0.0
 11
-2.85213573614
 21
178.537943669264
 31
0.0
  0
LINE
  5
559
330
1D
100
AcDbEntity
  8
0
100
AcDbLine
 10
-3.298561569769
 20
177.698339811769
 30
0.0
 11
-2.626561569769
 21
177.340339811769
 31
0.0
  0
LINE
  5
55A
330
1D
100
AcDbEntity
  8
0
100
AcDbLine
 10
-3.372561569769
 20
177.737339811769
 30
0.0
 11
-3.230561569759
 21
177.662113621288
 31
0.0
  0
LINE
  5
55B
330
1D
100
AcDbEntity
  8
0
100
AcDbLine
 10
-3.372561569769
 20
177.737339811769
 30
0.0
 11
-3.230561569759
 21
177.662113621288
 31
0.0
  0
LINE
  5
55C
330
1D
100
AcDbEntity
  8
0
100
AcDbLine
 10
-3.372561569769
 20
177.737339811769
 30
0.0
 11
-3.150946507002
 21
177.619699644402
 31
0.0
  0
LINE
  5
55D
330
1D
100
AcDbEntity
  8
0
100
AcDbLine
 10
-3.372561569769
 20
177.737339811769
 30
0.0
 11
-3.150946507002
 21
177.619699644402
 31
0.0
  0
LINE
  5
55E
330
1D
100
AcDbEntity
  8
0
100
AcDbLine
 10
5.182438430231
 20
186.189339811769
 30
0.0
 11
15.866438430231
 21
180.509339811769
 31
0.0
  0
LINE
  5
55F
330
1D
100
AcDbEntity
  8
0
100
AcDbLine
 10
-1.892746996951
 20
177.640182570202
 30
0.0
 11
-1.214391770701
 21
177.225009348888
 31
0.0
  0
LINE
  5
560
330
1D
100
AcDbEntity
  8
0
100
AcDbLine
 10
15.866438430231
 20
180.509339811769
 30
0.0
 11
27.168438430231
 21
174.499339811769
 31
0.0
  0
LINE
  5
561
330
1D
100
AcDbEntity
  8
0
100
AcDbLine
 10
16.277438430231
 20
180.856339811769
 30
0.0
 11
27.402438430231
 21
174.941339811769
 31
0.0
  0
LINE
  5
562
330
1D
100
AcDbEntity
  8
0
100
AcDbLine
 10
16.335438430231
 20
181.391339811769
 30
0.0
 11
27.637438430231
 21
175.382339811769
 31
0.0
  0
LINE
  5
563
330
1D
100
AcDbEntity
  8
0
100
AcDbLine
 10
5.858438430231
 20
186.396339811769
 30
0.0
 11
16.277438430231
 21
180.856339811769
 31
0.0
  0
LINE
  5
564
330
1D
100
AcDbEntity
  8
0
100
AcDbLine
 10
5.652438430231
 20
187.073339811769
 30
0.0
 11
16.335438430231
 21
181.391339811769
 31
0.0
  0
LINE
  5
565
330
1D
100
AcDbEntity
  8
0
100
AcDbLine
 10
-1.023561569769
 20
209.875339811769
 30
0.0
 11
5.889438430231
 21
209.031339811769
 31
0.0
  0
LINE
  5
566
330
1D
100
AcDbEntity
  8
0
100
AcDbLine
 10
5.889438430231
 20
209.031339811769
 30
0.0
 11
13.008438430231
 21
207.511339811769
 31
0.0
  0
LINE
  5
567
330
1D
100
AcDbEntity
  8
0
100
AcDbLine
 10
13.008438430231
 20
207.511339811769
 30
0.0
 11
17.892438430231
 21
206.047339811769
 31
0.0
  0
LINE
  5
568
330
1D
100
AcDbEntity
  8
0
100
AcDbLine
 10
17.892438430231
 20
206.047339811769
 30
0.0
 11
23.660438430231
 21
204.112339811769
 31
0.0
  0
LINE
  5
569
330
1D
100
AcDbEntity
  8
0
100
AcDbLine
 10
23.660438430231
 20
204.112339811769
 30
0.0
 11
30.169438430231
 21
201.445339811769
 31
0.0
  0
LINE
  5
56A
330
1D
100
AcDbEntity
  8
0
100
AcDbLine
 10
-3.147561569769
 20
191.185339811769
 30
0.0
 11
5.858438430231
 21
186.396339811769
 31
0.0
  0
LINE
  5
56B
330
1D
100
AcDbEntity
  8
0
100
AcDbLine
 10
-3.530561569769
 20
191.955339811769
 30
0.0
 11
5.652438430231
 21
187.073339811769
 31
0.0
  0
LINE
  5
56C
330
1D
100
AcDbEntity
  8
0
100
AcDbLine
 10
27.402438430231
 20
174.941339811769
 30
0.0
 11
38.527438430231
 21
169.026339811769
 31
0.0
  0
LINE
  5
56D
330
1D
100
AcDbEntity
  8
0
100
AcDbLine
 10
50.01091963109
 20
190.541104855774
 30
0.0
 11
51.915438430231
 21
189.487339811769
 31
0.0
  0
LINE
  5
56E
330
1D
100
AcDbEntity
  8
0
100
AcDbLine
 10
51.915438430231
 20
189.487339811769
 30
0.0
 11
60.208438430231
 21
184.824339811769
 31
0.0
  0
LINE
  5
56F
330
1D
100
AcDbEntity
  8
0
100
AcDbLine
 10
51.915438430231
 20
189.487339811769
 30
0.0
 11
52.396667197262
 21
189.185034472415
 31
0.0
  0
LINE
  5
570
330
1D
100
AcDbEntity
  8
0
100
AcDbLine
 10
51.915438430231
 20
189.487339811769
 30
0.0
 11
52.396667197262
 21
189.185034472415
 31
0.0
  0
LINE
  5
571
330
1D
100
AcDbEntity
  8
0
100
AcDbLine
 10
60.208438430231
 20
184.824339811769
 30
0.0
 11
78.038979601745
 21
172.837866277048
 31
0.0
  0
LINE
  5
573
330
1D
100
AcDbEntity
  8
0
100
AcDbLine
 10
47.828438430231
 20
192.055339811769
 30
0.0
 11
50.768935709431
 21
190.093668352782
 31
0.0
  0
LINE
  5
574
330
1D
100
AcDbEntity
  8
0
100
AcDbLine
 10
47.828438430231
 20
192.055339811769
 30
0.0
 11
50.768935709431
 21
190.093668352782
 31
0.0
  0
LINE
  5
575
330
1D
100
AcDbEntity
  8
0
100
AcDbLine
 10
43.507438430231
 20
194.579339811769
 30
0.0
 11
47.828438430231
 21
192.055339811769
 31
0.0
  0
LINE
  5
576
330
1D
100
AcDbEntity
  8
0
100
AcDbLine
 10
39.139438430231
 20
197.015339811769
 30
0.0
 11
43.507438430231
 21
194.579339811769
 31
0.0
  0
LINE
  5
577
330
1D
100
AcDbEntity
  8
0
100
AcDbLine
 10
30.169438430231
 20
201.445339811769
 30
0.0
 11
34.677438430231
 21
199.274339811769
 31
0.0
  0
LINE
  5
578
330
1D
100
AcDbEntity
  8
0
100
AcDbLine
 10
34.677438430231
 20
199.274339811769
 30
0.0
 11
39.139438430231
 21
197.015339811769
 31
0.0
  0
LINE
  5
579
330
1D
100
AcDbEntity
  8
0
100
AcDbLine
 10
27.637438430231
 20
175.382339811769
 30
0.0
 11
38.939438430231
 21
169.374339811769
 31
0.0
  0
LINE
  5
57A
330
1D
100
AcDbEntity
  8
0
100
AcDbLine
 10
38.939438430231
 20
169.374339811769
 30
0.0
 11
49.623438430231
 21
163.692339811769
 31
0.0
  0
LINE
  5
57B
330
1D
100
AcDbEntity
  8
0
100
AcDbLine
 10
78.038979601745
 20
172.837866277048
 30
0.0
 11
83.148438430231
 21
169.492339811769
 31
0.0
  0
LINE
  5
582
330
1D
100
AcDbEntity
  8
0
100
AcDbLine
 10
127.558438430231
 20
169.516339811769
 30
0.0
 11
127.854238430231
 21
169.425339811769
 31
0.0
  0
LINE
  5
583
330
1D
100
AcDbEntity
  8
0
100
AcDbLine
 10
127.854238430231
 20
169.425339811769
 30
0.0
 11
134.138938430231
 21
176.917339811769
 31
0.0
  0
LINE
  5
58A
330
1D
100
AcDbEntity
  8
0
100
AcDbLine
 10
83.148438430231
 20
169.492339811769
 30
0.0
 11
92.903438430231
 21
162.753339811769
 31
0.0
  0
LINE
  5
59E
330
1D
100
AcDbEntity
  8
0
100
AcDbLine
 10
105.760438430231
 20
187.829339811769
 30
0.0
 11
105.778438430231
 21
188.115339811769
 31
0.0
  0
LINE
  5
5A0
330
1D
100
AcDbEntity
  8
0
100
AcDbLine
 10
105.778438430231
 20
188.115339811769
 30
0.0
 11
111.913438430231
 21
195.361339811769
 31
0.0
  0
LINE
  5
5D3
330
1D
100
AcDbEntity
  8
0
100
AcDbLine
 10
112.018438430231
 20
195.546339811769
 30
0.0
 11
142.204638430231
 21
231.288339811769
 31
0.0
  0
LINE
  5
5E9
330
1D
100
AcDbEntity
  8
0
100
AcDbLine
 10
142.204638430231
 20
231.288339811769
 30
0.0
 11
148.398338430231
 21
236.670339811769
 31
0.0
  0
LINE
  5
5EA
330
1D
100
AcDbEntity
  8
0
100
AcDbLine
 10
148.398338430231
 20
236.670339811769
 30
0.0
 11
153.777238430231
 21
240.310339811769
 31
0.0
  0
LINE
  5
5ED
330
1D
100
AcDbEntity
  8
0
100
AcDbLine
 10
134.230438430231
 20
176.908339811769
 30
0.0
 11
163.347738430231
 21
211.417339811769
 31
0.0
  0
LINE
  5
5EF
330
1D
100
AcDbEntity
  8
0
100
AcDbLine
 10
78.038979601745
 20
172.837866277048
 30
0.0
 11
83.148438430231
 21
169.492339811769
 31
0.0
  0
LINE
  5
5F4
330
1D
100
AcDbEntity
  8
0
100
AcDbLine
 10
191.490938430231
 20
71.472639811769
 30
0.0
 11
193.716740664225
 21
68.518912829045
 31
0.0
  0
LINE
  5
5F5
330
1D
100
AcDbEntity
  8
0
100
AcDbLine
 10
153.777238430231
 20
240.310339811769
 30
0.0
 11
159.525038430231
 21
243.331339811769
 31
0.0
  0
LINE
  5
5F6
330
1D
100
AcDbEntity
  8
0
100
AcDbLine
 10
167.976438430231
 20
214.998339811769
 30
0.0
 11
173.957238430231
 21
218.011339811769
 31
0.0
  0
LINE
  5
5F7
330
1D
100
AcDbEntity
  8
0
100
AcDbLine
 10
163.347738430231
 20
211.417339811769
 30
0.0
 11
167.976438430231
 21
214.998339811769
 31
0.0
  0
LINE
  5
5F8
330
1D
100
AcDbEntity
  8
0
100
AcDbLine
 10
159.525038430231
 20
243.331339811769
 30
0.0
 11
165.573938430231
 21
245.697339811769
 31
0.0
  0
LINE
  5
5F9
330
1D
100
AcDbEntity
  8
0
100
AcDbLine
 10
165.573938430231
 20
245.697339811769
 30
0.0
 11
171.846738430231
 21
247.378339811769
 31
0.0
  0
LINE
  5
5FA
330
1D
100
AcDbEntity
  8
0
100
AcDbLine
 10
171.846738430231
 20
247.378339811769
 30
0.0
 11
178.266038430231
 21
248.353339811769
 31
0.0
  0
LINE
  5
5FB
330
1D
100
AcDbEntity
  8
0
100
AcDbLine
 10
178.266038430231
 20
248.353339811769
 30
0.0
 11
184.754838430231
 21
248.611339811769
 31
0.0
  0
LINE
  5
5FC
330
1D
100
AcDbEntity
  8
0
100
AcDbLine
 10
173.957238430231
 20
218.011339811769
 30
0.0
 11
180.615038430231
 21
219.442339811769
 31
0.0
  0
LINE
  5
5FD
330
1D
100
AcDbEntity
  8
0
100
AcDbLine
 10
191.232538430231
 20
248.147339811769
 30
0.0
 11
197.618738430231
 21
246.969339811769
 31
0.0
  0
LINE
  5
5FE
330
1D
100
AcDbEntity
  8
0
100
AcDbLine
 10
184.754838430231
 20
248.611339811769
 30
0.0
 11
191.232538430231
 21
248.147339811769
 31
0.0
  0
LINE
  5
5FF
330
1D
100
AcDbEntity
  8
0
100
AcDbLine
 10
187.304038430231
 20
219.503339811769
 30
0.0
 11
196.000538430231
 21
217.082339811769
 31
0.0
  0
LINE
  5
600
330
1D
100
AcDbEntity
  8
0
100
AcDbLine
 10
180.615038430231
 20
219.442339811769
 30
0.0
 11
187.304038430231
 21
219.503339811769
 31
0.0
  0
LINE
  5
601
330
1D
100
AcDbEntity
  8
0
100
AcDbLine
 10
169.109038430231
 20
98.010239811769
 30
0.0
 11
179.874738430231
 21
85.246639811769
 31
0.0
  0
LINE
  5
602
330
1D
100
AcDbEntity
  8
0
100
AcDbLine
 10
154.863938430231
 20
112.467339811769
 30
0.0
 11
169.109038430231
 21
98.010239811769
 31
0.0
  0
LINE
  5
603
330
1D
100
AcDbEntity
  8
0
100
AcDbLine
 10
179.874738430231
 20
85.246639811769
 30
0.0
 11
191.490938430231
 21
71.472639811769
 31
0.0
  0
LINE
  5
604
330
1D
100
AcDbEntity
  8
0
100
AcDbLine
 10
149.845538430231
 20
80.548239811769
 30
0.0
 11
160.246438430231
 21
68.195739811769
 31
0.0
  0
LINE
  5
605
330
1D
100
AcDbEntity
  8
0
100
AcDbLine
 10
160.246438430231
 20
68.195739811769
 30
0.0
 11
170.726138430231
 21
55.825439811769
 31
0.0
  0
LINE
  5
632
330
1D
100
AcDbEntity
  8
0
100
AcDbLine
 10
196.631438430231
 20
68.524939811769
 30
0.0
 11
196.727438430231
 21
68.605839811769
 31
0.0
  0
LINE
  5
633
330
1D
100
AcDbEntity
  8
0
100
AcDbLine
 10
196.727438430231
 20
68.605839811769
 30
0.0
 11
208.758438430231
 21
54.290039811769
 31
0.0
  0
LINE
  5
63A
330
1D
100
AcDbEntity
  8
0
100
AcDbLine
 10
201.948438430231
 20
12.618339811769
 30
0.0
 11
202.460438430231
 21
11.931839811769
 31
0.0
  0
LINE
  5
647
330
1D
100
AcDbEntity
  8
0
100
AcDbLine
 10
197.618738430231
 20
246.969339811769
 30
0.0
 11
203.834738430231
 21
245.090339811769
 31
0.0
  0
LINE
  5
648
330
1D
100
AcDbEntity
  8
0
100
AcDbLine
 10
196.000538430231
 20
217.082339811769
 30
0.0
 11
203.583738430231
 21
212.135339811769
 31
0.0
  0
LINE
  5
649
330
1D
100
AcDbEntity
  8
0
100
AcDbLine
 10
195.840438430231
 20
69.272039811769
 30
0.0
 11
196.705438430231
 21
68.588739811769
 31
0.0
  0
LINE
  5
64A
330
1D
100
AcDbEntity
  8
0
100
AcDbLine
 10
194.574438430231
 20
69.253339811769
 30
0.0
 11
195.840438430231
 21
69.272039811769
 31
0.0
  0
LINE
  5
64B
330
1D
100
AcDbEntity
  8
0
100
AcDbLine
 10
202.247438430231
 20
8.490639811769
 30
0.0
 11
202.688438430231
 21
9.154139811769
 31
0.0
  0
LINE
  5
788
330
1D
100
AcDbEntity
  8
0
100
AcDbLine
 10
205.789438430231
 20
5.501109811769
 30
0.0
 11
211.244438430231
 21
5.501109811769
 31
0.0
  0
LINE
  5
789
330
1D
100
AcDbEntity
  8
0
100
AcDbLine
 10
204.566438430231
 20
5.501119811769
 30
0.0
 11
207.107438430231
 21
5.501119811769
 31
0.0
  0
LINE
  5
78A
330
1D
100
AcDbEntity
  8
0
100
AcDbLine
 10
208.461438430231
 20
5.501119811769
 30
0.0
 11
211.275438430231
 21
5.501119811769
 31
0.0
  0
LINE
  5
78B
330
1D
100
AcDbEntity
  8
0
100
AcDbLine
 10
209.831438430231
 20
5.501109811769
 30
0.0
 11
214.239438430231
 21
5.501119811769
 31
0.0
  0
LINE
  5
78C
330
1D
100
AcDbEntity
  8
0
100
AcDbLine
 10
211.244438430231
 20
5.501109811769
 30
0.0
 11
217.306438430231
 21
5.501119811769
 31
0.0
  0
LINE
  5
78D
330
1D
100
AcDbEntity
  8
0
100
AcDbLine
 10
209.836438430231
 20
5.501119811769
 30
0.0
 11
212.727438430231
 21
5.501119811769
 31
0.0
  0
LINE
  5
78E
330
1D
100
AcDbEntity
  8
0
100
AcDbLine
 10
207.107438430231
 20
5.501119811769
 30
0.0
 11
209.836438430231
 21
5.501119811769
 31
0.0
  0
LINE
  5
78F
330
1D
100
AcDbEntity
  8
0
100
AcDbLine
 10
203.383438430231
 20
5.501119811769
 30
0.0
 11
205.822438430231
 21
5.501119811769
 31
0.0
  0
LINE
  5
790
330
1D
100
AcDbEntity
  8
0
100
AcDbLine
 10
205.822438430231
 20
5.501119811769
 30
0.0
 11
208.461438430231
 21
5.501119811769
 31
0.0
  0
LINE
  5
791
330
1D
100
AcDbEntity
  8
0
100
AcDbLine
 10
214.239438430231
 20
5.501119811769
 30
0.0
 11
215.57371205558
 21
5.501116953428
 31
0.0
  0
LINE
  5
792
330
1D
100
AcDbEntity
  8
0
100
AcDbLine
 10
214.239438430231
 20
5.501119811769
 30
0.0
 11
217.306438430231
 21
5.501119811769
 31
0.0
  0
LINE
  5
793
330
1D
100
AcDbEntity
  8
0
100
AcDbLine
 10
218.895438430231
 20
5.501119811769
 30
0.0
 11
222.115438430231
 21
5.501119811769
 31
0.0
  0
LINE
  5
794
330
1D
100
AcDbEntity
  8
0
100
AcDbLine
 10
217.306438430231
 20
5.501119811769
 30
0.0
 11
223.749438430231
 21
5.501119811769
 31
0.0
  0
LINE
  5
795
330
1D
100
AcDbEntity
  8
0
100
AcDbLine
 10
228.682438430231
 20
5.501119811769
 30
0.0
 11
230.328789267051
 21
5.501116471637
 31
0.0
  0
LINE
  5
796
330
1D
100
AcDbEntity
  8
0
100
AcDbLine
 10
223.749438430231
 20
5.501119811769
 30
0.0
 11
228.682438430231
 21
5.501119811769
 31
0.0
  0
LINE
  5
797
330
1D
100
AcDbEntity
  8
0
100
AcDbLine
 10
222.115438430231
 20
5.501119811769
 30
0.0
 11
225.388438430231
 21
5.501119811769
 31
0.0
  0
LINE
  5
798
330
1D
100
AcDbEntity
  8
0
100
AcDbLine
 10
230.332322947265
 20
5.501116464468
 30
0.0
 11
233.611438430231
 21
5.501109811769
 31
0.0
  0
LINE
  5
799
330
1D
100
AcDbEntity
  8
0
100
AcDbLine
 10
233.611438430231
 20
5.501109811769
 30
0.0
 11
239.982438430231
 21
5.501119811769
 31
0.0
  0
LINE
  5
79A
330
1D
100
AcDbEntity
  8
0
100
AcDbLine
 10
233.611498378496
 20
5.501024414344
 30
0.0
 11
235.219438430231
 21
5.501119811769
 31
0.0
  0
LINE
  5
79B
330
1D
100
AcDbEntity
  8
0
100
AcDbLine
 10
230.331438430231
 20
5.500829811769
 30
0.0
 11
233.611378058641
 21
5.501024407205
 31
0.0
  0
LINE
  5
79C
330
1D
100
AcDbEntity
  8
0
100
AcDbLine
 10
225.388438430231
 20
5.501119811769
 30
0.0
 11
230.331438430231
 21
5.500829811769
 31
0.0
  0
LINE
  5
79D
330
1D
100
AcDbEntity
  8
0
100
AcDbLine
 10
215.757438430231
 20
5.501119811769
 30
0.0
 11
218.895438430231
 21
5.501119811769
 31
0.0
  0
LINE
  5
79E
330
1D
100
AcDbEntity
  8
0
100
AcDbLine
 10
212.727438430231
 20
5.501119811769
 30
0.0
 11
215.757438430231
 21
5.501119811769
 31
0.0
  0
LINE
  5
79F
330
1D
100
AcDbEntity
  8
0
100
AcDbLine
 10
211.275438430231
 20
5.501119811769
 30
0.0
 11
214.239438430231
 21
5.501119811769
 31
0.0
  0
LINE
  5
7A0
330
1D
100
AcDbEntity
  8
0
100
AcDbLine
 10
235.219438430231
 20
5.501119811769
 30
0.0
 11
236.834438430231
 21
5.501119811769
 31
0.0
  0
LINE
  5
7A1
330
1D
100
AcDbEntity
  8
0
100
AcDbLine
 10
235.219438430231
 20
5.501119811769
 30
0.0
 11
238.402438430231
 21
5.501119811769
 31
0.0
  0
LINE
  5
7A2
330
1D
100
AcDbEntity
  8
0
100
AcDbLine
 10
239.982438430231
 20
5.501119811769
 30
0.0
 11
244.455438430231
 21
5.501119811769
 31
0.0
  0
LINE
  5
7A3
330
1D
100
AcDbEntity
  8
0
100
AcDbLine
 10
244.455438430231
 20
5.501119811769
 30
0.0
 11
248.637438430231
 21
5.501119811769
 31
0.0
  0
LINE
  5
7A4
330
1D
100
AcDbEntity
  8
0
100
AcDbLine
 10
247.268438430231
 20
5.501119811769
 30
0.0
 11
249.907438430231
 21
5.501119811769
 31
0.0
  0
LINE
  5
7A5
330
1D
100
AcDbEntity
  8
0
100
AcDbLine
 10
244.454438430231
 20
5.501119811769
 30
0.0
 11
247.268438430231
 21
5.501119811769
 31
0.0
  0
LINE
  5
7A6
330
1D
100
AcDbEntity
  8
0
100
AcDbLine
 10
241.490438430231
 20
5.501119811769
 30
0.0
 11
244.454438430231
 21
5.501119811769
 31
0.0
  0
LINE
  5
7A7
330
1D
100
AcDbEntity
  8
0
100
AcDbLine
 10
238.402438430231
 20
5.501119811769
 30
0.0
 11
241.490438430231
 21
5.501119811769
 31
0.0
  0
LINE
  5
7A8
330
1D
100
AcDbEntity
  8
0
100
AcDbLine
 10
236.834438430231
 20
5.501119811769
 30
0.0
 11
239.973438430231
 21
5.501119811769
 31
0.0
  0
LINE
  5
7A9
330
1D
100
AcDbEntity
  8
0
100
AcDbLine
 10
236.834438430231
 20
5.501119811769
 30
0.0
 11
238.168409124876
 21
5.501116964446
 31
0.0
  0
LINE
  5
7AB
330
1D
100
AcDbEntity
  8
0
100
AcDbLine
 10
249.907438430231
 20
5.501119811769
 30
0.0
 11
252.346438430231
 21
5.501119811769
 31
0.0
  0
LINE
  5
7AC
330
1D
100
AcDbEntity
  8
0
100
AcDbLine
 10
248.637438430231
 20
5.501119811769
 30
0.0
 11
251.163438430231
 21
5.501119811769
 31
0.0
  0
LINE
  5
7AD
330
1D
100
AcDbEntity
  8
0
100
AcDbLine
 10
248.637438430231
 20
5.501119811769
 30
0.0
 11
258.271443904109
 21
5.501089529395
 31
0.0
  0
LINE
  5
7AE
330
1D
100
AcDbEntity
  8
0
100
AcDbLine
 10
248.637438430231
 20
5.501119811769
 30
0.0
 11
249.939438430231
 21
5.501119811769
 31
0.0
  0
LINE
  5
7D7
330
1D
100
AcDbEntity
  8
0
100
AcDbLine
 10
251.163438430231
 20
5.501119811769
 30
0.0
 11
258.255443904109
 21
5.501099529395
 31
0.0
  0
LINE
  5
855
330
1D
100
AcDbEntity
  8
0
100
AcDbLine
 10
258.255438430231
 20
5.501119811769
 30
0.0
 11
259.695438430231
 21
5.501119811769
 31
0.0
  0
LINE
  5
856
330
1D
100
AcDbEntity
  8
0
100
AcDbLine
 10
258.293438430231
 20
5.501119811769
 30
0.0
 11
260.878968647261
 21
5.501109852099
 31
0.0
  0
LINE
  5
85A
330
1D
100
AcDbEntity
  8
0
100
AcDbLine
 10
258.340438430231
 20
5.501099811769
 30
0.0
 11
261.350438430231
 21
5.501109811769
 31
0.0
  0
LINE
  5
862
330
1D
100
AcDbEntity
  8
0
100
AcDbLine
 10
259.016438430231
 20
5.501119811769
 30
0.0
 11
259.260425747754
 21
5.501102868205
 31
0.0
  0
LINE
  5
86F
330
1D
100
AcDbEntity
  8
0
100
AcDbLine
 10
261.350461409137
 20
5.500960918392
 30
0.0
 11
262.050438430231
 21
5.500739811769
 31
0.0
  0
LINE
  5
870
330
1D
100
AcDbEntity
  8
0
100
AcDbLine
 10
260.847438430231
 20
5.501119811769
 30
0.0
 11
261.350423579666
 21
5.500960930342
 31
0.0
  0
LINE
  5
873
330
1D
100
AcDbEntity
  8
0
100
AcDbLine
 10
257.974438430231
 20
6.542309811769
 30
0.0
 11
258.255438430231
 21
5.501119811769
 31
0.0
  0
LINE
  5
874
330
1D
100
AcDbEntity
  8
0
100
AcDbLine
 10
259.695438430231
 20
5.501119811769
 30
0.0
 11
260.847438430231
 21
5.501119811769
 31
0.0
  0
LINE
  5
899
330
1D
100
AcDbEntity
  8
0
100
AcDbLine
 10
240.596438430231
 20
7.618339811769
 30
0.0
 11
243.550438430231
 21
7.618339811769
 31
0.0
  0
LINE
  5
89A
330
1D
100
AcDbEntity
  8
0
100
AcDbLine
 10
245.373438430231
 20
7.618339811769
 30
0.0
 11
247.565438430231
 21
7.618339811769
 31
0.0
  0
LINE
  5
89B
330
1D
100
AcDbEntity
  8
0
100
AcDbLine
 10
242.998438430231
 20
7.618339811769
 30
0.0
 11
245.373438430231
 21
7.618339811769
 31
0.0
  0
LINE
  5
89C
330
1D
100
AcDbEntity
  8
0
100
AcDbLine
 10
200.96850718269
 20
7.559483495809
 30
0.0
 11
242.998438430231
 21
7.618339811769
 31
0.0
  0
LINE
  5
89F
330
1D
100
AcDbEntity
  8
0
100
AcDbLine
 10
246.275438430231
 20
7.618339811769
 30
0.0
 11
248.732438430231
 21
7.618339811769
 31
0.0
  0
LINE
  5
8A0
330
1D
100
AcDbEntity
  8
0
100
AcDbLine
 10
243.550438430231
 20
7.618339811769
 30
0.0
 11
246.275438430231
 21
7.618339811769
 31
0.0
  0
LINE
  5
8AF
330
1D
100
AcDbEntity
  8
0
100
AcDbLine
 10
247.565438430231
 20
7.618339811769
 30
0.0
 11
249.552438430231
 21
7.618339811769
 31
0.0
  0
LINE
  5
8B3
330
1D
100
AcDbEntity
  8
0
100
AcDbLine
 10
251.313438430231
 20
7.618339811769
 30
0.0
 11
252.832438430231
 21
7.618339811769
 31
0.0
  0
LINE
  5
8B4
330
1D
100
AcDbEntity
  8
0
100
AcDbLine
 10
249.552438430231
 20
7.618339811769
 30
0.0
 11
251.313438430231
 21
7.618339811769
 31
0.0
  0
LINE
  5
8BA
330
1D
100
AcDbEntity
  8
0
100
AcDbLine
 10
252.832438430231
 20
7.618339811769
 30
0.0
 11
254.069438430231
 21
7.618339811769
 31
0.0
  0
LINE
  5
8BC
330
1D
100
AcDbEntity
  8
0
100
AcDbLine
 10
255.043438430231
 20
7.618339811769
 30
0.0
 11
255.748438430231
 21
7.618339811769
 31
0.0
  0
LINE
  5
8BD
330
1D
100
AcDbEntity
  8
0
100
AcDbLine
 10
254.069438430231
 20
7.618339811769
 30
0.0
 11
255.043438430231
 21
7.618339811769
 31
0.0
  0
LINE
  5
8BF
330
1D
100
AcDbEntity
  8
0
100
AcDbLine
 10
255.897438430231
 20
7.618339811769
 30
0.0
 11
256.161438430231
 21
7.618339811769
 31
0.0
  0
LINE
  5
8C3
330
1D
100
AcDbEntity
  8
0
100
AcDbLine
 10
256.612438430231
 20
7.475109811769
 30
0.0
 11
257.972438430231
 21
6.543399811769
 31
0.0
  0
LINE
  5
8C4
330
1D
100
AcDbEntity
  8
0
100
AcDbLine
 10
261.241438430231
 20
7.220569811769
 30
0.0
 11
262.116438430231
 21
7.066589811769
 31
0.0
  0
LINE
  5
8C5
330
1D
100
AcDbEntity
  8
0
100
AcDbLine
 10
260.987344802024
 20
7.221029350477
 30
0.0
 11
261.241438430231
 21
7.220569811769
 31
0.0
  0
LINE
  5
8C6
330
1D
100
AcDbEntity
  8
0
100
AcDbLine
 10
260.986472927499
 20
7.221438099664
 30
0.0
 11
261.241438430231
 21
7.220569811769
 31
0.0
  0
LINE
  5
8C7
330
1D
100
AcDbEntity
  8
0
100
AcDbLine
 10
260.986089626147
 20
7.221617797673
 30
0.0
 11
261.241438430231
 21
7.220569811769
 31
0.0
  0
LINE
  5
8CD
330
1D
100
AcDbEntity
  8
0
100
AcDbLine
 10
260.433438430231
 20
7.480709811769
 30
0.0
 11
261.861438430231
 21
6.811239811769
 31
0.0
  0
LINE
  5
8D0
330
1D
100
AcDbEntity
  8
0
100
AcDbLine
 10
256.173438430231
 20
7.618339811769
 30
0.0
 11
256.314438430231
 21
7.618339811769
 31
0.0
  0
LINE
  5
8D1
330
1D
100
AcDbEntity
  8
0
100
AcDbLine
 10
255.748438430231
 20
7.618339811769
 30
0.0
 11
256.011438430231
 21
7.618339811769
 31
0.0
  0
LINE
  5
8D2
330
1D
100
AcDbEntity
  8
0
100
AcDbLine
 10
255.748438430231
 20
7.618339811769
 30
0.0
 11
256.173438430231
 21
7.618339811769
 31
0.0
  0
LINE
  5
8D3
330
1D
100
AcDbEntity
  8
0
100
AcDbLine
 10
256.011438430231
 20
7.618339811769
 30
0.0
 11
256.161438430231
 21
7.618339811769
 31
0.0
  0
LINE
  5
8D4
330
1D
100
AcDbEntity
  8
0
100
AcDbLine
 10
255.225438430231
 20
7.618339811769
 30
0.0
 11
255.897438430231
 21
7.618339811769
 31
0.0
  0
LINE
  5
8D5
330
1D
100
AcDbEntity
  8
0
100
AcDbLine
 10
254.155438430231
 20
7.618339811769
 30
0.0
 11
255.225438430231
 21
7.618339811769
 31
0.0
  0
LINE
  5
8D6
330
1D
100
AcDbEntity
  8
0
100
AcDbLine
 10
252.701438430231
 20
7.618339811769
 30
0.0
 11
254.155438430231
 21
7.618339811769
 31
0.0
  0
LINE
  5
8D7
330
1D
100
AcDbEntity
  8
0
100
AcDbLine
 10
261.450438430231
 20
7.966329811769
 30
0.0
 11
262.190438430231
 21
7.533889811769
 31
0.0
  0
LINE
  5
8D8
330
1D
100
AcDbEntity
  8
0
100
AcDbLine
 10
252.850316146319
 20
7.618838176746
 30
0.0
 11
253.412438430231
 21
7.618339811769
 31
0.0
  0
LINE
  5
8D9
330
1D
100
AcDbEntity
  8
0
100
AcDbLine
 10
250.884438430231
 20
7.618339811769
 30
0.0
 11
252.701438430231
 21
7.618339811769
 31
0.0
  0
LINE
  5
8DA
330
1D
100
AcDbEntity
  8
0
100
AcDbLine
 10
248.732438430231
 20
7.618339811769
 30
0.0
 11
250.884438430231
 21
7.618339811769
 31
0.0
  0
LINE
  5
8DB
330
1D
100
AcDbEntity
  8
0
100
AcDbLine
 10
250.354638937959
 20
8.108082093589
 30
0.0
 11
259.681438430231
 21
8.081299811769
 31
0.0
  0
LINE
  5
8DE
330
1D
100
AcDbEntity
  8
0
100
AcDbLine
 10
261.031438430231
 20
8.064099811769
 30
0.0
 11
261.450438430231
 21
7.966329811769
 31
0.0
  0
LINE
  5
8E1
330
1D
100
AcDbEntity
  8
0
100
AcDbLine
 10
259.681438430231
 20
8.081299811769
 30
0.0
 11
261.031438430231
 21
8.064099811769
 31
0.0
  0
LINE
  5
8E3
330
1D
100
AcDbEntity
  8
0
100
AcDbLine
 10
250.638438430231
 20
7.998699811769
 30
0.0
 11
252.853218051342
 21
7.618339811769
 31
0.0
  0
LINE
  5
8E4
330
1D
100
AcDbEntity
  8
0
100
AcDbLine
 10
248.306109012821
 20
8.897628529326
 30
0.0
 11
250.638438430231
 21
7.998699811769
 31
0.0
  0
LINE
  5
8EF
330
1D
100
AcDbEntity
  8
0
100
AcDbLine
 10
263.391438430231
 20
-1.581660188231
 30
0.0
 11
263.391438430231
 21
5.218339811769
 31
0.0
  0
LINE
  5
8F0
330
1D
100
AcDbEntity
  8
0
100
AcDbLine
 10
263.311438430231
 20
-1.581660188231
 30
0.0
 11
263.391438430231
 21
-1.581660188231
 31
0.0
  0
LINE
  5
8F1
330
1D
100
AcDbEntity
  8
0
100
AcDbLine
 10
263.154438430231
 20
-1.581660188231
 30
0.0
 11
263.391438430231
 21
-1.581660188231
 31
0.0
  0
LINE
  5
8F8
330
1D
100
AcDbEntity
  8
0
100
AcDbLine
 10
262.915438430231
 20
-1.581658188231
 30
0.0
 11
263.311438430231
 21
-1.581660188231
 31
0.0
  0
LINE
  5
8FC
330
1D
100
AcDbEntity
  8
0
100
AcDbLine
 10
262.050554399759
 20
5.501109811769
 30
0.0
 11
262.443438430231
 21
5.501109811769
 31
0.0
  0
LINE
  5
8FD
330
1D
100
AcDbEntity
  8
0
100
AcDbLine
 10
262.050438430231
 20
5.500739811769
 30
0.0
 11
262.4434382445
 21
5.50108470768
 31
0.0
  0
LINE
  5
8FE
330
1D
100
AcDbEntity
  8
0
100
AcDbLine
 10
262.116438430231
 20
7.066589811769
 30
0.0
 11
262.806438430231
 21
6.632549811769
 31
0.0
  0
LINE
  5
8FF
330
1D
100
AcDbEntity
  8
0
100
AcDbLine
 10
262.190438430231
 20
7.533889811769
 30
0.0
 11
262.710438430231
 21
6.694429811769
 31
0.0
  0
LINE
  5
900
330
1D
100
AcDbEntity
  8
0
100
AcDbLine
 10
262.273438430231
 20
6.212219811769
 30
0.0
 11
262.483438430231
 21
5.501119811769
 31
0.0
  0
LINE
  5
901
330
1D
100
AcDbEntity
  8
0
100
AcDbLine
 10
263.391438430231
 20
5.218339811769
 30
0.0
 11
263.391438430231
 21
-1.581660188231
 31
0.0
  0
LINE
  5
902
330
1D
100
AcDbEntity
  8
0
100
AcDbLine
 10
262.806438430231
 20
6.632549811769
 30
0.0
 11
263.239438430231
 21
5.983699811769
 31
0.0
  0
LINE
  5
903
330
1D
100
AcDbEntity
  8
0
100
AcDbLine
 10
263.239438430231
 20
5.983699811769
 30
0.0
 11
263.391438430231
 21
5.218339811769
 31
0.0
  0
LINE
  5
904
330
1D
100
AcDbEntity
  8
0
100
AcDbLine
 10
262.443438430231
 20
5.501109811769
 30
0.0
 11
262.825438430231
 21
-1.384314188231
 31
0.0
  0
LINE
  5
906
330
1D
100
AcDbEntity
  8
0
100
AcDbLine
 10
261.861438430231
 20
6.811239811769
 30
0.0
 11
262.273438430231
 21
6.212219811769
 31
0.0
  0
LINE
  5
90D
330
1D
100
AcDbEntity
  8
0
100
AcDbLine
 10
202.886660239004
 20
61.276923880422
 30
0.0
 11
207.819538430231
 21
60.078739811769
 31
0.0
  0
LINE
  5
912
330
1D
100
AcDbEntity
  8
0
100
AcDbLine
 10
203.583738430231
 20
212.135339811769
 30
0.0
 11
207.991438430231
 21
207.039339811769
 31
0.0
  0
LINE
  5
91C
330
1D
100
AcDbEntity
  8
0
100
AcDbLine
 10
251.790438430231
 20
10.350839811769
 30
0.0
 11
251.803438430231
 21
8.118899811769
 31
0.0
  0
LINE
  5
91E
330
1D
100
AcDbEntity
  8
0
100
AcDbLine
 10
246.271438430231
 20
10.136239811769
 30
0.0
 11
248.306109012821
 21
8.897628529326
 31
0.0
  0
LINE
  5
927
330
1D
100
AcDbEntity
  8
0
100
AcDbLine
 10
203.834738430231
 20
245.090339811769
 30
0.0
 11
209.804438430231
 21
242.533339811769
 31
0.0
  0
LINE
  5
976
330
1D
100
AcDbEntity
  8
0
100
AcDbLine
 10
207.991438430231
 20
207.039339811769
 30
0.0
 11
210.285438430231
 21
203.165339811769
 31
0.0
  0
LINE
  5
97E
330
1D
100
AcDbEntity
  8
0
100
AcDbLine
 10
209.733050224647
 20
59.56817124432
 30
0.0
 11
210.997438430231
 21
59.570639811769
 31
0.0
  0
LINE
  5
980
330
1D
100
AcDbEntity
  8
0
100
AcDbLine
 10
209.804438430231
 20
242.533339811769
 30
0.0
 11
215.454438430231
 21
239.331339811769
 31
0.0
  0
LINE
  5
981
330
1D
100
AcDbEntity
  8
0
100
AcDbLine
 10
210.285438430231
 20
203.165339811769
 30
0.0
 11
211.961438430231
 21
198.989339811769
 31
0.0
  0
LINE
  5
982
330
1D
100
AcDbEntity
  8
0
100
AcDbLine
 10
209.733050224647
 20
59.56817124432
 30
0.0
 11
210.997438430231
 21
59.570639811769
 31
0.0
  0
LINE
  5
983
330
1D
100
AcDbEntity
  8
0
100
AcDbLine
 10
209.267438430231
 20
53.672639811769
 30
0.0
 11
243.711438430231
 21
12.618339811769
 31
0.0
  0
LINE
  5
9C9
330
1D
100
AcDbEntity
  8
0
100
AcDbLine
 10
213.326438430231
 20
190.118339811769
 30
0.0
 11
213.327438430231
 21
59.618339811769
 31
0.0
  0
LINE
  5
9CE
330
1D
100
AcDbEntity
  8
0
100
AcDbLine
 10
211.961438430231
 20
198.989339811769
 30
0.0
 11
212.984438430231
 21
194.606339811769
 31
0.0
  0
LINE
  5
9CF
330
1D
100
AcDbEntity
  8
0
100
AcDbLine
 10
212.984438430231
 20
194.606339811769
 30
0.0
 11
213.326438430231
 21
190.118339811769
 31
0.0
  0
LINE
  5
9DC
330
1D
100
AcDbEntity
  8
0
100
AcDbLine
 10
215.454438430231
 20
239.331339811769
 30
0.0
 11
220.714438430231
 21
235.522339811769
 31
0.0
  0
LINE
  5
9E2
330
1D
100
AcDbEntity
  8
0
100
AcDbLine
 10
220.714438430231
 20
235.522339811769
 30
0.0
 11
225.520438430231
 21
231.154339811769
 31
0.0
  0
LINE
  5
9E5
330
1D
100
AcDbEntity
  8
0
100
AcDbLine
 10
233.707630518776
 20
24.542022634299
 30
0.0
 11
234.071821214516
 21
24.689168612075
 31
0.0
  0
LINE
  5
9E6
330
1D
100
AcDbEntity
  8
0
100
AcDbLine
 10
233.707630518776
 20
24.542022634299
 30
0.0
 11
234.071821214555
 21
24.689168612091
 31
0.0
  0
LINE
  5
9E7
330
1D
100
AcDbEntity
  8
0
100
AcDbLine
 10
229.254738430231
 20
54.359339811769
 30
0.0
 11
235.221438430231
 21
52.654639811769
 31
0.0
  0
LINE
  5
9EB
330
1D
100
AcDbEntity
  8
0
100
AcDbLine
 10
233.707626567674
 20
24.542027343676
 30
0.0
 11
235.227638430231
 21
25.156139811769
 31
0.0
  0
LINE
  5
9EC
330
1D
100
AcDbEntity
  8
0
100
AcDbLine
 10
235.227638430231
 20
25.156139811769
 30
0.0
 11
237.110638430231
 21
25.916839811769
 31
0.0
  0
LINE
  5
9EE
330
1D
100
AcDbEntity
  8
0
100
AcDbLine
 10
238.921038430231
 20
19.364639811769
 30
0.0
 11
242.829038430231
 21
19.334839811769
 31
0.0
  0
LINE
  5
9F0
330
1D
100
AcDbEntity
  8
0
100
AcDbLine
 10
238.05379993194
 20
19.361760674631
 30
0.0
 11
238.921038430231
 21
19.364639811769
 31
0.0
  0
LINE
  5
9F1
330
1D
100
AcDbEntity
  8
0
100
AcDbLine
 10
237.110638430231
 20
25.916839811769
 30
0.0
 11
238.776538430231
 21
26.590039811769
 31
0.0
  0
LINE
  5
9F4
330
1D
100
AcDbEntity
  8
0
100
AcDbLine
 10
237.241908610375
 20
51.966464594106
 30
0.0
 11
240.552738430231
 21
50.897439811769
 31
0.0
  0
LINE
  5
9F5
330
1D
100
AcDbEntity
  8
0
100
AcDbLine
 10
240.552738430231
 20
50.897439811769
 30
0.0
 11
243.156856902922
 21
49.792659165096
 31
0.0
  0
LINE
  5
9F6
330
1D
100
AcDbEntity
  8
0
100
AcDbLine
 10
240.552738430231
 20
50.897439811769
 30
0.0
 11
243.156856902922
 21
49.792659165096
 31
0.0
  0
LINE
  5
9F7
330
1D
100
AcDbEntity
  8
0
100
AcDbLine
 10
237.241908610375
 20
51.966464594106
 30
0.0
 11
240.552738430231
 21
50.897439811769
 31
0.0
  0
LINE
  5
A21
330
1D
100
AcDbEntity
  8
0
100
AcDbLine
 10
241.963438430231
 20
59.618339811769
 30
0.0
 11
242.327438430231
 21
59.618339811769
 31
0.0
  0
LINE
  5
A26
330
1D
100
AcDbEntity
  8
0
100
AcDbLine
 10
243.156856902922
 20
49.792659165096
 30
0.0
 11
245.622938430231
 21
48.746439811769
 31
0.0
  0
LINE
  5
A27
330
1D
100
AcDbEntity
  8
0
100
AcDbLine
 10
243.156856902922
 20
49.792659165096
 30
0.0
 11
245.622938430231
 21
48.746439811769
 31
0.0
  0
LINE
  5
A28
330
1D
100
AcDbEntity
  8
0
100
AcDbLine
 10
242.829038430231
 20
19.334839811769
 30
0.0
 11
245.133338430231
 21
19.330939811769
 31
0.0
  0
LINE
  5
A2A
330
1D
100
AcDbEntity
  8
0
100
AcDbLine
 10
242.323438430231
 20
68.361939811769
 30
0.0
 11
242.327438430231
 21
59.618339811769
 31
0.0
  0
LINE
  5
A2D
330
1D
100
AcDbEntity
  8
0
100
AcDbLine
 10
239.109438430231
 20
209.251339811769
 30
0.0
 11
240.889438430231
 21
203.006339811769
 31
0.0
  0
LINE
  5
A2E
330
1D
100
AcDbEntity
  8
0
100
AcDbLine
 10
240.889438430231
 20
203.006339811769
 30
0.0
 11
241.966438430231
 21
196.602339811769
 31
0.0
  0
LINE
  5
A2F
330
1D
100
AcDbEntity
  8
0
100
AcDbLine
 10
225.520438430231
 20
231.154339811769
 30
0.0
 11
229.811438430231
 21
226.280339811769
 31
0.0
  0
LINE
  5
A30
330
1D
100
AcDbEntity
  8
0
100
AcDbLine
 10
229.811438430231
 20
226.280339811769
 30
0.0
 11
233.536438430231
 21
220.961339811769
 31
0.0
  0
LINE
  5
A31
330
1D
100
AcDbEntity
  8
0
100
AcDbLine
 10
233.536438430231
 20
220.961339811769
 30
0.0
 11
236.648438430231
 21
215.261339811769
 31
0.0
  0
LINE
  5
A32
330
1D
100
AcDbEntity
  8
0
100
AcDbLine
 10
236.648438430231
 20
215.261339811769
 30
0.0
 11
239.109438430231
 21
209.251339811769
 31
0.0
  0
LINE
  5
A33
330
1D
100
AcDbEntity
  8
0
100
AcDbLine
 10
241.966438430231
 20
196.602339811769
 30
0.0
 11
242.327438430231
 21
190.118339811769
 31
0.0
  0
LINE
  5
A34
330
1D
100
AcDbEntity
  8
0
100
AcDbLine
 10
242.064438430231
 20
81.618239811769
 30
0.0
 11
242.086438430231
 21
82.413439811769
 31
0.0
  0
LINE
  5
A35
330
1D
100
AcDbEntity
  8
0
100
AcDbLine
 10
242.064438430231
 20
81.618239811769
 30
0.0
 11
242.064438430231
 21
71.118139811769
 31
0.0
  0
LINE
  5
A36
330
1D
100
AcDbEntity
  8
0
100
AcDbLine
 10
242.06718843023
 20
81.717639811722
 30
0.0
 11
242.086438430231
 21
82.412739811769
 31
0.0
  0
LINE
  5
A37
330
1D
100
AcDbEntity
  8
0
100
AcDbLine
 10
242.086438430231
 20
82.413439811769
 30
0.0
 11
242.145438430231
 21
83.139639811769
 31
0.0
  0
LINE
  5
A38
330
1D
100
AcDbEntity
  8
0
100
AcDbLine
 10
242.145438430231
 20
83.139639811769
 30
0.0
 11
242.222438430231
 21
83.744739811769
 31
0.0
  0
LINE
  5
A39
330
1D
100
AcDbEntity
  8
0
100
AcDbLine
 10
242.222438430231
 20
83.744739811769
 30
0.0
 11
242.289438430231
 21
84.163139811769
 31
0.0
  0
LINE
  5
A3A
330
1D
100
AcDbEntity
  8
0
100
AcDbLine
 10
242.327438430231
 20
190.118339811769
 30
0.0
 11
242.327438430231
 21
84.368239811769
 31
0.0
  0
LINE
  5
A3B
330
1D
100
AcDbEntity
  8
0
100
AcDbLine
 10
242.327438430231
 20
84.368239811769
 30
0.0
 11
242.327438430231
 21
190.118339811769
 31
0.0
  0
LINE
  5
A3C
330
1D
100
AcDbEntity
  8
0
100
AcDbLine
 10
242.289438430231
 20
84.163139811769
 30
0.0
 11
242.327438430231
 21
84.368239811769
 31
0.0
  0
LINE
  5
A3D
330
1D
100
AcDbEntity
  8
0
100
AcDbLine
 10
242.086438430231
 20
82.412739811769
 30
0.0
 11
242.145438430231
 21
83.139639811769
 31
0.0
  0
LINE
  5
A3E
330
1D
100
AcDbEntity
  8
0
100
AcDbLine
 10
242.086438430231
 20
70.323239811769
 30
0.0
 11
242.196438430231
 21
69.194439811769
 31
0.0
  0
LINE
  5
A3F
330
1D
100
AcDbEntity
  8
0
100
AcDbLine
 10
242.086438430231
 20
70.323239811769
 30
0.0
 11
242.232563106355
 21
68.957638293081
 31
0.0
  0
LINE
  5
A40
330
1D
100
AcDbEntity
  8
0
100
AcDbLine
 10
242.064438430231
 20
71.118139811769
 30
0.0
 11
242.064438430231
 21
81.618239811769
 31
0.0
  0
LINE
  5
A41
330
1D
100
AcDbEntity
  8
0
100
AcDbLine
 10
242.064438430231
 20
71.118139811769
 30
0.0
 11
242.086438430231
 21
70.323239811769
 31
0.0
  0
LINE
  5
A42
330
1D
100
AcDbEntity
  8
0
100
AcDbLine
 10
242.196438430231
 20
69.194439811769
 30
0.0
 11
242.323438430231
 21
68.361939811769
 31
0.0
  0
LINE
  5
A4A
330
1D
100
AcDbEntity
  8
0
100
AcDbLine
 10
243.711438430231
 20
12.618339811769
 30
0.0
 11
244.130665715447
 21
12.075359231817
 31
0.0
  0
LINE
  5
A4B
330
1D
100
AcDbEntity
  8
0
100
AcDbLine
 10
246.912538430231
 20
25.583339811769
 30
0.0
 11
247.349338430231
 21
23.773939811769
 31
0.0
  0
LINE
  5
A4C
330
1D
100
AcDbEntity
  8
0
100
AcDbLine
 10
246.196638430231
 20
27.301739811769
 30
0.0
 11
246.912538430231
 21
25.583339811769
 31
0.0
  0
LINE
  5
A4D
330
1D
100
AcDbEntity
  8
0
100
AcDbLine
 10
247.495938430231
 20
21.918339811769
 30
0.0
 11
247.495938430231
 21
20.218339811769
 31
0.0
  0
LINE
  5
A4E
330
1D
100
AcDbEntity
  8
0
100
AcDbLine
 10
247.349338430231
 20
23.773939811769
 30
0.0
 11
247.495938430231
 21
21.918339811769
 31
0.0
  0
LINE
  5
A4F
330
1D
100
AcDbEntity
  8
0
100
AcDbLine
 10
247.051038430231
 20
19.353339811769
 30
0.0
 11
247.969638430231
 21
19.358139811769
 31
0.0
  0
LINE
  5
A50
330
1D
100
AcDbEntity
  8
0
100
AcDbLine
 10
245.133338430231
 20
19.330939811769
 30
0.0
 11
247.051038430231
 21
19.353339811769
 31
0.0
  0
LINE
  5
A51
330
1D
100
AcDbEntity
  8
0
100
AcDbLine
 10
247.495938430231
 20
20.218339811769
 30
0.0
 11
247.632738430231
 21
19.718339811769
 31
0.0
  0
LINE
  5
A52
330
1D
100
AcDbEntity
  8
0
100
AcDbLine
 10
247.495938430231
 20
20.218339811769
 30
0.0
 11
247.495938430231
 21
21.918339811769
 31
0.0
  0
LINE
  5
A53
330
1D
100
AcDbEntity
  8
0
100
AcDbLine
 10
245.220538430231
 20
28.885939811769
 30
0.0
 11
246.196638430231
 21
27.301739811769
 31
0.0
  0
LINE
  5
A54
330
1D
100
AcDbEntity
  8
0
100
AcDbLine
 10
248.276798342949
 20
19.2853658146
 30
0.0
 11
249.214638430231
 21
19.120139811769
 31
0.0
  0
LINE
  5
A58
330
1D
100
AcDbEntity
  8
0
100
AcDbLine
 10
247.632738430231
 20
19.718339811769
 30
0.0
 11
247.969638430231
 21
19.358139811769
 31
0.0
  0
LINE
  5
A5B
330
1D
100
AcDbEntity
  8
0
100
AcDbLine
 10
244.964885615265
 20
29.092066078144
 30
0.0
 11
245.220538430231
 21
28.885939811769
 31
0.0
  0
LINE
  5
A66
330
1D
100
AcDbEntity
  8
0
100
AcDbLine
 10
249.955538430231
 20
18.292439811769
 30
0.0
 11
250.044151684167
 21
8.227750398925
 31
0.0
  0
LINE
  5
A67
330
1D
100
AcDbEntity
  8
0
100
AcDbLine
 10
249.617438430231
 20
18.837539811769
 30
0.0
 11
249.955538430231
 21
18.292439811769
 31
0.0
  0
LINE
  5
A68
330
1D
100
AcDbEntity
  8
0
100
AcDbLine
 10
249.214638430231
 20
19.120139811769
 30
0.0
 11
249.617438430231
 21
18.837539811769
 31
0.0
  0
LINE
  5
A6F
330
1D
100
AcDbEntity
  8
0
100
AcDbLine
 10
250.320938430231
 20
45.859639811769
 30
0.0
 11
250.479838430231
 21
31.464939811769
 31
0.0
  0
LINE
  5
A70
330
1D
100
AcDbEntity
  8
0
100
AcDbLine
 10
250.240838430231
 20
46.012239811769
 30
0.0
 11
250.320938430231
 21
45.859639811769
 31
0.0
  0
LINE
  5
A74
330
1D
100
AcDbEntity
  8
0
100
AcDbLine
 10
245.622938430231
 20
48.746439811769
 30
0.0
 11
247.243838430231
 21
48.007939811769
 31
0.0
  0
LINE
  5
A75
330
1D
100
AcDbEntity
  8
0
100
AcDbLine
 10
247.920838430231
 20
47.546439811769
 30
0.0
 11
249.983938430231
 21
46.480439811769
 31
0.0
  0
LINE
  5
A76
330
1D
100
AcDbEntity
  8
0
100
AcDbLine
 10
247.243838430231
 20
48.007939811769
 30
0.0
 11
247.920838430231
 21
47.546439811769
 31
0.0
  0
LINE
  5
A77
330
1D
100
AcDbEntity
  8
0
100
AcDbLine
 10
249.983938430231
 20
46.480439811769
 30
0.0
 11
250.240838430231
 21
46.012239811769
 31
0.0
  0
LINE
  5
A7A
330
1D
100
AcDbEntity
  8
0
100
AcDbLine
 10
250.774438430231
 20
59.590439811769
 30
0.0
 11
251.435438430231
 21
59.485439811769
 31
0.0
  0
LINE
  5
A7C
330
1D
100
AcDbEntity
  8
0
100
AcDbLine
 10
251.435438430231
 20
59.485439811769
 30
0.0
 11
251.739438430231
 21
59.000439811769
 31
0.0
  0
LINE
  5
A86
330
1D
100
AcDbEntity
  8
0
100
AcDbLine
 10
251.739438430231
 20
59.000439811769
 30
0.0
 11
251.790438430231
 21
10.350839811769
 31
0.0
  0
LINE
  5
A8E
330
1D
100
AcDbEntity
  8
0
100
AcDbLine
 10
245.649438430231
 20
10.603539811769
 30
0.0
 11
246.271438430231
 21
10.136239811769
 31
0.0
  0
LINE
  5
A90
330
1D
100
AcDbEntity
  8
0
100
AcDbLine
 10
202.717062855958
 20
9.387837801815
 30
0.0
 11
202.855438430231
 21
10.669439811769
 31
0.0
  0
LINE
  5
A91
330
1D
100
AcDbEntity
  8
0
100
AcDbLine
 10
202.460438430231
 20
11.931839811769
 30
0.0
 11
202.855438430231
 21
10.669439811769
 31
0.0
  0
LINE
  5
AB9
330
1D
100
AcDbEntity
  8
0
100
AcDbLine
 10
194.574438430231
 20
69.253339811769
 30
0.0
 11
173.216438430231
 21
51.320839811769
 31
0.0
  0
LINE
  5
ABA
330
1D
100
AcDbEntity
  8
0
100
AcDbLine
 10
172.254438430231
 20
48.078439811769
 30
0.0
 11
196.631438430231
 21
68.524939811769
 31
0.0
  0
LINE
  5
ABB
330
1D
100
AcDbEntity
  8
0
100
AcDbLine
 10
208.758438430231
 20
54.290039811769
 30
0.0
 11
184.250438430231
 21
33.724739811769
 31
0.0
  0
LINE
  5
ABC
330
1D
100
AcDbEntity
  8
0
100
AcDbLine
 10
184.754438430231
 20
33.104039811769
 30
0.0
 11
184.250438430231
 21
33.724739811769
 31
0.0
  0
LINE
  5
ABD
330
1D
100
AcDbEntity
  8
0
100
AcDbLine
 10
184.754438430231
 20
33.104039811769
 30
0.0
 11
209.267438430231
 21
53.672639811769
 31
0.0
  0
LINE
  5
ABE
330
1D
100
AcDbEntity
  8
0
100
AcDbLine
 10
209.267438430231
 20
53.672639811769
 30
0.0
 11
208.758438430231
 21
54.290039811769
 31
0.0
  0
LINE
  5
ABF
330
1D
100
AcDbEntity
  8
0
100
AcDbLine
 10
209.733050224647
 20
59.56817124432
 30
0.0
 11
207.819538430231
 21
60.078739811769
 31
0.0
  0
LINE
  5
AC0
330
1D
100
AcDbEntity
  8
0
100
AcDbLine
 10
237.241908610375
 20
51.966464594106
 30
0.0
 11
235.221438430231
 21
52.654639811769
 31
0.0
  0
LINE
  5
AC1
330
1D
100
AcDbEntity
  8
0
100
AcDbLine
 10
229.254738430231
 20
54.359339811769
 30
0.0
 11
211.727124471669
 21
56.472163745429
 31
0.0
  0
LINE
  5
AC2
330
1D
100
AcDbEntity
  8
0
100
AcDbLine
 10
211.727124471669
 20
56.472163745429
 30
0.0
 11
206.707035016629
 21
56.860173474394
 31
0.0
  0
LINE
  5
AC3
330
1D
100
AcDbEntity
  8
0
100
AcDbLine
 10
210.997438430231
 20
59.570639811769
 30
0.0
 11
213.327438795749
 21
59.570639811769
 31
0.0
  0
LINE
  5
AC4
330
1D
100
AcDbEntity
  8
0
100
AcDbLine
 10
213.327438795749
 20
59.570639811769
 30
0.0
 11
241.963438430231
 21
59.618339811769
 31
0.0
  0
LINE
  5
AC5
330
1D
100
AcDbEntity
  8
0
100
AcDbLine
 10
241.963438430231
 20
59.618339811769
 30
0.0
 11
250.774438430231
 21
59.590439811769
 31
0.0
  0
LINE
  5
AC6
330
1D
100
AcDbEntity
  8
0
100
AcDbLine
 10
238.776538430231
 20
26.590039811769
 30
0.0
 11
250.479838430231
 21
31.464939811769
 31
0.0
  0
LINE
  5
AC7
330
1D
100
AcDbEntity
  8
0
100
AcDbLine
 10
247.969638430231
 20
19.358139811769
 30
0.0
 11
248.276798342949
 21
19.2853658146
 31
0.0
  0
LINE
  5
AC8
330
1D
100
AcDbEntity
  8
0
100
AcDbLine
 10
244.130665715447
 20
12.075359231817
 30
0.0
 11
245.649438430231
 21
10.603539811769
 31
0.0
  0
LINE
  5
AC9
330
1D
100
AcDbEntity
  8
0
100
AcDbLine
 10
256.314438430231
 20
7.618339811769
 30
0.0
 11
260.173343606252
 21
7.618339811769
 31
0.0
  0
LINE
  5
ACA
330
1D
100
AcDbEntity
  8
0
100
AcDbLine
 10
260.173343606252
 20
7.618339811769
 30
0.0
 11
260.433438430231
 21
7.480709811769
 31
0.0
  0
LINE
  5
ACB
330
1D
100
AcDbEntity
  8
0
100
AcDbLine
 10
202.688438430231
 20
9.154139811769
 30
0.0
 11
202.717062855958
 21
9.387837801815
 31
0.0
  0
LINE
  5
ACC
330
1D
100
AcDbEntity
  8
0
100
AcDbLine
 10
201.5970952161
 20
7.796836589416
 30
0.0
 11
200.96850718269
 21
7.559483495809
 31
0.0
  0
LINE
  5
ACD
330
1D
100
AcDbEntity
  8
0
100
AcDbLine
 10
200.96850718269
 20
7.559483495809
 30
0.0
 11
195.701438430231
 21
7.393709811769
 31
0.0
  0
LINE
  5
ACE
330
1D
100
AcDbEntity
  8
0
100
AcDbLine
 10
194.662738430231
 20
8.088039811769
 30
0.0
 11
201.870057395417
 21
8.088039811769
 31
0.0
  0
LINE
  5
ACF
330
1D
100
AcDbEntity
  8
0
100
AcDbLine
 10
111.913438430231
 20
195.361339811769
 30
0.0
 11
134.138938430231
 21
176.917339811769
 31
0.0
  0
LINE
  5
AD0
330
1D
100
AcDbEntity
  8
0
100
AcDbLine
 10
134.138938430231
 20
176.917339811769
 30
0.0
 11
134.238032266622
 21
176.917339811769
 31
0.0
  0
LINE
  5
AD1
330
1D
100
AcDbEntity
  8
0
100
AcDbLine
 10
134.238032266622
 20
176.917339811769
 30
0.0
 11
112.018438430231
 21
195.546339811769
 31
0.0
  0
LINE
  5
AD2
330
1D
100
AcDbEntity
  8
0
100
AcDbLine
 10
112.018438430231
 20
195.546339811769
 30
0.0
 11
111.913438430231
 21
195.361339811769
 31
0.0
  0
LINE
  5
AD3
330
1D
100
AcDbEntity
  8
0
100
AcDbLine
 10
105.760438430231
 20
187.829339811769
 30
0.0
 11
127.558438430231
 21
169.516339811769
 31
0.0
  0
LINE
  5
ADA
330
1D
100
AcDbEntity
  8
0
100
AcDbLine
 10
262.915438430231
 20
-1.581658188231
 30
0.0
 11
192.811038398689
 21
-1.581658188231
 31
0.0
  0
ENDSEC
  0
SECTION
  2
OBJECTS
  0
DICTIONARY
  5
C
330
0
100
AcDbDictionary
281
     1
  3
ACAD_GROUP
350
D
  3
ACAD_LAYOUT
350
1A
  3
ACAD_MLEADERSTYLE
350
AD6
  3
ACAD_MLINESTYLE
350
17
  3
ACAD_PLOTSETTINGS
350
19
  3
ACAD_PLOTSTYLENAME
350
E
  3
ACAD_SCALELIST
350
A97
  3
AcDbVariableDictionary
350
AD4
  3
DWGPROPS
350
ADC
  0
DICTIONARY
  5
D
102
{ACAD_REACTORS
330
C
102
}
330
C
100
AcDbDictionary
281
     1
  0
DICTIONARY
  5
1A
102
{ACAD_REACTORS
330
C
102
}
330
C
100
AcDbDictionary
281
     1
  3
Layout1
350
1C
  3
Model
350
1E
  0
DICTIONARY
  5
AD6
102
{ACAD_REACTORS
330
C
102
}
330
C
100
AcDbDictionary
281
     1
  0
DICTIONARY
  5
17
102
{ACAD_REACTORS
330
C
102
}
330
C
100
AcDbDictionary
281
     1
  3
Standard
350
18
  0
DICTIONARY
  5
19
102
{ACAD_REACTORS
330
C
102
}
330
C
100
AcDbDictionary
281
     1
  0
ACDBDICTIONARYWDFLT
  5
E
102
{ACAD_REACTORS
330
C
102
}
330
C
100
AcDbDictionary
281
     1
  3
Normal
350
F
100
AcDbDictionaryWithDefault
340
F
  0
DICTIONARY
  5
A97
102
{ACAD_REACTORS
330
C
102
}
330
C
100
AcDbDictionary
281
     1
  3
A0
350
A98
  3
A1
350
A99
  3
A2
350
A9A
  3
A3
350
A9B
  3
A4
350
A9C
  3
A5
350
A9D
  3
A6
350
A9E
  3
A7
350
A9F
  3
A8
350
AA0
  3
A9
350
AA1
  3
B0
350
AA2
  3
B1
350
AA3
  3
B2
350
AA4
  3
B3
350
AA5
  3
B4
350
AA6
  3
B5
350
AA7
  3
B6
350
AA8
  3
B7
350
AA9
  3
B8
350
AAA
  3
B9
350
AAB
  3
C0
350
AAC
  3
C1
350
AAD
  3
C2
350
AAE
  3
C3
350
AAF
  3
C4
350
AB0
  3
C5
350
AB1
  3
C6
350
AB2
  3
C7
350
AB3
  3
C8
350
AB4
  3
C9
350
AB5
  3
D0
350
AB6
  3
D1
350
AB7
  3
D2
350
AB8
  0
DICTIONARY
  5
AD4
102
{ACAD_REACTORS
330
C
102
}
330
C
100
AcDbDictionary
281
     1
  3
CANNOSCALE
350
AD7
  0
XRECORD
  5
ADC
102
{ACAD_REACTORS
330
C
102
}
330
C
100
AcDbXrecord
280
     1
  1
DWGPROPS COOKIE
  2

  3

  4

  6

  7

  8
MARTIN
  9

300
=
301
=
302
=
303
=
304
=
305
=
306
=
307
=
308
=
309
=
 40
0.0
 41
2456646.565969144
 42
2456646.570519745
  1

 90
        0
  0
LAYOUT
  5
1C
102
{ACAD_REACTORS
330
1A
102
}
330
1A
100
AcDbPlotSettings
  1

  2
none_device
  4

  6

 40
0.0
 41
0.0
 42
0.0
 43
0.0
 44
0.0
 45
0.0
 46
0.0
 47
0.0
 48
0.0
 49
0.0
140
0.0
141
0.0
142
1.0
143
1.0
 70
   688
 72
     0
 73
     0
 74
     5
  7

 75
    16
147
1.0
148
0.0
149
0.0
100
AcDbLayout
  1
Layout1
 70
     1
 71
     1
 10
0.0
 20
0.0
 11
12.0
 21
9.0
 12
0.0
 22
0.0
 32
0.0
 14
1.000000000000E+20
 24
1.000000000000E+20
 34
1.000000000000E+20
 15
-1.000000000000E+20
 25
-1.000000000000E+20
 35
-1.000000000000E+20
146
0.0
 13
0.0
 23
0.0
 33
0.0
 16
1.0
 26
0.0
 36
0.0
 17
0.0
 27
1.0
 37
0.0
 76
     0
330
1B
  0
LAYOUT
  5
1E
102
{ACAD_REACTORS
330
1A
102
}
330
1A
100
AcDbPlotSettings
  1

  2
none_device
  4

  6

 40
0.0
 41
0.0
 42
0.0
 43
0.0
 44
0.0
 45
0.0
 46
0.0
 47
0.0
 48
0.0
 49
0.0
140
0.0
141
0.0
142
1.0
143
1.0
 70
  1712
 72
     0
 73
     0
 74
     0
  7

 75
     0
147
1.0
148
0.0
149
0.0
100
AcDbLayout
  1
Model
 70
     1
 71
     0
 10
0.0
 20
0.0
 11
12.0
 21
9.0
 12
0.0
 22
0.0
 32
0.0
 14
-18.885561569769
 24
-1.581660188231
 34
0.0
 15
263.391438430231
 25
248.611339811769
 35
0.0
146
0.0
 13
0.0
 23
0.0
 33
0.0
 16
1.0
 26
0.0
 36
0.0
 17
0.0
 27
1.0
 37
0.0
 76
     0
330
1D
331
A92
  0
MLINESTYLE
  5
18
102
{ACAD_REACTORS
330
17
102
}
330
17
100
AcDbMlineStyle
  2
Standard
 70
     0
  3

 62
   256
 51
90.0
 52
90.0
 71
     2
 49
0.5
 62
   256
  6
BYLAYER
 49
-0.5
 62
   256
  6
BYLAYER
  0
ACDBPLACEHOLDER
  5
F
102
{ACAD_REACTORS
330
E
102
}
330
E
  0
SCALE
  5
A98
102
{ACAD_REACTORS
330
A97
102
}
330
A97
100
AcDbScale
 70
     0
300
1:1
140
1.0
141
1.0
290
     1
  0
SCALE
  5
A99
102
{ACAD_REACTORS
330
A97
102
}
330
A97
100
AcDbScale
 70
     0
300
1:2
140
1.0
141
2.0
290
     0
  0
SCALE
  5
A9A
102
{ACAD_REACTORS
330
A97
102
}
330
A97
100
AcDbScale
 70
     0
300
1:4
140
1.0
141
4.0
290
     0
  0
SCALE
  5
A9B
102
{ACAD_REACTORS
330
A97
102
}
330
A97
100
AcDbScale
 70
     0
300
1:5
140
1.0
141
5.0
290
     0
  0
SCALE
  5
A9C
102
{ACAD_REACTORS
330
A97
102
}
330
A97
100
AcDbScale
 70
     0
300
1:8
140
1.0
141
8.0
290
     0
  0
SCALE
  5
A9D
102
{ACAD_REACTORS
330
A97
102
}
330
A97
100
AcDbScale
 70
     0
300
1:10
140
1.0
141
10.0
290
     0
  0
SCALE
  5
A9E
102
{ACAD_REACTORS
330
A97
102
}
330
A97
100
AcDbScale
 70
     0
300
1:16
140
1.0
141
16.0
290
     0
  0
SCALE
  5
A9F
102
{ACAD_REACTORS
330
A97
102
}
330
A97
100
AcDbScale
 70
     0
300
1:20
140
1.0
141
20.0
290
     0
  0
SCALE
  5
AA0
102
{ACAD_REACTORS
330
A97
102
}
330
A97
100
AcDbScale
 70
     0
300
1:30
140
1.0
141
30.0
290
     0
  0
SCALE
  5
AA1
102
{ACAD_REACTORS
330
A97
102
}
330
A97
100
AcDbScale
 70
     0
300
1:40
140
1.0
141
40.0
290
     0
  0
SCALE
  5
AA2
102
{ACAD_REACTORS
330
A97
102
}
330
A97
100
AcDbScale
 70
     0
300
1:50
140
1.0
141
50.0
290
     0
  0
SCALE
  5
AA3
102
{ACAD_REACTORS
330
A97
102
}
330
A97
100
AcDbScale
 70
     0
300
1:100
140
1.0
141
100.0
290
     0
  0
SCALE
  5
AA4
102
{ACAD_REACTORS
330
A97
102
}
330
A97
100
AcDbScale
 70
     0
300
2:1
140
2.0
141
1.0
290
     0
  0
SCALE
  5
AA5
102
{ACAD_REACTORS
330
A97
102
}
330
A97
100
AcDbScale
 70
     0
300
4:1
140
4.0
141
1.0
290
     0
  0
SCALE
  5
AA6
102
{ACAD_REACTORS
330
A97
102
}
330
A97
100
AcDbScale
 70
     0
300
8:1
140
8.0
141
1.0
290
     0
  0
SCALE
  5
AA7
102
{ACAD_REACTORS
330
A97
102
}
330
A97
100
AcDbScale
 70
     0
300
10:1
140
10.0
141
1.0
290
     0
  0
SCALE
  5
AA8
102
{ACAD_REACTORS
330
A97
102
}
330
A97
100
AcDbScale
 70
     0
300
100:1
140
100.0
141
1.0
290
     0
  0
SCALE
  5
AA9
102
{ACAD_REACTORS
330
A97
102
}
330
A97
100
AcDbScale
 70
     0
300
1/128" = 1'-0"
140
0.0078125
141
12.0
290
     0
  0
SCALE
  5
AAA
102
{ACAD_REACTORS
330
A97
102
}
330
A97
100
AcDbScale
 70
     0
300
1/64" = 1'-0"
140
0.015625
141
12.0
290
     0
  0
SCALE
  5
AAB
102
{ACAD_REACTORS
330
A97
102
}
330
A97
100
AcDbScale
 70
     0
300
1/32" = 1'-0"
140
0.03125
141
12.0
290
     0
  0
SCALE
  5
AAC
102
{ACAD_REACTORS
330
A97
102
}
330
A97
100
AcDbScale
 70
     0
300
1/16" = 1'-0"
140
0.0625
141
12.0
290
     0
  0
SCALE
  5
AAD
102
{ACAD_REACTORS
330
A97
102
}
330
A97
100
AcDbScale
 70
     0
300
3/32" = 1'-0"
140
0.09375
141
12.0
290
     0
  0
SCALE
  5
AAE
102
{ACAD_REACTORS
330
A97
102
}
330
A97
100
AcDbScale
 70
     0
300
1/8" = 1'-0"
140
0.125
141
12.0
290
     0
  0
SCALE
  5
AAF
102
{ACAD_REACTORS
330
A97
102
}
330
A97
100
AcDbScale
 70
     0
300
3/16" = 1'-0"
140
0.1875
141
12.0
290
     0
  0
SCALE
  5
AB0
102
{ACAD_REACTORS
330
A97
102
}
330
A97
100
AcDbScale
 70
     0
300
1/4" = 1'-0"
140
0.25
141
12.0
290
     0
  0
SCALE
  5
AB1
102
{ACAD_REACTORS
330
A97
102
}
330
A97
100
AcDbScale
 70
     0
300
3/8" = 1'-0"
140
0.375
141
12.0
290
     0
  0
SCALE
  5
AB2
102
{ACAD_REACTORS
330
A97
102
}
330
A97
100
AcDbScale
 70
     0
300
1/2" = 1'-0"
140
0.5
141
12.0
290
     0
  0
SCALE
  5
AB3
102
{ACAD_REACTORS
330
A97
102
}
330
A97
100
AcDbScale
 70
     0
300
3/4" = 1'-0"
140
0.75
141
12.0
290
     0
  0
SCALE
  5
AB4
102
{ACAD_REACTORS
330
A97
102
}
330
A97
100
AcDbScale
 70
     0
300
1" = 1'-0"
140
1.0
141
12.0
290
     0
  0
SCALE
  5
AB5
102
{ACAD_REACTORS
330
A97
102
}
330
A97
100
AcDbScale
 70
     0
300
1-1/2" = 1'-0"
140
1.5
141
12.0
290
     0
  0
SCALE
  5
AB6
102
{ACAD_REACTORS
330
A97
102
}
330
A97
100
AcDbScale
 70
     0
300
3" = 1'-0"
140
3.0
141
12.0
290
     0
  0
SCALE
  5
AB7
102
{ACAD_REACTORS
330
A97
102
}
330
A97
100
AcDbScale
 70
     0
300
6" = 1'-0"
140
6.0
141
12.0
290
     0
  0
SCALE
  5
AB8
102
{ACAD_REACTORS
330
A97
102
}
330
A97
100
AcDbScale
 70
     0
300
1'-0" = 1'-0"
140
12.0
141
12.0
290
     0
  0
DICTIONARYVAR
  5
AD7
102
{ACAD_REACTORS
330
AD4
102
}
330
AD4
100
DictionaryVariables
280
     0
  1
1:1
  0
ENDSEC
  0
SECTION
  2
THUMBNAILIMAGE
 90
    16364
310
28000000B40000005500000001000800000000000000000000000000000000000000000000000000FFFFFF000000FF0000FFFF0000FF0000FFFF0000FF000000FF00FF000000000080808000C0C0C0000000FF007F7FFF000000A5005252A50000007F003F3F7F0000004C0026264C000000260013132600003FFF007F9FFF
310
000029A5005267A500001F7F003F4F7F0000134C00262F4C000009260013172600007FFF007FBFFF000052A500527CA500003F7F003F5F7F0000264C0026394C0000132600131C260000BFFF007FDFFF00007CA5005291A500005F7F003F6F7F0000394C0026424C00001C26001321260000FFFF007FFFFF0000A5A50052A5
310
A500007F7F003F7F7F00004C4C00264C4C00002626001326260000FFBF007FFFDF0000A57C0052A59100007F5F003F7F6F00004C3900264C420000261C001326210000FF7F007FFFBF0000A5520052A57C00007F3F003F7F5F00004C2600264C39000026130013261C0000FF3F007FFF9F0000A5290052A56700007F1F003F
310
7F4F00004C1300264C2F00002609001326170000FF00007FFF7F0000A5000052A55200007F00003F7F3F00004C0000264C260000260000132613003FFF00009FFF7F0029A5000067A552001F7F00004F7F3F00134C00002F4C260009260000172613007FFF0000BFFF7F0052A500007CA552003F7F00005F7F3F00264C0000
310
394C2600132600001C261300BFFF0000DFFF7F007CA5000091A552005F7F00006F7F3F00394C0000424C26001C26000021261300FFFF0000FFFF7F00A5A50000A5A552007F7F00007F7F3F004C4C00004C4C26002626000026261300FFBF0000FFDF7F00A57C0000A59152007F5F00007F6F3F004C3900004C422600261C00
310
0026211300FF7F0000FFBF7F00A5520000A57C52007F3F00007F5F3F004C2600004C39260026130000261C1300FF3F0000FF9F7F00A5290000A56752007F1F00007F4F3F004C1300004C2F26002609000026171300FF000000FF7F7F00A5000000A55252007F0000007F3F3F004C0000004C2626002600000026131300FF00
310
3F00FF7F9F00A5002900A55267007F001F007F3F4F004C0013004C262F002600090026131700FF007F00FF7FBF00A5005200A5527C007F003F007F3F5F004C0026004C2639002600130026131C00FF00BF00FF7FDF00A5007C00A55291007F005F007F3F6F004C0039004C26420026001C0026132100FF00FF00FF7FFF00A5
310
00A500A552A5007F007F007F3F7F004C004C004C264C002600260026132600BF00FF00DF7FFF007C00A5009152A5005F007F006F3F7F0039004C0042264C001C002600211326007F00FF00BF7FFF005200A5007C52A5003F007F005F3F7F0026004C0039264C00130026001C1326003F00FF009F7FFF002900A5006752A500
310
1F007F004F3F7F0013004C002F264C000900260017132600000000002D2D2D005B5B5B0089898900B7B7B700B3B3B30000000000000000000000000000000000000000000000000000000000000000000000000000000000000000000000000000000000000000000000000000000000000000000000000000000000000000
310
00000000000000000707070707070707070707070707070707070707070000000000000000000000000000000000000000000000000000000000000000000000000000000000000000000000000000000000000000000000000000000000000000000000000000000000000000000000000000000000000000000000000000
310
00000000000000000000000000000000000000000000000000000000000000000000000000000000000000000000000000000000000000000000000000070000000000000000000000000000000000000007000000000000000000000000000000000000000000000000000000000000000000000000000000000000000000
310
00000000000000000000000000000000000000000000000000000000000000000000000000000000000000000000000000000000000000000000000000000000000000000000000000000000000000000000000000000000000000000000000000000000000000000000000000000000000007000000000000000000000000
310
00000000000000070000000000000000000000000000000000000000000000000000000000000000000000000000000000000000000000000000000000000000000000000000000000000000000000000000000000000000000000000000000000000000000000000000000000000000000000000000000000000000000000
310
00000000000000000000000000000000000000000000000000000000000000000000000000000000070000000000000000000000000000000000000007000000000000000000000000000000000000000000000000000000000000000000000000000000000000000000000000000000000000000000000000000000000000
310
00000000000000000000000000000000000000000000000000000000000000000000000000000000000000000000000000000000000000000000000000000000000000000000000000000000000000000000000000000000000000000007000000000000000000000000000000000000000700000000000000000000000000
310
00000000000000000000000000000000000000000000000000000000000000000000000000000000000000000000000000000000000000000000000000000000000000000000000000000000000000000000000000000000000000000000000000000000000000000000000000000000000000000000000000000000000000
310
00000000000000000000000000000000000000070707070707070707070707070707070707070707000000000000000000000000000000000000000000000000000000000000000000000000000000000000000000000000000000000000000000000000000000000000000000000000000000000000000000000000000000
310
00000000000000000000000000000000000000000000000000000000000000000000000000000000000000000000000000000000000000000000000000000000000000000000000007000000000000000000000000000000000000000700000000000000000000000000000000000000000000000000000000000000000000
310
00000000000000000000000000000000000000000000000000000000000000000000000000000000000000000000000000000000000000000000000000000000000000000000000000000000000000000000000000000000000000000000000000000000000000000000000000000000000000000000000000000000000007
310
00000000000000000000000000000000000700000000000000000000000000000000000000000000000000000000000000000000000000000000000000000000000000000000000000000000000000000000000000000000000000000000000000000000000000000000000000000000000000000000000000000000000000
310
00000000000000000000000000000000000000000000000000000000000000000000000000000000000000000000000000000000070000000000000000000000000000000000070000000000000000000000000000000000000000000000000000000000000000000000000000000000000000000000000000000000000000
310
00000000000000000000000000000000000000000000000000000000000000000000000000000000000000000000000000000000000000000000000000000000000000000000000000000000000000000000000000000000000000000000000000000000000000000007000000000000000000000000000000000007000000
310
00000000000000000000000000000000000000000000000000000000000000000000000000000000000000000000000000000000000000000000000000000000000000000000000000000000000000000000000000000000000000000000000000000000000000000000000000000000000000000000000000000000000000
310
00000000000000000000000000000000000000000000000000000000000000070000000000000000000000000000000000070000000000000000000000000000000000000000000000000000000000000000000000000000000000000000000000000000000000000000000000000000000000000000000000000000000000
310
00000000000000000000000000000000000000000000000000000000000000000000000000000000000000000000000000000000000000000000000000000000000000000000000000000000000000000000000000070000000000000000000000000000000700000000000000000000000000000000000000000000000000
310
00000000000000000000000000000000000000000000000000000000000000000000000000000000000000000000000000000000000000000000000000000000000000000000000000000000000000000000000000000000000000000000000000000000000000000000000000000000000000000000000000000000000000
310
00000000000000000000000700000000000000000000000000000007000000000000000000000000000000000000000000000000000000000000000000000000000000000000000000000000000000000000000000000000000000000000000000000000000000000000000000000000000000000000000000000000000000
310
00000000000000000000000000000000000000000000000000000000000000000000000000000000000000000000000000000000000000000000000000000000070000000000000000000000000000000700000000000000000000000000000000000000000000000000000000000000000000000000000000000000000000
310
00000000000000000000000000000000000000000000000000000000000000000000000000000000000000000000000000000000000000000000000000000000000000000000000000000000000000000000000000000000000000000000000000000000000000000000000000000000000000000007000000000000000000
310
00000000000007000000000000000000000000000000000000000000000000000000000000000000000000000000000000000000000000000000000000000000000000000000000000000000000000000000000000000000000000000000000000000000000000000000000000000000000000000000000000000000000000
310
00000000000000000000000000000000000000000000000000000000000000000000000000000000000000000700000000000000000000000000070000000000000000000000000000000000000000000000000000000000000000000000000000000000000000000000000000000000000000000000000000000000000000
310
00000000000000000000000000000000000000000000000000000000000000000000000000000000000000000000000000000000000000000000000000000000000000000000000000000000000000000000000000000000000000000000000000070000000000000000000000000007000000000000000000000000000000
310
00000000000000000000000000000000000000000000000000000000000000000000000000000000000000000000000000000000000000000000000000000000000000000000000000000000000000000000000000000000000000000000000000000000000000000000000000000000000000000000000000000000000000
310
00000000000000000000000000000000000000000000000700000000000000000000000000070000000000000000000000000000000000000000000000000000000000000000000000000000000000000000000000000000000000000000000000000000000000000000000000000000000000000000000000000000000000
310
00000000000000000000000000000000000000000000000000000000000000000000000000000000000000000000000000000000000000000000000000000000000000000000000000000000070000000000000000000000000007000000000000000000000000000000000000000000000000000000000000000000000000
310
00000000000000000000000000000000000000000000000000000000000000000000000000000000000000000000000000000000000000000000000000000000000000000000000000000000000000000000000000000000000000000000000000000000000000000000000000000000000000000000000000000000000000
310
00000007000000000000000000000007000000000000000000000000000000000000000000000000000000000000000000000000000000000000000000000000000000000000000000000000000000000000000000000000000000000000000000000000000000000000000000000000000000000000000000000000000000
310
00000000000000000000000000000000000000000000000000000000000000000000000000000000000000000000000000000000000000000700000000000000000000000700000000000000000000000000000000000000000000000000000000000000000000000000000000000000000000000000000000000000000000
310
00000000000000000000000000000000000000000000000000000000000000000000000000000000000000000000000000000000000000000000000000000000000000000000000000000000000000000000000000000000000000000000000000000000000000000000000000070000000000000000000000070000000000
310
00000000000000000000000000000000000000000000000000000000000000000000000000000000000000000000000000000000000000000000000000000000000000000000000000000000000000000000000000000000000000000000000000000000000000000000000000000000000000000000000000000000000000
310
00000000000000000000000000000000000000000000000000000000000000000000000700000000000000000000000700000000000000000000000000000000000000000000000000000000000000000000000000000000000000000000000000000000000000000000000000000000000000000000000000000000000000
310
00000000000000000000000000000000000000000000000000000000000000000000000000000000000000000000000000000000000000000000000000000000000000000000000000000000000000000000000000000000000700000000000000000007000000000000000000000000000000000000000000000000000000
310
00000000000000000000000000000000000000000000000000000000000000000000000000000000000000000000000000000000000000000000000000000000000000000000000000000000000000000000000000000000000000000000000000000000000000000000000000000000000000000000000000000000000000
310
00000000000000000000000000000007070707070707070707070000000000000000000000000000000000000000000000000000000000000000000000000000000000000000000000000000000000000000000000000000000000000000000000000000000000000000000000000000000000000000000000000000000000
310
00000000000000000000000000000000000000000000000000000000000000000000000000000000000000000000000000000000000000000000000000000000000000000700000000000000000007000000000000000000000000000000000000000000000000000000000000000000000000000000000000000000000000
310
00000000000000000000000000000000000000000000000000000000000000000000000000000000000000000000000000000000000000000000000000000000000000000000000000000000000000000000000000000000000000000000000000000000000000000000000000000000000000000000000000070000000000
310
00000000070000000000000000000000000000000000000000000000000000000000000000000000000000000000000000000000000000000000000000000000000000000000000000000000000000000000000000000000000000000000000000000000000000000000000000000000000000000000000000000000000000
310
00000000000000000000000000000000000000000000000000000000000000000000000000000000000000000000000700000000000000000007000000000000000000000000000000000000000000000000000000000000000000000000000000000000000000000000000000000000000000000000000000000000000000
310
00000000000000000000000000000000000000000000000000000000000000000000000000000000000000000000000000000000000000000000000000000000000000000000000000000000000000000000000000000000000000000000000000000000070000000000000000000700000000000000000000000000000000
310
00000000000000000000000000000000000000000000000000000000000000000000000000000000000000000000000000000000000000000000000000000000000000000000000000000000000000000000000000000000000000000000000000000000000000000000000000000000000000000000000000000000000000
310
00000000000000000000000000000000000000000000000000000700000000000000000007000000000000000000000000000000000000000000000000000000000000000000000000000000000000000000000000000000000000000000000000000000000000000000000000000000000000000000000000000000000000
310
00000000000000000000000000000000000000000000000000000000000000000000000000000000000000000000000000000000000000000000000000000000000000000000000000000000000000070000000000000000000700000000000000000000000000000000000000000000000000000000000000000000000000
310
00000000000000000000000000000000000000000000000000000000000000000000000000000000000000000000000000000000000000000000000000000000000000000000000000000000000000000000000000000000000000000000000000000000000000000000000000000000000000000000000000000000000000
310
00000000000700000000000000000007000000000000000000000000000000000000000000000000000000000000000000000000000000000000000000000000000000000000000000000000000000000000000000000000000000000000000000000000000000000000000000000000000000000000000000000000000000
310
00000000000000000000000000000000000000000000000000000000000000000000000000000000000000000000000000000000000000000000070000000000000000000700000000000000000000000000000000000000000000000000000000000000000000000000000000000000000000000000000000000000000000
310
00000000000000000000000000000000000000000000000000000000000000000000000000000000000000000000000000000000000000000000000000000000000000000000000000000000000000000000000000000000000000000000000000000000000000000000000000000007000000000000000000070000000000
310
00000000000000000000000000000000000000000000000000000000000000000000000000000000000000000000000000000000000000000000000000000000000000000000000000000000000000000000000000000000000000000000000000000000000000000000000000000000000000000000000000000000000000
310
00000000000000000000000000000000000000000000000000000000000000000000000000070000000000000000000700000000000000000000000000000000000000000000000000000000000000000000000000000000000000000000000000000000000000000000000000000000000000000000000000000000000000
310
00000000000000000000000000000000000000000000000000000000000000000000000000000000000000000000000000000000000000000000000000000000000000000000000000000000000000000000000000000000000007000000000000000000070000000000000000000000000000000000000000000000000000
310
00000000000000000000000000000000000000000000000000000000000000000000000000000000000000000000000000000000000000000000000000000000000000000000000000000000000000000000000000000000000000000000000000000000000000000000000000000000000000000000000000000000000000
310
00000000000000000000000000000000070000000000000000000700000000000000000000000000000000000000000000000000000000000000000000000000000000000000000000000000000000000000000000000000000000000000000000000000000000000000000000000000000000000000000000000000000000
310
00000000000000000000000000000000000000000000000000000000000000000000000000000000000000000000000000000000000000000000000000000000000000000007000000000000000000070000000000000000000000000000000000000000000000000000000000000000000000000000000000000000000000
310
00000000000000000000000000000000000000000000000000000000000000000000000000000000000000000000000000000000000000000000000000000000000000000000000000000000000000000000000000000000000000000000000000000000000000000000000000000000000000000000000000000700000000
310
00000000000700000000000000000000000000000000000000000000000000000000000000000000000000000000000000000000000000000000000000000000000000000000000000000000000000000000000000000000000000000000000000000000000000000000000000000000000000000000000000000000000000
310
00000000000000000000000000000000000000000000000000000000000000000000000000000000000000000000000007000000000000000000070000000000000000000000000000000000000000000000000000000000000000000000000000000000000000000000000000000000000000000000000000000000000000
310
00000000000000000000000000000000000000000000000000000000000000000000000000000000000000000000000000000000000000000000000000000000000000000000000000000000000000000000000000000000000000000000000000000000000700000000000000000007000000000000000000000000000000
310
00000000000000000000000000000000000000000000000000000000000000000000000000000000000000000000000000000000000000000000000000000000000000000000000000000000000000000000000000000000000000000000000000000000000000000000000000000000000000000000000000000000000000
310
00000000000000000000000000000000000000000000000000000007000000000000000000070000000000000000000000000000000000000000000000000000000000000000000000000000000000000000000000000000000000000000000000000000000000000000000000000000000000000000000000000000000000
310
00000000000000000000000000000000000000000000000000000000000000000000000000000000000000000000000000000000000000000000000000000000000000000000000000000000000000000700000000000000000007000000000000000000000000000000000000000000000000000000000000000000000000
310
00000000000000000000000000000000000000000000000000000000000000000000000000000000000000000000000000000000000000000000000000000000000000000000000000000000000000000000000000000000000000000000000000000000000000000000000000000000000000000000000000000000000000
310
00000000000007000000000000000000070000000000000000000000000000000000000000000000000000000000000000000000000000000000000000000000000000000000000000000000000000000000000000000000000000000000000000000000000000000000000000000000000000000000000000000000000000
310
00000000000000000000000000000000000000000000000000000000000000000000000000000000000000000000000000000000000000000000000700000000000000000007000000000000000000000000000000000000000000000000000000000000000000000000000000000000000000000000000000000000000000
310
00000000000000000000000000000000000000000000000000000000000000000000000000000000000000000000000000000000000000000000000000000000000000000000000000000000000000000000000000000000000000000000000000000000000000000000000000000000070000000000000000000700000000
310
00000000000000000000000000000000000000000000000000000000000000000000000000000000000000000000000000000000000000000000000000000000000000000000000000000000000000000000000000000000000000000000000000000000000000000000000000000000000000000000000000000000000000
310
00000000000000000000000000000000000000000000000000000000000000000000000000000700000000000000000007000000000000000000000000000000000000000000000000000000000000000000000000000000000000000000000000000000000000000000000000000000000000000000000000000000000000
310
00000000000000000000000000000000000000000000000000000000000000000000000000000000000000000000000000000000000000000000000000000000000000000000000000000000000000000000000000000000000000070000000000000000000700000000000000000000000000000000000000000000000000
310
00000000000000000000000000000000000000000000000000000000000000000000000000000000000000000000000000000000000000000000000000000000000000000000000000000000000000000000000000000000000000000000000000000000000000000000000000000000000000000000000000000000000000
310
00000000000000000000000000000000000700000000000000000007000000000000000000000000000000000000000000000000000000000000000000000000000000000000000000000000000000000000000000000000000000000000000000000000000000000000000000000000000000000000000000000000000000
310
00000000000000000000000000000000000000000000000000000000000000000000000000000000000000000000000000000000000000000000000000000000000000000000070000000000000000000700000000000000000000000000000000000000000000000000000000000000000000000000000000000000000000
310
00000000000000000000000000000000000000000000000000000000000000000000000000000000000000000000000000000000000000000000000000000000000000000000000000000000000000000000000000000000000000000000000000000000000000000000000000000000000000000000000000000007000000
310
00000000000007000000000000000000000000000000000000000000000000000000000000000000000000000000000000000000000000000000000000000000000000000000000000000000000000000000000000000000000000000000000000000000000000000000000000000000000000000000000000000000000000
310
00000000000000000000000000000000000000000000000000000000000000000000000000000000000000000000000000070000000000000000000700000000000000000000000000000000000000000000000000000000000000000000000000000000000000000000000000000000000000000000000000000000000000
310
00000000000000000000000000000000000000000000000000000000000000000000000000000000000000000000000000000000000000000000000000000000000000000000000000000000000000000000000000000000000000000000000000000000000007000000000000000000070000000000000000000000000000
310
00000000000000000000000000000000000000000000000000000000000000000000000000000000000000000000000000000000000000000000000000000000000000000000000000000000000000000000000000000000000000000000000000000000000000000000000000000000000000000000000000000000000000
310
00000000000000000000000000000000000000000000000000000000070000000000000000000700000000000000000000000000000000000000000000000000000000000000000000000000000000000000000000000000000000000000000000000000000000000000000000000000000000000000000000000000000000
310
00000000000000000000000000000000000000000000000000000000000000000000000000000000000000000000000000000000000000000000000000000000000000000000000000000000000000000007070707070707070707070000000000000000000000000000000000000000000000000000000000000000000000
310
00000000000000000000000000000000000000000000000000000000000000000000000000000000000000000000000000000000000000000000000000000000000000000000000000000000000000000000000000000000000000000000000000000000000000000000000000000000000000000000000000000000000000
310
00000000000000000000070700000707000000000000000000000000000000000000000000000000000000000000000000000000000000000000000000000000000000000000000000000000000000000000000000000000000000000000000000000000000000000000000000000000000000000000000000000000000000
310
00000000000000000000000000000000000000000000000000000000000000000000000000000000000000000000000000000000000000000000000000000707070707070700000000000000000000000000000000000000000000000000000000000000000000000000000000000000000000000000000000000000000000
310
00000000000000000000000000000000000000000000000000000000000000000000000000000000000000000000000000000000000000000000000000000000000000000000000000000000000000000000000000000000000000000000000000000000000000000000000000000000000000000707070707070000000000
310
00000000000000000000000000000000000000000000000000000000000000000000000000000000000000000000000000000000000000000000000000000000000000000000000000000000000000000000000000000000000000000000000000000000000000000000000000000000000000000000000000000000000000
310
00000000000000000000000000000000000000000000000000000000000000000000000000000000000707070707070700000000000000000000000000000000000000000000000000000000000000000000000000000000000000000000000000000000000000000000000000000000000000000000000000000000000000
310
00000000000000000000000000000000000000000000000000000000000000000000000000000000000000000000000000000000000000000000000000000000000000000000000000000000000000000000000000000000000000000000070707070707070700000000000000000000000000000000000000000000000000
310
00000000000000000000000000000000000000000000000000000000000000000000000000000000000000000000000000000000000000000000000000000000000000000000000000000000000000000000000000000000000000000000000000000000000000000000000000000000000000000000000000000000000000
310
00000000000000000000000000000000000000000707070707070707000000000000000000000000000000000000000000000000000000000000000000000000000000000000000000000000000000000000000000000000000000000000000000000000000000000000000000000000000000000000000000000000000000
310
00000000000000000000000000000000000000000000000000000000000000000000000000000000000000000000000000000000000000000000000000000000000000000000000000070000000707070000000000000000000000000000000000000000000000000000000000000000000000000000000000000000000000
310
00000000000000000000000000000000000000000000000000000000000000000000000000000000000000000000000000000000000000000000000000000000000000000000000000000000000000000000000000000000000000000000000000000000000000000000000000000000000000000000000000000000000700
310
00000700070700000000000000000000000000000000000000000000000000000000000000000000000000000000000000000000000000000000000000000000000000000000000000000000000000000000000000000000000000000000000000000000000000000000000000000000000000000000000000000000000000
310
00000000000000000000000000000000000000000000000000000000000000000000000000000000000000000000000000000700070007000007070000000000000000000000000000000000000000000000000000000000000000000000000000000000000000000000000000000000000000000000000000000000000000
310
00000000000000000000000000000000000000000000000000000000000000000000000000000000000000000000000000000000000000000000000000000000000000000000000000000000000000000000000000000000000000000000000000000000000000070000070707070707000000000000000000000000000000
310
00000000000000000000000000000000000000000000000000000000000000000000000000000000000000000000000000000000000000000000000000000000000000000000000000000000000000000000000000000000000000000000000000000000000000000000000000000000000000000000000000000000000000
310
00000000000000000000000000000000000000000000000000000000070007070707070707070000000000000000000000000000000000000000000000000000000000000000000000000000000000000000000000000000000000000000000000000000000000000000000000000000000000000000000000000000000000
310
00000000000000000000000000000000000000000000000000000000000000000000000000000000000000000000000000000000000000000000000000000000000000000000000000000000000000000700000007000700000700000000000000000000000000000000000000000000000000000000000000000000000000
310
00000000000000000000000000000000000000000000000000000000000000000000000000000000000000000000000000000000000000000000000000000000000000000000000000000000000000000000000000000000000000000000000000000000000000000000000000000000000000000000000000000000000000
310
00000000000007000007000007000007000000000000000000000000000000000000000000000000000000000000000000000000000000000000000000000000000000000000000000000000000000000000000000000000000000000000000000000000000000000000000000000000000000000000000000000000000000
310
00000000000000000000000000000000000000000000000000000000000000000000000000000000000000000000000000000000000000000007070007070000000700000700000000000000000000000000000000000000000000000000000000000000000000000000000000000000000000000000000000000000000000
310
00000000000000000000000000000000000000000000000000000000000000000000000000000000000000000000000000000000000000000000000000000000000000000000000000000000000000000000000000000000000000000000000000000000000000000000000000070000070000000000070000070000000000
310
00000000000000000000000000000000000000000000000000000000000000000000000000000000000000000000000000000000000000000000000000000000000000000000000000000000000000000000000000000000000000000000000000000000000000000000000000000000000000000000000000000000000000
310
00000000000000000000000000000000000000000000000000000000000000000000070000000700000000000700000700000000000000000000000000000000000000000000000000000000000000000000000000000000000000000000000000000000000000000000000000000000000000000000000000000000000000
310
00000000000000000000000000000000000000000000000000000000000000000000000000000000000000000000000000000000000000000000000000000000000000000000000000000000000000000000000000000007000007000000000000070000070000000000000000000000000000000000000000000000000000
310
00000000000000000000000000000000000000000000000000000000000000000000000000000000000000000000000000000000000000000000000000000000000000000000000000000000000000000000000000000000000000000000000000000000000000000000000000000000000000000000000000000000000000
310
00000000000000000000000707000707000000000000000700000700000000000000000000000000000000000000000000000000000000000000000000000000000000000000000000000000000000000000000000000000000000000000000000000000000000000000000000000000000000000000000000000000000000
310
00000000000000000000000000000000000000000000000000000000000000000000000000000000000000000000000000000000000000000000000007070707000007000000000000000000070000070000000000000000000000000000000000000000000000000000000000000000000000000000000000000000000000
310
00000000000000000000000000000000000000000000000000000000000000000000000000000000000000000000000000000000000000000000000000000000000000000000000000000000000000000000000000000000000000000000000000000000000000000000000000000007070707070000070000000000000000
310
00000700000700000000000000000000000000000000000000000000000000000000000000000000000000000000000000000000000000000000000000000000000000000000000000000000000000000000000000000000000000000000000000000000000000000000000000000000000000000000000000000000000000
310
00000000000000000000000000000000000000000000000000000000000000000000000707070707000007070000070000000000000000070000070000000000000000000000000000000000000000000000000000000000000000000000000000000000000000000000000000000000000000000000000000000000000000
310
00000000000000000000000000000000000000000000000000000000000000000000000000000000000000000000000000000000000000000000000000000000000000000000000000000000000000000000000000000707070707000000000700000700070000000000000007000007000000000000000000000000000000
310
00000000000000000000000000000000000000000000000000000000000000000000000000000000000000000000000000000000000000000000000000000000000000000000000000000000000000000000000000000000000000000000000000000000000000000000000000000000000000000000000000000000000000
310
00000000000000000000000707070707000007070700000700070007000000000000070000070000000000000000000000000000000000000000000000000000000000000000000000000000000000000000000000000000000000000000000000000000000000000000000000000000000000000000000000000000000000
310
00000000000000000000000000000000000000000000000000000000000000000000000000000000000000000000000000000000000000000000000000000000070707000007070700000000000700000700000000000007000007000000000000000000000000000000000000000000000000000000000000000000000000
310
00000000000000000000000000000000000000000000000000000000000000000000000000000000000000000000000000000000000000000000000000000000000000000000000000000000000000000000000000000000000000000000000000000000000000000000000000000000000000000000070707070700000000
310
00000000070000070000000007000007000000000000000000000000000000000000000000000000000000000000000000000000000000000000000000000000000000000000000000000000000000000000000000000000000000000000000000000000000000000000000000000000000000000000000000000000000000
310
00000000000000000000000000000000000000000000000000000000000000000000000000000000000000000000000000000000000000000000070000070707070700000700000000000000000000000000000000000000000000000000000000000000000000000000000000000000000000000000000000000000000000
310
00000000000000000000000000000000000000000000000000000000000000000000000000000000000000000000000000000000000000000000000000000000000000000000000000000000000000000000000000000000000000000000000000000000000000000000000000000000070000000000000007000000000000
310
00000000000000000000000000000000000000000000000000000000000000000000000000000000000000000000000000000000000000000000000000000000000000000000000000000000000000000000000000000000000000000000000000000000000000000000000000000000000000000000000000000000000000
310
00000000000000000000000000000000000000000000000000000000000000000000000000000707000000000007070000000000000000000000000000000000000000000000000000000000000000000000000000000000000000000000000000000000000000000000000000000000000000000000000000000000000000
310
00000000000000000000000000000000000000000000000000000000000000000000000000000000000000000000000000000000000000000000000000000000000000000000000000000000000000000000000000000000000000000007070707070000000000000000000000000000000000000000000000000000000000
310
00000000000000000000000000000000000000000000000000000000000000000000000000000000000000000000000000000000000000000000000000000000000000000000000000000000000000000000000000000000000000000000000000000000000000000000000000000000000000000000000000000000000000
310
000000000000000000000000000000000000000000000000000000000000000000000000000000000000000000000000000000000000000000000000000000000000000000000000000000000000000000000000000000000000000000000000000000000000000000000000
  0
ENDSEC
  0
EOF
