  0
SECTION
  2
HEADER
  9
$ACADVER
  1
AC1015
  9
$ACADMAINTVER
 70
     6
  9
$DWGCODEPAGE
  3
ANSI_1252
  9
$INSBASE
 10
0.0
 20
0.0
 30
0.0
  9
$EXTMIN
 10
0.009
 20
2.663262521724
 30
0.0
  9
$EXTMAX
 10
279.991
 20
252.855582521724
 30
0.0
  9
$LIMMIN
 10
0.0
 20
0.0
  9
$LIMMAX
 10
12.0
 20
9.0
  9
$ORTHOMODE
 70
     0
  9
$REGENMODE
 70
     1
  9
$FILLMODE
 70
     1
  9
$QTEXTMODE
 70
     0
  9
$MIRRTEXT
 70
     1
  9
$LTSCALE
 40
1.0
  9
$ATTMODE
 70
     1
  9
$TEXTSIZE
 40
0.2
  9
$TRACEWID
 40
0.05
  9
$TEXTSTYLE
  7
Standard
  9
$CLAYER
  8
0
  9
$CELTYPE
  6
ByBlock
  9
$CECOLOR
 62
   256
  9
$CELTSCALE
 40
1.0
  9
$DISPSILH
 70
     0
  9
$DIMSCALE
 40
1.0
  9
$DIMASZ
 40
0.18
  9
$DIMEXO
 40
0.0625
  9
$DIMDLI
 40
0.38
  9
$DIMRND
 40
0.0
  9
$DIMDLE
 40
0.0
  9
$DIMEXE
 40
0.18
  9
$DIMTP
 40
0.0
  9
$DIMTM
 40
0.0
  9
$DIMTXT
 40
0.18
  9
$DIMCEN
 40
0.09
  9
$DIMTSZ
 40
0.0
  9
$DIMTOL
 70
     0
  9
$DIMLIM
 70
     0
  9
$DIMTIH
 70
     1
  9
$DIMTOH
 70
     1
  9
$DIMSE1
 70
     0
  9
$DIMSE2
 70
     0
  9
$DIMTAD
 70
     0
  9
$DIMZIN
 70
     0
  9
$DIMBLK
  1

  9
$DIMASO
 70
     1
  9
$DIMSHO
 70
     1
  9
$DIMPOST
  1

  9
$DIMAPOST
  1

  9
$DIMALT
 70
     0
  9
$DIMALTD
 70
     2
  9
$DIMALTF
 40
25.4
  9
$DIMLFAC
 40
1.0
  9
$DIMTOFL
 70
     0
  9
$DIMTVP
 40
0.0
  9
$DIMTIX
 70
     0
  9
$DIMSOXD
 70
     0
  9
$DIMSAH
 70
     0
  9
$DIMBLK1
  1

  9
$DIMBLK2
  1

  9
$DIMSTYLE
  2
Standard
  9
$DIMCLRD
 70
     0
  9
$DIMCLRE
 70
     0
  9
$DIMCLRT
 70
     0
  9
$DIMTFAC
 40
1.0
  9
$DIMGAP
 40
0.09
  9
$DIMJUST
 70
     0
  9
$DIMSD1
 70
     0
  9
$DIMSD2
 70
     0
  9
$DIMTOLJ
 70
     1
  9
$DIMTZIN
 70
     0
  9
$DIMALTZ
 70
     0
  9
$DIMALTTZ
 70
     0
  9
$DIMUPT
 70
     0
  9
$DIMDEC
 70
     4
  9
$DIMTDEC
 70
     4
  9
$DIMALTU
 70
     2
  9
$DIMALTTD
 70
     2
  9
$DIMTXSTY
  7
Standard
  9
$DIMAUNIT
 70
     0
  9
$DIMADEC
 70
     0
  9
$DIMALTRND
 40
0.0
  9
$DIMAZIN
 70
     0
  9
$DIMDSEP
 70
    46
  9
$DIMATFIT
 70
     3
  9
$DIMFRAC
 70
     0
  9
$DIMLDRBLK
  1

  9
$DIMLUNIT
 70
     2
  9
$DIMLWD
 70
    -2
  9
$DIMLWE
 70
    -2
  9
$DIMTMOVE
 70
     2
  9
$LUNITS
 70
     2
  9
$LUPREC
 70
     4
  9
$SKETCHINC
 40
0.1
  9
$FILLETRAD
 40
0.5
  9
$AUNITS
 70
     0
  9
$AUPREC
 70
     0
  9
$MENU
  1
.
  9
$ELEVATION
 40
0.0
  9
$PELEVATION
 40
0.0
  9
$THICKNESS
 40
0.0
  9
$LIMCHECK
 70
     0
  9
$CHAMFERA
 40
0.5
  9
$CHAMFERB
 40
0.5
  9
$CHAMFERC
 40
1.0
  9
$CHAMFERD
 40
0.0
  9
$SKPOLY
 70
     0
  9
$TDCREATE
 40
2456646.571254873
  9
$TDUCREATE
 40
2456646.529588206
  9
$TDUPDATE
 40
2456646.589728727
  9
$TDUUPDATE
 40
2456646.54806206
  9
$TDINDWG
 40
0.0184733218
  9
$TDUSRTIMER
 40
0.0184733218
  9
$USRTIMER
 70
     1
  9
$ANGBASE
 50
0.0
  9
$ANGDIR
 70
     0
  9
$PDMODE
 70
     0
  9
$PDSIZE
 40
0.0
  9
$PLINEWID
 40
0.0
  9
$SPLFRAME
 70
     0
  9
$SPLINETYPE
 70
     6
  9
$SPLINESEGS
 70
     8
  9
$HANDSEED
  5
1A6E
  9
$SURFTAB1
 70
     6
  9
$SURFTAB2
 70
     6
  9
$SURFTYPE
 70
     6
  9
$SURFU
 70
     6
  9
$SURFV
 70
     6
  9
$UCSBASE
  2

  9
$UCSNAME
  2

  9
$UCSORG
 10
0.0
 20
0.0
 30
0.0
  9
$UCSXDIR
 10
1.0
 20
0.0
 30
0.0
  9
$UCSYDIR
 10
0.0
 20
1.0
 30
0.0
  9
$UCSORTHOREF
  2

  9
$UCSORTHOVIEW
 70
     0
  9
$UCSORGTOP
 10
0.0
 20
0.0
 30
0.0
  9
$UCSORGBOTTOM
 10
0.0
 20
0.0
 30
0.0
  9
$UCSORGLEFT
 10
0.0
 20
0.0
 30
0.0
  9
$UCSORGRIGHT
 10
0.0
 20
0.0
 30
0.0
  9
$UCSORGFRONT
 10
0.0
 20
0.0
 30
0.0
  9
$UCSORGBACK
 10
0.0
 20
0.0
 30
0.0
  9
$PUCSBASE
  2

  9
$PUCSNAME
  2

  9
$PUCSORG
 10
0.0
 20
0.0
 30
0.0
  9
$PUCSXDIR
 10
1.0
 20
0.0
 30
0.0
  9
$PUCSYDIR
 10
0.0
 20
1.0
 30
0.0
  9
$PUCSORTHOREF
  2

  9
$PUCSORTHOVIEW
 70
     0
  9
$PUCSORGTOP
 10
0.0
 20
0.0
 30
0.0
  9
$PUCSORGBOTTOM
 10
0.0
 20
0.0
 30
0.0
  9
$PUCSORGLEFT
 10
0.0
 20
0.0
 30
0.0
  9
$PUCSORGRIGHT
 10
0.0
 20
0.0
 30
0.0
  9
$PUCSORGFRONT
 10
0.0
 20
0.0
 30
0.0
  9
$PUCSORGBACK
 10
0.0
 20
0.0
 30
0.0
  9
$USERI1
 70
     0
  9
$USERI2
 70
     0
  9
$USERI3
 70
     0
  9
$USERI4
 70
     0
  9
$USERI5
 70
     0
  9
$USERR1
 40
0.0
  9
$USERR2
 40
0.0
  9
$USERR3
 40
0.0
  9
$USERR4
 40
0.0
  9
$USERR5
 40
0.0
  9
$WORLDVIEW
 70
     1
  9
$SHADEDGE
 70
     3
  9
$SHADEDIF
 70
    70
  9
$TILEMODE
 70
     1
  9
$MAXACTVP
 70
    64
  9
$PINSBASE
 10
0.0
 20
0.0
 30
0.0
  9
$PLIMCHECK
 70
     0
  9
$PEXTMIN
 10
1.000000000000E+20
 20
1.000000000000E+20
 30
1.000000000000E+20
  9
$PEXTMAX
 10
-1.000000000000E+20
 20
-1.000000000000E+20
 30
-1.000000000000E+20
  9
$PLIMMIN
 10
0.0
 20
0.0
  9
$PLIMMAX
 10
12.0
 20
9.0
  9
$UNITMODE
 70
     0
  9
$VISRETAIN
 70
     1
  9
$PLINEGEN
 70
     0
  9
$PSLTSCALE
 70
     1
  9
$TREEDEPTH
 70
  3020
  9
$CMLSTYLE
  2
Standard
  9
$CMLJUST
 70
     0
  9
$CMLSCALE
 40
1.0
  9
$PROXYGRAPHICS
 70
     1
  9
$MEASUREMENT
 70
     0
  9
$CELWEIGHT
370
    -1
  9
$ENDCAPS
280
     0
  9
$JOINSTYLE
280
     0
  9
$LWDISPLAY
290
     0
  9
$INSUNITS
 70
     0
  9
$HYPERLINKBASE
  1

  9
$STYLESHEET
  1

  9
$XEDIT
290
     1
  9
$CEPSNTYPE
380
     0
  9
$PSTYLEMODE
290
     1
  9
$FINGERPRINTGUID
  2
{1675EFC9-1BC1-4B09-80AA-BE148E8E5D17}
  9
$VERSIONGUID
  2
{FAEB1C32-E019-11D5-929B-00C0DF256EC4}
  9
$EXTNAMES
290
     1
  9
$PSVPSCALE
 40
0.0
  9
$OLESTARTUP
290
     0
  0
ENDSEC
  0
SECTION
  2
CLASSES
  0
CLASS
  1
ACDBDICTIONARYWDFLT
  2
AcDbDictionaryWithDefault
  3
ObjectDBX Classes
 90
        0
280
     0
281
     0
  0
CLASS
  1
SCALE
  2
AcDbScale
  3
ObjectDBX Classes
 90
     1153
280
     0
281
     0
  0
CLASS
  1
DICTIONARYVAR
  2
AcDbDictionaryVar
  3
ObjectDBX Classes
 90
        0
280
     0
281
     0
  0
CLASS
  1
ACDBPLACEHOLDER
  2
AcDbPlaceHolder
  3
ObjectDBX Classes
 90
        0
280
     0
281
     0
  0
CLASS
  1
LAYOUT
  2
AcDbLayout
  3
ObjectDBX Classes
 90
        0
280
     0
281
     0
  0
ENDSEC
  0
SECTION
  2
TABLES
  0
TABLE
  2
VPORT
  5
8
330
0
100
AcDbSymbolTable
 70
     1
  0
VPORT
  5
B73
330
8
100
AcDbSymbolTableRecord
100
AcDbViewportTableRecord
  2
*Active
 70
     0
 10
0.0
 20
0.0
 11
1.0
 21
1.0
 12
139.9955
 22
126.427791260862
 13
0.0
 23
0.0
 14
0.5
 24
0.5
 15
0.5
 25
0.5
 16
0.0
 26
0.0
 36
1.0
 17
0.0
 27
0.0
 37
0.0
 40
257.912694172159
 41
1.729542302358
 42
50.0
 43
0.0
 44
0.0
 50
0.0
 51
0.0
 71
    16
 72
   100
 73
     1
 74
     3
 75
     0
 76
     0
 77
     0
 78
     0
281
     0
 65
     1
110
0.0
120
0.0
130
0.0
111
1.0
121
0.0
131
0.0
112
0.0
122
1.0
132
0.0
 79
     0
146
0.0
  0
ENDTAB
  0
TABLE
  2
LTYPE
  5
5
330
0
100
AcDbSymbolTable
 70
     1
  0
LTYPE
  5
14
330
5
100
AcDbSymbolTableRecord
100
AcDbLinetypeTableRecord
  2
ByBlock
 70
     0
  3

 72
    65
 73
     0
 40
0.0
  0
LTYPE
  5
15
330
5
100
AcDbSymbolTableRecord
100
AcDbLinetypeTableRecord
  2
ByLayer
 70
     0
  3

 72
    65
 73
     0
 40
0.0
  0
LTYPE
  5
16
330
5
100
AcDbSymbolTableRecord
100
AcDbLinetypeTableRecord
  2
Continuous
 70
     0
  3
Solid line
 72
    65
 73
     0
 40
0.0
  0
ENDTAB
  0
TABLE
  2
LAYER
  5
2
330
0
100
AcDbSymbolTable
 70
     1
  0
LAYER
  5
10
330
2
100
AcDbSymbolTableRecord
100
AcDbLayerTableRecord
  2
0
 70
     0
 62
     7
  6
Continuous
370
    -3
390
F
  0
ENDTAB
  0
TABLE
  2
STYLE
  5
3
330
0
100
AcDbSymbolTable
 70
     1
  0
STYLE
  5
11
330
3
100
AcDbSymbolTableRecord
100
AcDbTextStyleTableRecord
  2
Standard
 70
     0
 40
0.0
 41
1.0
 50
0.0
 71
     0
 42
0.2
  3
txt
  4

  0
ENDTAB
  0
TABLE
  2
VIEW
  5
6
330
0
100
AcDbSymbolTable
 70
     0
  0
ENDTAB
  0
TABLE
  2
UCS
  5
7
330
0
100
AcDbSymbolTable
 70
     0
  0
ENDTAB
  0
TABLE
  2
APPID
  5
9
330
0
100
AcDbSymbolTable
 70
     1
  0
APPID
  5
12
330
9
100
AcDbSymbolTableRecord
100
AcDbRegAppTableRecord
  2
ACAD
 70
     0
  0
ENDTAB
  0
TABLE
  2
DIMSTYLE
  5
A
330
0
100
AcDbSymbolTable
 70
     1
100
AcDbDimStyleTable
  0
DIMSTYLE
105
20
330
A
100
AcDbSymbolTableRecord
100
AcDbDimStyleTableRecord
  2
Standard
 70
     0
340
11
  0
ENDTAB
  0
TABLE
  2
BLOCK_RECORD
  5
1
330
0
100
AcDbSymbolTable
 70
     1
  0
BLOCK_RECORD
  5
1D
330
1
100
AcDbSymbolTableRecord
100
AcDbBlockTableRecord
  2
*Model_Space
340
1E
  0
BLOCK_RECORD
  5
1B
330
1
100
AcDbSymbolTableRecord
100
AcDbBlockTableRecord
  2
*Paper_Space
340
1C
  0
ENDTAB
  0
ENDSEC
  0
SECTION
  2
BLOCKS
  0
BLOCK
  5
B76
330
1D
100
AcDbEntity
  8
0
100
AcDbBlockBegin
  2
*Model_Space
 70
     0
 10
0.0
 20
0.0
 30
0.0
  3
*Model_Space
  1
*Model_Space
  0
ENDBLK
  5
B77
330
1D
100
AcDbEntity
  8
0
100
AcDbBlockEnd
  0
BLOCK
  5
B74
330
1B
100
AcDbEntity
 67
     1
  8
0
100
AcDbBlockBegin
  2
*Paper_Space
 70
     0
 10
0.0
 20
0.0
 30
0.0
  3
*Paper_Space
  1
*Paper_Space
  0
ENDBLK
  5
B75
330
1B
100
AcDbEntity
 67
     1
  8
0
100
AcDbBlockEnd
  0
ENDSEC
  0
SECTION
  2
ENTITIES
  0
LINE
  5
21
330
1D
100
AcDbEntity
  8
0
100
AcDbLine
 10
1.021
 20
2.663262521724
 30
0.0
 11
1.89
 21
2.663262521724
 31
0.0
  0
LINE
  5
22
330
1D
100
AcDbEntity
  8
0
100
AcDbLine
 10
0.414
 20
2.663262521724
 30
0.0
 11
1.021
 21
2.663262521724
 31
0.0
  0
LINE
  5
23
330
1D
100
AcDbEntity
  8
0
100
AcDbLine
 10
1.427
 20
2.663262521724
 30
0.0
 11
2.425
 21
2.663262521724
 31
0.0
  0
LINE
  5
24
330
1D
100
AcDbEntity
  8
0
100
AcDbLine
 10
0.213
 20
2.663262521724
 30
0.0
 11
0.687
 21
2.663262521724
 31
0.0
  0
LINE
  5
25
330
1D
100
AcDbEntity
  8
0
100
AcDbLine
 10
0.687
 20
2.663262521724
 30
0.0
 11
1.427
 21
2.663262521724
 31
0.0
  0
LINE
  5
26
330
1D
100
AcDbEntity
  8
0
100
AcDbLine
 10
0.009
 20
2.663262521724
 30
0.0
 11
0.213
 21
2.663262521724
 31
0.0
  0
LINE
  5
27
330
1D
100
AcDbEntity
  8
0
100
AcDbLine
 10
0.009
 20
2.663262521724
 30
0.0
 11
0.076
 21
2.663262521724
 31
0.0
  0
LINE
  5
28
330
1D
100
AcDbEntity
  8
0
100
AcDbLine
 10
0.009
 20
2.663262521724
 30
0.0
 11
0.009
 21
10.463262521724
 31
0.0
  0
LINE
  5
29
330
1D
100
AcDbEntity
  8
0
100
AcDbLine
 10
0.076
 20
2.663262521724
 30
0.0
 11
0.414
 21
2.663262521724
 31
0.0
  0
LINE
  5
2A
330
1D
100
AcDbEntity
  8
0
100
AcDbLine
 10
2.658
 20
2.663262521724
 30
0.0
 11
3.078
 21
2.663262521724
 31
0.0
  0
LINE
  5
2B
330
1D
100
AcDbEntity
  8
0
100
AcDbLine
 10
2.425
 20
2.663262521724
 30
0.0
 11
3.672
 21
2.663262521724
 31
0.0
  0
LINE
  5
2C
330
1D
100
AcDbEntity
  8
0
100
AcDbLine
 10
2.501
 20
2.663262521724
 30
0.0
 11
2.609
 21
2.663262521724
 31
0.0
  0
LINE
  5
2D
330
1D
100
AcDbEntity
  8
0
100
AcDbLine
 10
2.501
 20
2.663262521724
 30
0.0
 11
2.658
 21
2.663262521724
 31
0.0
  0
LINE
  5
2E
330
1D
100
AcDbEntity
  8
0
100
AcDbLine
 10
3.078
 20
2.663262521724
 30
0.0
 11
3.759
 21
2.663262521724
 31
0.0
  0
LINE
  5
2F
330
1D
100
AcDbEntity
  8
0
100
AcDbLine
 10
3.759
 20
2.663262521724
 30
0.0
 11
4.69
 21
2.663262521724
 31
0.0
  0
LINE
  5
30
330
1D
100
AcDbEntity
  8
0
100
AcDbLine
 10
2.981
 20
2.663262521724
 30
0.0
 11
3.612
 21
2.663262521724
 31
0.0
  0
LINE
  5
31
330
1D
100
AcDbEntity
  8
0
100
AcDbLine
 10
2.609
 20
2.663262521724
 30
0.0
 11
2.981
 21
2.663262521724
 31
0.0
  0
LINE
  5
32
330
1D
100
AcDbEntity
  8
0
100
AcDbLine
 10
5.159
 20
2.663262521724
 30
0.0
 11
6.87
 21
2.663262521724
 31
0.0
  0
LINE
  5
33
330
1D
100
AcDbEntity
  8
0
100
AcDbLine
 10
4.69
 20
2.663262521724
 30
0.0
 11
5.866
 21
2.663262521724
 31
0.0
  0
LINE
  5
34
330
1D
100
AcDbEntity
  8
0
100
AcDbLine
 10
4.38
 20
2.663262521724
 30
0.0
 11
5.98
 21
2.663262521724
 31
0.0
  0
LINE
  5
35
330
1D
100
AcDbEntity
  8
0
100
AcDbLine
 10
3.612
 20
2.663262521724
 30
0.0
 11
4.498
 21
2.663262521724
 31
0.0
  0
LINE
  5
36
330
1D
100
AcDbEntity
  8
0
100
AcDbLine
 10
5.866
 20
2.663262521724
 30
0.0
 11
7.275
 21
2.663262521724
 31
0.0
  0
LINE
  5
37
330
1D
100
AcDbEntity
  8
0
100
AcDbLine
 10
6.87
 20
2.663262521724
 30
0.0
 11
8.791
 21
2.663262521724
 31
0.0
  0
LINE
  5
38
330
1D
100
AcDbEntity
  8
0
100
AcDbLine
 10
7.275
 20
2.663262521724
 30
0.0
 11
8.902
 21
2.663262521724
 31
0.0
  0
LINE
  5
4C
330
1D
100
AcDbEntity
  8
0
100
AcDbLine
 10
8.902
 20
2.663262521724
 30
0.0
 11
10.733
 21
2.663262521724
 31
0.0
  0
LINE
  5
4D
330
1D
100
AcDbEntity
  8
0
100
AcDbLine
 10
8.791
 20
2.663262521724
 30
0.0
 11
10.904
 21
2.663262521724
 31
0.0
  0
LINE
  5
6B
330
1D
100
AcDbEntity
  8
0
100
AcDbLine
 10
10.733
 20
2.663262521724
 30
0.0
 11
12.749
 21
2.663262521724
 31
0.0
  0
LINE
  5
6C
330
1D
100
AcDbEntity
  8
0
100
AcDbLine
 10
10.904
 20
2.663262521724
 30
0.0
 11
13.19
 21
2.663262521724
 31
0.0
  0
LINE
  5
8F
330
1D
100
AcDbEntity
  8
0
100
AcDbLine
 10
12.749
 20
2.663262521724
 30
0.0
 11
14.931
 21
2.663262521724
 31
0.0
  0
LINE
  5
90
330
1D
100
AcDbEntity
  8
0
100
AcDbLine
 10
13.19
 20
2.663262521724
 30
0.0
 11
15.628
 21
2.663262521724
 31
0.0
  0
LINE
  5
A4
330
1D
100
AcDbEntity
  8
0
100
AcDbLine
 10
14.931
 20
2.663262521724
 30
0.0
 11
17.259
 21
2.663262521724
 31
0.0
  0
LINE
  5
A7
330
1D
100
AcDbEntity
  8
0
100
AcDbLine
 10
17.259
 20
2.663262521724
 30
0.0
 11
19.708
 21
2.663262521724
 31
0.0
  0
LINE
  5
A8
330
1D
100
AcDbEntity
  8
0
100
AcDbLine
 10
15.628
 20
2.663262521724
 30
0.0
 11
18.196
 21
2.663262521724
 31
0.0
  0
LINE
  5
A9
330
1D
100
AcDbEntity
  8
0
100
AcDbLine
 10
14.514
 20
2.663262521724
 30
0.0
 11
15.0
 21
2.663262521724
 31
0.0
  0
LINE
  5
AA
330
1D
100
AcDbEntity
  8
0
100
AcDbLine
 10
14.381
 20
2.663262521724
 30
0.0
 11
15.0
 21
2.663262521724
 31
0.0
  0
LINE
  5
AB
330
1D
100
AcDbEntity
  8
0
100
AcDbLine
 10
12.361
 20
2.663262521724
 30
0.0
 11
14.514
 21
2.663262521724
 31
0.0
  0
LINE
  5
AC
330
1D
100
AcDbEntity
  8
0
100
AcDbLine
 10
12.017
 20
2.663262521724
 30
0.0
 11
14.381
 21
2.663262521724
 31
0.0
  0
LINE
  5
AD
330
1D
100
AcDbEntity
  8
0
100
AcDbLine
 10
10.378
 20
2.663262521724
 30
0.0
 11
12.361
 21
2.663262521724
 31
0.0
  0
LINE
  5
AE
330
1D
100
AcDbEntity
  8
0
100
AcDbLine
 10
9.816
 20
2.663262521724
 30
0.0
 11
12.017
 21
2.663262521724
 31
0.0
  0
LINE
  5
AF
330
1D
100
AcDbEntity
  8
0
100
AcDbLine
 10
8.584
 20
2.663262521724
 30
0.0
 11
10.378
 21
2.663262521724
 31
0.0
  0
LINE
  5
B0
330
1D
100
AcDbEntity
  8
0
100
AcDbLine
 10
7.797
 20
2.663262521724
 30
0.0
 11
9.816
 21
2.663262521724
 31
0.0
  0
LINE
  5
B1
330
1D
100
AcDbEntity
  8
0
100
AcDbLine
 10
6.996
 20
2.663262521724
 30
0.0
 11
8.584
 21
2.663262521724
 31
0.0
  0
LINE
  5
B2
330
1D
100
AcDbEntity
  8
0
100
AcDbLine
 10
5.98
 20
2.663262521724
 30
0.0
 11
7.797
 21
2.663262521724
 31
0.0
  0
LINE
  5
B3
330
1D
100
AcDbEntity
  8
0
100
AcDbLine
 10
5.63
 20
2.663262521724
 30
0.0
 11
6.996
 21
2.663262521724
 31
0.0
  0
LINE
  5
B4
330
1D
100
AcDbEntity
  8
0
100
AcDbLine
 10
4.498
 20
2.663262521724
 30
0.0
 11
5.63
 21
2.663262521724
 31
0.0
  0
LINE
  5
C7
330
1D
100
AcDbEntity
  8
0
100
AcDbLine
 10
19.708
 20
2.663262521724
 30
0.0
 11
22.257
 21
2.663262521724
 31
0.0
  0
LINE
  5
CB
330
1D
100
AcDbEntity
  8
0
100
AcDbLine
 10
22.257
 20
2.663262521724
 30
0.0
 11
24.881
 21
2.663262521724
 31
0.0
  0
LINE
  5
CC
330
1D
100
AcDbEntity
  8
0
100
AcDbLine
 10
20.871
 20
2.663262521724
 30
0.0
 11
23.629
 21
2.663262521724
 31
0.0
  0
LINE
  5
D9
330
1D
100
AcDbEntity
  8
0
100
AcDbLine
 10
24.881
 20
2.663262521724
 30
0.0
 11
27.555
 21
2.663262521724
 31
0.0
  0
LINE
  5
DA
330
1D
100
AcDbEntity
  8
0
100
AcDbLine
 10
27.555
 20
2.663262521724
 30
0.0
 11
30.2512
 21
2.663262521724
 31
0.0
  0
LINE
  5
DB
330
1D
100
AcDbEntity
  8
0
100
AcDbLine
 10
23.629
 20
2.663262521724
 30
0.0
 11
26.444
 21
2.663262521724
 31
0.0
  0
LINE
  5
DC
330
1D
100
AcDbEntity
  8
0
100
AcDbLine
 10
26.444
 20
2.663262521724
 30
0.0
 11
29.292
 21
2.663262521724
 31
0.0
  0
LINE
  5
EE
330
1D
100
AcDbEntity
  8
0
100
AcDbLine
 10
30.2512
 20
2.663262521724
 30
0.0
 11
32.9449
 21
2.663262521724
 31
0.0
  0
LINE
  5
EF
330
1D
100
AcDbEntity
  8
0
100
AcDbLine
 10
32.9449
 20
2.663262521724
 30
0.0
 11
35.6111
 21
2.663262521724
 31
0.0
  0
LINE
  5
F0
330
1D
100
AcDbEntity
  8
0
100
AcDbLine
 10
29.292
 20
2.663262521724
 30
0.0
 11
32.1459
 21
2.663262521724
 31
0.0
  0
LINE
  5
F1
330
1D
100
AcDbEntity
  8
0
100
AcDbLine
 10
32.1459
 20
2.663262521724
 30
0.0
 11
34.9805
 21
2.663262521724
 31
0.0
  0
LINE
  5
109
330
1D
100
AcDbEntity
  8
0
100
AcDbLine
 10
35.6111
 20
2.663262521724
 30
0.0
 11
38.2224
 21
2.663262521724
 31
0.0
  0
LINE
  5
10A
330
1D
100
AcDbEntity
  8
0
100
AcDbLine
 10
38.2224
 20
2.663262521724
 30
0.0
 11
40.755
 21
2.663262521724
 31
0.0
  0
LINE
  5
10B
330
1D
100
AcDbEntity
  8
0
100
AcDbLine
 10
34.9805
 20
2.663262521724
 30
0.0
 11
37.7706
 21
2.663262521724
 31
0.0
  0
LINE
  5
10C
330
1D
100
AcDbEntity
  8
0
100
AcDbLine
 10
37.7706
 20
2.663262521724
 30
0.0
 11
40.4897
 21
2.663262521724
 31
0.0
  0
LINE
  5
127
330
1D
100
AcDbEntity
  8
0
100
AcDbLine
 10
40.755
 20
2.663262521724
 30
0.0
 11
43.1841
 21
2.663262521724
 31
0.0
  0
LINE
  5
128
330
1D
100
AcDbEntity
  8
0
100
AcDbLine
 10
43.1841
 20
2.663262521724
 30
0.0
 11
45.486
 21
2.663262521724
 31
0.0
  0
LINE
  5
129
330
1D
100
AcDbEntity
  8
0
100
AcDbLine
 10
40.4897
 20
2.663262521724
 30
0.0
 11
43.1142
 21
2.663262521724
 31
0.0
  0
LINE
  5
12A
330
1D
100
AcDbEntity
  8
0
100
AcDbLine
 10
43.1142
 20
2.663262521724
 30
0.0
 11
45.6192
 21
2.663262521724
 31
0.0
  0
LINE
  5
148
330
1D
100
AcDbEntity
  8
0
100
AcDbLine
 10
45.486
 20
2.663262521724
 30
0.0
 11
47.6388
 21
2.663262521724
 31
0.0
  0
LINE
  5
149
330
1D
100
AcDbEntity
  8
0
100
AcDbLine
 10
45.6192
 20
2.663262521724
 30
0.0
 11
47.9834
 21
2.663262521724
 31
0.0
  0
LINE
  5
167
330
1D
100
AcDbEntity
  8
0
100
AcDbLine
 10
47.6388
 20
2.663262521724
 30
0.0
 11
49.6222
 21
2.663262521724
 31
0.0
  0
LINE
  5
168
330
1D
100
AcDbEntity
  8
0
100
AcDbLine
 10
47.9834
 20
2.663262521724
 30
0.0
 11
50.1842
 21
2.663262521724
 31
0.0
  0
LINE
  5
178
330
1D
100
AcDbEntity
  8
0
100
AcDbLine
 10
51.4161
 20
2.663262521724
 30
0.0
 11
53.0041
 21
2.663262521724
 31
0.0
  0
LINE
  5
179
330
1D
100
AcDbEntity
  8
0
100
AcDbLine
 10
49.6222
 20
2.663262521724
 30
0.0
 11
51.4161
 21
2.663262521724
 31
0.0
  0
LINE
  5
17A
330
1D
100
AcDbEntity
  8
0
100
AcDbLine
 10
51.2093
 20
2.663262521724
 30
0.0
 11
53.1295
 21
2.663262521724
 31
0.0
  0
LINE
  5
17B
330
1D
100
AcDbEntity
  8
0
100
AcDbLine
 10
49.2671
 20
2.663262521724
 30
0.0
 11
51.0976
 21
2.663262521724
 31
0.0
  0
LINE
  5
17C
330
1D
100
AcDbEntity
  8
0
100
AcDbLine
 10
49.0959
 20
2.663262521724
 30
0.0
 11
51.2093
 21
2.663262521724
 31
0.0
  0
LINE
  5
17D
330
1D
100
AcDbEntity
  8
0
100
AcDbLine
 10
47.2507
 20
2.663262521724
 30
0.0
 11
49.2671
 21
2.663262521724
 31
0.0
  0
LINE
  5
17E
330
1D
100
AcDbEntity
  8
0
100
AcDbLine
 10
46.8104
 20
2.663262521724
 30
0.0
 11
49.0959
 21
2.663262521724
 31
0.0
  0
LINE
  5
17F
330
1D
100
AcDbEntity
  8
0
100
AcDbLine
 10
45.0687
 20
2.663262521724
 30
0.0
 11
47.2507
 21
2.663262521724
 31
0.0
  0
LINE
  5
180
330
1D
100
AcDbEntity
  8
0
100
AcDbLine
 10
45.0
 20
2.663262521724
 30
0.0
 11
45.0687
 21
2.663262521724
 31
0.0
  0
LINE
  5
181
330
1D
100
AcDbEntity
  8
0
100
AcDbLine
 10
45.0
 20
2.663262521724
 30
0.0
 11
46.8104
 21
2.663262521724
 31
0.0
  0
LINE
  5
183
330
1D
100
AcDbEntity
  8
0
100
AcDbLine
 10
53.0041
 20
2.663262521724
 30
0.0
 11
54.3697
 21
2.663262521724
 31
0.0
  0
LINE
  5
184
330
1D
100
AcDbEntity
  8
0
100
AcDbLine
 10
53.1295
 20
2.663262521724
 30
0.0
 11
54.8408
 21
2.663262521724
 31
0.0
  0
LINE
  5
185
330
1D
100
AcDbEntity
  8
0
100
AcDbLine
 10
52.725
 20
2.663262521724
 30
0.0
 11
54.1336
 21
2.663262521724
 31
0.0
  0
LINE
  5
186
330
1D
100
AcDbEntity
  8
0
100
AcDbLine
 10
51.0976
 20
2.663262521724
 30
0.0
 11
52.725
 21
2.663262521724
 31
0.0
  0
LINE
  5
1A1
330
1D
100
AcDbEntity
  8
0
100
AcDbLine
 10
55.3097
 20
2.663262521724
 30
0.0
 11
56.2415
 21
2.663262521724
 31
0.0
  0
LINE
  5
1A2
330
1D
100
AcDbEntity
  8
0
100
AcDbLine
 10
54.8408
 20
2.663262521724
 30
0.0
 11
56.3279
 21
2.663262521724
 31
0.0
  0
LINE
  5
1A3
330
1D
100
AcDbEntity
  8
0
100
AcDbLine
 10
54.1336
 20
2.663262521724
 30
0.0
 11
55.3097
 21
2.663262521724
 31
0.0
  0
LINE
  5
1A4
330
1D
100
AcDbEntity
  8
0
100
AcDbLine
 10
55.5019
 20
2.663262521724
 30
0.0
 11
56.3879
 21
2.663262521724
 31
0.0
  0
LINE
  5
1A5
330
1D
100
AcDbEntity
  8
0
100
AcDbLine
 10
56.2415
 20
2.663262521724
 30
0.0
 11
56.9215
 21
2.663262521724
 31
0.0
  0
LINE
  5
1A6
330
1D
100
AcDbEntity
  8
0
100
AcDbLine
 10
56.3279
 20
2.663262521724
 30
0.0
 11
57.575
 21
2.663262521724
 31
0.0
  0
LINE
  5
1A7
330
1D
100
AcDbEntity
  8
0
100
AcDbLine
 10
56.9215
 20
2.663262521724
 30
0.0
 11
57.3416
 21
2.663262521724
 31
0.0
  0
LINE
  5
1A8
330
1D
100
AcDbEntity
  8
0
100
AcDbLine
 10
56.3879
 20
2.663262521724
 30
0.0
 11
57.0195
 21
2.663262521724
 31
0.0
  0
LINE
  5
1A9
330
1D
100
AcDbEntity
  8
0
100
AcDbLine
 10
55.6197
 20
2.663262521724
 30
0.0
 11
56.987
 21
2.663262521724
 31
0.0
  0
LINE
  5
1AA
330
1D
100
AcDbEntity
  8
0
100
AcDbLine
 10
54.3697
 20
2.663262521724
 30
0.0
 11
55.5019
 21
2.663262521724
 31
0.0
  0
LINE
  5
1AB
330
1D
100
AcDbEntity
  8
0
100
AcDbLine
 10
54.0201
 20
2.663262521724
 30
0.0
 11
55.6197
 21
2.663262521724
 31
0.0
  0
LINE
  5
1AC
330
1D
100
AcDbEntity
  8
0
100
AcDbLine
 10
50.1842
 20
2.663262521724
 30
0.0
 11
52.2029
 21
2.663262521724
 31
0.0
  0
LINE
  5
1AD
330
1D
100
AcDbEntity
  8
0
100
AcDbLine
 10
18.196
 20
2.663262521724
 30
0.0
 11
20.871
 21
2.663262521724
 31
0.0
  0
LINE
  5
1AE
330
1D
100
AcDbEntity
  8
0
100
AcDbLine
 10
3.672
 20
2.663262521724
 30
0.0
 11
5.159
 21
2.663262521724
 31
0.0
  0
LINE
  5
1AF
330
1D
100
AcDbEntity
  8
0
100
AcDbLine
 10
1.89
 20
2.663262521724
 30
0.0
 11
3.013
 21
2.663262521724
 31
0.0
  0
LINE
  5
1B0
330
1D
100
AcDbEntity
  8
0
100
AcDbLine
 10
3.013
 20
2.663262521724
 30
0.0
 11
4.38
 21
2.663262521724
 31
0.0
  0
LINE
  5
1B1
330
1D
100
AcDbEntity
  8
0
100
AcDbLine
 10
57.3416
 20
2.663262521724
 30
0.0
 11
57.4991
 21
2.663262521724
 31
0.0
  0
LINE
  5
1B2
330
1D
100
AcDbEntity
  8
0
100
AcDbLine
 10
58.1102
 20
2.663262521724
 30
0.0
 11
58.979
 21
2.663262521724
 31
0.0
  0
LINE
  5
1B3
330
1D
100
AcDbEntity
  8
0
100
AcDbLine
 10
57.575
 20
2.663262521724
 30
0.0
 11
58.5734
 21
2.663262521724
 31
0.0
  0
LINE
  5
1B4
330
1D
100
AcDbEntity
  8
0
100
AcDbLine
 10
57.3911
 20
2.663262521724
 30
0.0
 11
57.4991
 21
2.663262521724
 31
0.0
  0
LINE
  5
1B5
330
1D
100
AcDbEntity
  8
0
100
AcDbLine
 10
57.0195
 20
2.663262521724
 30
0.0
 11
57.3911
 21
2.663262521724
 31
0.0
  0
LINE
  5
1B6
330
1D
100
AcDbEntity
  8
0
100
AcDbLine
 10
58.979
 20
2.663262521724
 30
0.0
 11
59.5857
 21
2.663262521724
 31
0.0
  0
LINE
  5
1B7
330
1D
100
AcDbEntity
  8
0
100
AcDbLine
 10
59.5857
 20
2.663262521724
 30
0.0
 11
59.9243
 21
2.663262521724
 31
0.0
  0
LINE
  5
1B8
330
1D
100
AcDbEntity
  8
0
100
AcDbLine
 10
58.5734
 20
2.663262521724
 30
0.0
 11
59.3131
 21
2.663262521724
 31
0.0
  0
LINE
  5
1B9
330
1D
100
AcDbEntity
  8
0
100
AcDbLine
 10
59.3131
 20
2.663262521724
 30
0.0
 11
59.7868
 21
2.663262521724
 31
0.0
  0
LINE
  5
2BF
330
1D
100
AcDbEntity
  8
0
100
AcDbLine
 10
59.9914
 20
2.663262521724
 30
0.0
 11
59.9914
 21
10.463262521724
 31
0.0
  0
LINE
  5
2C0
330
1D
100
AcDbEntity
  8
0
100
AcDbLine
 10
59.7868
 20
2.663262521724
 30
0.0
 11
59.9914
 21
2.663262521724
 31
0.0
  0
LINE
  5
2C1
330
1D
100
AcDbEntity
  8
0
100
AcDbLine
 10
59.9243
 20
2.663262521724
 30
0.0
 11
59.9914
 21
2.663262521724
 31
0.0
  0
LINE
  5
2C2
330
1D
100
AcDbEntity
  8
0
100
AcDbLine
 10
56.987
 20
2.663262521724
 30
0.0
 11
58.1102
 21
2.663262521724
 31
0.0
  0
LINE
  5
2C3
330
1D
100
AcDbEntity
  8
0
100
AcDbLine
 10
52.2029
 20
2.663262521724
 30
0.0
 11
54.0201
 21
2.663262521724
 31
0.0
  0
LINE
  5
2C4
330
1D
100
AcDbEntity
  8
0
100
AcDbLine
 10
105.0891
 20
2.663262521724
 30
0.0
 11
105.4831
 21
2.663262521724
 31
0.0
  0
LINE
  5
2C5
330
1D
100
AcDbEntity
  8
0
100
AcDbLine
 10
105.0101
 20
2.663262521724
 30
0.0
 11
105.2487
 21
2.663262521724
 31
0.0
  0
LINE
  5
2C6
330
1D
100
AcDbEntity
  8
0
100
AcDbLine
 10
105.0101
 20
2.663262521724
 30
0.0
 11
105.0101
 21
10.363262521724
 31
0.0
  0
LINE
  5
2C7
330
1D
100
AcDbEntity
  8
0
100
AcDbLine
 10
105.0101
 20
2.663262521724
 30
0.0
 11
105.0891
 21
2.663262521724
 31
0.0
  0
LINE
  5
2C8
330
1D
100
AcDbEntity
  8
0
100
AcDbLine
 10
105.4831
 20
2.663262521724
 30
0.0
 11
106.1911
 21
2.663262521724
 31
0.0
  0
LINE
  5
2C9
330
1D
100
AcDbEntity
  8
0
100
AcDbLine
 10
106.1911
 20
2.663262521724
 30
0.0
 11
107.2045
 21
2.663262521724
 31
0.0
  0
LINE
  5
2CA
330
1D
100
AcDbEntity
  8
0
100
AcDbLine
 10
106.5851
 20
2.663262521724
 30
0.0
 11
106.9631
 21
2.663262521724
 31
0.0
  0
LINE
  5
2CB
330
1D
100
AcDbEntity
  8
0
100
AcDbLine
 10
106.9631
 20
2.663262521724
 30
0.0
 11
107.6401
 21
2.663262521724
 31
0.0
  0
LINE
  5
2CC
330
1D
100
AcDbEntity
  8
0
100
AcDbLine
 10
107.6401
 20
2.663262521724
 30
0.0
 11
108.6097
 21
2.663262521724
 31
0.0
  0
LINE
  5
2D9
330
1D
100
AcDbEntity
  8
0
100
AcDbLine
 10
107.8284
 20
2.663262521724
 30
0.0
 11
109.2842
 21
2.663262521724
 31
0.0
  0
LINE
  5
2DA
330
1D
100
AcDbEntity
  8
0
100
AcDbLine
 10
107.2045
 20
2.663262521724
 30
0.0
 11
108.5147
 21
2.663262521724
 31
0.0
  0
LINE
  5
337
330
1D
100
AcDbEntity
  8
0
100
AcDbLine
 10
109.2077
 20
2.663262521724
 30
0.0
 11
110.601
 21
2.663262521724
 31
0.0
  0
LINE
  5
338
330
1D
100
AcDbEntity
  8
0
100
AcDbLine
 10
109.2842
 20
2.663262521724
 30
0.0
 11
111.019
 21
2.663262521724
 31
0.0
  0
LINE
  5
339
330
1D
100
AcDbEntity
  8
0
100
AcDbLine
 10
108.6097
 20
2.663262521724
 30
0.0
 11
109.8644
 21
2.663262521724
 31
0.0
  0
LINE
  5
33A
330
1D
100
AcDbEntity
  8
0
100
AcDbLine
 10
108.5147
 20
2.663262521724
 30
0.0
 11
110.11
 21
2.663262521724
 31
0.0
  0
LINE
  5
33B
330
1D
100
AcDbEntity
  8
0
100
AcDbLine
 10
110.601
 20
2.663262521724
 30
0.0
 11
112.261
 21
2.663262521724
 31
0.0
  0
LINE
  5
33C
330
1D
100
AcDbEntity
  8
0
100
AcDbLine
 10
111.019
 20
2.663262521724
 30
0.0
 11
113.016
 21
2.663262521724
 31
0.0
  0
LINE
  5
33D
330
1D
100
AcDbEntity
  8
0
100
AcDbLine
 10
109.8644
 20
2.663262521724
 30
0.0
 11
111.391
 21
2.663262521724
 31
0.0
  0
LINE
  5
33E
330
1D
100
AcDbEntity
  8
0
100
AcDbLine
 10
110.11
 20
2.663262521724
 30
0.0
 11
111.977
 21
2.663262521724
 31
0.0
  0
LINE
  5
33F
330
1D
100
AcDbEntity
  8
0
100
AcDbLine
 10
112.261
 20
2.663262521724
 30
0.0
 11
114.172
 21
2.663262521724
 31
0.0
  0
LINE
  5
340
330
1D
100
AcDbEntity
  8
0
100
AcDbLine
 10
113.016
 20
2.663262521724
 30
0.0
 11
115.256
 21
2.663262521724
 31
0.0
  0
LINE
  5
37C
330
1D
100
AcDbEntity
  8
0
100
AcDbLine
 10
114.172
 20
2.663262521724
 30
0.0
 11
116.316
 21
2.663262521724
 31
0.0
  0
LINE
  5
3A8
330
1D
100
AcDbEntity
  8
0
100
AcDbLine
 10
117.461
 20
2.663262521724
 30
0.0
 11
119.919
 21
2.663262521724
 31
0.0
  0
LINE
  5
3AB
330
1D
100
AcDbEntity
  8
0
100
AcDbLine
 10
118.676
 20
2.663262521724
 30
0.0
 11
121.228
 21
2.663262521724
 31
0.0
  0
LINE
  5
3AC
330
1D
100
AcDbEntity
  8
0
100
AcDbLine
 10
116.316
 20
2.663262521724
 30
0.0
 11
118.676
 21
2.663262521724
 31
0.0
  0
LINE
  5
3AD
330
1D
100
AcDbEntity
  8
0
100
AcDbLine
 10
115.256
 20
2.663262521724
 30
0.0
 11
117.721
 21
2.663262521724
 31
0.0
  0
LINE
  5
3AE
330
1D
100
AcDbEntity
  8
0
100
AcDbLine
 10
117.721
 20
2.663262521724
 30
0.0
 11
120.388
 21
2.663262521724
 31
0.0
  0
LINE
  5
3C8
330
1D
100
AcDbEntity
  8
0
100
AcDbLine
 10
119.919
 20
2.663262521724
 30
0.0
 11
122.559
 21
2.663262521724
 31
0.0
  0
LINE
  5
3E7
330
1D
100
AcDbEntity
  8
0
100
AcDbLine
 10
122.559
 20
2.663262521724
 30
0.0
 11
125.356
 21
2.663262521724
 31
0.0
  0
LINE
  5
3E8
330
1D
100
AcDbEntity
  8
0
100
AcDbLine
 10
121.228
 20
2.663262521724
 30
0.0
 11
122.0
 21
2.663262521724
 31
0.0
  0
LINE
  5
3E9
330
1D
100
AcDbEntity
  8
0
100
AcDbLine
 10
120.388
 20
2.663262521724
 30
0.0
 11
122.0
 21
2.663262521724
 31
0.0
  0
LINE
  5
424
330
1D
100
AcDbEntity
  8
0
100
AcDbLine
 10
125.356
 20
2.663262521724
 30
0.0
 11
128.286
 21
2.663262521724
 31
0.0
  0
LINE
  5
425
330
1D
100
AcDbEntity
  8
0
100
AcDbLine
 10
128.286
 20
2.663262521724
 30
0.0
 11
131.323
 21
2.663262521724
 31
0.0
  0
LINE
  5
44F
330
1D
100
AcDbEntity
  8
0
100
AcDbLine
 10
131.323
 20
2.663262521724
 30
0.0
 11
134.438
 21
2.663262521724
 31
0.0
  0
LINE
  5
450
330
1D
100
AcDbEntity
  8
0
100
AcDbLine
 10
134.438
 20
2.663262521724
 30
0.0
 11
137.603
 21
2.663262521724
 31
0.0
  0
LINE
  5
46E
330
1D
100
AcDbEntity
  8
0
100
AcDbLine
 10
137.603
 20
2.663262521724
 30
0.0
 11
140.791
 21
2.663262521724
 31
0.0
  0
LINE
  5
47C
330
1D
100
AcDbEntity
  8
0
100
AcDbLine
 10
140.791
 20
2.663262521724
 30
0.0
 11
143.971
 21
2.663262521724
 31
0.0
  0
LINE
  5
47D
330
1D
100
AcDbEntity
  8
0
100
AcDbLine
 10
143.971
 20
2.663262521724
 30
0.0
 11
147.114
 21
2.663262521724
 31
0.0
  0
LINE
  5
4A5
330
1D
100
AcDbEntity
  8
0
100
AcDbLine
 10
147.114
 20
2.663262521724
 30
0.0
 11
150.194
 21
2.663262521724
 31
0.0
  0
LINE
  5
4A6
330
1D
100
AcDbEntity
  8
0
100
AcDbLine
 10
150.194
 20
2.663262521724
 30
0.0
 11
153.181
 21
2.663262521724
 31
0.0
  0
LINE
  5
4DA
330
1D
100
AcDbEntity
  8
0
100
AcDbLine
 10
153.181
 20
2.663262521724
 30
0.0
 11
156.049
 21
2.663262521724
 31
0.0
  0
LINE
  5
4DB
330
1D
100
AcDbEntity
  8
0
100
AcDbLine
 10
156.049
 20
2.663262521724
 30
0.0
 11
158.772
 21
2.663262521724
 31
0.0
  0
LINE
  5
4EB
330
1D
100
AcDbEntity
  8
0
100
AcDbLine
 10
158.0
 20
2.663262521724
 30
0.0
 11
158.222
 21
2.663262521724
 31
0.0
  0
LINE
  5
4EC
330
1D
100
AcDbEntity
  8
0
100
AcDbLine
 10
158.0
 20
2.663262521724
 30
0.0
 11
160.081
 21
2.663262521724
 31
0.0
  0
LINE
  5
50D
330
1D
100
AcDbEntity
  8
0
100
AcDbLine
 10
158.772
 20
2.663262521724
 30
0.0
 11
161.324
 21
2.663262521724
 31
0.0
  0
LINE
  5
51A
330
1D
100
AcDbEntity
  8
0
100
AcDbLine
 10
161.324
 20
2.663262521724
 30
0.0
 11
163.684
 21
2.663262521724
 31
0.0
  0
LINE
  5
51B
330
1D
100
AcDbEntity
  8
0
100
AcDbLine
 10
160.081
 20
2.663262521724
 30
0.0
 11
162.539
 21
2.663262521724
 31
0.0
  0
LINE
  5
51C
330
1D
100
AcDbEntity
  8
0
100
AcDbLine
 10
158.222
 20
2.663262521724
 30
0.0
 11
160.981
 21
2.663262521724
 31
0.0
  0
LINE
  5
51D
330
1D
100
AcDbEntity
  8
0
100
AcDbLine
 10
160.981
 20
2.663262521724
 30
0.0
 11
163.548
 21
2.663262521724
 31
0.0
  0
LINE
  5
533
330
1D
100
AcDbEntity
  8
0
100
AcDbLine
 10
162.539
 20
2.663262521724
 30
0.0
 11
164.793
 21
2.663262521724
 31
0.0
  0
LINE
  5
53B
330
1D
100
AcDbEntity
  8
0
100
AcDbLine
 10
163.684
 20
2.663262521724
 30
0.0
 11
165.828
 21
2.663262521724
 31
0.0
  0
LINE
  5
53C
330
1D
100
AcDbEntity
  8
0
100
AcDbLine
 10
163.548
 20
2.663262521724
 30
0.0
 11
165.903
 21
2.663262521724
 31
0.0
  0
LINE
  5
53D
330
1D
100
AcDbEntity
  8
0
100
AcDbLine
 10
164.744
 20
2.663262521724
 30
0.0
 11
166.984
 21
2.663262521724
 31
0.0
  0
LINE
  5
53E
330
1D
100
AcDbEntity
  8
0
100
AcDbLine
 10
162.279
 20
2.663262521724
 30
0.0
 11
164.744
 21
2.663262521724
 31
0.0
  0
LINE
  5
53F
330
1D
100
AcDbEntity
  8
0
100
AcDbLine
 10
159.612
 20
2.663262521724
 30
0.0
 11
162.279
 21
2.663262521724
 31
0.0
  0
LINE
  5
540
330
1D
100
AcDbEntity
  8
0
100
AcDbLine
 10
156.768
 20
2.663262521724
 30
0.0
 11
159.612
 21
2.663262521724
 31
0.0
  0
LINE
  5
541
330
1D
100
AcDbEntity
  8
0
100
AcDbLine
 10
153.771
 20
2.663262521724
 30
0.0
 11
156.768
 21
2.663262521724
 31
0.0
  0
LINE
  5
542
330
1D
100
AcDbEntity
  8
0
100
AcDbLine
 10
150.65
 20
2.663262521724
 30
0.0
 11
153.771
 21
2.663262521724
 31
0.0
  0
LINE
  5
543
330
1D
100
AcDbEntity
  8
0
100
AcDbLine
 10
147.433
 20
2.663262521724
 30
0.0
 11
150.65
 21
2.663262521724
 31
0.0
  0
LINE
  5
544
330
1D
100
AcDbEntity
  8
0
100
AcDbLine
 10
144.148
 20
2.663262521724
 30
0.0
 11
147.433
 21
2.663262521724
 31
0.0
  0
LINE
  5
545
330
1D
100
AcDbEntity
  8
0
100
AcDbLine
 10
140.826
 20
2.663262521724
 30
0.0
 11
144.148
 21
2.663262521724
 31
0.0
  0
LINE
  5
546
330
1D
100
AcDbEntity
  8
0
100
AcDbLine
 10
137.496
 20
2.663262521724
 30
0.0
 11
140.826
 21
2.663262521724
 31
0.0
  0
LINE
  5
547
330
1D
100
AcDbEntity
  8
0
100
AcDbLine
 10
134.189
 20
2.663262521724
 30
0.0
 11
137.496
 21
2.663262521724
 31
0.0
  0
LINE
  5
548
330
1D
100
AcDbEntity
  8
0
100
AcDbLine
 10
130.935
 20
2.663262521724
 30
0.0
 11
134.189
 21
2.663262521724
 31
0.0
  0
LINE
  5
549
330
1D
100
AcDbEntity
  8
0
100
AcDbLine
 10
127.762
 20
2.663262521724
 30
0.0
 11
130.935
 21
2.663262521724
 31
0.0
  0
LINE
  5
54A
330
1D
100
AcDbEntity
  8
0
100
AcDbLine
 10
124.701
 20
2.663262521724
 30
0.0
 11
127.762
 21
2.663262521724
 31
0.0
  0
LINE
  5
54B
330
1D
100
AcDbEntity
  8
0
100
AcDbLine
 10
121.777
 20
2.663262521724
 30
0.0
 11
124.701
 21
2.663262521724
 31
0.0
  0
LINE
  5
54C
330
1D
100
AcDbEntity
  8
0
100
AcDbLine
 10
119.019
 20
2.663262521724
 30
0.0
 11
121.777
 21
2.663262521724
 31
0.0
  0
LINE
  5
54D
330
1D
100
AcDbEntity
  8
0
100
AcDbLine
 10
116.452
 20
2.663262521724
 30
0.0
 11
119.019
 21
2.663262521724
 31
0.0
  0
LINE
  5
54E
330
1D
100
AcDbEntity
  8
0
100
AcDbLine
 10
113.178
 20
2.663262521724
 30
0.0
 11
115.207
 21
2.663262521724
 31
0.0
  0
LINE
  5
54F
330
1D
100
AcDbEntity
  8
0
100
AcDbLine
 10
115.207
 20
2.663262521724
 30
0.0
 11
117.461
 21
2.663262521724
 31
0.0
  0
LINE
  5
550
330
1D
100
AcDbEntity
  8
0
100
AcDbLine
 10
111.391
 20
2.663262521724
 30
0.0
 11
113.178
 21
2.663262521724
 31
0.0
  0
LINE
  5
551
330
1D
100
AcDbEntity
  8
0
100
AcDbLine
 10
111.977
 20
2.663262521724
 30
0.0
 11
114.097
 21
2.663262521724
 31
0.0
  0
LINE
  5
552
330
1D
100
AcDbEntity
  8
0
100
AcDbLine
 10
108.0929
 20
2.663262521724
 30
0.0
 11
109.2077
 21
2.663262521724
 31
0.0
  0
LINE
  5
553
330
1D
100
AcDbEntity
  8
0
100
AcDbLine
 10
107.2675
 20
2.663262521724
 30
0.0
 11
108.0929
 21
2.663262521724
 31
0.0
  0
LINE
  5
554
330
1D
100
AcDbEntity
  8
0
100
AcDbLine
 10
106.6644
 20
2.663262521724
 30
0.0
 11
107.8284
 21
2.663262521724
 31
0.0
  0
LINE
  5
555
330
1D
100
AcDbEntity
  8
0
100
AcDbLine
 10
106.7378
 20
2.663262521724
 30
0.0
 11
107.2675
 21
2.663262521724
 31
0.0
  0
LINE
  5
556
330
1D
100
AcDbEntity
  8
0
100
AcDbLine
 10
105.8013
 20
2.663262521724
 30
0.0
 11
106.6644
 21
2.663262521724
 31
0.0
  0
LINE
  5
557
330
1D
100
AcDbEntity
  8
0
100
AcDbLine
 10
106.5093
 20
2.663262521724
 30
0.0
 11
106.7378
 21
2.663262521724
 31
0.0
  0
LINE
  5
558
330
1D
100
AcDbEntity
  8
0
100
AcDbLine
 10
106.5093
 20
2.663262521724
 30
0.0
 11
106.5851
 21
2.663262521724
 31
0.0
  0
LINE
  5
57D
330
1D
100
AcDbEntity
  8
0
100
AcDbLine
 10
165.828
 20
2.663262521724
 30
0.0
 11
167.739
 21
2.663262521724
 31
0.0
  0
LINE
  5
57E
330
1D
100
AcDbEntity
  8
0
100
AcDbLine
 10
167.739
 20
2.663262521724
 30
0.0
 11
169.399
 21
2.663262521724
 31
0.0
  0
LINE
  5
57F
330
1D
100
AcDbEntity
  8
0
100
AcDbLine
 10
166.984
 20
2.663262521724
 30
0.0
 11
168.981
 21
2.663262521724
 31
0.0
  0
LINE
  5
580
330
1D
100
AcDbEntity
  8
0
100
AcDbLine
 10
166.822
 20
2.663262521724
 30
0.0
 11
168.609
 21
2.663262521724
 31
0.0
  0
LINE
  5
581
330
1D
100
AcDbEntity
  8
0
100
AcDbLine
 10
164.793
 20
2.663262521724
 30
0.0
 11
166.822
 21
2.663262521724
 31
0.0
  0
LINE
  5
582
330
1D
100
AcDbEntity
  8
0
100
AcDbLine
 10
168.023
 20
2.663262521724
 30
0.0
 11
169.89
 21
2.663262521724
 31
0.0
  0
LINE
  5
583
330
1D
100
AcDbEntity
  8
0
100
AcDbLine
 10
169.399
 20
2.663262521724
 30
0.0
 11
170.792
 21
2.663262521724
 31
0.0
  0
LINE
  5
584
330
1D
100
AcDbEntity
  8
0
100
AcDbLine
 10
168.981
 20
2.663262521724
 30
0.0
 11
170.715
 21
2.663262521724
 31
0.0
  0
LINE
  5
5ED
330
1D
100
AcDbEntity
  8
0
100
AcDbLine
 10
170.792
 20
2.663262521724
 30
0.0
 11
171.907
 21
2.663262521724
 31
0.0
  0
LINE
  5
5EE
330
1D
100
AcDbEntity
  8
0
100
AcDbLine
 10
170.715
 20
2.663262521724
 30
0.0
 11
172.171
 21
2.663262521724
 31
0.0
  0
LINE
  5
5F5
330
1D
100
AcDbEntity
  8
0
100
AcDbLine
 10
172.36
 20
2.663262521724
 30
0.0
 11
173.037
 21
2.663262521724
 31
0.0
  0
LINE
  5
5F6
330
1D
100
AcDbEntity
  8
0
100
AcDbLine
 10
172.171
 20
2.663262521724
 30
0.0
 11
173.336
 21
2.663262521724
 31
0.0
  0
LINE
  5
5F7
330
1D
100
AcDbEntity
  8
0
100
AcDbLine
 10
171.485
 20
2.663262521724
 30
0.0
 11
172.796
 21
2.663262521724
 31
0.0
  0
LINE
  5
5F8
330
1D
100
AcDbEntity
  8
0
100
AcDbLine
 10
171.39
 20
2.663262521724
 30
0.0
 11
172.36
 21
2.663262521724
 31
0.0
  0
LINE
  5
5F9
330
1D
100
AcDbEntity
  8
0
100
AcDbLine
 10
169.89
 20
2.663262521724
 30
0.0
 11
171.485
 21
2.663262521724
 31
0.0
  0
LINE
  5
5FA
330
1D
100
AcDbEntity
  8
0
100
AcDbLine
 10
170.136
 20
2.663262521724
 30
0.0
 11
171.39
 21
2.663262521724
 31
0.0
  0
LINE
  5
5FB
330
1D
100
AcDbEntity
  8
0
100
AcDbLine
 10
168.609
 20
2.663262521724
 30
0.0
 11
170.136
 21
2.663262521724
 31
0.0
  0
LINE
  5
5FC
330
1D
100
AcDbEntity
  8
0
100
AcDbLine
 10
171.907
 20
2.663262521724
 30
0.0
 11
172.732
 21
2.663262521724
 31
0.0
  0
LINE
  5
5FD
330
1D
100
AcDbEntity
  8
0
100
AcDbLine
 10
173.037
 20
2.663262521724
 30
0.0
 11
173.415
 21
2.663262521724
 31
0.0
  0
LINE
  5
5FE
330
1D
100
AcDbEntity
  8
0
100
AcDbLine
 10
173.415
 20
2.663262521724
 30
0.0
 11
173.491
 21
2.663262521724
 31
0.0
  0
LINE
  5
5FF
330
1D
100
AcDbEntity
  8
0
100
AcDbLine
 10
172.796
 20
2.663262521724
 30
0.0
 11
173.809
 21
2.663262521724
 31
0.0
  0
LINE
  5
600
330
1D
100
AcDbEntity
  8
0
100
AcDbLine
 10
173.809
 20
2.663262521724
 30
0.0
 11
174.517
 21
2.663262521724
 31
0.0
  0
LINE
  5
601
330
1D
100
AcDbEntity
  8
0
100
AcDbLine
 10
173.262
 20
2.663262521724
 30
0.0
 11
173.491
 21
2.663262521724
 31
0.0
  0
LINE
  5
602
330
1D
100
AcDbEntity
  8
0
100
AcDbLine
 10
172.732
 20
2.663262521724
 30
0.0
 11
173.262
 21
2.663262521724
 31
0.0
  0
LINE
  5
603
330
1D
100
AcDbEntity
  8
0
100
AcDbLine
 10
114.097
 20
2.663262521724
 30
0.0
 11
116.452
 21
2.663262521724
 31
0.0
  0
LINE
  5
604
330
1D
100
AcDbEntity
  8
0
100
AcDbLine
 10
105.2487
 20
2.663262521724
 30
0.0
 11
105.8013
 21
2.663262521724
 31
0.0
  0
LINE
  5
605
330
1D
100
AcDbEntity
  8
0
100
AcDbLine
 10
165.903
 20
2.663262521724
 30
0.0
 11
168.023
 21
2.663262521724
 31
0.0
  0
LINE
  5
606
330
1D
100
AcDbEntity
  8
0
100
AcDbLine
 10
174.517
 20
2.663262521724
 30
0.0
 11
174.912
 21
2.663262521724
 31
0.0
  0
LINE
  5
607
330
1D
100
AcDbEntity
  8
0
100
AcDbLine
 10
174.199
 20
2.663262521724
 30
0.0
 11
174.751
 21
2.663262521724
 31
0.0
  0
LINE
  5
723
330
1D
100
AcDbEntity
  8
0
100
AcDbLine
 10
174.912
 20
2.663262521724
 30
0.0
 11
174.99
 21
2.663262521724
 31
0.0
  0
LINE
  5
724
330
1D
100
AcDbEntity
  8
0
100
AcDbLine
 10
174.99
 20
2.663262521724
 30
0.0
 11
174.99
 21
10.363262521724
 31
0.0
  0
LINE
  5
725
330
1D
100
AcDbEntity
  8
0
100
AcDbLine
 10
174.751
 20
2.663262521724
 30
0.0
 11
174.99
 21
2.663262521724
 31
0.0
  0
LINE
  5
726
330
1D
100
AcDbEntity
  8
0
100
AcDbLine
 10
173.336
 20
2.663262521724
 30
0.0
 11
174.199
 21
2.663262521724
 31
0.0
  0
LINE
  5
730
330
1D
100
AcDbEntity
  8
0
100
AcDbLine
 10
59.9914
 20
10.463262521724
 30
0.0
 11
59.9914
 21
2.663262521724
 31
0.0
  0
LINE
  5
731
330
1D
100
AcDbEntity
  8
0
100
AcDbLine
 10
0.009
 20
10.463262521724
 30
0.0
 11
0.009
 21
2.663262521724
 31
0.0
  0
LINE
  5
732
330
1D
100
AcDbEntity
  8
0
100
AcDbLine
 10
0.009
 20
10.463262521724
 30
0.0
 11
0.107
 21
11.081282521724
 31
0.0
  0
LINE
  5
733
330
1D
100
AcDbEntity
  8
0
100
AcDbLine
 10
174.99
 20
10.363262521724
 30
0.0
 11
174.99
 21
2.663262521724
 31
0.0
  0
LINE
  5
734
330
1D
100
AcDbEntity
  8
0
100
AcDbLine
 10
105.0101
 20
10.363262521724
 30
0.0
 11
105.1625
 21
11.128622521724
 31
0.0
  0
LINE
  5
735
330
1D
100
AcDbEntity
  8
0
100
AcDbLine
 10
105.0101
 20
10.363262521724
 30
0.0
 11
105.0101
 21
2.663262521724
 31
0.0
  0
LINE
  5
736
330
1D
100
AcDbEntity
  8
0
100
AcDbLine
 10
59.8934
 20
11.081282521724
 30
0.0
 11
59.9914
 21
10.463262521724
 31
0.0
  0
LINE
  5
737
330
1D
100
AcDbEntity
  8
0
100
AcDbLine
 10
0.107
 20
11.081282521724
 30
0.0
 11
0.39
 21
11.638852521724
 31
0.0
  0
LINE
  5
738
330
1D
100
AcDbEntity
  8
0
100
AcDbLine
 10
174.838
 20
11.128622521724
 30
0.0
 11
174.99
 21
10.363262521724
 31
0.0
  0
LINE
  5
739
330
1D
100
AcDbEntity
  8
0
100
AcDbLine
 10
59.6098
 20
11.638842521724
 30
0.0
 11
59.8934
 21
11.081282521724
 31
0.0
  0
LINE
  5
73A
330
1D
100
AcDbEntity
  8
0
100
AcDbLine
 10
105.1625
 20
11.128622521724
 30
0.0
 11
105.5956
 21
11.777472521724
 31
0.0
  0
LINE
  5
73C
330
1D
100
AcDbEntity
  8
0
100
AcDbLine
 10
59.1672
 20
12.081292521724
 30
0.0
 11
59.6098
 21
11.638842521724
 31
0.0
  0
LINE
  5
73D
330
1D
100
AcDbEntity
  8
0
100
AcDbLine
 10
0.39
 20
11.638852521724
 30
0.0
 11
0.833
 21
12.081302521724
 31
0.0
  0
LINE
  5
73E
330
1D
100
AcDbEntity
  8
0
100
AcDbLine
 10
0.833
 20
12.081302521724
 30
0.0
 11
1.391
 21
12.365382521724
 31
0.0
  0
LINE
  5
73F
330
1D
100
AcDbEntity
  8
0
100
AcDbLine
 10
105.5956
 20
11.777472521724
 30
0.0
 11
106.2443
 21
12.211002521724
 31
0.0
  0
LINE
  5
740
330
1D
100
AcDbEntity
  8
0
100
AcDbLine
 10
1.391
 20
12.365382521724
 30
0.0
 11
2.001
 21
12.463282521724
 31
0.0
  0
LINE
  5
741
330
1D
100
AcDbEntity
  8
0
100
AcDbLine
 10
6.861
 20
12.463282521724
 30
0.0
 11
8.519
 21
12.463282521724
 31
0.0
  0
LINE
  5
742
330
1D
100
AcDbEntity
  8
0
100
AcDbLine
 10
8.519
 20
12.463282521724
 30
0.0
 11
10.382
 21
12.463282521724
 31
0.0
  0
LINE
  5
743
330
1D
100
AcDbEntity
  8
0
100
AcDbLine
 10
12.505
 20
12.463282521724
 30
0.0
 11
12.505
 21
13.463282521724
 31
0.0
  0
LINE
  5
744
330
1D
100
AcDbEntity
  8
0
100
AcDbLine
 10
32.9986
 20
12.463282521724
 30
0.0
 11
35.7126
 21
12.463282521724
 31
0.0
  0
LINE
  5
745
330
1D
100
AcDbEntity
  8
0
100
AcDbLine
 10
38.3722
 20
12.463282521724
 30
0.0
 11
40.9505
 21
12.463282521724
 31
0.0
  0
LINE
  5
746
330
1D
100
AcDbEntity
  8
0
100
AcDbLine
 10
35.7126
 20
12.463282521724
 30
0.0
 11
38.3722
 21
12.463282521724
 31
0.0
  0
LINE
  5
747
330
1D
100
AcDbEntity
  8
0
100
AcDbLine
 10
30.2559
 20
12.463282521724
 30
0.0
 11
32.9986
 21
12.463282521724
 31
0.0
  0
LINE
  5
748
330
1D
100
AcDbEntity
  8
0
100
AcDbLine
 10
27.51
 20
12.463282521724
 30
0.0
 11
30.2559
 21
12.463282521724
 31
0.0
  0
LINE
  5
749
330
1D
100
AcDbEntity
  8
0
100
AcDbLine
 10
22.117
 20
12.463282521724
 30
0.0
 11
24.788
 21
12.463282521724
 31
0.0
  0
LINE
  5
74A
330
1D
100
AcDbEntity
  8
0
100
AcDbLine
 10
17.027
 20
12.463282521724
 30
0.0
 11
19.521
 21
12.463282521724
 31
0.0
  0
LINE
  5
74B
330
1D
100
AcDbEntity
  8
0
100
AcDbLine
 10
14.657
 20
12.463282521724
 30
0.0
 11
17.027
 21
12.463282521724
 31
0.0
  0
LINE
  5
74C
330
1D
100
AcDbEntity
  8
0
100
AcDbLine
 10
10.382
 20
12.463282521724
 30
0.0
 11
12.435
 21
12.463282521724
 31
0.0
  0
LINE
  5
74D
330
1D
100
AcDbEntity
  8
0
100
AcDbLine
 10
12.435
 20
12.463282521724
 30
0.0
 11
14.657
 21
12.463282521724
 31
0.0
  0
LINE
  5
74E
330
1D
100
AcDbEntity
  8
0
100
AcDbLine
 10
47.495
 20
12.463282521724
 30
0.0
 11
47.495
 21
13.463282521724
 31
0.0
  0
LINE
  5
74F
330
1D
100
AcDbEntity
  8
0
100
AcDbLine
 10
43.4241
 20
12.463282521724
 30
0.0
 11
45.7679
 21
12.463282521724
 31
0.0
  0
LINE
  5
750
330
1D
100
AcDbEntity
  8
0
100
AcDbLine
 10
40.9505
 20
12.463282521724
 30
0.0
 11
43.4241
 21
12.463282521724
 31
0.0
  0
LINE
  5
751
330
1D
100
AcDbEntity
  8
0
100
AcDbLine
 10
47.9597
 20
12.463282521724
 30
0.0
 11
49.9788
 21
12.463282521724
 31
0.0
  0
LINE
  5
752
330
1D
100
AcDbEntity
  8
0
100
AcDbLine
 10
45.7679
 20
12.463282521724
 30
0.0
 11
47.9597
 21
12.463282521724
 31
0.0
  0
LINE
  5
753
330
1D
100
AcDbEntity
  8
0
100
AcDbLine
 10
54.8128
 20
12.463282521724
 30
0.0
 11
55.9652
 21
12.463282521724
 31
0.0
  0
LINE
  5
754
330
1D
100
AcDbEntity
  8
0
100
AcDbLine
 10
53.4223
 20
12.463282521724
 30
0.0
 11
54.8128
 21
12.463282521724
 31
0.0
  0
LINE
  5
755
330
1D
100
AcDbEntity
  8
0
100
AcDbLine
 10
56.8676
 20
12.463282521724
 30
0.0
 11
57.5109
 21
12.463282521724
 31
0.0
  0
LINE
  5
756
330
1D
100
AcDbEntity
  8
0
100
AcDbLine
 10
12.505
 20
13.463282521724
 30
0.0
 11
12.624
 21
13.463282521724
 31
0.0
  0
LINE
  5
757
330
1D
100
AcDbEntity
  8
0
100
AcDbLine
 10
12.505
 20
13.463282521724
 30
0.0
 11
12.505
 21
12.463282521724
 31
0.0
  0
LINE
  5
758
330
1D
100
AcDbEntity
  8
0
100
AcDbLine
 10
12.624
 20
13.463282521724
 30
0.0
 11
12.901
 21
13.463282521724
 31
0.0
  0
LINE
  5
759
330
1D
100
AcDbEntity
  8
0
100
AcDbLine
 10
26.283
 20
13.463282521724
 30
0.0
 11
27.926
 21
13.463282521724
 31
0.0
  0
LINE
  5
75A
330
1D
100
AcDbEntity
  8
0
100
AcDbLine
 10
24.675
 20
13.463282521724
 30
0.0
 11
26.283
 21
13.463282521724
 31
0.0
  0
LINE
  5
75B
330
1D
100
AcDbEntity
  8
0
100
AcDbLine
 10
23.114
 20
13.463282521724
 30
0.0
 11
24.675
 21
13.463282521724
 31
0.0
  0
LINE
  5
75C
330
1D
100
AcDbEntity
  8
0
100
AcDbLine
 10
21.616
 20
13.463282521724
 30
0.0
 11
23.114
 21
13.463282521724
 31
0.0
  0
LINE
  5
75D
330
1D
100
AcDbEntity
  8
0
100
AcDbLine
 10
20.194
 20
13.463282521724
 30
0.0
 11
21.616
 21
13.463282521724
 31
0.0
  0
LINE
  5
75E
330
1D
100
AcDbEntity
  8
0
100
AcDbLine
 10
18.861
 20
13.463282521724
 30
0.0
 11
20.194
 21
13.463282521724
 31
0.0
  0
LINE
  5
75F
330
1D
100
AcDbEntity
  8
0
100
AcDbLine
 10
17.628
 20
13.463282521724
 30
0.0
 11
18.861
 21
13.463282521724
 31
0.0
  0
LINE
  5
760
330
1D
100
AcDbEntity
  8
0
100
AcDbLine
 10
16.508
 20
13.463282521724
 30
0.0
 11
17.628
 21
13.463282521724
 31
0.0
  0
LINE
  5
761
330
1D
100
AcDbEntity
  8
0
100
AcDbLine
 10
15.51
 20
13.463282521724
 30
0.0
 11
16.508
 21
13.463282521724
 31
0.0
  0
LINE
  5
762
330
1D
100
AcDbEntity
  8
0
100
AcDbLine
 10
14.642
 20
13.463282521724
 30
0.0
 11
15.51
 21
13.463282521724
 31
0.0
  0
LINE
  5
763
330
1D
100
AcDbEntity
  8
0
100
AcDbLine
 10
13.914
 20
13.463282521724
 30
0.0
 11
14.642
 21
13.463282521724
 31
0.0
  0
LINE
  5
764
330
1D
100
AcDbEntity
  8
0
100
AcDbLine
 10
13.332
 20
13.463282521724
 30
0.0
 11
13.914
 21
13.463282521724
 31
0.0
  0
LINE
  5
765
330
1D
100
AcDbEntity
  8
0
100
AcDbLine
 10
12.901
 20
13.463282521724
 30
0.0
 11
13.332
 21
13.463282521724
 31
0.0
  0
LINE
  5
766
330
1D
100
AcDbEntity
  8
0
100
AcDbLine
 10
41.7741
 20
13.463282521724
 30
0.0
 11
42.9517
 21
13.463282521724
 31
0.0
  0
LINE
  5
767
330
1D
100
AcDbEntity
  8
0
100
AcDbLine
 10
40.4903
 20
13.463282521724
 30
0.0
 11
41.7741
 21
13.463282521724
 31
0.0
  0
LINE
  5
768
330
1D
100
AcDbEntity
  8
0
100
AcDbLine
 10
39.1109
 20
13.463282521724
 30
0.0
 11
40.4903
 21
13.463282521724
 31
0.0
  0
LINE
  5
769
330
1D
100
AcDbEntity
  8
0
100
AcDbLine
 10
37.6496
 20
13.463282521724
 30
0.0
 11
39.1109
 21
13.463282521724
 31
0.0
  0
LINE
  5
76A
330
1D
100
AcDbEntity
  8
0
100
AcDbLine
 10
36.119
 20
13.463282521724
 30
0.0
 11
37.6496
 21
13.463282521724
 31
0.0
  0
LINE
  5
76B
330
1D
100
AcDbEntity
  8
0
100
AcDbLine
 10
34.5329
 20
13.463282521724
 30
0.0
 11
36.119
 21
13.463282521724
 31
0.0
  0
LINE
  5
76C
330
1D
100
AcDbEntity
  8
0
100
AcDbLine
 10
32.9053
 20
13.463282521724
 30
0.0
 11
34.5329
 21
13.463282521724
 31
0.0
  0
LINE
  5
76D
330
1D
100
AcDbEntity
  8
0
100
AcDbLine
 10
31.2519
 20
13.463282521724
 30
0.0
 11
32.9053
 21
13.463282521724
 31
0.0
  0
LINE
  5
76E
330
1D
100
AcDbEntity
  8
0
100
AcDbLine
 10
29.587
 20
13.463282521724
 30
0.0
 11
31.2519
 21
13.463282521724
 31
0.0
  0
LINE
  5
76F
330
1D
100
AcDbEntity
  8
0
100
AcDbLine
 10
27.926
 20
13.463282521724
 30
0.0
 11
29.587
 21
13.463282521724
 31
0.0
  0
LINE
  5
770
330
1D
100
AcDbEntity
  8
0
100
AcDbLine
 10
42.9517
 20
13.463282521724
 30
0.0
 11
44.0114
 21
13.463282521724
 31
0.0
  0
LINE
  5
771
330
1D
100
AcDbEntity
  8
0
100
AcDbLine
 10
12.827
 20
13.524282521724
 30
0.0
 11
13.067
 21
13.463282521724
 31
0.0
  0
LINE
  5
772
330
1D
100
AcDbEntity
  8
0
100
AcDbLine
 10
12.646
 20
13.692482521724
 30
0.0
 11
12.827
 21
13.524282521724
 31
0.0
  0
LINE
  5
777
330
1D
100
AcDbEntity
  8
0
100
AcDbLine
 10
12.568
 20
13.926782521724
 30
0.0
 11
12.646
 21
13.692482521724
 31
0.0
  0
LINE
  5
778
330
1D
100
AcDbEntity
  8
0
100
AcDbLine
 10
9.149
 20
62.255882521724
 30
0.0
 11
9.442
 21
62.637082521724
 31
0.0
  0
LINE
  5
779
330
1D
100
AcDbEntity
  8
0
100
AcDbLine
 10
9.442
 20
62.637082521724
 30
0.0
 11
9.879
 21
62.837482521724
 31
0.0
  0
LINE
  5
77D
330
1D
100
AcDbEntity
  8
0
100
AcDbLine
 10
13.253164573064
 20
63.363363472591
 30
0.0
 11
14.178
 21
63.483182521724
 31
0.0
  0
LINE
  5
77E
330
1D
100
AcDbEntity
  8
0
100
AcDbLine
 10
13.253164573064
 20
63.363363472591
 30
0.0
 11
14.178
 21
63.483182521724
 31
0.0
  0
LINE
  5
77F
330
1D
100
AcDbEntity
  8
0
100
AcDbLine
 10
12.236
 20
63.231582521724
 30
0.0
 11
13.253164573064
 21
63.363363472591
 31
0.0
  0
LINE
  5
780
330
1D
100
AcDbEntity
  8
0
100
AcDbLine
 10
12.236
 20
63.231582521724
 30
0.0
 11
13.253164573064
 21
63.363363472591
 31
0.0
  0
LINE
  5
781
330
1D
100
AcDbEntity
  8
0
100
AcDbLine
 10
14.178
 20
63.483182521724
 30
0.0
 11
16.651
 21
63.724482521724
 31
0.0
  0
LINE
  5
782
330
1D
100
AcDbEntity
  8
0
100
AcDbLine
 10
16.651
 20
63.724482521724
 30
0.0
 11
18.302
 21
63.845482521724
 31
0.0
  0
LINE
  5
785
330
1D
100
AcDbEntity
  8
0
100
AcDbLine
 10
9.068
 20
61.781982521724
 30
0.0
 11
12.568
 21
13.926782521724
 31
0.0
  0
LINE
  5
786
330
1D
100
AcDbEntity
  8
0
100
AcDbLine
 10
9.068
 20
61.781982521724
 30
0.0
 11
9.149
 21
62.255882521724
 31
0.0
  0
LINE
  5
787
330
1D
100
AcDbEntity
  8
0
100
AcDbLine
 10
45.7424
 20
13.463282521724
 30
0.0
 11
46.3978
 21
13.463282521724
 31
0.0
  0
LINE
  5
788
330
1D
100
AcDbEntity
  8
0
100
AcDbLine
 10
44.0114
 20
13.463282521724
 30
0.0
 11
44.9448
 21
13.463282521724
 31
0.0
  0
LINE
  5
789
330
1D
100
AcDbEntity
  8
0
100
AcDbLine
 10
44.9448
 20
13.463282521724
 30
0.0
 11
45.7424
 21
13.463282521724
 31
0.0
  0
LINE
  5
78A
330
1D
100
AcDbEntity
  8
0
100
AcDbLine
 10
46.3978
 20
13.463282521724
 30
0.0
 11
46.9044
 21
13.463282521724
 31
0.0
  0
LINE
  5
78B
330
1D
100
AcDbEntity
  8
0
100
AcDbLine
 10
46.9044
 20
13.463282521724
 30
0.0
 11
47.2583
 21
13.463282521724
 31
0.0
  0
LINE
  5
78C
330
1D
100
AcDbEntity
  8
0
100
AcDbLine
 10
46.9337
 20
13.463282521724
 30
0.0
 11
47.173
 21
13.524282521724
 31
0.0
  0
LINE
  5
790
330
1D
100
AcDbEntity
  8
0
100
AcDbLine
 10
47.2583
 20
13.463282521724
 30
0.0
 11
47.4555
 21
13.463282521724
 31
0.0
  0
LINE
  5
791
330
1D
100
AcDbEntity
  8
0
100
AcDbLine
 10
47.173
 20
13.524282521724
 30
0.0
 11
47.354
 21
13.692482521724
 31
0.0
  0
LINE
  5
792
330
1D
100
AcDbEntity
  8
0
100
AcDbLine
 10
47.354
 20
13.692482521724
 30
0.0
 11
47.3978
 21
13.926582521724
 31
0.0
  0
LINE
  5
793
330
1D
100
AcDbEntity
  8
0
100
AcDbLine
 10
47.3536
 20
13.692482521724
 30
0.0
 11
47.4319
 21
13.926582521724
 31
0.0
  0
LINE
  5
794
330
1D
100
AcDbEntity
  8
0
100
AcDbLine
 10
47.3536
 20
13.692482521724
 30
0.0
 11
47.3978
 21
13.926582521724
 31
0.0
  0
LINE
  5
79A
330
1D
100
AcDbEntity
  8
0
100
AcDbLine
 10
45.8215
 20
63.483182521724
 30
0.0
 11
46.702036240448
 21
63.369137984456
 31
0.0
  0
LINE
  5
79B
330
1D
100
AcDbEntity
  8
0
100
AcDbLine
 10
44.016864219522
 20
63.662771028421
 30
0.0
 11
45.8215
 21
63.483182521724
 31
0.0
  0
LINE
  5
79C
330
1D
100
AcDbEntity
  8
0
100
AcDbLine
 10
18.302
 20
63.845482521724
 30
0.0
 11
21.608
 21
64.017982521724
 31
0.0
  0
LINE
  5
79D
330
1D
100
AcDbEntity
  8
0
100
AcDbLine
 10
21.608
 20
64.017982521724
 30
0.0
 11
21.686
 21
64.018982521724
 31
0.0
  0
LINE
  5
79E
330
1D
100
AcDbEntity
  8
0
100
AcDbLine
 10
21.608
 20
64.017982521724
 30
0.0
 11
21.922771215422
 21
64.021512125426
 31
0.0
  0
LINE
  5
79F
330
1D
100
AcDbEntity
  8
0
100
AcDbLine
 10
21.608
 20
64.017982521724
 30
0.0
 11
25.804
 21
64.149082521724
 31
0.0
  0
LINE
  5
7A0
330
1D
100
AcDbEntity
  8
0
100
AcDbLine
 10
21.686
 20
64.018982521724
 30
0.0
 11
21.928
 21
64.021782521724
 31
0.0
  0
LINE
  5
7A1
330
1D
100
AcDbEntity
  8
0
100
AcDbLine
 10
21.928
 20
64.021782521724
 30
0.0
 11
22.152
 21
64.024082521724
 31
0.0
  0
LINE
  5
7A2
330
1D
100
AcDbEntity
  8
0
100
AcDbLine
 10
38.072
 20
64.021782521724
 30
0.0
 11
38.3131
 21
64.018982521724
 31
0.0
  0
LINE
  5
7A3
330
1D
100
AcDbEntity
  8
0
100
AcDbLine
 10
38.3131
 20
64.018982521724
 30
0.0
 11
38.3917
 21
64.017982521724
 31
0.0
  0
LINE
  5
7A4
330
1D
100
AcDbEntity
  8
0
100
AcDbLine
 10
38.3917
 20
64.017982521724
 30
0.0
 11
41.6977
 21
63.845482521724
 31
0.0
  0
LINE
  5
7A5
330
1D
100
AcDbEntity
  8
0
100
AcDbLine
 10
41.6977
 20
63.845482521724
 30
0.0
 11
43.3487
 21
63.724482521724
 31
0.0
  0
LINE
  5
7A6
330
1D
100
AcDbEntity
  8
0
100
AcDbLine
 10
43.3487
 20
63.724482521724
 30
0.0
 11
43.998962664351
 21
63.664496285058
 31
0.0
  0
LINE
  5
7A7
330
1D
100
AcDbEntity
  8
0
100
AcDbLine
 10
47.495
 20
13.463282521724
 30
0.0
 11
47.495
 21
12.463282521724
 31
0.0
  0
LINE
  5
7AB
330
1D
100
AcDbEntity
  8
0
100
AcDbLine
 10
50.5577
 20
62.637082521724
 30
0.0
 11
50.8507
 21
62.255882521724
 31
0.0
  0
LINE
  5
7AC
330
1D
100
AcDbEntity
  8
0
100
AcDbLine
 10
50.8507
 20
62.255882521724
 30
0.0
 11
50.932
 21
61.781982521724
 31
0.0
  0
LINE
  5
7AD
330
1D
100
AcDbEntity
  8
0
100
AcDbLine
 10
50.1207
 20
62.837482521724
 30
0.0
 11
50.5577
 21
62.637082521724
 31
0.0
  0
LINE
  5
7B1
330
1D
100
AcDbEntity
  8
0
100
AcDbLine
 10
47.4319
 20
13.926582521724
 30
0.0
 11
50.932
 21
61.781982521724
 31
0.0
  0
LINE
  5
7B2
330
1D
100
AcDbEntity
  8
0
100
AcDbLine
 10
55.9652
 20
12.463282521724
 30
0.0
 11
56.8676
 21
12.463282521724
 31
0.0
  0
LINE
  5
7B3
330
1D
100
AcDbEntity
  8
0
100
AcDbLine
 10
58.6095
 20
12.365382521724
 30
0.0
 11
59.1672
 21
12.081292521724
 31
0.0
  0
LINE
  5
7B4
330
1D
100
AcDbEntity
  8
0
100
AcDbLine
 10
57.8894
 20
12.463282521724
 30
0.0
 11
57.9985
 21
12.463282521724
 31
0.0
  0
LINE
  5
7B5
330
1D
100
AcDbEntity
  8
0
100
AcDbLine
 10
57.9985
 20
12.463282521724
 30
0.0
 11
58.6095
 21
12.365382521724
 31
0.0
  0
LINE
  5
7B6
330
1D
100
AcDbEntity
  8
0
100
AcDbLine
 10
57.5109
 20
12.463282521724
 30
0.0
 11
57.8894
 21
12.463282521724
 31
0.0
  0
LINE
  5
7B7
330
1D
100
AcDbEntity
  8
0
100
AcDbLine
 10
106.2443
 20
12.211002521724
 30
0.0
 11
106.3205
 21
12.211002521724
 31
0.0
  0
LINE
  5
7B8
330
1D
100
AcDbEntity
  8
0
100
AcDbLine
 10
116.003
 20
12.363282521724
 30
0.0
 11
116.003
 21
17.363582521724
 31
0.0
  0
LINE
  5
7B9
330
1D
100
AcDbEntity
  8
0
100
AcDbLine
 10
163.997
 20
12.363282521724
 30
0.0
 11
163.997
 21
62.863282521724
 31
0.0
  0
LINE
  5
7BA
330
1D
100
AcDbEntity
  8
0
100
AcDbLine
 10
167.27
 20
12.363282521724
 30
0.0
 11
168.96
 21
12.363282521724
 31
0.0
  0
LINE
  5
7BB
330
1D
100
AcDbEntity
  8
0
100
AcDbLine
 10
168.96
 20
12.363282521724
 30
0.0
 11
170.372
 21
12.363282521724
 31
0.0
  0
LINE
  5
7BC
330
1D
100
AcDbEntity
  8
0
100
AcDbLine
 10
173.756
 20
12.211002521724
 30
0.0
 11
174.404
 21
11.777472521724
 31
0.0
  0
LINE
  5
7BD
330
1D
100
AcDbEntity
  8
0
100
AcDbLine
 10
174.404
 20
11.777472521724
 30
0.0
 11
174.838
 21
11.128622521724
 31
0.0
  0
LINE
  5
7BE
330
1D
100
AcDbEntity
  8
0
100
AcDbLine
 10
172.999
 20
12.363282521724
 30
0.0
 11
173.756
 21
12.211002521724
 31
0.0
  0
LINE
  5
7BF
330
1D
100
AcDbEntity
  8
0
100
AcDbLine
 10
170.372
 20
12.363282521724
 30
0.0
 11
171.49
 21
12.363282521724
 31
0.0
  0
LINE
  5
7C0
330
1D
100
AcDbEntity
  8
0
100
AcDbLine
 10
165.317
 20
12.363282521724
 30
0.0
 11
167.27
 21
12.363282521724
 31
0.0
  0
LINE
  5
7C1
330
1D
100
AcDbEntity
  8
0
100
AcDbLine
 10
163.121
 20
12.363282521724
 30
0.0
 11
165.317
 21
12.363282521724
 31
0.0
  0
LINE
  5
7C2
330
1D
100
AcDbEntity
  8
0
100
AcDbLine
 10
160.702
 20
12.363282521724
 30
0.0
 11
163.121
 21
12.363282521724
 31
0.0
  0
LINE
  5
7C3
330
1D
100
AcDbEntity
  8
0
100
AcDbLine
 10
158.083
 20
12.363282521724
 30
0.0
 11
160.702
 21
12.363282521724
 31
0.0
  0
LINE
  5
7CA
330
1D
100
AcDbEntity
  8
0
100
AcDbLine
 10
116.004
 20
62.863282521724
 30
0.0
 11
116.137
 21
63.363282521724
 31
0.0
  0
LINE
  5
7CB
330
1D
100
AcDbEntity
  8
0
100
AcDbLine
 10
116.504
 20
63.729282521724
 30
0.0
 11
117.004
 21
63.863282521724
 31
0.0
  0
LINE
  5
7CC
330
1D
100
AcDbEntity
  8
0
100
AcDbLine
 10
116.137
 20
63.363282521724
 30
0.0
 11
116.504
 21
63.729282521724
 31
0.0
  0
LINE
  5
7CD
330
1D
100
AcDbEntity
  8
0
100
AcDbLine
 10
117.004
 20
63.863282521724
 30
0.0
 11
117.125
 21
63.863282521724
 31
0.0
  0
LINE
  5
7CE
330
1D
100
AcDbEntity
  8
0
100
AcDbLine
 10
116.003
 20
17.363582521724
 30
0.0
 11
116.004
 21
62.863282521724
 31
0.0
  0
LINE
  5
7CF
330
1D
100
AcDbEntity
  8
0
100
AcDbLine
 10
116.003
 20
17.363582521724
 30
0.0
 11
116.003
 21
12.363282521724
 31
0.0
  0
LINE
  5
7D0
330
1D
100
AcDbEntity
  8
0
100
AcDbLine
 10
125.5
 20
63.863282521724
 30
0.0
 11
125.5
 21
194.363582521724
 31
0.0
  0
LINE
  5
7D5
330
1D
100
AcDbEntity
  8
0
100
AcDbLine
 10
117.125
 20
63.863282521724
 30
0.0
 11
117.58
 21
63.863282521724
 31
0.0
  0
LINE
  5
7E3
330
1D
100
AcDbEntity
  8
0
100
AcDbLine
 10
154.5
 20
63.863282521724
 30
0.0
 11
154.5
 21
190.472582521724
 31
0.0
  0
LINE
  5
7E6
330
1D
100
AcDbEntity
  8
0
100
AcDbLine
 10
163.997
 20
62.863282521724
 30
0.0
 11
163.997
 21
12.363282521724
 31
0.0
  0
LINE
  5
7E7
330
1D
100
AcDbEntity
  8
0
100
AcDbLine
 10
163.863
 20
63.363282521724
 30
0.0
 11
163.997
 21
62.863282521724
 31
0.0
  0
LINE
  5
7E8
330
1D
100
AcDbEntity
  8
0
100
AcDbLine
 10
162.997
 20
63.863282521724
 30
0.0
 11
163.497
 21
63.729282521724
 31
0.0
  0
LINE
  5
7E9
330
1D
100
AcDbEntity
  8
0
100
AcDbLine
 10
163.497
 20
63.729282521724
 30
0.0
 11
163.863
 21
63.363282521724
 31
0.0
  0
LINE
  5
7EA
330
1D
100
AcDbEntity
  8
0
100
AcDbLine
 10
162.783
 20
63.863282521724
 30
0.0
 11
162.997
 21
63.863282521724
 31
0.0
  0
LINE
  5
7EB
330
1D
100
AcDbEntity
  8
0
100
AcDbLine
 10
162.237
 20
63.863282521724
 30
0.0
 11
162.783
 21
63.863282521724
 31
0.0
  0
LINE
  5
7EC
330
1D
100
AcDbEntity
  8
0
100
AcDbLine
 10
161.367
 20
63.863282521724
 30
0.0
 11
162.237
 21
63.863282521724
 31
0.0
  0
LINE
  5
7ED
330
1D
100
AcDbEntity
  8
0
100
AcDbLine
 10
160.185
 20
63.863282521724
 30
0.0
 11
161.367
 21
63.863282521724
 31
0.0
  0
LINE
  5
7EE
330
1D
100
AcDbEntity
  8
0
100
AcDbLine
 10
158.708
 20
63.863282521724
 30
0.0
 11
160.185
 21
63.863282521724
 31
0.0
  0
LINE
  5
7EF
330
1D
100
AcDbEntity
  8
0
100
AcDbLine
 10
156.959
 20
63.863282521724
 30
0.0
 11
158.708
 21
63.863282521724
 31
0.0
  0
LINE
  5
7F0
330
1D
100
AcDbEntity
  8
0
100
AcDbLine
 10
154.963
 20
63.863282521724
 30
0.0
 11
156.959
 21
63.863282521724
 31
0.0
  0
LINE
  5
7F3
330
1D
100
AcDbEntity
  8
0
100
AcDbLine
 10
107.0013
 20
12.363282521724
 30
0.0
 11
107.1303
 21
12.363282521724
 31
0.0
  0
LINE
  5
7F4
330
1D
100
AcDbEntity
  8
0
100
AcDbLine
 10
106.3205
 20
12.211002521724
 30
0.0
 11
107.0013
 21
12.363282521724
 31
0.0
  0
LINE
  5
906
330
1D
100
AcDbEntity
  8
0
100
AcDbLine
 10
25.804
 20
64.149082521724
 30
0.0
 11
30.0
 21
64.192782521724
 31
0.0
  0
LINE
  5
907
330
1D
100
AcDbEntity
  8
0
100
AcDbLine
 10
30.0
 20
64.192782521724
 30
0.0
 11
34.1955
 21
64.149082521724
 31
0.0
  0
LINE
  5
90C
330
1D
100
AcDbEntity
  8
0
100
AcDbLine
 10
131.975
 20
175.293582521724
 30
0.0
 11
133.168
 21
174.824582521724
 31
0.0
  0
LINE
  5
90D
330
1D
100
AcDbEntity
  8
0
100
AcDbLine
 10
130.742
 20
175.885582521724
 30
0.0
 11
131.872
 21
175.336582521724
 31
0.0
  0
LINE
  5
90E
330
1D
100
AcDbEntity
  8
0
100
AcDbLine
 10
131.872
 20
175.336582521724
 30
0.0
 11
131.975
 21
175.293582521724
 31
0.0
  0
LINE
  5
90F
330
1D
100
AcDbEntity
  8
0
100
AcDbLine
 10
134.427
 20
174.432582521724
 30
0.0
 11
135.739
 21
174.122582521724
 31
0.0
  0
LINE
  5
910
330
1D
100
AcDbEntity
  8
0
100
AcDbLine
 10
133.168
 20
174.824582521724
 30
0.0
 11
134.427
 21
174.432582521724
 31
0.0
  0
LINE
  5
911
330
1D
100
AcDbEntity
  8
0
100
AcDbLine
 10
137.092
 20
173.895582521724
 30
0.0
 11
138.474
 21
173.755582521724
 31
0.0
  0
LINE
  5
912
330
1D
100
AcDbEntity
  8
0
100
AcDbLine
 10
135.739
 20
174.122582521724
 30
0.0
 11
137.092
 21
173.895582521724
 31
0.0
  0
LINE
  5
913
330
1D
100
AcDbEntity
  8
0
100
AcDbLine
 10
136.76
 20
174.538582521724
 30
0.0
 11
138.078
 21
174.369582521724
 31
0.0
  0
LINE
  5
914
330
1D
100
AcDbEntity
  8
0
100
AcDbLine
 10
135.474
 20
174.791582521724
 30
0.0
 11
136.76
 21
174.538582521724
 31
0.0
  0
LINE
  5
915
330
1D
100
AcDbEntity
  8
0
100
AcDbLine
 10
134.235
 20
175.126582521724
 30
0.0
 11
135.474
 21
174.791582521724
 31
0.0
  0
LINE
  5
916
330
1D
100
AcDbEntity
  8
0
100
AcDbLine
 10
133.055
 20
175.541582521724
 30
0.0
 11
134.235
 21
175.126582521724
 31
0.0
  0
LINE
  5
917
330
1D
100
AcDbEntity
  8
0
100
AcDbLine
 10
131.947
 20
176.030582521724
 30
0.0
 11
133.055
 21
175.541582521724
 31
0.0
  0
LINE
  5
918
330
1D
100
AcDbEntity
  8
0
100
AcDbLine
 10
138.474
 20
173.755582521724
 30
0.0
 11
139.87
 21
173.703582521724
 31
0.0
  0
LINE
  5
919
330
1D
100
AcDbEntity
  8
0
100
AcDbLine
 10
144.012
 20
174.073582521724
 30
0.0
 11
145.333
 21
174.368582521724
 31
0.0
  0
LINE
  5
91A
330
1D
100
AcDbEntity
  8
0
100
AcDbLine
 10
142.652
 20
173.863582521724
 30
0.0
 11
144.012
 21
174.073582521724
 31
0.0
  0
LINE
  5
91B
330
1D
100
AcDbEntity
  8
0
100
AcDbLine
 10
141.267
 20
173.739582521724
 30
0.0
 11
142.652
 21
173.863582521724
 31
0.0
  0
LINE
  5
91C
330
1D
100
AcDbEntity
  8
0
100
AcDbLine
 10
139.87
 20
173.703582521724
 30
0.0
 11
141.267
 21
173.739582521724
 31
0.0
  0
LINE
  5
91D
330
1D
100
AcDbEntity
  8
0
100
AcDbLine
 10
145.333
 20
174.368582521724
 30
0.0
 11
146.603
 21
174.745582521724
 31
0.0
  0
LINE
  5
91E
330
1D
100
AcDbEntity
  8
0
100
AcDbLine
 10
146.603
 20
174.745582521724
 30
0.0
 11
147.809
 21
175.200582521724
 31
0.0
  0
LINE
  5
91F
330
1D
100
AcDbEntity
  8
0
100
AcDbLine
 10
147.809
 20
175.200582521724
 30
0.0
 11
147.909
 21
175.242582521724
 31
0.0
  0
LINE
  5
920
330
1D
100
AcDbEntity
  8
0
100
AcDbLine
 10
147.909
 20
175.242582521724
 30
0.0
 11
149.054
 21
175.778582521724
 31
0.0
  0
LINE
  5
921
330
1D
100
AcDbEntity
  8
0
100
AcDbLine
 10
145.925
 20
175.177582521724
 30
0.0
 11
147.096
 21
175.601582521724
 31
0.0
  0
LINE
  5
922
330
1D
100
AcDbEntity
  8
0
100
AcDbLine
 10
144.693
 20
174.831582521724
 30
0.0
 11
145.925
 21
175.177582521724
 31
0.0
  0
LINE
  5
923
330
1D
100
AcDbEntity
  8
0
100
AcDbLine
 10
143.413
 20
174.567582521724
 30
0.0
 11
144.693
 21
174.831582521724
 31
0.0
  0
LINE
  5
924
330
1D
100
AcDbEntity
  8
0
100
AcDbLine
 10
142.098
 20
174.387582521724
 30
0.0
 11
143.413
 21
174.567582521724
 31
0.0
  0
LINE
  5
925
330
1D
100
AcDbEntity
  8
0
100
AcDbLine
 10
140.761
 20
174.294582521724
 30
0.0
 11
142.098
 21
174.387582521724
 31
0.0
  0
LINE
  5
926
330
1D
100
AcDbEntity
  8
0
100
AcDbLine
 10
139.417
 20
174.288582521724
 30
0.0
 11
140.761
 21
174.294582521724
 31
0.0
  0
LINE
  5
927
330
1D
100
AcDbEntity
  8
0
100
AcDbLine
 10
149.054
 20
175.778582521724
 30
0.0
 11
150.112
 21
176.383582521724
 31
0.0
  0
LINE
  5
928
330
1D
100
AcDbEntity
  8
0
100
AcDbLine
 10
147.096
 20
175.601582521724
 30
0.0
 11
148.195
 21
176.100582521724
 31
0.0
  0
LINE
  5
929
330
1D
100
AcDbEntity
  8
0
100
AcDbLine
 10
138.078
 20
174.369582521724
 30
0.0
 11
139.417
 21
174.288582521724
 31
0.0
  0
LINE
  5
92A
330
1D
100
AcDbEntity
  8
0
100
AcDbLine
 10
125.558
 20
182.365582521724
 30
0.0
 11
125.754
 21
181.459582521724
 31
0.0
  0
LINE
  5
92B
330
1D
100
AcDbEntity
  8
0
100
AcDbLine
 10
125.754
 20
181.459582521724
 30
0.0
 11
125.819
 21
181.276582521724
 31
0.0
  0
LINE
  5
92C
330
1D
100
AcDbEntity
  8
0
100
AcDbLine
 10
126.616
 20
179.531582521724
 30
0.0
 11
127.21
 21
178.704582521724
 31
0.0
  0
LINE
  5
92D
330
1D
100
AcDbEntity
  8
0
100
AcDbLine
 10
126.151
 20
180.391582521724
 30
0.0
 11
126.616
 21
179.531582521724
 31
0.0
  0
LINE
  5
92E
330
1D
100
AcDbEntity
  8
0
100
AcDbLine
 10
125.819
 20
181.276582521724
 30
0.0
 11
126.151
 21
180.391582521724
 31
0.0
  0
LINE
  5
92F
330
1D
100
AcDbEntity
  8
0
100
AcDbLine
 10
125.501
 20
183.279582521724
 30
0.0
 11
125.558
 21
182.365582521724
 31
0.0
  0
LINE
  5
930
330
1D
100
AcDbEntity
  8
0
100
AcDbLine
 10
125.501
 20
183.279582521724
 30
0.0
 11
125.501
 21
190.327582521724
 31
0.0
  0
LINE
  5
931
330
1D
100
AcDbEntity
  8
0
100
AcDbLine
 10
126.728
 20
182.754582521724
 30
0.0
 11
126.805
 21
181.891582521724
 31
0.0
  0
LINE
  5
932
330
1D
100
AcDbEntity
  8
0
100
AcDbLine
 10
126.728
 20
182.754582521724
 30
0.0
 11
126.787
 21
183.617582521724
 31
0.0
  0
LINE
  5
933
330
1D
100
AcDbEntity
  8
0
100
AcDbLine
 10
127.21
 20
178.704582521724
 30
0.0
 11
127.927
 21
177.919582521724
 31
0.0
  0
LINE
  5
934
330
1D
100
AcDbEntity
  8
0
100
AcDbLine
 10
127.927
 20
177.919582521724
 30
0.0
 11
128.76
 21
177.183582521724
 31
0.0
  0
LINE
  5
935
330
1D
100
AcDbEntity
  8
0
100
AcDbLine
 10
128.76
 20
177.183582521724
 30
0.0
 11
129.702
 21
176.503582521724
 31
0.0
  0
LINE
  5
936
330
1D
100
AcDbEntity
  8
0
100
AcDbLine
 10
128.439
 20
178.621582521724
 30
0.0
 11
129.158
 21
177.890582521724
 31
0.0
  0
LINE
  5
937
330
1D
100
AcDbEntity
  8
0
100
AcDbLine
 10
127.839
 20
179.394582521724
 30
0.0
 11
128.439
 21
178.621582521724
 31
0.0
  0
LINE
  5
938
330
1D
100
AcDbEntity
  8
0
100
AcDbLine
 10
127.363
 20
180.203582521724
 30
0.0
 11
127.839
 21
179.394582521724
 31
0.0
  0
LINE
  5
939
330
1D
100
AcDbEntity
  8
0
100
AcDbLine
 10
127.018
 20
181.038582521724
 30
0.0
 11
127.363
 21
180.203582521724
 31
0.0
  0
LINE
  5
93A
330
1D
100
AcDbEntity
  8
0
100
AcDbLine
 10
126.805
 20
181.891582521724
 30
0.0
 11
127.018
 21
181.038582521724
 31
0.0
  0
LINE
  5
93B
330
1D
100
AcDbEntity
  8
0
100
AcDbLine
 10
125.5
 20
190.471582521724
 30
0.0
 11
125.528536483755
 21
190.63417776158
 31
0.0
  0
LINE
  5
93C
330
1D
100
AcDbEntity
  8
0
100
AcDbLine
 10
125.5
 20
190.471582521724
 30
0.0
 11
125.509216648089
 21
190.419067883985
 31
0.0
  0
LINE
  5
93D
330
1D
100
AcDbEntity
  8
0
100
AcDbLine
 10
125.5
 20
190.471582521724
 30
0.0
 11
125.5
 21
222.646582521724
 31
0.0
  0
LINE
  5
93E
330
1D
100
AcDbEntity
  8
0
100
AcDbLine
 10
125.501
 20
190.327582521724
 30
0.0
 11
125.501
 21
183.279582521724
 31
0.0
  0
LINE
  5
93F
330
1D
100
AcDbEntity
  8
0
100
AcDbLine
 10
125.501
 20
190.327582521724
 30
0.0
 11
125.583
 21
191.240582521724
 31
0.0
  0
LINE
  5
940
330
1D
100
AcDbEntity
  8
0
100
AcDbLine
 10
125.764619511751
 20
191.979332157359
 30
0.0
 11
125.864
 21
192.545582521724
 31
0.0
  0
LINE
  5
941
330
1D
100
AcDbEntity
  8
0
100
AcDbLine
 10
125.805
 20
192.143582521724
 30
0.0
 11
125.845
 21
192.253582521724
 31
0.0
  0
LINE
  5
942
330
1D
100
AcDbEntity
  8
0
100
AcDbLine
 10
125.864
 20
192.545582521724
 30
0.0
 11
126.936
 21
194.516582521724
 31
0.0
  0
LINE
  5
943
330
1D
100
AcDbEntity
  8
0
100
AcDbLine
 10
125.845
 20
192.253582521724
 30
0.0
 11
126.202
 21
193.136582521724
 31
0.0
  0
LINE
  5
944
330
1D
100
AcDbEntity
  8
0
100
AcDbLine
 10
125.5
 20
199.240582521724
 30
0.0
 11
125.5
 21
204.057582521724
 31
0.0
  0
LINE
  5
945
330
1D
100
AcDbEntity
  8
0
100
AcDbLine
 10
125.5
 20
199.240582521724
 30
0.0
 11
125.5
 21
194.363582521724
 31
0.0
  0
LINE
  5
946
330
1D
100
AcDbEntity
  8
0
100
AcDbLine
 10
125.5
 20
213.274582521724
 30
0.0
 11
125.5
 21
217.561582521724
 31
0.0
  0
LINE
  5
947
330
1D
100
AcDbEntity
  8
0
100
AcDbLine
 10
125.5
 20
213.274582521724
 30
0.0
 11
125.5
 21
208.754582521724
 31
0.0
  0
LINE
  5
948
330
1D
100
AcDbEntity
  8
0
100
AcDbLine
 10
125.5
 20
217.561582521724
 30
0.0
 11
125.5
 21
221.562582521724
 31
0.0
  0
LINE
  5
949
330
1D
100
AcDbEntity
  8
0
100
AcDbLine
 10
125.5
 20
217.561582521724
 30
0.0
 11
125.5
 21
213.274582521724
 31
0.0
  0
LINE
  5
94A
330
1D
100
AcDbEntity
  8
0
100
AcDbLine
 10
125.5
 20
222.646582521724
 30
0.0
 11
125.5
 21
226.207582521724
 31
0.0
  0
LINE
  5
94B
330
1D
100
AcDbEntity
  8
0
100
AcDbLine
 10
125.5
 20
222.646582521724
 30
0.0
 11
125.5
 21
190.471582521724
 31
0.0
  0
LINE
  5
94C
330
1D
100
AcDbEntity
  8
0
100
AcDbLine
 10
125.5
 20
226.207582521724
 30
0.0
 11
125.5
 21
222.646582521724
 31
0.0
  0
LINE
  5
94D
330
1D
100
AcDbEntity
  8
0
100
AcDbLine
 10
125.5
 20
226.207582521724
 30
0.0
 11
125.5
 21
229.376582521724
 31
0.0
  0
LINE
  5
94E
330
1D
100
AcDbEntity
  8
0
100
AcDbLine
 10
125.5
 20
221.562582521724
 30
0.0
 11
125.5
 21
225.228582521724
 31
0.0
  0
LINE
  5
94F
330
1D
100
AcDbEntity
  8
0
100
AcDbLine
 10
125.5
 20
221.562582521724
 30
0.0
 11
125.5
 21
217.561582521724
 31
0.0
  0
LINE
  5
950
330
1D
100
AcDbEntity
  8
0
100
AcDbLine
 10
125.5
 20
208.754582521724
 30
0.0
 11
125.5
 21
204.057582521724
 31
0.0
  0
LINE
  5
951
330
1D
100
AcDbEntity
  8
0
100
AcDbLine
 10
125.5
 20
208.754582521724
 30
0.0
 11
125.5
 21
213.274582521724
 31
0.0
  0
LINE
  5
952
330
1D
100
AcDbEntity
  8
0
100
AcDbLine
 10
125.5
 20
204.057582521724
 30
0.0
 11
125.5
 21
208.754582521724
 31
0.0
  0
LINE
  5
953
330
1D
100
AcDbEntity
  8
0
100
AcDbLine
 10
125.5
 20
204.057582521724
 30
0.0
 11
125.5
 21
199.240582521724
 31
0.0
  0
LINE
  5
954
330
1D
100
AcDbEntity
  8
0
100
AcDbLine
 10
125.5
 20
225.228582521724
 30
0.0
 11
125.5
 21
228.513582521724
 31
0.0
  0
LINE
  5
955
330
1D
100
AcDbEntity
  8
0
100
AcDbLine
 10
125.5
 20
225.228582521724
 30
0.0
 11
125.5
 21
221.562582521724
 31
0.0
  0
LINE
  5
956
330
1D
100
AcDbEntity
  8
0
100
AcDbLine
 10
125.5
 20
229.376582521724
 30
0.0
 11
125.5
 21
232.114582521724
 31
0.0
  0
LINE
  5
957
330
1D
100
AcDbEntity
  8
0
100
AcDbLine
 10
125.5
 20
229.376582521724
 30
0.0
 11
125.5
 21
226.207582521724
 31
0.0
  0
LINE
  5
958
330
1D
100
AcDbEntity
  8
0
100
AcDbLine
 10
125.5
 20
232.114582521724
 30
0.0
 11
125.5
 21
234.387582521724
 31
0.0
  0
LINE
  5
959
330
1D
100
AcDbEntity
  8
0
100
AcDbLine
 10
125.5
 20
232.114582521724
 30
0.0
 11
125.5
 21
229.376582521724
 31
0.0
  0
LINE
  5
95A
330
1D
100
AcDbEntity
  8
0
100
AcDbLine
 10
125.5
 20
228.513582521724
 30
0.0
 11
125.5
 21
231.378582521724
 31
0.0
  0
LINE
  5
95B
330
1D
100
AcDbEntity
  8
0
100
AcDbLine
 10
125.5
 20
228.513582521724
 30
0.0
 11
125.5
 21
225.228582521724
 31
0.0
  0
LINE
  5
95C
330
1D
100
AcDbEntity
  8
0
100
AcDbLine
 10
125.5
 20
231.378582521724
 30
0.0
 11
125.5
 21
233.786582521724
 31
0.0
  0
LINE
  5
95D
330
1D
100
AcDbEntity
  8
0
100
AcDbLine
 10
125.5
 20
231.378582521724
 30
0.0
 11
125.5
 21
228.513582521724
 31
0.0
  0
LINE
  5
95E
330
1D
100
AcDbEntity
  8
0
100
AcDbLine
 10
125.5
 20
237.430582521724
 30
0.0
 11
125.5
 21
236.166582521724
 31
0.0
  0
LINE
  5
95F
330
1D
100
AcDbEntity
  8
0
100
AcDbLine
 10
125.5
 20
237.430582521724
 30
0.0
 11
125.5
 21
238.163582521724
 31
0.0
  0
LINE
  5
960
330
1D
100
AcDbEntity
  8
0
100
AcDbLine
 10
125.5
 20
238.009582521724
 30
0.0
 11
125.5
 21
237.123582521724
 31
0.0
  0
LINE
  5
961
330
1D
100
AcDbEntity
  8
0
100
AcDbLine
 10
125.5
 20
238.009582521724
 30
0.0
 11
125.5
 21
238.357582521724
 31
0.0
  0
LINE
  5
962
330
1D
100
AcDbEntity
  8
0
100
AcDbLine
 10
125.5
 20
237.123582521724
 30
0.0
 11
125.5
 21
238.009582521724
 31
0.0
  0
LINE
  5
963
330
1D
100
AcDbEntity
  8
0
100
AcDbLine
 10
125.5
 20
237.123582521724
 30
0.0
 11
125.5
 21
235.709582521724
 31
0.0
  0
LINE
  5
964
330
1D
100
AcDbEntity
  8
0
100
AcDbLine
 10
125.5
 20
236.166582521724
 30
0.0
 11
125.5
 21
234.387582521724
 31
0.0
  0
LINE
  5
965
330
1D
100
AcDbEntity
  8
0
100
AcDbLine
 10
125.5
 20
236.166582521724
 30
0.0
 11
125.5
 21
237.430582521724
 31
0.0
  0
LINE
  5
966
330
1D
100
AcDbEntity
  8
0
100
AcDbLine
 10
125.5
 20
234.387582521724
 30
0.0
 11
125.5
 21
236.166582521724
 31
0.0
  0
LINE
  5
967
330
1D
100
AcDbEntity
  8
0
100
AcDbLine
 10
125.5
 20
234.387582521724
 30
0.0
 11
125.5
 21
232.114582521724
 31
0.0
  0
LINE
  5
968
330
1D
100
AcDbEntity
  8
0
100
AcDbLine
 10
125.5
 20
238.163582521724
 30
0.0
 11
125.5
 21
238.357582521724
 31
0.0
  0
LINE
  5
969
330
1D
100
AcDbEntity
  8
0
100
AcDbLine
 10
125.5
 20
238.163582521724
 30
0.0
 11
125.5
 21
237.430582521724
 31
0.0
  0
LINE
  5
96A
330
1D
100
AcDbEntity
  8
0
100
AcDbLine
 10
125.5
 20
238.357582521724
 30
0.0
 11
125.510968623796
 21
238.260371586651
 31
0.0
  0
LINE
  5
96B
330
1D
100
AcDbEntity
  8
0
100
AcDbLine
 10
125.5
 20
238.357582521724
 30
0.0
 11
125.5
 21
238.163582521724
 31
0.0
  0
LINE
  5
96C
330
1D
100
AcDbEntity
  8
0
100
AcDbLine
 10
125.5
 20
238.357582521724
 30
0.0
 11
125.864
 21
241.583582521724
 31
0.0
  0
LINE
  5
96D
330
1D
100
AcDbEntity
  8
0
100
AcDbLine
 10
125.5
 20
238.357582521724
 30
0.0
 11
125.5
 21
238.009582521724
 31
0.0
  0
LINE
  5
96E
330
1D
100
AcDbEntity
  8
0
100
AcDbLine
 10
125.5
 20
235.709582521724
 30
0.0
 11
125.5
 21
233.786582521724
 31
0.0
  0
LINE
  5
96F
330
1D
100
AcDbEntity
  8
0
100
AcDbLine
 10
125.5
 20
235.709582521724
 30
0.0
 11
125.5
 21
237.123582521724
 31
0.0
  0
LINE
  5
970
330
1D
100
AcDbEntity
  8
0
100
AcDbLine
 10
125.5
 20
233.786582521724
 30
0.0
 11
125.5
 21
235.709582521724
 31
0.0
  0
LINE
  5
971
330
1D
100
AcDbEntity
  8
0
100
AcDbLine
 10
125.5
 20
233.786582521724
 30
0.0
 11
125.5
 21
231.378582521724
 31
0.0
  0
LINE
  5
972
330
1D
100
AcDbEntity
  8
0
100
AcDbLine
 10
125.864
 20
241.583582521724
 30
0.0
 11
126.936
 21
244.648582521724
 31
0.0
  0
LINE
  5
973
330
1D
100
AcDbEntity
  8
0
100
AcDbLine
 10
125.5
 20
194.363582521724
 30
0.0
 11
125.5
 21
63.863282521724
 31
0.0
  0
LINE
  5
974
330
1D
100
AcDbEntity
  8
0
100
AcDbLine
 10
125.5
 20
194.363582521724
 30
0.0
 11
125.5
 21
199.240582521724
 31
0.0
  0
LINE
  5
975
330
1D
100
AcDbEntity
  8
0
100
AcDbLine
 10
126.202
 20
193.136582521724
 30
0.0
 11
126.692
 21
193.992582521724
 31
0.0
  0
LINE
  5
976
330
1D
100
AcDbEntity
  8
0
100
AcDbLine
 10
126.936
 20
194.516582521724
 30
0.0
 11
128.664
 21
196.283582521724
 31
0.0
  0
LINE
  5
977
330
1D
100
AcDbEntity
  8
0
100
AcDbLine
 10
126.936
 20
244.648582521724
 30
0.0
 11
128.664
 21
247.397582521724
 31
0.0
  0
LINE
  5
978
330
1D
100
AcDbEntity
  8
0
100
AcDbLine
 10
126.692
 20
193.992582521724
 30
0.0
 11
127.311
 21
194.813582521724
 31
0.0
  0
LINE
  5
979
330
1D
100
AcDbEntity
  8
0
100
AcDbLine
 10
125.583
 20
191.240582521724
 30
0.0
 11
125.805
 21
192.143582521724
 31
0.0
  0
LINE
  5
97A
330
1D
100
AcDbEntity
  8
0
100
AcDbLine
 10
127.311
 20
194.813582521724
 30
0.0
 11
128.051
 21
195.591582521724
 31
0.0
  0
LINE
  5
97B
330
1D
100
AcDbEntity
  8
0
100
AcDbLine
 10
128.051
 20
195.591582521724
 30
0.0
 11
128.907
 21
196.318582521724
 31
0.0
  0
LINE
  5
97C
330
1D
100
AcDbEntity
  8
0
100
AcDbLine
 10
128.664
 20
196.283582521724
 30
0.0
 11
130.959
 21
197.758582521724
 31
0.0
  0
LINE
  5
97D
330
1D
100
AcDbEntity
  8
0
100
AcDbLine
 10
128.664
 20
247.397582521724
 30
0.0
 11
130.96
 21
249.692582521724
 31
0.0
  0
LINE
  5
97E
330
1D
100
AcDbEntity
  8
0
100
AcDbLine
 10
128.907
 20
196.318582521724
 30
0.0
 11
129.869
 21
196.989582521724
 31
0.0
  0
LINE
  5
97F
330
1D
100
AcDbEntity
  8
0
100
AcDbLine
 10
128.352
 20
186.901582521724
 30
0.0
 11
129.056
 21
187.638582521724
 31
0.0
  0
LINE
  5
980
330
1D
100
AcDbEntity
  8
0
100
AcDbLine
 10
127.769
 20
186.123582521724
 30
0.0
 11
128.352
 21
186.901582521724
 31
0.0
  0
LINE
  5
981
330
1D
100
AcDbEntity
  8
0
100
AcDbLine
 10
129.056
 20
187.638582521724
 30
0.0
 11
129.872
 21
188.325582521724
 31
0.0
  0
LINE
  5
982
330
1D
100
AcDbEntity
  8
0
100
AcDbLine
 10
127.31
 20
185.310582521724
 30
0.0
 11
127.769
 21
186.123582521724
 31
0.0
  0
LINE
  5
983
330
1D
100
AcDbEntity
  8
0
100
AcDbLine
 10
126.981
 20
184.472582521724
 30
0.0
 11
127.31
 21
185.310582521724
 31
0.0
  0
LINE
  5
984
330
1D
100
AcDbEntity
  8
0
100
AcDbLine
 10
126.787
 20
183.617582521724
 30
0.0
 11
126.981
 21
184.472582521724
 31
0.0
  0
LINE
  5
985
330
1D
100
AcDbEntity
  8
0
100
AcDbLine
 10
129.702
 20
176.503582521724
 30
0.0
 11
130.742
 21
175.885582521724
 31
0.0
  0
LINE
  5
986
330
1D
100
AcDbEntity
  8
0
100
AcDbLine
 10
130.921
 20
176.588582521724
 30
0.0
 11
131.947
 21
176.030582521724
 31
0.0
  0
LINE
  5
987
330
1D
100
AcDbEntity
  8
0
100
AcDbLine
 10
130.034
 20
185.273582521724
 30
0.0
 11
130.196
 21
184.533582521724
 31
0.0
  0
LINE
  5
988
330
1D
100
AcDbEntity
  8
0
100
AcDbLine
 10
130.006
 20
186.021582521724
 30
0.0
 11
130.114
 21
186.765582521724
 31
0.0
  0
LINE
  5
989
330
1D
100
AcDbEntity
  8
0
100
AcDbLine
 10
130.006
 20
186.021582521724
 30
0.0
 11
130.034
 21
185.273582521724
 31
0.0
  0
LINE
  5
98A
330
1D
100
AcDbEntity
  8
0
100
AcDbLine
 10
130.491
 20
183.810582521724
 30
0.0
 11
130.914
 21
183.114582521724
 31
0.0
  0
LINE
  5
98B
330
1D
100
AcDbEntity
  8
0
100
AcDbLine
 10
130.196
 20
184.533582521724
 30
0.0
 11
130.491
 21
183.810582521724
 31
0.0
  0
LINE
  5
98C
330
1D
100
AcDbEntity
  8
0
100
AcDbLine
 10
130.114
 20
186.765582521724
 30
0.0
 11
130.355
 21
187.496582521724
 31
0.0
  0
LINE
  5
98D
330
1D
100
AcDbEntity
  8
0
100
AcDbLine
 10
130.355
 20
187.496582521724
 30
0.0
 11
130.727
 21
188.204582521724
 31
0.0
  0
LINE
  5
98E
330
1D
100
AcDbEntity
  8
0
100
AcDbLine
 10
141.395
 20
179.434582521724
 30
0.0
 11
142.535
 21
179.581582521724
 31
0.0
  0
LINE
  5
98F
330
1D
100
AcDbEntity
  8
0
100
AcDbLine
 10
140.236
 20
179.373582521724
 30
0.0
 11
141.395
 21
179.434582521724
 31
0.0
  0
LINE
  5
990
330
1D
100
AcDbEntity
  8
0
100
AcDbLine
 10
139.074
 20
179.398582521724
 30
0.0
 11
140.236
 21
179.373582521724
 31
0.0
  0
LINE
  5
991
330
1D
100
AcDbEntity
  8
0
100
AcDbLine
 10
143.641
 20
179.812582521724
 30
0.0
 11
144.698
 21
180.124582521724
 31
0.0
  0
LINE
  5
992
330
1D
100
AcDbEntity
  8
0
100
AcDbLine
 10
142.535
 20
179.581582521724
 30
0.0
 11
143.641
 21
179.812582521724
 31
0.0
  0
LINE
  5
993
330
1D
100
AcDbEntity
  8
0
100
AcDbLine
 10
137.924
 20
179.511582521724
 30
0.0
 11
139.074
 21
179.398582521724
 31
0.0
  0
LINE
  5
994
330
1D
100
AcDbEntity
  8
0
100
AcDbLine
 10
136.803
 20
179.708582521724
 30
0.0
 11
137.924
 21
179.511582521724
 31
0.0
  0
LINE
  5
995
330
1D
100
AcDbEntity
  8
0
100
AcDbLine
 10
145.691
 20
180.513582521724
 30
0.0
 11
146.607
 21
180.973582521724
 31
0.0
  0
LINE
  5
996
330
1D
100
AcDbEntity
  8
0
100
AcDbLine
 10
144.698
 20
180.124582521724
 30
0.0
 11
145.691
 21
180.513582521724
 31
0.0
  0
LINE
  5
997
330
1D
100
AcDbEntity
  8
0
100
AcDbLine
 10
135.724
 20
179.988582521724
 30
0.0
 11
136.803
 21
179.708582521724
 31
0.0
  0
LINE
  5
998
330
1D
100
AcDbEntity
  8
0
100
AcDbLine
 10
134.704
 20
180.346582521724
 30
0.0
 11
135.724
 21
179.988582521724
 31
0.0
  0
LINE
  5
999
330
1D
100
AcDbEntity
  8
0
100
AcDbLine
 10
140.0
 20
180.818582521724
 30
0.0
 11
140.792
 21
180.853582521724
 31
0.0
  0
LINE
  5
99A
330
1D
100
AcDbEntity
  8
0
100
AcDbLine
 10
140.792
 20
180.853582521724
 30
0.0
 11
141.566
 21
180.910582521724
 31
0.0
  0
LINE
  5
99B
330
1D
100
AcDbEntity
  8
0
100
AcDbLine
 10
141.566
 20
180.910582521724
 30
0.0
 11
142.34
 21
181.026582521724
 31
0.0
  0
LINE
  5
99C
330
1D
100
AcDbEntity
  8
0
100
AcDbLine
 10
139.208
 20
180.853582521724
 30
0.0
 11
140.0
 21
180.818582521724
 31
0.0
  0
LINE
  5
99D
330
1D
100
AcDbEntity
  8
0
100
AcDbLine
 10
142.34
 20
181.026582521724
 30
0.0
 11
143.078
 21
181.177582521724
 31
0.0
  0
LINE
  5
99E
330
1D
100
AcDbEntity
  8
0
100
AcDbLine
 10
143.078
 20
181.177582521724
 30
0.0
 11
143.798
 21
181.373582521724
 31
0.0
  0
LINE
  5
99F
330
1D
100
AcDbEntity
  8
0
100
AcDbLine
 10
138.434
 20
180.910582521724
 30
0.0
 11
139.208
 21
180.853582521724
 31
0.0
  0
LINE
  5
9A0
330
1D
100
AcDbEntity
  8
0
100
AcDbLine
 10
137.66
 20
181.026582521724
 30
0.0
 11
138.434
 21
180.910582521724
 31
0.0
  0
LINE
  5
9A1
330
1D
100
AcDbEntity
  8
0
100
AcDbLine
 10
143.798
 20
181.373582521724
 30
0.0
 11
144.482
 21
181.605582521724
 31
0.0
  0
LINE
  5
9A2
330
1D
100
AcDbEntity
  8
0
100
AcDbLine
 10
144.482
 20
181.605582521724
 30
0.0
 11
145.166
 21
181.871582521724
 31
0.0
  0
LINE
  5
9A3
330
1D
100
AcDbEntity
  8
0
100
AcDbLine
 10
136.922
 20
181.177582521724
 30
0.0
 11
137.66
 21
181.026582521724
 31
0.0
  0
LINE
  5
9A4
330
1D
100
AcDbEntity
  8
0
100
AcDbLine
 10
136.202
 20
181.373582521724
 30
0.0
 11
136.922
 21
181.177582521724
 31
0.0
  0
LINE
  5
9A5
330
1D
100
AcDbEntity
  8
0
100
AcDbLine
 10
135.518
 20
181.605582521724
 30
0.0
 11
136.202
 21
181.373582521724
 31
0.0
  0
LINE
  5
9A6
330
1D
100
AcDbEntity
  8
0
100
AcDbLine
 10
147.434
 20
181.499582521724
 30
0.0
 11
148.16
 21
182.083582521724
 31
0.0
  0
LINE
  5
9A7
330
1D
100
AcDbEntity
  8
0
100
AcDbLine
 10
146.607
 20
180.973582521724
 30
0.0
 11
147.434
 21
181.499582521724
 31
0.0
  0
LINE
  5
9A8
330
1D
100
AcDbEntity
  8
0
100
AcDbLine
 10
133.755
 20
180.778582521724
 30
0.0
 11
134.704
 21
180.346582521724
 31
0.0
  0
LINE
  5
9A9
330
1D
100
AcDbEntity
  8
0
100
AcDbLine
 10
132.89
 20
181.278582521724
 30
0.0
 11
133.755
 21
180.778582521724
 31
0.0
  0
LINE
  5
9AA
330
1D
100
AcDbEntity
  8
0
100
AcDbLine
 10
134.834
 20
181.871582521724
 30
0.0
 11
135.518
 21
181.605582521724
 31
0.0
  0
LINE
  5
9AB
330
1D
100
AcDbEntity
  8
0
100
AcDbLine
 10
134.222
 20
182.183582521724
 30
0.0
 11
134.834
 21
181.871582521724
 31
0.0
  0
LINE
  5
9AC
330
1D
100
AcDbEntity
  8
0
100
AcDbLine
 10
133.646
 20
182.519582521724
 30
0.0
 11
134.222
 21
182.183582521724
 31
0.0
  0
LINE
  5
9AD
330
1D
100
AcDbEntity
  8
0
100
AcDbLine
 10
145.166
 20
181.871582521724
 30
0.0
 11
145.778
 21
182.183582521724
 31
0.0
  0
LINE
  5
9AE
330
1D
100
AcDbEntity
  8
0
100
AcDbLine
 10
145.778
 20
182.183582521724
 30
0.0
 11
146.354
 21
182.519582521724
 31
0.0
  0
LINE
  5
9AF
330
1D
100
AcDbEntity
  8
0
100
AcDbLine
 10
146.876
 20
182.889582521724
 30
0.0
 11
147.362
 21
183.282582521724
 31
0.0
  0
LINE
  5
9B0
330
1D
100
AcDbEntity
  8
0
100
AcDbLine
 10
146.354
 20
182.519582521724
 30
0.0
 11
146.876
 21
182.889582521724
 31
0.0
  0
LINE
  5
9B1
330
1D
100
AcDbEntity
  8
0
100
AcDbLine
 10
133.124
 20
182.889582521724
 30
0.0
 11
133.646
 21
182.519582521724
 31
0.0
  0
LINE
  5
9B2
330
1D
100
AcDbEntity
  8
0
100
AcDbLine
 10
148.776
 20
182.717582521724
 30
0.0
 11
149.273
 21
183.393582521724
 31
0.0
  0
LINE
  5
9B3
330
1D
100
AcDbEntity
  8
0
100
AcDbLine
 10
148.16
 20
182.083582521724
 30
0.0
 11
148.776
 21
182.717582521724
 31
0.0
  0
LINE
  5
9B4
330
1D
100
AcDbEntity
  8
0
100
AcDbLine
 10
132.122
 20
181.840582521724
 30
0.0
 11
132.89
 21
181.278582521724
 31
0.0
  0
LINE
  5
9B5
330
1D
100
AcDbEntity
  8
0
100
AcDbLine
 10
131.46
 20
182.454582521724
 30
0.0
 11
132.122
 21
181.840582521724
 31
0.0
  0
LINE
  5
9B6
330
1D
100
AcDbEntity
  8
0
100
AcDbLine
 10
131.054
 20
187.112582521724
 30
0.0
 11
131.144
 21
187.610582521724
 31
0.0
  0
LINE
  5
9B7
330
1D
100
AcDbEntity
  8
0
100
AcDbLine
 10
131.0
 20
188.135582521724
 30
0.0
 11
131.0
 21
186.603582521724
 31
0.0
  0
LINE
  5
9B8
330
1D
100
AcDbEntity
  8
0
100
AcDbLine
 10
131.0
 20
188.135582521724
 30
0.0
 11
131.054
 21
188.644582521724
 31
0.0
  0
LINE
  5
9B9
330
1D
100
AcDbEntity
  8
0
100
AcDbLine
 10
131.0
 20
186.603582521724
 30
0.0
 11
131.054
 21
186.094582521724
 31
0.0
  0
LINE
  5
9BA
330
1D
100
AcDbEntity
  8
0
100
AcDbLine
 10
131.0
 20
186.603582521724
 30
0.0
 11
131.0
 21
188.135582521724
 31
0.0
  0
LINE
  5
9BB
330
1D
100
AcDbEntity
  8
0
100
AcDbLine
 10
131.0
 20
186.603582521724
 30
0.0
 11
131.054
 21
187.112582521724
 31
0.0
  0
LINE
  5
9BC
330
1D
100
AcDbEntity
  8
0
100
AcDbLine
 10
131.144
 20
187.610582521724
 30
0.0
 11
131.324
 21
188.107582521724
 31
0.0
  0
LINE
  5
9BD
330
1D
100
AcDbEntity
  8
0
100
AcDbLine
 10
131.324
 20
188.107582521724
 30
0.0
 11
131.558
 21
188.582582521724
 31
0.0
  0
LINE
  5
9BE
330
1D
100
AcDbEntity
  8
0
100
AcDbLine
 10
131.054
 20
186.094582521724
 30
0.0
 11
131.144
 21
185.596582521724
 31
0.0
  0
LINE
  5
9BF
330
1D
100
AcDbEntity
  8
0
100
AcDbLine
 10
131.144
 20
185.596582521724
 30
0.0
 11
131.324
 21
185.099582521724
 31
0.0
  0
LINE
  5
9C0
330
1D
100
AcDbEntity
  8
0
100
AcDbLine
 10
131.324
 20
185.099582521724
 30
0.0
 11
131.558
 21
184.625582521724
 31
0.0
  0
LINE
  5
9C1
330
1D
100
AcDbEntity
  8
0
100
AcDbLine
 10
131.558
 20
184.625582521724
 30
0.0
 11
131.864
 21
184.162582521724
 31
0.0
  0
LINE
  5
9C2
330
1D
100
AcDbEntity
  8
0
100
AcDbLine
 10
131.864
 20
184.162582521724
 30
0.0
 11
132.224
 21
183.722582521724
 31
0.0
  0
LINE
  5
9C3
330
1D
100
AcDbEntity
  8
0
100
AcDbLine
 10
132.224
 20
183.722582521724
 30
0.0
 11
132.638
 21
183.282582521724
 31
0.0
  0
LINE
  5
9C4
330
1D
100
AcDbEntity
  8
0
100
AcDbLine
 10
147.776
 20
183.722582521724
 30
0.0
 11
148.136
 21
184.162582521724
 31
0.0
  0
LINE
  5
9C5
330
1D
100
AcDbEntity
  8
0
100
AcDbLine
 10
147.362
 20
183.282582521724
 30
0.0
 11
147.776
 21
183.722582521724
 31
0.0
  0
LINE
  5
9C6
330
1D
100
AcDbEntity
  8
0
100
AcDbLine
 10
148.676
 20
188.107582521724
 30
0.0
 11
148.856
 21
187.610582521724
 31
0.0
  0
LINE
  5
9C7
330
1D
100
AcDbEntity
  8
0
100
AcDbLine
 10
148.946
 20
187.112582521724
 30
0.0
 11
149.0
 21
186.603582521724
 31
0.0
  0
LINE
  5
9C8
330
1D
100
AcDbEntity
  8
0
100
AcDbLine
 10
148.856
 20
187.610582521724
 30
0.0
 11
148.946
 21
187.112582521724
 31
0.0
  0
LINE
  5
9C9
330
1D
100
AcDbEntity
  8
0
100
AcDbLine
 10
149.0
 20
188.135582521724
 30
0.0
 11
149.0
 21
186.603582521724
 31
0.0
  0
LINE
  5
9CA
330
1D
100
AcDbEntity
  8
0
100
AcDbLine
 10
149.0
 20
186.603582521724
 30
0.0
 11
149.0
 21
188.135582521724
 31
0.0
  0
LINE
  5
9CB
330
1D
100
AcDbEntity
  8
0
100
AcDbLine
 10
148.946
 20
186.094582521724
 30
0.0
 11
149.0
 21
186.603582521724
 31
0.0
  0
LINE
  5
9CC
330
1D
100
AcDbEntity
  8
0
100
AcDbLine
 10
148.856
 20
185.596582521724
 30
0.0
 11
148.946
 21
186.094582521724
 31
0.0
  0
LINE
  5
9CD
330
1D
100
AcDbEntity
  8
0
100
AcDbLine
 10
148.676
 20
185.099582521724
 30
0.0
 11
148.856
 21
185.596582521724
 31
0.0
  0
LINE
  5
9CE
330
1D
100
AcDbEntity
  8
0
100
AcDbLine
 10
148.442
 20
184.625582521724
 30
0.0
 11
148.676
 21
185.099582521724
 31
0.0
  0
LINE
  5
9CF
330
1D
100
AcDbEntity
  8
0
100
AcDbLine
 10
148.136
 20
184.162582521724
 30
0.0
 11
148.442
 21
184.625582521724
 31
0.0
  0
LINE
  5
9D0
330
1D
100
AcDbEntity
  8
0
100
AcDbLine
 10
132.638
 20
183.282582521724
 30
0.0
 11
133.124
 21
182.889582521724
 31
0.0
  0
LINE
  5
9D1
330
1D
100
AcDbEntity
  8
0
100
AcDbLine
 10
130.914
 20
183.114582521724
 30
0.0
 11
131.46
 21
182.454582521724
 31
0.0
  0
LINE
  5
9D2
330
1D
100
AcDbEntity
  8
0
100
AcDbLine
 10
130.727
 20
188.204582521724
 30
0.0
 11
131.224
 21
188.880582521724
 31
0.0
  0
LINE
  5
9D3
330
1D
100
AcDbEntity
  8
0
100
AcDbLine
 10
129.988
 20
177.211582521724
 30
0.0
 11
130.921
 21
176.588582521724
 31
0.0
  0
LINE
  5
9D4
330
1D
100
AcDbEntity
  8
0
100
AcDbLine
 10
149.51
 20
187.787582521724
 30
0.0
 11
149.805
 21
187.064582521724
 31
0.0
  0
LINE
  5
9D5
330
1D
100
AcDbEntity
  8
0
100
AcDbLine
 10
149.805
 20
187.064582521724
 30
0.0
 11
149.967
 21
186.324582521724
 31
0.0
  0
LINE
  5
9D6
330
1D
100
AcDbEntity
  8
0
100
AcDbLine
 10
149.967
 20
186.324582521724
 30
0.0
 11
149.994
 21
185.576582521724
 31
0.0
  0
LINE
  5
9D7
330
1D
100
AcDbEntity
  8
0
100
AcDbLine
 10
149.887
 20
184.832582521724
 30
0.0
 11
149.994
 21
185.576582521724
 31
0.0
  0
LINE
  5
9D8
330
1D
100
AcDbEntity
  8
0
100
AcDbLine
 10
149.645
 20
184.101582521724
 30
0.0
 11
149.887
 21
184.832582521724
 31
0.0
  0
LINE
  5
9D9
330
1D
100
AcDbEntity
  8
0
100
AcDbLine
 10
149.273
 20
183.393582521724
 30
0.0
 11
149.645
 21
184.101582521724
 31
0.0
  0
LINE
  5
9DA
330
1D
100
AcDbEntity
  8
0
100
AcDbLine
 10
149.209
 20
176.667582521724
 30
0.0
 11
150.128
 21
177.297582521724
 31
0.0
  0
LINE
  5
9DB
330
1D
100
AcDbEntity
  8
0
100
AcDbLine
 10
131.558
 20
188.582582521724
 30
0.0
 11
131.864
 21
189.044582521724
 31
0.0
  0
LINE
  5
9DC
330
1D
100
AcDbEntity
  8
0
100
AcDbLine
 10
148.442
 20
188.582582521724
 30
0.0
 11
148.676
 21
188.107582521724
 31
0.0
  0
LINE
  5
9DD
330
1D
100
AcDbEntity
  8
0
100
AcDbLine
 10
148.946
 20
188.644582521724
 30
0.0
 11
149.0
 21
188.135582521724
 31
0.0
  0
LINE
  5
9DE
330
1D
100
AcDbEntity
  8
0
100
AcDbLine
 10
131.224
 20
188.880582521724
 30
0.0
 11
131.84
 21
189.514582521724
 31
0.0
  0
LINE
  5
9DF
330
1D
100
AcDbEntity
  8
0
100
AcDbLine
 10
149.086
 20
188.483582521724
 30
0.0
 11
149.51
 21
187.787582521724
 31
0.0
  0
LINE
  5
9E0
330
1D
100
AcDbEntity
  8
0
100
AcDbLine
 10
129.872
 20
188.325582521724
 30
0.0
 11
130.791
 21
188.955582521724
 31
0.0
  0
LINE
  5
9E1
330
1D
100
AcDbEntity
  8
0
100
AcDbLine
 10
151.073
 20
177.052582521724
 30
0.0
 11
151.927
 21
177.778582521724
 31
0.0
  0
LINE
  5
9E2
330
1D
100
AcDbEntity
  8
0
100
AcDbLine
 10
150.112
 20
176.383582521724
 30
0.0
 11
151.073
 21
177.052582521724
 31
0.0
  0
LINE
  5
9E3
330
1D
100
AcDbEntity
  8
0
100
AcDbLine
 10
150.944
 20
177.984582521724
 30
0.0
 11
151.648
 21
178.721582521724
 31
0.0
  0
LINE
  5
9E4
330
1D
100
AcDbEntity
  8
0
100
AcDbLine
 10
151.927
 20
177.778582521724
 30
0.0
 11
152.666
 21
178.555582521724
 31
0.0
  0
LINE
  5
9E5
330
1D
100
AcDbEntity
  8
0
100
AcDbLine
 10
152.666
 20
178.555582521724
 30
0.0
 11
153.283
 21
179.374582521724
 31
0.0
  0
LINE
  5
9E6
330
1D
100
AcDbEntity
  8
0
100
AcDbLine
 10
152.232
 20
179.499582521724
 30
0.0
 11
152.691
 21
180.312582521724
 31
0.0
  0
LINE
  5
9E7
330
1D
100
AcDbEntity
  8
0
100
AcDbLine
 10
151.648
 20
178.721582521724
 30
0.0
 11
152.232
 21
179.499582521724
 31
0.0
  0
LINE
  5
9E8
330
1D
100
AcDbEntity
  8
0
100
AcDbLine
 10
150.128
 20
177.297582521724
 30
0.0
 11
150.944
 21
177.984582521724
 31
0.0
  0
LINE
  5
9E9
330
1D
100
AcDbEntity
  8
0
100
AcDbLine
 10
154.129
 20
181.110582521724
 30
0.0
 11
154.195
 21
181.292582521724
 31
0.0
  0
LINE
  5
9EA
330
1D
100
AcDbEntity
  8
0
100
AcDbLine
 10
153.773
 20
180.229582521724
 30
0.0
 11
154.129
 21
181.110582521724
 31
0.0
  0
LINE
  5
9EB
330
1D
100
AcDbEntity
  8
0
100
AcDbLine
 10
153.283
 20
179.374582521724
 30
0.0
 11
153.773
 21
180.229582521724
 31
0.0
  0
LINE
  5
9EC
330
1D
100
AcDbEntity
  8
0
100
AcDbLine
 10
152.691
 20
180.312582521724
 30
0.0
 11
153.019
 21
181.150582521724
 31
0.0
  0
LINE
  5
9ED
330
1D
100
AcDbEntity
  8
0
100
AcDbLine
 10
150.842
 20
187.732582521724
 30
0.0
 11
151.561
 21
187.001582521724
 31
0.0
  0
LINE
  5
9EE
330
1D
100
AcDbEntity
  8
0
100
AcDbLine
 10
151.561
 20
187.001582521724
 30
0.0
 11
152.161
 21
186.228582521724
 31
0.0
  0
LINE
  5
9EF
330
1D
100
AcDbEntity
  8
0
100
AcDbLine
 10
154.499
 20
183.109582521724
 30
0.0
 11
154.499
 21
190.157582521724
 31
0.0
  0
LINE
  5
9F0
330
1D
100
AcDbEntity
  8
0
100
AcDbLine
 10
154.417
 20
182.196582521724
 30
0.0
 11
154.499
 21
183.109582521724
 31
0.0
  0
LINE
  5
9F1
330
1D
100
AcDbEntity
  8
0
100
AcDbLine
 10
154.195
 20
181.292582521724
 30
0.0
 11
154.417
 21
182.196582521724
 31
0.0
  0
LINE
  5
9F2
330
1D
100
AcDbEntity
  8
0
100
AcDbLine
 10
153.213
 20
182.005582521724
 30
0.0
 11
153.272
 21
182.868582521724
 31
0.0
  0
LINE
  5
9F3
330
1D
100
AcDbEntity
  8
0
100
AcDbLine
 10
152.637
 20
185.419582521724
 30
0.0
 11
152.982
 21
184.584582521724
 31
0.0
  0
LINE
  5
9F4
330
1D
100
AcDbEntity
  8
0
100
AcDbLine
 10
152.982
 20
184.584582521724
 30
0.0
 11
153.195
 21
183.731582521724
 31
0.0
  0
LINE
  5
9F5
330
1D
100
AcDbEntity
  8
0
100
AcDbLine
 10
153.195
 20
183.731582521724
 30
0.0
 11
153.272
 21
182.868582521724
 31
0.0
  0
LINE
  5
9F6
330
1D
100
AcDbEntity
  8
0
100
AcDbLine
 10
152.161
 20
186.228582521724
 30
0.0
 11
152.637
 21
185.419582521724
 31
0.0
  0
LINE
  5
9F7
330
1D
100
AcDbEntity
  8
0
100
AcDbLine
 10
153.019
 20
181.150582521724
 30
0.0
 11
153.213
 21
182.005582521724
 31
0.0
  0
LINE
  5
9F8
330
1D
100
AcDbEntity
  8
0
100
AcDbLine
 10
150.012
 20
188.411582521724
 30
0.0
 11
150.842
 21
187.732582521724
 31
0.0
  0
LINE
  5
9F9
330
1D
100
AcDbEntity
  8
0
100
AcDbLine
 10
131.864
 20
189.044582521724
 30
0.0
 11
132.224
 21
189.484582521724
 31
0.0
  0
LINE
  5
9FA
330
1D
100
AcDbEntity
  8
0
100
AcDbLine
 10
132.224
 20
189.484582521724
 30
0.0
 11
132.59873397123
 21
189.88285051047
 31
0.0
  0
LINE
  5
9FB
330
1D
100
AcDbEntity
  8
0
100
AcDbLine
 10
131.84
 20
189.514582521724
 30
0.0
 11
131.907015464694
 21
189.568490278447
 31
0.0
  0
LINE
  5
9FC
330
1D
100
AcDbEntity
  8
0
100
AcDbLine
 10
131.806
 20
189.522582521724
 30
0.0
 11
132.904
 21
190.021582521724
 31
0.0
  0
LINE
  5
9FD
330
1D
100
AcDbEntity
  8
0
100
AcDbLine
 10
134.075
 20
190.445582521724
 30
0.0
 11
135.307
 21
190.791582521724
 31
0.0
  0
LINE
  5
9FE
330
1D
100
AcDbEntity
  8
0
100
AcDbLine
 10
135.307
 20
190.791582521724
 30
0.0
 11
136.587
 21
191.056582521724
 31
0.0
  0
LINE
  5
9FF
330
1D
100
AcDbEntity
  8
0
100
AcDbLine
 10
136.587
 20
191.056582521724
 30
0.0
 11
137.902
 21
191.235582521724
 31
0.0
  0
LINE
  5
A00
330
1D
100
AcDbEntity
  8
0
100
AcDbLine
 10
129.869
 20
196.989582521724
 30
0.0
 11
130.929
 21
197.595582521724
 31
0.0
  0
LINE
  5
A01
330
1D
100
AcDbEntity
  8
0
100
AcDbLine
 10
130.929
 20
197.595582521724
 30
0.0
 11
132.077
 21
198.131582521724
 31
0.0
  0
LINE
  5
A02
330
1D
100
AcDbEntity
  8
0
100
AcDbLine
 10
130.959
 20
197.758582521724
 30
0.0
 11
133.709
 21
198.869582521724
 31
0.0
  0
LINE
  5
A03
330
1D
100
AcDbEntity
  8
0
100
AcDbLine
 10
132.077
 20
198.131582521724
 30
0.0
 11
132.137
 21
198.157582521724
 31
0.0
  0
LINE
  5
A04
330
1D
100
AcDbEntity
  8
0
100
AcDbLine
 10
132.137
 20
198.157582521724
 30
0.0
 11
133.351
 21
198.615582521724
 31
0.0
  0
LINE
  5
A05
330
1D
100
AcDbEntity
  8
0
100
AcDbLine
 10
133.709
 20
198.869582521724
 30
0.0
 11
136.774
 21
199.558582521724
 31
0.0
  0
LINE
  5
A06
330
1D
100
AcDbEntity
  8
0
100
AcDbLine
 10
133.709
 20
251.419582521724
 30
0.0
 11
136.774
 21
252.492582521724
 31
0.0
  0
LINE
  5
A07
330
1D
100
AcDbEntity
  8
0
100
AcDbLine
 10
130.96
 20
249.692582521724
 30
0.0
 11
133.709
 21
251.419582521724
 31
0.0
  0
LINE
  5
A08
330
1D
100
AcDbEntity
  8
0
100
AcDbLine
 10
133.351
 20
198.615582521724
 30
0.0
 11
134.63
 21
198.994582521724
 31
0.0
  0
LINE
  5
A09
330
1D
100
AcDbEntity
  8
0
100
AcDbLine
 10
134.63
 20
198.994582521724
 30
0.0
 11
135.96
 21
199.292582521724
 31
0.0
  0
LINE
  5
A0A
330
1D
100
AcDbEntity
  8
0
100
AcDbLine
 10
136.774
 20
199.558582521724
 30
0.0
 11
140.0
 21
199.792582521724
 31
0.0
  0
LINE
  5
A0B
330
1D
100
AcDbEntity
  8
0
100
AcDbLine
 10
135.96
 20
199.292582521724
 30
0.0
 11
137.329
 21
199.503582521724
 31
0.0
  0
LINE
  5
A0C
330
1D
100
AcDbEntity
  8
0
100
AcDbLine
 10
137.329
 20
199.503582521724
 30
0.0
 11
138.724
 21
199.628582521724
 31
0.0
  0
LINE
  5
A0D
330
1D
100
AcDbEntity
  8
0
100
AcDbLine
 10
136.774
 20
252.492582521724
 30
0.0
 11
140.0
 21
252.855582521724
 31
0.0
  0
LINE
  5
A0E
330
1D
100
AcDbEntity
  8
0
100
AcDbLine
 10
138.724
 20
199.628582521724
 30
0.0
 11
140.131
 21
199.664582521724
 31
0.0
  0
LINE
  5
A0F
330
1D
100
AcDbEntity
  8
0
100
AcDbLine
 10
137.902
 20
191.235582521724
 30
0.0
 11
139.239
 21
191.328582521724
 31
0.0
  0
LINE
  5
A10
330
1D
100
AcDbEntity
  8
0
100
AcDbLine
 10
140.0
 20
252.855582521724
 30
0.0
 11
143.227
 21
252.492582521724
 31
0.0
  0
LINE
  5
A11
330
1D
100
AcDbEntity
  8
0
100
AcDbLine
 10
140.0
 20
199.792582521724
 30
0.0
 11
143.227
 21
199.558582521724
 31
0.0
  0
LINE
  5
A12
330
1D
100
AcDbEntity
  8
0
100
AcDbLine
 10
140.131
 20
199.664582521724
 30
0.0
 11
141.537
 21
199.612582521724
 31
0.0
  0
LINE
  5
A13
330
1D
100
AcDbEntity
  8
0
100
AcDbLine
 10
139.239
 20
191.328582521724
 30
0.0
 11
140.583
 21
191.334582521724
 31
0.0
  0
LINE
  5
A14
330
1D
100
AcDbEntity
  8
0
100
AcDbLine
 10
132.904
 20
190.021582521724
 30
0.0
 11
134.075
 21
190.445582521724
 31
0.0
  0
LINE
  5
A15
330
1D
100
AcDbEntity
  8
0
100
AcDbLine
 10
147.776
 20
189.484582521724
 30
0.0
 11
148.136
 21
189.044582521724
 31
0.0
  0
LINE
  5
A16
330
1D
100
AcDbEntity
  8
0
100
AcDbLine
 10
147.405210490554
 20
189.878658328865
 30
0.0
 11
147.776
 21
189.484582521724
 31
0.0
  0
LINE
  5
A17
330
1D
100
AcDbEntity
  8
0
100
AcDbLine
 10
141.537
 20
199.612582521724
 30
0.0
 11
142.928
 21
199.471582521724
 31
0.0
  0
LINE
  5
A18
330
1D
100
AcDbEntity
  8
0
100
AcDbLine
 10
142.928
 20
199.471582521724
 30
0.0
 11
144.291
 21
199.243582521724
 31
0.0
  0
LINE
  5
A19
330
1D
100
AcDbEntity
  8
0
100
AcDbLine
 10
143.227
 20
252.492582521724
 30
0.0
 11
146.292
 21
251.419582521724
 31
0.0
  0
LINE
  5
A1A
330
1D
100
AcDbEntity
  8
0
100
AcDbLine
 10
143.227
 20
199.558582521724
 30
0.0
 11
146.292
 21
198.869582521724
 31
0.0
  0
LINE
  5
A1B
330
1D
100
AcDbEntity
  8
0
100
AcDbLine
 10
141.922
 20
191.252582521724
 30
0.0
 11
143.24
 21
191.084582521724
 31
0.0
  0
LINE
  5
A1C
330
1D
100
AcDbEntity
  8
0
100
AcDbLine
 10
144.291
 20
199.243582521724
 30
0.0
 11
145.612
 21
198.930582521724
 31
0.0
  0
LINE
  5
A1D
330
1D
100
AcDbEntity
  8
0
100
AcDbLine
 10
145.612
 20
198.930582521724
 30
0.0
 11
146.88
 21
198.536582521724
 31
0.0
  0
LINE
  5
A1E
330
1D
100
AcDbEntity
  8
0
100
AcDbLine
 10
143.24
 20
191.084582521724
 30
0.0
 11
144.526
 21
190.831582521724
 31
0.0
  0
LINE
  5
A1F
330
1D
100
AcDbEntity
  8
0
100
AcDbLine
 10
144.526
 20
190.831582521724
 30
0.0
 11
145.765
 21
190.496582521724
 31
0.0
  0
LINE
  5
A20
330
1D
100
AcDbEntity
  8
0
100
AcDbLine
 10
146.292
 20
251.419582521724
 30
0.0
 11
149.041
 21
249.692582521724
 31
0.0
  0
LINE
  5
A21
330
1D
100
AcDbEntity
  8
0
100
AcDbLine
 10
146.292
 20
198.869582521724
 30
0.0
 11
149.041
 21
197.758582521724
 31
0.0
  0
LINE
  5
A22
330
1D
100
AcDbEntity
  8
0
100
AcDbLine
 10
146.88
 20
198.536582521724
 30
0.0
 11
148.081
 21
198.063582521724
 31
0.0
  0
LINE
  5
A23
330
1D
100
AcDbEntity
  8
0
100
AcDbLine
 10
145.765
 20
190.496582521724
 30
0.0
 11
146.945
 21
190.081582521724
 31
0.0
  0
LINE
  5
A24
330
1D
100
AcDbEntity
  8
0
100
AcDbLine
 10
146.945
 20
190.081582521724
 30
0.0
 11
148.054
 21
189.592582521724
 31
0.0
  0
LINE
  5
A25
330
1D
100
AcDbEntity
  8
0
100
AcDbLine
 10
148.136
 20
189.044582521724
 30
0.0
 11
148.442
 21
188.582582521724
 31
0.0
  0
LINE
  5
A26
330
1D
100
AcDbEntity
  8
0
100
AcDbLine
 10
148.060488261508
 20
189.589050375459
 30
0.0
 11
148.54
 21
189.143582521724
 31
0.0
  0
LINE
  5
A27
330
1D
100
AcDbEntity
  8
0
100
AcDbLine
 10
153.409
 20
193.835582521724
 30
0.0
 11
153.875
 21
192.973582521724
 31
0.0
  0
LINE
  5
A28
330
1D
100
AcDbEntity
  8
0
100
AcDbLine
 10
154.137
 20
192.545582521724
 30
0.0
 11
154.227519936608
 21
192.028646354814
 31
0.0
  0
LINE
  5
A29
330
1D
100
AcDbEntity
  8
0
100
AcDbLine
 10
154.207
 20
192.087582521724
 30
0.0
 11
154.247
 21
191.976582521724
 31
0.0
  0
LINE
  5
A2A
330
1D
100
AcDbEntity
  8
0
100
AcDbLine
 10
153.875
 20
192.973582521724
 30
0.0
 11
154.207
 21
192.087582521724
 31
0.0
  0
LINE
  5
A2B
330
1D
100
AcDbEntity
  8
0
100
AcDbLine
 10
154.247
 20
191.976582521724
 30
0.0
 11
154.443
 21
191.071582521724
 31
0.0
  0
LINE
  5
A2C
330
1D
100
AcDbEntity
  8
0
100
AcDbLine
 10
154.5
 20
190.472582521724
 30
0.0
 11
154.5
 21
63.863282521724
 31
0.0
  0
LINE
  5
A2D
330
1D
100
AcDbEntity
  8
0
100
AcDbLine
 10
154.5
 20
190.472582521724
 30
0.0
 11
154.5
 21
222.645582521724
 31
0.0
  0
LINE
  5
A2E
330
1D
100
AcDbEntity
  8
0
100
AcDbLine
 10
154.484965686121
 20
190.386642573244
 30
0.0
 11
154.5
 21
190.472582521724
 31
0.0
  0
LINE
  5
A2F
330
1D
100
AcDbEntity
  8
0
100
AcDbLine
 10
154.468774736432
 20
190.650902002099
 30
0.0
 11
154.5
 21
190.472582521724
 31
0.0
  0
LINE
  5
A30
330
1D
100
AcDbEntity
  8
0
100
AcDbLine
 10
154.443
 20
191.071582521724
 30
0.0
 11
154.499
 21
190.157582521724
 31
0.0
  0
LINE
  5
A31
330
1D
100
AcDbEntity
  8
0
100
AcDbLine
 10
154.499
 20
190.157582521724
 30
0.0
 11
154.499
 21
183.109582521724
 31
0.0
  0
LINE
  5
A32
330
1D
100
AcDbEntity
  8
0
100
AcDbLine
 10
148.54
 20
189.143582521724
 30
0.0
 11
149.086
 21
188.483582521724
 31
0.0
  0
LINE
  5
A33
330
1D
100
AcDbEntity
  8
0
100
AcDbLine
 10
149.041
 20
197.758582521724
 30
0.0
 11
151.337
 21
196.282582521724
 31
0.0
  0
LINE
  5
A34
330
1D
100
AcDbEntity
  8
0
100
AcDbLine
 10
149.041
 20
249.692582521724
 30
0.0
 11
151.337
 21
247.397582521724
 31
0.0
  0
LINE
  5
A35
330
1D
100
AcDbEntity
  8
0
100
AcDbLine
 10
148.081
 20
198.063582521724
 30
0.0
 11
148.143
 21
198.037582521724
 31
0.0
  0
LINE
  5
A36
330
1D
100
AcDbEntity
  8
0
100
AcDbLine
 10
148.143
 20
198.037582521724
 30
0.0
 11
149.275
 21
197.487582521724
 31
0.0
  0
LINE
  5
A37
330
1D
100
AcDbEntity
  8
0
100
AcDbLine
 10
149.275
 20
197.487582521724
 30
0.0
 11
150.318
 21
196.869582521724
 31
0.0
  0
LINE
  5
A38
330
1D
100
AcDbEntity
  8
0
100
AcDbLine
 10
150.318
 20
196.869582521724
 30
0.0
 11
151.261
 21
196.187582521724
 31
0.0
  0
LINE
  5
A39
330
1D
100
AcDbEntity
  8
0
100
AcDbLine
 10
153.064
 20
194.516582521724
 30
0.0
 11
154.137
 21
192.545582521724
 31
0.0
  0
LINE
  5
A3A
330
1D
100
AcDbEntity
  8
0
100
AcDbLine
 10
151.337
 20
247.397582521724
 30
0.0
 11
153.064
 21
244.648582521724
 31
0.0
  0
LINE
  5
A3B
330
1D
100
AcDbEntity
  8
0
100
AcDbLine
 10
151.337
 20
196.282582521724
 30
0.0
 11
153.064
 21
194.516582521724
 31
0.0
  0
LINE
  5
A3C
330
1D
100
AcDbEntity
  8
0
100
AcDbLine
 10
151.261
 20
196.187582521724
 30
0.0
 11
152.096
 21
195.450582521724
 31
0.0
  0
LINE
  5
A3D
330
1D
100
AcDbEntity
  8
0
100
AcDbLine
 10
154.5
 20
226.207582521724
 30
0.0
 11
154.5
 21
222.645582521724
 31
0.0
  0
LINE
  5
A3E
330
1D
100
AcDbEntity
  8
0
100
AcDbLine
 10
154.5
 20
226.207582521724
 30
0.0
 11
154.5
 21
229.376582521724
 31
0.0
  0
LINE
  5
A3F
330
1D
100
AcDbEntity
  8
0
100
AcDbLine
 10
154.5
 20
236.166582521724
 30
0.0
 11
154.5
 21
234.387582521724
 31
0.0
  0
LINE
  5
A40
330
1D
100
AcDbEntity
  8
0
100
AcDbLine
 10
154.5
 20
236.166582521724
 30
0.0
 11
154.5
 21
237.430582521724
 31
0.0
  0
LINE
  5
A41
330
1D
100
AcDbEntity
  8
0
100
AcDbLine
 10
154.5
 20
234.387582521724
 30
0.0
 11
154.5
 21
232.114582521724
 31
0.0
  0
LINE
  5
A42
330
1D
100
AcDbEntity
  8
0
100
AcDbLine
 10
154.5
 20
234.387582521724
 30
0.0
 11
154.5
 21
236.166582521724
 31
0.0
  0
LINE
  5
A43
330
1D
100
AcDbEntity
  8
0
100
AcDbLine
 10
154.5
 20
232.114582521724
 30
0.0
 11
154.5
 21
229.376582521724
 31
0.0
  0
LINE
  5
A44
330
1D
100
AcDbEntity
  8
0
100
AcDbLine
 10
154.5
 20
232.114582521724
 30
0.0
 11
154.5
 21
234.387582521724
 31
0.0
  0
LINE
  5
A45
330
1D
100
AcDbEntity
  8
0
100
AcDbLine
 10
154.5
 20
229.376582521724
 30
0.0
 11
154.5
 21
226.207582521724
 31
0.0
  0
LINE
  5
A46
330
1D
100
AcDbEntity
  8
0
100
AcDbLine
 10
154.5
 20
229.376582521724
 30
0.0
 11
154.5
 21
232.114582521724
 31
0.0
  0
LINE
  5
A47
330
1D
100
AcDbEntity
  8
0
100
AcDbLine
 10
154.5
 20
237.430582521724
 30
0.0
 11
154.5
 21
238.163582521724
 31
0.0
  0
LINE
  5
A48
330
1D
100
AcDbEntity
  8
0
100
AcDbLine
 10
154.5
 20
237.430582521724
 30
0.0
 11
154.5
 21
236.166582521724
 31
0.0
  0
LINE
  5
A49
330
1D
100
AcDbEntity
  8
0
100
AcDbLine
 10
154.489061509786
 20
238.260371586651
 30
0.0
 11
154.5
 21
238.357582521724
 31
0.0
  0
LINE
  5
A4A
330
1D
100
AcDbEntity
  8
0
100
AcDbLine
 10
154.5
 20
238.357582521724
 30
0.0
 11
154.5
 21
238.163582521724
 31
0.0
  0
LINE
  5
A4B
330
1D
100
AcDbEntity
  8
0
100
AcDbLine
 10
154.137
 20
241.583582521724
 30
0.0
 11
154.5
 21
238.357582521724
 31
0.0
  0
LINE
  5
A4C
330
1D
100
AcDbEntity
  8
0
100
AcDbLine
 10
154.5
 20
238.163582521724
 30
0.0
 11
154.5
 21
238.357582521724
 31
0.0
  0
LINE
  5
A4D
330
1D
100
AcDbEntity
  8
0
100
AcDbLine
 10
154.5
 20
238.163582521724
 30
0.0
 11
154.5
 21
237.430582521724
 31
0.0
  0
LINE
  5
A4E
330
1D
100
AcDbEntity
  8
0
100
AcDbLine
 10
153.064
 20
244.648582521724
 30
0.0
 11
154.137
 21
241.583582521724
 31
0.0
  0
LINE
  5
A4F
330
1D
100
AcDbEntity
  8
0
100
AcDbLine
 10
154.5
 20
222.645582521724
 30
0.0
 11
154.5
 21
190.472582521724
 31
0.0
  0
LINE
  5
A50
330
1D
100
AcDbEntity
  8
0
100
AcDbLine
 10
154.5
 20
222.645582521724
 30
0.0
 11
154.5
 21
226.207582521724
 31
0.0
  0
LINE
  5
A51
330
1D
100
AcDbEntity
  8
0
100
AcDbLine
 10
152.096
 20
195.450582521724
 30
0.0
 11
152.814
 21
194.663582521724
 31
0.0
  0
LINE
  5
A52
330
1D
100
AcDbEntity
  8
0
100
AcDbLine
 10
152.814
 20
194.663582521724
 30
0.0
 11
153.409
 21
193.835582521724
 31
0.0
  0
LINE
  5
A53
330
1D
100
AcDbEntity
  8
0
100
AcDbLine
 10
148.054
 20
189.592582521724
 30
0.0
 11
149.079
 21
189.034582521724
 31
0.0
  0
LINE
  5
A54
330
1D
100
AcDbEntity
  8
0
100
AcDbLine
 10
149.079
 20
189.034582521724
 30
0.0
 11
150.012
 21
188.411582521724
 31
0.0
  0
LINE
  5
A55
330
1D
100
AcDbEntity
  8
0
100
AcDbLine
 10
140.583
 20
191.334582521724
 30
0.0
 11
141.922
 21
191.252582521724
 31
0.0
  0
LINE
  5
A56
330
1D
100
AcDbEntity
  8
0
100
AcDbLine
 10
130.791
 20
188.955582521724
 30
0.0
 11
131.806
 21
189.522582521724
 31
0.0
  0
LINE
  5
A57
330
1D
100
AcDbEntity
  8
0
100
AcDbLine
 10
129.158
 20
177.890582521724
 30
0.0
 11
129.988
 21
177.211582521724
 31
0.0
  0
LINE
  5
A58
330
1D
100
AcDbEntity
  8
0
100
AcDbLine
 10
148.195
 20
176.100582521724
 30
0.0
 11
149.209
 21
176.667582521724
 31
0.0
  0
LINE
  5
196B
330
1D
100
AcDbEntity
  8
0
100
AcDbLine
 10
107.1303
 20
12.363282521724
 30
0.0
 11
172.999
 21
12.363282521724
 31
0.0
  0
LINE
  5
196C
330
1D
100
AcDbEntity
  8
0
100
AcDbLine
 10
117.58
 20
63.863282521724
 30
0.0
 11
154.963
 21
63.863282521724
 31
0.0
  0
LINE
  5
196D
330
1D
100
AcDbEntity
  8
0
100
AcDbLine
 10
46.702036240448
 20
63.369137984456
 30
0.0
 11
50.1207
 21
62.837482521724
 31
0.0
  0
LINE
  5
196E
330
1D
100
AcDbEntity
  8
0
100
AcDbLine
 10
34.1955
 20
64.149082521724
 30
0.0
 11
38.072
 21
64.021782521724
 31
0.0
  0
LINE
  5
196F
330
1D
100
AcDbEntity
  8
0
100
AcDbLine
 10
9.879
 20
62.837482521724
 30
0.0
 11
12.236
 21
63.231582521724
 31
0.0
  0
LINE
  5
1970
330
1D
100
AcDbEntity
  8
0
100
AcDbLine
 10
49.9788
 20
12.463282521724
 30
0.0
 11
53.4223
 21
12.463282521724
 31
0.0
  0
LINE
  5
1971
330
1D
100
AcDbEntity
  8
0
100
AcDbLine
 10
27.51
 20
12.463282521724
 30
0.0
 11
19.521
 21
12.463282521724
 31
0.0
  0
LINE
  5
1972
330
1D
100
AcDbEntity
  8
0
100
AcDbLine
 10
2.001
 20
12.463282521724
 30
0.0
 11
6.861
 21
12.463282521724
 31
0.0
  0
LINE
  5
1973
330
1D
100
AcDbEntity
  8
0
100
AcDbLine
 10
233.297963759552
 20
63.369137984456
 30
0.0
 11
229.8793
 21
62.837482521724
 31
0.0
  0
LINE
  5
1974
330
1D
100
AcDbEntity
  8
0
100
AcDbLine
 10
245.8045
 20
64.149082521724
 30
0.0
 11
241.928
 21
64.021782521724
 31
0.0
  0
LINE
  5
1975
330
1D
100
AcDbEntity
  8
0
100
AcDbLine
 10
266.746835426936
 20
63.363363472591
 30
0.0
 11
265.822
 21
63.483182521724
 31
0.0
  0
LINE
  5
1976
330
1D
100
AcDbEntity
  8
0
100
AcDbLine
 10
266.746835426936
 20
63.363363472591
 30
0.0
 11
265.822
 21
63.483182521724
 31
0.0
  0
LINE
  5
1977
330
1D
100
AcDbEntity
  8
0
100
AcDbLine
 10
270.121
 20
62.837482521724
 30
0.0
 11
267.764
 21
63.231582521724
 31
0.0
  0
LINE
  5
1978
330
1D
100
AcDbEntity
  8
0
100
AcDbLine
 10
230.0212
 20
12.463282521724
 30
0.0
 11
226.5777
 21
12.463282521724
 31
0.0
  0
LINE
  5
1979
330
1D
100
AcDbEntity
  8
0
100
AcDbLine
 10
252.49
 20
12.463282521724
 30
0.0
 11
260.479
 21
12.463282521724
 31
0.0
  0
LINE
  5
197A
330
1D
100
AcDbEntity
  8
0
100
AcDbLine
 10
277.999
 20
12.463282521724
 30
0.0
 11
273.139
 21
12.463282521724
 31
0.0
  0
LINE
  5
197C
330
1D
100
AcDbEntity
  8
0
100
AcDbLine
 10
234.514
 20
2.663262521724
 30
0.0
 11
232.3612
 21
2.663262521724
 31
0.0
  0
LINE
  5
197D
330
1D
100
AcDbEntity
  8
0
100
AcDbLine
 10
234.3808
 20
2.663262521724
 30
0.0
 11
232.0166
 21
2.663262521724
 31
0.0
  0
LINE
  5
197E
330
1D
100
AcDbEntity
  8
0
100
AcDbLine
 10
234.9313
 20
2.663262521724
 30
0.0
 11
232.7493
 21
2.663262521724
 31
0.0
  0
LINE
  5
197F
330
1D
100
AcDbEntity
  8
0
100
AcDbLine
 10
235.0
 20
2.663262521724
 30
0.0
 11
233.1896
 21
2.663262521724
 31
0.0
  0
LINE
  5
1980
330
1D
100
AcDbEntity
  8
0
100
AcDbLine
 10
234.2321
 20
12.463282521724
 30
0.0
 11
232.0403
 21
12.463282521724
 31
0.0
  0
LINE
  5
1981
330
1D
100
AcDbEntity
  8
0
100
AcDbLine
 10
234.2576
 20
13.463282521724
 30
0.0
 11
233.6022
 21
13.463282521724
 31
0.0
  0
LINE
  5
1982
330
1D
100
AcDbEntity
  8
0
100
AcDbLine
 10
234.1785
 20
63.483182521724
 30
0.0
 11
233.297963759552
 21
63.369137984456
 31
0.0
  0
LINE
  5
1983
330
1D
100
AcDbEntity
  8
0
100
AcDbLine
 10
270.932
 20
61.781982521724
 30
0.0
 11
267.432
 21
13.926782521724
 31
0.0
  0
LINE
  5
1985
330
1D
100
AcDbEntity
  8
0
100
AcDbLine
 10
257.743
 20
2.663262521724
 30
0.0
 11
255.119
 21
2.663262521724
 31
0.0
  0
LINE
  5
1986
330
1D
100
AcDbEntity
  8
0
100
AcDbLine
 10
259.129
 20
2.663262521724
 30
0.0
 11
256.371
 21
2.663262521724
 31
0.0
  0
LINE
  5
1987
330
1D
100
AcDbEntity
  8
0
100
AcDbLine
 10
257.883
 20
12.463282521724
 30
0.0
 11
255.212
 21
12.463282521724
 31
0.0
  0
LINE
  5
1988
330
1D
100
AcDbEntity
  8
0
100
AcDbLine
 10
258.384
 20
13.463282521724
 30
0.0
 11
256.886
 21
13.463282521724
 31
0.0
  0
LINE
  5
198A
330
1D
100
AcDbEntity
  8
0
100
AcDbLine
 10
269.267
 20
2.663262521724
 30
0.0
 11
267.251
 21
2.663262521724
 31
0.0
  0
LINE
  5
198B
330
1D
100
AcDbEntity
  8
0
100
AcDbLine
 10
269.096
 20
2.663262521724
 30
0.0
 11
266.81
 21
2.663262521724
 31
0.0
  0
LINE
  5
198C
330
1D
100
AcDbEntity
  8
0
100
AcDbLine
 10
269.622
 20
2.663262521724
 30
0.0
 11
267.639
 21
2.663262521724
 31
0.0
  0
LINE
  5
198D
330
1D
100
AcDbEntity
  8
0
100
AcDbLine
 10
270.184
 20
2.663262521724
 30
0.0
 11
267.983
 21
2.663262521724
 31
0.0
  0
LINE
  5
198E
330
1D
100
AcDbEntity
  8
0
100
AcDbLine
 10
269.618
 20
12.463282521724
 30
0.0
 11
267.565
 21
12.463282521724
 31
0.0
  0
LINE
  5
198F
330
1D
100
AcDbEntity
  8
0
100
AcDbLine
 10
279.991
 20
10.463262521724
 30
0.0
 11
279.893
 21
11.081282521724
 31
0.0
  0
LINE
  5
1990
330
1D
100
AcDbEntity
  8
0
100
AcDbLine
 10
274.841
 20
2.663262521724
 30
0.0
 11
273.13
 21
2.663262521724
 31
0.0
  0
LINE
  5
1991
330
1D
100
AcDbEntity
  8
0
100
AcDbLine
 10
275.31
 20
2.663262521724
 30
0.0
 11
274.134
 21
2.663262521724
 31
0.0
  0
LINE
  5
1992
330
1D
100
AcDbEntity
  8
0
100
AcDbLine
 10
275.62
 20
2.663262521724
 30
0.0
 11
274.02
 21
2.663262521724
 31
0.0
  0
LINE
  5
1993
330
1D
100
AcDbEntity
  8
0
100
AcDbLine
 10
274.37
 20
2.663262521724
 30
0.0
 11
273.004
 21
2.663262521724
 31
0.0
  0
LINE
  5
1994
330
1D
100
AcDbEntity
  8
0
100
AcDbLine
 10
279.991
 20
2.663262521724
 30
0.0
 11
279.991
 21
10.463262521724
 31
0.0
  0
LINE
  5
1995
330
1D
100
AcDbEntity
  8
0
100
AcDbLine
 10
279.991
 20
10.463262521724
 30
0.0
 11
279.991
 21
2.663262521724
 31
0.0
  0
LINE
  5
1996
330
1D
100
AcDbEntity
  8
0
100
AcDbLine
 10
277.342
 20
2.663262521724
 30
0.0
 11
276.922
 21
2.663262521724
 31
0.0
  0
LINE
  5
1997
330
1D
100
AcDbEntity
  8
0
100
AcDbLine
 10
277.575
 20
2.663262521724
 30
0.0
 11
276.328
 21
2.663262521724
 31
0.0
  0
LINE
  5
1998
330
1D
100
AcDbEntity
  8
0
100
AcDbLine
 10
277.391
 20
2.663262521724
 30
0.0
 11
277.019
 21
2.663262521724
 31
0.0
  0
LINE
  5
1999
330
1D
100
AcDbEntity
  8
0
100
AcDbLine
 10
278.11
 20
2.663262521724
 30
0.0
 11
276.987
 21
2.663262521724
 31
0.0
  0
LINE
  5
199A
330
1D
100
AcDbEntity
  8
0
100
AcDbLine
 10
278.979
 20
2.663262521724
 30
0.0
 11
278.11
 21
2.663262521724
 31
0.0
  0
LINE
  5
199B
330
1D
100
AcDbEntity
  8
0
100
AcDbLine
 10
279.586
 20
2.663262521724
 30
0.0
 11
278.979
 21
2.663262521724
 31
0.0
  0
LINE
  5
199C
330
1D
100
AcDbEntity
  8
0
100
AcDbLine
 10
278.573
 20
2.663262521724
 30
0.0
 11
277.575
 21
2.663262521724
 31
0.0
  0
LINE
  5
199D
330
1D
100
AcDbEntity
  8
0
100
AcDbLine
 10
279.787
 20
2.663262521724
 30
0.0
 11
279.313
 21
2.663262521724
 31
0.0
  0
LINE
  5
199E
330
1D
100
AcDbEntity
  8
0
100
AcDbLine
 10
279.313
 20
2.663262521724
 30
0.0
 11
278.573
 21
2.663262521724
 31
0.0
  0
LINE
  5
199F
330
1D
100
AcDbEntity
  8
0
100
AcDbLine
 10
279.991
 20
2.663262521724
 30
0.0
 11
279.787
 21
2.663262521724
 31
0.0
  0
LINE
  5
19A0
330
1D
100
AcDbEntity
  8
0
100
AcDbLine
 10
279.991
 20
2.663262521724
 30
0.0
 11
279.924
 21
2.663262521724
 31
0.0
  0
LINE
  5
19A1
330
1D
100
AcDbEntity
  8
0
100
AcDbLine
 10
279.924
 20
2.663262521724
 30
0.0
 11
279.586
 21
2.663262521724
 31
0.0
  0
LINE
  5
19A2
330
1D
100
AcDbEntity
  8
0
100
AcDbLine
 10
277.499
 20
2.663262521724
 30
0.0
 11
277.391
 21
2.663262521724
 31
0.0
  0
LINE
  5
19A3
330
1D
100
AcDbEntity
  8
0
100
AcDbLine
 10
277.499
 20
2.663262521724
 30
0.0
 11
277.342
 21
2.663262521724
 31
0.0
  0
LINE
  5
19A4
330
1D
100
AcDbEntity
  8
0
100
AcDbLine
 10
276.922
 20
2.663262521724
 30
0.0
 11
276.241
 21
2.663262521724
 31
0.0
  0
LINE
  5
19A5
330
1D
100
AcDbEntity
  8
0
100
AcDbLine
 10
276.241
 20
2.663262521724
 30
0.0
 11
275.31
 21
2.663262521724
 31
0.0
  0
LINE
  5
19A6
330
1D
100
AcDbEntity
  8
0
100
AcDbLine
 10
277.019
 20
2.663262521724
 30
0.0
 11
276.388
 21
2.663262521724
 31
0.0
  0
LINE
  5
19A7
330
1D
100
AcDbEntity
  8
0
100
AcDbLine
 10
276.388
 20
2.663262521724
 30
0.0
 11
275.502
 21
2.663262521724
 31
0.0
  0
LINE
  5
19A8
330
1D
100
AcDbEntity
  8
0
100
AcDbLine
 10
275.502
 20
2.663262521724
 30
0.0
 11
274.37
 21
2.663262521724
 31
0.0
  0
LINE
  5
19A9
330
1D
100
AcDbEntity
  8
0
100
AcDbLine
 10
276.328
 20
2.663262521724
 30
0.0
 11
274.841
 21
2.663262521724
 31
0.0
  0
LINE
  5
19AA
330
1D
100
AcDbEntity
  8
0
100
AcDbLine
 10
276.987
 20
2.663262521724
 30
0.0
 11
275.62
 21
2.663262521724
 31
0.0
  0
LINE
  5
19AB
330
1D
100
AcDbEntity
  8
0
100
AcDbLine
 10
274.134
 20
2.663262521724
 30
0.0
 11
272.725
 21
2.663262521724
 31
0.0
  0
LINE
  5
19AC
330
1D
100
AcDbEntity
  8
0
100
AcDbLine
 10
273.13
 20
2.663262521724
 30
0.0
 11
271.209
 21
2.663262521724
 31
0.0
  0
LINE
  5
19AD
330
1D
100
AcDbEntity
  8
0
100
AcDbLine
 10
272.725
 20
2.663262521724
 30
0.0
 11
271.098
 21
2.663262521724
 31
0.0
  0
LINE
  5
19B1
330
1D
100
AcDbEntity
  8
0
100
AcDbLine
 10
271.098
 20
2.663262521724
 30
0.0
 11
269.267
 21
2.663262521724
 31
0.0
  0
LINE
  5
19B2
330
1D
100
AcDbEntity
  8
0
100
AcDbLine
 10
271.209
 20
2.663262521724
 30
0.0
 11
269.096
 21
2.663262521724
 31
0.0
  0
LINE
  5
19B3
330
1D
100
AcDbEntity
  8
0
100
AcDbLine
 10
271.416
 20
2.663262521724
 30
0.0
 11
269.622
 21
2.663262521724
 31
0.0
  0
LINE
  5
19B4
330
1D
100
AcDbEntity
  8
0
100
AcDbLine
 10
272.203
 20
2.663262521724
 30
0.0
 11
270.184
 21
2.663262521724
 31
0.0
  0
LINE
  5
19B5
330
1D
100
AcDbEntity
  8
0
100
AcDbLine
 10
273.004
 20
2.663262521724
 30
0.0
 11
271.416
 21
2.663262521724
 31
0.0
  0
LINE
  5
19B6
330
1D
100
AcDbEntity
  8
0
100
AcDbLine
 10
274.02
 20
2.663262521724
 30
0.0
 11
272.203
 21
2.663262521724
 31
0.0
  0
LINE
  5
19B7
330
1D
100
AcDbEntity
  8
0
100
AcDbLine
 10
279.893
 20
11.081282521724
 30
0.0
 11
279.61
 21
11.638852521724
 31
0.0
  0
LINE
  5
19B8
330
1D
100
AcDbEntity
  8
0
100
AcDbLine
 10
279.61
 20
11.638852521724
 30
0.0
 11
279.167
 21
12.081302521724
 31
0.0
  0
LINE
  5
19B9
330
1D
100
AcDbEntity
  8
0
100
AcDbLine
 10
279.167
 20
12.081302521724
 30
0.0
 11
278.609
 21
12.365382521724
 31
0.0
  0
LINE
  5
19BA
330
1D
100
AcDbEntity
  8
0
100
AcDbLine
 10
278.609
 20
12.365382521724
 30
0.0
 11
277.999
 21
12.463282521724
 31
0.0
  0
LINE
  5
19BB
330
1D
100
AcDbEntity
  8
0
100
AcDbLine
 10
273.139
 20
12.463282521724
 30
0.0
 11
271.481
 21
12.463282521724
 31
0.0
  0
LINE
  5
19BC
330
1D
100
AcDbEntity
  8
0
100
AcDbLine
 10
271.481
 20
12.463282521724
 30
0.0
 11
269.618
 21
12.463282521724
 31
0.0
  0
LINE
  5
19BE
330
1D
100
AcDbEntity
  8
0
100
AcDbLine
 10
267.251
 20
2.663262521724
 30
0.0
 11
265.069
 21
2.663262521724
 31
0.0
  0
LINE
  5
19BF
330
1D
100
AcDbEntity
  8
0
100
AcDbLine
 10
266.81
 20
2.663262521724
 30
0.0
 11
264.372
 21
2.663262521724
 31
0.0
  0
LINE
  5
19C3
330
1D
100
AcDbEntity
  8
0
100
AcDbLine
 10
265.069
 20
2.663262521724
 30
0.0
 11
262.741
 21
2.663262521724
 31
0.0
  0
LINE
  5
19C4
330
1D
100
AcDbEntity
  8
0
100
AcDbLine
 10
262.741
 20
2.663262521724
 30
0.0
 11
260.292
 21
2.663262521724
 31
0.0
  0
LINE
  5
19C5
330
1D
100
AcDbEntity
  8
0
100
AcDbLine
 10
264.372
 20
2.663262521724
 30
0.0
 11
261.804
 21
2.663262521724
 31
0.0
  0
LINE
  5
19C6
330
1D
100
AcDbEntity
  8
0
100
AcDbLine
 10
265.486
 20
2.663262521724
 30
0.0
 11
265.0
 21
2.663262521724
 31
0.0
  0
LINE
  5
19C7
330
1D
100
AcDbEntity
  8
0
100
AcDbLine
 10
265.619
 20
2.663262521724
 30
0.0
 11
265.0
 21
2.663262521724
 31
0.0
  0
LINE
  5
19C8
330
1D
100
AcDbEntity
  8
0
100
AcDbLine
 10
267.639
 20
2.663262521724
 30
0.0
 11
265.486
 21
2.663262521724
 31
0.0
  0
LINE
  5
19C9
330
1D
100
AcDbEntity
  8
0
100
AcDbLine
 10
267.983
 20
2.663262521724
 30
0.0
 11
265.619
 21
2.663262521724
 31
0.0
  0
LINE
  5
19CA
330
1D
100
AcDbEntity
  8
0
100
AcDbLine
 10
260.292
 20
2.663262521724
 30
0.0
 11
257.743
 21
2.663262521724
 31
0.0
  0
LINE
  5
19CB
330
1D
100
AcDbEntity
  8
0
100
AcDbLine
 10
261.804
 20
2.663262521724
 30
0.0
 11
259.129
 21
2.663262521724
 31
0.0
  0
LINE
  5
19CC
330
1D
100
AcDbEntity
  8
0
100
AcDbLine
 10
267.495
 20
12.463282521724
 30
0.0
 11
267.495
 21
13.463282521724
 31
0.0
  0
LINE
  5
19CD
330
1D
100
AcDbEntity
  8
0
100
AcDbLine
 10
262.973
 20
12.463282521724
 30
0.0
 11
260.479
 21
12.463282521724
 31
0.0
  0
LINE
  5
19CE
330
1D
100
AcDbEntity
  8
0
100
AcDbLine
 10
265.343
 20
12.463282521724
 30
0.0
 11
262.973
 21
12.463282521724
 31
0.0
  0
LINE
  5
19CF
330
1D
100
AcDbEntity
  8
0
100
AcDbLine
 10
267.565
 20
12.463282521724
 30
0.0
 11
265.343
 21
12.463282521724
 31
0.0
  0
LINE
  5
19D0
330
1D
100
AcDbEntity
  8
0
100
AcDbLine
 10
267.495
 20
13.463282521724
 30
0.0
 11
267.376
 21
13.463282521724
 31
0.0
  0
LINE
  5
19D1
330
1D
100
AcDbEntity
  8
0
100
AcDbLine
 10
267.495
 20
13.463282521724
 30
0.0
 11
267.495
 21
12.463282521724
 31
0.0
  0
LINE
  5
19D2
330
1D
100
AcDbEntity
  8
0
100
AcDbLine
 10
267.376
 20
13.463282521724
 30
0.0
 11
267.099
 21
13.463282521724
 31
0.0
  0
LINE
  5
19D3
330
1D
100
AcDbEntity
  8
0
100
AcDbLine
 10
259.806
 20
13.463282521724
 30
0.0
 11
258.384
 21
13.463282521724
 31
0.0
  0
LINE
  5
19D4
330
1D
100
AcDbEntity
  8
0
100
AcDbLine
 10
261.139
 20
13.463282521724
 30
0.0
 11
259.806
 21
13.463282521724
 31
0.0
  0
LINE
  5
19D5
330
1D
100
AcDbEntity
  8
0
100
AcDbLine
 10
262.372
 20
13.463282521724
 30
0.0
 11
261.139
 21
13.463282521724
 31
0.0
  0
LINE
  5
19D6
330
1D
100
AcDbEntity
  8
0
100
AcDbLine
 10
263.492
 20
13.463282521724
 30
0.0
 11
262.372
 21
13.463282521724
 31
0.0
  0
LINE
  5
19D7
330
1D
100
AcDbEntity
  8
0
100
AcDbLine
 10
264.49
 20
13.463282521724
 30
0.0
 11
263.492
 21
13.463282521724
 31
0.0
  0
LINE
  5
19D8
330
1D
100
AcDbEntity
  8
0
100
AcDbLine
 10
265.358
 20
13.463282521724
 30
0.0
 11
264.49
 21
13.463282521724
 31
0.0
  0
LINE
  5
19D9
330
1D
100
AcDbEntity
  8
0
100
AcDbLine
 10
266.086
 20
13.463282521724
 30
0.0
 11
265.358
 21
13.463282521724
 31
0.0
  0
LINE
  5
19DA
330
1D
100
AcDbEntity
  8
0
100
AcDbLine
 10
266.668
 20
13.463282521724
 30
0.0
 11
266.086
 21
13.463282521724
 31
0.0
  0
LINE
  5
19DB
330
1D
100
AcDbEntity
  8
0
100
AcDbLine
 10
267.099
 20
13.463282521724
 30
0.0
 11
266.668
 21
13.463282521724
 31
0.0
  0
LINE
  5
19DC
330
1D
100
AcDbEntity
  8
0
100
AcDbLine
 10
267.173
 20
13.524282521724
 30
0.0
 11
266.933
 21
13.463282521724
 31
0.0
  0
LINE
  5
19DD
330
1D
100
AcDbEntity
  8
0
100
AcDbLine
 10
267.354
 20
13.692482521724
 30
0.0
 11
267.173
 21
13.524282521724
 31
0.0
  0
LINE
  5
19DE
330
1D
100
AcDbEntity
  8
0
100
AcDbLine
 10
267.432
 20
13.926782521724
 30
0.0
 11
267.354
 21
13.692482521724
 31
0.0
  0
LINE
  5
19E0
330
1D
100
AcDbEntity
  8
0
100
AcDbLine
 10
247.0551
 20
2.663262521724
 30
0.0
 11
244.3889
 21
2.663262521724
 31
0.0
  0
LINE
  5
19E1
330
1D
100
AcDbEntity
  8
0
100
AcDbLine
 10
247.8541
 20
2.663262521724
 30
0.0
 11
245.0195
 21
2.663262521724
 31
0.0
  0
LINE
  5
19E2
330
1D
100
AcDbEntity
  8
0
100
AcDbLine
 10
247.0014
 20
12.463282521724
 30
0.0
 11
244.2874
 21
12.463282521724
 31
0.0
  0
LINE
  5
19E3
330
1D
100
AcDbEntity
  8
0
100
AcDbLine
 10
245.4671
 20
13.463282521724
 30
0.0
 11
243.881
 21
13.463282521724
 31
0.0
  0
LINE
  5
19E5
330
1D
100
AcDbEntity
  8
0
100
AcDbLine
 10
255.119
 20
2.663262521724
 30
0.0
 11
252.445
 21
2.663262521724
 31
0.0
  0
LINE
  5
19E6
330
1D
100
AcDbEntity
  8
0
100
AcDbLine
 10
252.445
 20
2.663262521724
 30
0.0
 11
249.7488
 21
2.663262521724
 31
0.0
  0
LINE
  5
19E7
330
1D
100
AcDbEntity
  8
0
100
AcDbLine
 10
256.371
 20
2.663262521724
 30
0.0
 11
253.556
 21
2.663262521724
 31
0.0
  0
LINE
  5
19E8
330
1D
100
AcDbEntity
  8
0
100
AcDbLine
 10
253.556
 20
2.663262521724
 30
0.0
 11
250.708
 21
2.663262521724
 31
0.0
  0
LINE
  5
19E9
330
1D
100
AcDbEntity
  8
0
100
AcDbLine
 10
249.7488
 20
2.663262521724
 30
0.0
 11
247.0551
 21
2.663262521724
 31
0.0
  0
LINE
  5
19EA
330
1D
100
AcDbEntity
  8
0
100
AcDbLine
 10
250.708
 20
2.663262521724
 30
0.0
 11
247.8541
 21
2.663262521724
 31
0.0
  0
LINE
  5
19EB
330
1D
100
AcDbEntity
  8
0
100
AcDbLine
 10
249.7441
 20
12.463282521724
 30
0.0
 11
247.0014
 21
12.463282521724
 31
0.0
  0
LINE
  5
19EC
330
1D
100
AcDbEntity
  8
0
100
AcDbLine
 10
252.49
 20
12.463282521724
 30
0.0
 11
249.7441
 21
12.463282521724
 31
0.0
  0
LINE
  5
19ED
330
1D
100
AcDbEntity
  8
0
100
AcDbLine
 10
253.717
 20
13.463282521724
 30
0.0
 11
252.074
 21
13.463282521724
 31
0.0
  0
LINE
  5
19EE
330
1D
100
AcDbEntity
  8
0
100
AcDbLine
 10
255.325
 20
13.463282521724
 30
0.0
 11
253.717
 21
13.463282521724
 31
0.0
  0
LINE
  5
19EF
330
1D
100
AcDbEntity
  8
0
100
AcDbLine
 10
256.886
 20
13.463282521724
 30
0.0
 11
255.325
 21
13.463282521724
 31
0.0
  0
LINE
  5
19F0
330
1D
100
AcDbEntity
  8
0
100
AcDbLine
 10
247.0947
 20
13.463282521724
 30
0.0
 11
245.4671
 21
13.463282521724
 31
0.0
  0
LINE
  5
19F1
330
1D
100
AcDbEntity
  8
0
100
AcDbLine
 10
248.7481
 20
13.463282521724
 30
0.0
 11
247.0947
 21
13.463282521724
 31
0.0
  0
LINE
  5
19F2
330
1D
100
AcDbEntity
  8
0
100
AcDbLine
 10
250.413
 20
13.463282521724
 30
0.0
 11
248.7481
 21
13.463282521724
 31
0.0
  0
LINE
  5
19F3
330
1D
100
AcDbEntity
  8
0
100
AcDbLine
 10
252.074
 20
13.463282521724
 30
0.0
 11
250.413
 21
13.463282521724
 31
0.0
  0
LINE
  5
19F6
330
1D
100
AcDbEntity
  8
0
100
AcDbLine
 10
244.3889
 20
2.663262521724
 30
0.0
 11
241.7776
 21
2.663262521724
 31
0.0
  0
LINE
  5
19F7
330
1D
100
AcDbEntity
  8
0
100
AcDbLine
 10
241.7776
 20
2.663262521724
 30
0.0
 11
239.245
 21
2.663262521724
 31
0.0
  0
LINE
  5
19F8
330
1D
100
AcDbEntity
  8
0
100
AcDbLine
 10
245.0195
 20
2.663262521724
 30
0.0
 11
242.2294
 21
2.663262521724
 31
0.0
  0
LINE
  5
19F9
330
1D
100
AcDbEntity
  8
0
100
AcDbLine
 10
242.2294
 20
2.663262521724
 30
0.0
 11
239.5103
 21
2.663262521724
 31
0.0
  0
LINE
  5
19FB
330
1D
100
AcDbEntity
  8
0
100
AcDbLine
 10
239.245
 20
2.663262521724
 30
0.0
 11
236.8159
 21
2.663262521724
 31
0.0
  0
LINE
  5
19FC
330
1D
100
AcDbEntity
  8
0
100
AcDbLine
 10
236.8159
 20
2.663262521724
 30
0.0
 11
234.514
 21
2.663262521724
 31
0.0
  0
LINE
  5
19FD
330
1D
100
AcDbEntity
  8
0
100
AcDbLine
 10
239.5103
 20
2.663262521724
 30
0.0
 11
236.8858
 21
2.663262521724
 31
0.0
  0
LINE
  5
19FE
330
1D
100
AcDbEntity
  8
0
100
AcDbLine
 10
236.8858
 20
2.663262521724
 30
0.0
 11
234.3808
 21
2.663262521724
 31
0.0
  0
LINE
  5
19FF
330
1D
100
AcDbEntity
  8
0
100
AcDbLine
 10
235.0
 20
2.663262521724
 30
0.0
 11
234.9313
 21
2.663262521724
 31
0.0
  0
LINE
  5
1A01
330
1D
100
AcDbEntity
  8
0
100
AcDbLine
 10
241.6278
 20
12.463282521724
 30
0.0
 11
239.0495
 21
12.463282521724
 31
0.0
  0
LINE
  5
1A02
330
1D
100
AcDbEntity
  8
0
100
AcDbLine
 10
244.2874
 20
12.463282521724
 30
0.0
 11
241.6278
 21
12.463282521724
 31
0.0
  0
LINE
  5
1A03
330
1D
100
AcDbEntity
  8
0
100
AcDbLine
 10
236.5759
 20
12.463282521724
 30
0.0
 11
234.2321
 21
12.463282521724
 31
0.0
  0
LINE
  5
1A04
330
1D
100
AcDbEntity
  8
0
100
AcDbLine
 10
239.0495
 20
12.463282521724
 30
0.0
 11
236.5759
 21
12.463282521724
 31
0.0
  0
LINE
  5
1A05
330
1D
100
AcDbEntity
  8
0
100
AcDbLine
 10
238.2259
 20
13.463282521724
 30
0.0
 11
237.0483
 21
13.463282521724
 31
0.0
  0
LINE
  5
1A06
330
1D
100
AcDbEntity
  8
0
100
AcDbLine
 10
239.5097
 20
13.463282521724
 30
0.0
 11
238.2259
 21
13.463282521724
 31
0.0
  0
LINE
  5
1A07
330
1D
100
AcDbEntity
  8
0
100
AcDbLine
 10
240.8891
 20
13.463282521724
 30
0.0
 11
239.5097
 21
13.463282521724
 31
0.0
  0
LINE
  5
1A08
330
1D
100
AcDbEntity
  8
0
100
AcDbLine
 10
242.3504
 20
13.463282521724
 30
0.0
 11
240.8891
 21
13.463282521724
 31
0.0
  0
LINE
  5
1A09
330
1D
100
AcDbEntity
  8
0
100
AcDbLine
 10
243.881
 20
13.463282521724
 30
0.0
 11
242.3504
 21
13.463282521724
 31
0.0
  0
LINE
  5
1A0A
330
1D
100
AcDbEntity
  8
0
100
AcDbLine
 10
237.0483
 20
13.463282521724
 30
0.0
 11
235.9886
 21
13.463282521724
 31
0.0
  0
LINE
  5
1A0B
330
1D
100
AcDbEntity
  8
0
100
AcDbLine
 10
235.9886
 20
13.463282521724
 30
0.0
 11
235.0552
 21
13.463282521724
 31
0.0
  0
LINE
  5
1A0C
330
1D
100
AcDbEntity
  8
0
100
AcDbLine
 10
235.0552
 20
13.463282521724
 30
0.0
 11
234.2576
 21
13.463282521724
 31
0.0
  0
LINE
  5
1A0D
330
1D
100
AcDbEntity
  8
0
100
AcDbLine
 10
258.392
 20
64.017982521724
 30
0.0
 11
254.196
 21
64.149082521724
 31
0.0
  0
LINE
  5
1A0E
330
1D
100
AcDbEntity
  8
0
100
AcDbLine
 10
270.851
 20
62.255882521724
 30
0.0
 11
270.558
 21
62.637082521724
 31
0.0
  0
LINE
  5
1A0F
330
1D
100
AcDbEntity
  8
0
100
AcDbLine
 10
270.558
 20
62.637082521724
 30
0.0
 11
270.121
 21
62.837482521724
 31
0.0
  0
LINE
  5
1A10
330
1D
100
AcDbEntity
  8
0
100
AcDbLine
 10
267.764
 20
63.231582521724
 30
0.0
 11
266.746835426936
 21
63.363363472591
 31
0.0
  0
LINE
  5
1A11
330
1D
100
AcDbEntity
  8
0
100
AcDbLine
 10
267.764
 20
63.231582521724
 30
0.0
 11
266.746835426936
 21
63.363363472591
 31
0.0
  0
LINE
  5
1A12
330
1D
100
AcDbEntity
  8
0
100
AcDbLine
 10
265.822
 20
63.483182521724
 30
0.0
 11
263.349
 21
63.724482521724
 31
0.0
  0
LINE
  5
1A13
330
1D
100
AcDbEntity
  8
0
100
AcDbLine
 10
263.349
 20
63.724482521724
 30
0.0
 11
261.698
 21
63.845482521724
 31
0.0
  0
LINE
  5
1A14
330
1D
100
AcDbEntity
  8
0
100
AcDbLine
 10
270.932
 20
61.781982521724
 30
0.0
 11
270.851
 21
62.255882521724
 31
0.0
  0
LINE
  5
1A15
330
1D
100
AcDbEntity
  8
0
100
AcDbLine
 10
261.698
 20
63.845482521724
 30
0.0
 11
258.392
 21
64.017982521724
 31
0.0
  0
LINE
  5
1A16
330
1D
100
AcDbEntity
  8
0
100
AcDbLine
 10
258.392
 20
64.017982521724
 30
0.0
 11
258.314
 21
64.018982521724
 31
0.0
  0
LINE
  5
1A17
330
1D
100
AcDbEntity
  8
0
100
AcDbLine
 10
258.392
 20
64.017982521724
 30
0.0
 11
258.077228784578
 21
64.021512125426
 31
0.0
  0
LINE
  5
1A18
330
1D
100
AcDbEntity
  8
0
100
AcDbLine
 10
258.314
 20
64.018982521724
 30
0.0
 11
258.072
 21
64.021782521724
 31
0.0
  0
LINE
  5
1A19
330
1D
100
AcDbEntity
  8
0
100
AcDbLine
 10
258.072
 20
64.021782521724
 30
0.0
 11
257.848
 21
64.024082521724
 31
0.0
  0
LINE
  5
1A1A
330
1D
100
AcDbEntity
  8
0
100
AcDbLine
 10
235.983135780478
 20
63.662771028421
 30
0.0
 11
234.1785
 21
63.483182521724
 31
0.0
  0
LINE
  5
1A1B
330
1D
100
AcDbEntity
  8
0
100
AcDbLine
 10
241.928
 20
64.021782521724
 30
0.0
 11
241.6869
 21
64.018982521724
 31
0.0
  0
LINE
  5
1A1C
330
1D
100
AcDbEntity
  8
0
100
AcDbLine
 10
241.6869
 20
64.018982521724
 30
0.0
 11
241.6083
 21
64.017982521724
 31
0.0
  0
LINE
  5
1A1D
330
1D
100
AcDbEntity
  8
0
100
AcDbLine
 10
241.6083
 20
64.017982521724
 30
0.0
 11
238.3023
 21
63.845482521724
 31
0.0
  0
LINE
  5
1A1E
330
1D
100
AcDbEntity
  8
0
100
AcDbLine
 10
238.3023
 20
63.845482521724
 30
0.0
 11
236.6513
 21
63.724482521724
 31
0.0
  0
LINE
  5
1A1F
330
1D
100
AcDbEntity
  8
0
100
AcDbLine
 10
236.6513
 20
63.724482521724
 30
0.0
 11
236.001037335649
 21
63.664496285058
 31
0.0
  0
LINE
  5
1A20
330
1D
100
AcDbEntity
  8
0
100
AcDbLine
 10
254.196
 20
64.149082521724
 30
0.0
 11
250.0
 21
64.192782521724
 31
0.0
  0
LINE
  5
1A21
330
1D
100
AcDbEntity
  8
0
100
AcDbLine
 10
250.0
 20
64.192782521724
 30
0.0
 11
245.8045
 21
64.149082521724
 31
0.0
  0
LINE
  5
1A22
330
1D
100
AcDbEntity
  8
0
100
AcDbLine
 10
232.5681
 20
13.926582521724
 30
0.0
 11
229.068
 21
61.781982521724
 31
0.0
  0
LINE
  5
1A23
330
1D
100
AcDbEntity
  8
0
100
AcDbLine
 10
222.425
 20
2.663262521724
 30
0.0
 11
221.4266
 21
2.663262521724
 31
0.0
  0
LINE
  5
1A24
330
1D
100
AcDbEntity
  8
0
100
AcDbLine
 10
223.013
 20
2.663262521724
 30
0.0
 11
221.8898
 21
2.663262521724
 31
0.0
  0
LINE
  5
1A25
330
1D
100
AcDbEntity
  8
0
100
AcDbLine
 10
222.4891
 20
12.463282521724
 30
0.0
 11
222.1106
 21
12.463282521724
 31
0.0
  0
LINE
  5
1A26
330
1D
100
AcDbEntity
  8
0
100
AcDbLine
 10
228.5839
 20
2.663262521724
 30
0.0
 11
226.9959
 21
2.663262521724
 31
0.0
  0
LINE
  5
1A27
330
1D
100
AcDbEntity
  8
0
100
AcDbLine
 10
228.7907
 20
2.663262521724
 30
0.0
 11
226.8705
 21
2.663262521724
 31
0.0
  0
LINE
  5
1A28
330
1D
100
AcDbEntity
  8
0
100
AcDbLine
 10
228.9024
 20
2.663262521724
 30
0.0
 11
227.275
 21
2.663262521724
 31
0.0
  0
LINE
  5
1A29
330
1D
100
AcDbEntity
  8
0
100
AcDbLine
 10
229.8158
 20
2.663262521724
 30
0.0
 11
227.7971
 21
2.663262521724
 31
0.0
  0
LINE
  5
1A2B
330
1D
100
AcDbEntity
  8
0
100
AcDbLine
 10
232.3612
 20
2.663262521724
 30
0.0
 11
230.3778
 21
2.663262521724
 31
0.0
  0
LINE
  5
1A2C
330
1D
100
AcDbEntity
  8
0
100
AcDbLine
 10
232.0166
 20
2.663262521724
 30
0.0
 11
229.8158
 21
2.663262521724
 31
0.0
  0
LINE
  5
1A2E
330
1D
100
AcDbEntity
  8
0
100
AcDbLine
 10
230.3778
 20
2.663262521724
 30
0.0
 11
228.5839
 21
2.663262521724
 31
0.0
  0
LINE
  5
1A2F
330
1D
100
AcDbEntity
  8
0
100
AcDbLine
 10
230.7329
 20
2.663262521724
 30
0.0
 11
228.9024
 21
2.663262521724
 31
0.0
  0
LINE
  5
1A30
330
1D
100
AcDbEntity
  8
0
100
AcDbLine
 10
230.9041
 20
2.663262521724
 30
0.0
 11
228.7907
 21
2.663262521724
 31
0.0
  0
LINE
  5
1A31
330
1D
100
AcDbEntity
  8
0
100
AcDbLine
 10
232.7493
 20
2.663262521724
 30
0.0
 11
230.7329
 21
2.663262521724
 31
0.0
  0
LINE
  5
1A32
330
1D
100
AcDbEntity
  8
0
100
AcDbLine
 10
233.1896
 20
2.663262521724
 30
0.0
 11
230.9041
 21
2.663262521724
 31
0.0
  0
LINE
  5
1A33
330
1D
100
AcDbEntity
  8
0
100
AcDbLine
 10
226.9959
 20
2.663262521724
 30
0.0
 11
225.6303
 21
2.663262521724
 31
0.0
  0
LINE
  5
1A34
330
1D
100
AcDbEntity
  8
0
100
AcDbLine
 10
226.8705
 20
2.663262521724
 30
0.0
 11
225.1592
 21
2.663262521724
 31
0.0
  0
LINE
  5
1A35
330
1D
100
AcDbEntity
  8
0
100
AcDbLine
 10
227.275
 20
2.663262521724
 30
0.0
 11
225.8664
 21
2.663262521724
 31
0.0
  0
LINE
  5
1A36
330
1D
100
AcDbEntity
  8
0
100
AcDbLine
 10
224.6903
 20
2.663262521724
 30
0.0
 11
223.7585
 21
2.663262521724
 31
0.0
  0
LINE
  5
1A37
330
1D
100
AcDbEntity
  8
0
100
AcDbLine
 10
225.1592
 20
2.663262521724
 30
0.0
 11
223.6721
 21
2.663262521724
 31
0.0
  0
LINE
  5
1A38
330
1D
100
AcDbEntity
  8
0
100
AcDbLine
 10
225.8664
 20
2.663262521724
 30
0.0
 11
224.6903
 21
2.663262521724
 31
0.0
  0
LINE
  5
1A39
330
1D
100
AcDbEntity
  8
0
100
AcDbLine
 10
224.4981
 20
2.663262521724
 30
0.0
 11
223.6121
 21
2.663262521724
 31
0.0
  0
LINE
  5
1A3A
330
1D
100
AcDbEntity
  8
0
100
AcDbLine
 10
223.7585
 20
2.663262521724
 30
0.0
 11
223.0785
 21
2.663262521724
 31
0.0
  0
LINE
  5
1A3B
330
1D
100
AcDbEntity
  8
0
100
AcDbLine
 10
223.6721
 20
2.663262521724
 30
0.0
 11
222.425
 21
2.663262521724
 31
0.0
  0
LINE
  5
1A3C
330
1D
100
AcDbEntity
  8
0
100
AcDbLine
 10
223.0785
 20
2.663262521724
 30
0.0
 11
222.6584
 21
2.663262521724
 31
0.0
  0
LINE
  5
1A3D
330
1D
100
AcDbEntity
  8
0
100
AcDbLine
 10
223.6121
 20
2.663262521724
 30
0.0
 11
222.9805
 21
2.663262521724
 31
0.0
  0
LINE
  5
1A3E
330
1D
100
AcDbEntity
  8
0
100
AcDbLine
 10
224.3803
 20
2.663262521724
 30
0.0
 11
223.013
 21
2.663262521724
 31
0.0
  0
LINE
  5
1A3F
330
1D
100
AcDbEntity
  8
0
100
AcDbLine
 10
225.6303
 20
2.663262521724
 30
0.0
 11
224.4981
 21
2.663262521724
 31
0.0
  0
LINE
  5
1A40
330
1D
100
AcDbEntity
  8
0
100
AcDbLine
 10
225.9799
 20
2.663262521724
 30
0.0
 11
224.3803
 21
2.663262521724
 31
0.0
  0
LINE
  5
1A41
330
1D
100
AcDbEntity
  8
0
100
AcDbLine
 10
222.6584
 20
2.663262521724
 30
0.0
 11
222.5009
 21
2.663262521724
 31
0.0
  0
LINE
  5
1A42
330
1D
100
AcDbEntity
  8
0
100
AcDbLine
 10
222.6089
 20
2.663262521724
 30
0.0
 11
222.5009
 21
2.663262521724
 31
0.0
  0
LINE
  5
1A43
330
1D
100
AcDbEntity
  8
0
100
AcDbLine
 10
222.9805
 20
2.663262521724
 30
0.0
 11
222.6089
 21
2.663262521724
 31
0.0
  0
LINE
  5
1A44
330
1D
100
AcDbEntity
  8
0
100
AcDbLine
 10
227.7971
 20
2.663262521724
 30
0.0
 11
225.9799
 21
2.663262521724
 31
0.0
  0
LINE
  5
1A45
330
1D
100
AcDbEntity
  8
0
100
AcDbLine
 10
232.505
 20
12.463282521724
 30
0.0
 11
232.505
 21
13.463282521724
 31
0.0
  0
LINE
  5
1A46
330
1D
100
AcDbEntity
  8
0
100
AcDbLine
 10
232.0403
 20
12.463282521724
 30
0.0
 11
230.0212
 21
12.463282521724
 31
0.0
  0
LINE
  5
1A47
330
1D
100
AcDbEntity
  8
0
100
AcDbLine
 10
225.1872
 20
12.463282521724
 30
0.0
 11
224.0348
 21
12.463282521724
 31
0.0
  0
LINE
  5
1A48
330
1D
100
AcDbEntity
  8
0
100
AcDbLine
 10
226.5777
 20
12.463282521724
 30
0.0
 11
225.1872
 21
12.463282521724
 31
0.0
  0
LINE
  5
1A49
330
1D
100
AcDbEntity
  8
0
100
AcDbLine
 10
223.1324
 20
12.463282521724
 30
0.0
 11
222.4891
 21
12.463282521724
 31
0.0
  0
LINE
  5
1A4A
330
1D
100
AcDbEntity
  8
0
100
AcDbLine
 10
233.6022
 20
13.463282521724
 30
0.0
 11
233.0956
 21
13.463282521724
 31
0.0
  0
LINE
  5
1A4B
330
1D
100
AcDbEntity
  8
0
100
AcDbLine
 10
233.0956
 20
13.463282521724
 30
0.0
 11
232.7417
 21
13.463282521724
 31
0.0
  0
LINE
  5
1A4C
330
1D
100
AcDbEntity
  8
0
100
AcDbLine
 10
233.0663
 20
13.463282521724
 30
0.0
 11
232.827
 21
13.524282521724
 31
0.0
  0
LINE
  5
1A4D
330
1D
100
AcDbEntity
  8
0
100
AcDbLine
 10
232.7417
 20
13.463282521724
 30
0.0
 11
232.5445
 21
13.463282521724
 31
0.0
  0
LINE
  5
1A4E
330
1D
100
AcDbEntity
  8
0
100
AcDbLine
 10
232.827
 20
13.524282521724
 30
0.0
 11
232.646
 21
13.692482521724
 31
0.0
  0
LINE
  5
1A4F
330
1D
100
AcDbEntity
  8
0
100
AcDbLine
 10
232.646
 20
13.692482521724
 30
0.0
 11
232.6022
 21
13.926582521724
 31
0.0
  0
LINE
  5
1A50
330
1D
100
AcDbEntity
  8
0
100
AcDbLine
 10
232.6464
 20
13.692482521724
 30
0.0
 11
232.5681
 21
13.926582521724
 31
0.0
  0
LINE
  5
1A51
330
1D
100
AcDbEntity
  8
0
100
AcDbLine
 10
232.6464
 20
13.692482521724
 30
0.0
 11
232.6022
 21
13.926582521724
 31
0.0
  0
LINE
  5
1A52
330
1D
100
AcDbEntity
  8
0
100
AcDbLine
 10
232.505
 20
13.463282521724
 30
0.0
 11
232.505
 21
12.463282521724
 31
0.0
  0
LINE
  5
1A53
330
1D
100
AcDbEntity
  8
0
100
AcDbLine
 10
224.0348
 20
12.463282521724
 30
0.0
 11
223.1324
 21
12.463282521724
 31
0.0
  0
LINE
  5
1A54
330
1D
100
AcDbEntity
  8
0
100
AcDbLine
 10
221.8898
 20
2.663262521724
 30
0.0
 11
221.021
 21
2.663262521724
 31
0.0
  0
LINE
  5
1A55
330
1D
100
AcDbEntity
  8
0
100
AcDbLine
 10
221.021
 20
2.663262521724
 30
0.0
 11
220.4143
 21
2.663262521724
 31
0.0
  0
LINE
  5
1A56
330
1D
100
AcDbEntity
  8
0
100
AcDbLine
 10
220.4143
 20
2.663262521724
 30
0.0
 11
220.0757
 21
2.663262521724
 31
0.0
  0
LINE
  5
1A57
330
1D
100
AcDbEntity
  8
0
100
AcDbLine
 10
221.4266
 20
2.663262521724
 30
0.0
 11
220.6869
 21
2.663262521724
 31
0.0
  0
LINE
  5
1A58
330
1D
100
AcDbEntity
  8
0
100
AcDbLine
 10
220.6869
 20
2.663262521724
 30
0.0
 11
220.2132
 21
2.663262521724
 31
0.0
  0
LINE
  5
1A59
330
1D
100
AcDbEntity
  8
0
100
AcDbLine
 10
220.0086
 20
2.663262521724
 30
0.0
 11
220.0086
 21
10.463262521724
 31
0.0
  0
LINE
  5
1A5A
330
1D
100
AcDbEntity
  8
0
100
AcDbLine
 10
220.2132
 20
2.663262521724
 30
0.0
 11
220.0086
 21
2.663262521724
 31
0.0
  0
LINE
  5
1A5B
330
1D
100
AcDbEntity
  8
0
100
AcDbLine
 10
220.0757
 20
2.663262521724
 30
0.0
 11
220.0086
 21
2.663262521724
 31
0.0
  0
LINE
  5
1A5C
330
1D
100
AcDbEntity
  8
0
100
AcDbLine
 10
220.0086
 20
10.463262521724
 30
0.0
 11
220.0086
 21
2.663262521724
 31
0.0
  0
LINE
  5
1A5D
330
1D
100
AcDbEntity
  8
0
100
AcDbLine
 10
220.1066
 20
11.081282521724
 30
0.0
 11
220.0086
 21
10.463262521724
 31
0.0
  0
LINE
  5
1A5E
330
1D
100
AcDbEntity
  8
0
100
AcDbLine
 10
220.3902
 20
11.638842521724
 30
0.0
 11
220.1066
 21
11.081282521724
 31
0.0
  0
LINE
  5
1A5F
330
1D
100
AcDbEntity
  8
0
100
AcDbLine
 10
220.8328
 20
12.081292521724
 30
0.0
 11
220.3902
 21
11.638842521724
 31
0.0
  0
LINE
  5
1A60
330
1D
100
AcDbEntity
  8
0
100
AcDbLine
 10
221.3905
 20
12.365382521724
 30
0.0
 11
220.8328
 21
12.081292521724
 31
0.0
  0
LINE
  5
1A61
330
1D
100
AcDbEntity
  8
0
100
AcDbLine
 10
222.1106
 20
12.463282521724
 30
0.0
 11
222.0015
 21
12.463282521724
 31
0.0
  0
LINE
  5
1A62
330
1D
100
AcDbEntity
  8
0
100
AcDbLine
 10
222.0015
 20
12.463282521724
 30
0.0
 11
221.3905
 21
12.365382521724
 31
0.0
  0
LINE
  5
1A63
330
1D
100
AcDbEntity
  8
0
100
AcDbLine
 10
229.4423
 20
62.637082521724
 30
0.0
 11
229.1493
 21
62.255882521724
 31
0.0
  0
LINE
  5
1A64
330
1D
100
AcDbEntity
  8
0
100
AcDbLine
 10
229.1493
 20
62.255882521724
 30
0.0
 11
229.068
 21
61.781982521724
 31
0.0
  0
LINE
  5
1A65
330
1D
100
AcDbEntity
  8
0
100
AcDbLine
 10
229.8793
 20
62.837482521724
 30
0.0
 11
229.4423
 21
62.637082521724
 31
0.0
  0
ENDSEC
  0
SECTION
  2
OBJECTS
  0
DICTIONARY
  5
C
330
0
100
AcDbDictionary
281
     1
  3
ACAD_GROUP
350
D
  3
ACAD_LAYOUT
350
1A
  3
ACAD_MLEADERSTYLE
350
1A68
  3
ACAD_MLINESTYLE
350
17
  3
ACAD_PLOTSETTINGS
350
19
  3
ACAD_PLOTSTYLENAME
350
E
  3
ACAD_SCALELIST
350
B78
  3
AcDbVariableDictionary
350
1A66
  3
DWGPROPS
350
1A6D
  0
DICTIONARY
  5
D
102
{ACAD_REACTORS
330
C
102
}
330
C
100
AcDbDictionary
281
     1
  0
DICTIONARY
  5
1A
102
{ACAD_REACTORS
330
C
102
}
330
C
100
AcDbDictionary
281
     1
  3
Layout1
350
1C
  3
Model
350
1E
  0
DICTIONARY
  5
1A68
102
{ACAD_REACTORS
330
C
102
}
330
C
100
AcDbDictionary
281
     1
  0
DICTIONARY
  5
17
102
{ACAD_REACTORS
330
C
102
}
330
C
100
AcDbDictionary
281
     1
  3
Standard
350
18
  0
DICTIONARY
  5
19
102
{ACAD_REACTORS
330
C
102
}
330
C
100
AcDbDictionary
281
     1
  0
ACDBDICTIONARYWDFLT
  5
E
102
{ACAD_REACTORS
330
C
102
}
330
C
100
AcDbDictionary
281
     1
  3
Normal
350
F
100
AcDbDictionaryWithDefault
340
F
  0
DICTIONARY
  5
B78
102
{ACAD_REACTORS
330
C
102
}
330
C
100
AcDbDictionary
281
     1
  3
A0
350
B79
  3
A1
350
B7A
  3
A2
350
B7B
  3
A3
350
B7C
  3
A4
350
B7D
  3
A5
350
B7E
  3
A6
350
B7F
  3
A7
350
B80
  3
A8
350
B81
  3
A9
350
B82
  3
B0
350
B83
  3
B1
350
B84
  3
B2
350
B85
  3
B3
350
B86
  3
B4
350
B87
  3
B5
350
B88
  3
B6
350
B89
  3
B7
350
B8A
  3
B8
350
B8B
  3
B9
350
B8C
  3
C0
350
B8D
  3
C1
350
B8E
  3
C2
350
B8F
  3
C3
350
B90
  3
C4
350
B91
  3
C5
350
B92
  3
C6
350
B93
  3
C7
350
B94
  3
C8
350
B95
  3
C9
350
B96
  3
D0
350
B97
  3
D1
350
B98
  3
D2
350
B99
  0
DICTIONARY
  5
1A66
102
{ACAD_REACTORS
330
C
102
}
330
C
100
AcDbDictionary
281
     1
  3
CANNOSCALE
350
1A69
  0
XRECORD
  5
1A6D
102
{ACAD_REACTORS
330
C
102
}
330
C
100
AcDbXrecord
280
     1
  1
DWGPROPS COOKIE
  2

  3

  4

  6

  7

  8
MARTIN
  9

300
=
301
=
302
=
303
=
304
=
305
=
306
=
307
=
308
=
309
=
 40
0.0
 41
2456646.529588206
 42
2456646.54806206
  1

 90
        0
  0
LAYOUT
  5
1C
102
{ACAD_REACTORS
330
1A
102
}
330
1A
100
AcDbPlotSettings
  1

  2
none_device
  4

  6

 40
0.0
 41
0.0
 42
0.0
 43
0.0
 44
0.0
 45
0.0
 46
0.0
 47
0.0
 48
0.0
 49
0.0
140
0.0
141
0.0
142
1.0
143
1.0
 70
   688
 72
     0
 73
     0
 74
     5
  7

 75
    16
147
1.0
148
0.0
149
0.0
100
AcDbLayout
  1
Layout1
 70
     1
 71
     1
 10
0.0
 20
0.0
 11
12.0
 21
9.0
 12
0.0
 22
0.0
 32
0.0
 14
1.000000000000E+20
 24
1.000000000000E+20
 34
1.000000000000E+20
 15
-1.000000000000E+20
 25
-1.000000000000E+20
 35
-1.000000000000E+20
146
0.0
 13
0.0
 23
0.0
 33
0.0
 16
1.0
 26
0.0
 36
0.0
 17
0.0
 27
1.0
 37
0.0
 76
     0
330
1B
  0
LAYOUT
  5
1E
102
{ACAD_REACTORS
330
1A
102
}
330
1A
100
AcDbPlotSettings
  1

  2
none_device
  4

  6

 40
0.0
 41
0.0
 42
0.0
 43
0.0
 44
0.0
 45
0.0
 46
0.0
 47
0.0
 48
0.0
 49
0.0
140
0.0
141
0.0
142
1.0
143
1.0
 70
  1712
 72
     0
 73
     0
 74
     0
  7

 75
     0
147
1.0
148
0.0
149
0.0
100
AcDbLayout
  1
Model
 70
     1
 71
     0
 10
0.0
 20
0.0
 11
12.0
 21
9.0
 12
0.0
 22
0.0
 32
0.0
 14
0.009
 24
2.663262521724
 34
0.0
 15
279.991
 25
252.855582521724
 35
0.0
146
0.0
 13
0.0
 23
0.0
 33
0.0
 16
1.0
 26
0.0
 36
0.0
 17
0.0
 27
1.0
 37
0.0
 76
     0
330
1D
331
B73
  0
MLINESTYLE
  5
18
102
{ACAD_REACTORS
330
17
102
}
330
17
100
AcDbMlineStyle
  2
Standard
 70
     0
  3

 62
   256
 51
90.0
 52
90.0
 71
     2
 49
0.5
 62
   256
  6
BYLAYER
 49
-0.5
 62
   256
  6
BYLAYER
  0
ACDBPLACEHOLDER
  5
F
102
{ACAD_REACTORS
330
E
102
}
330
E
  0
SCALE
  5
B79
102
{ACAD_REACTORS
330
B78
102
}
330
B78
100
AcDbScale
 70
     0
300
1:1
140
1.0
141
1.0
290
     1
  0
SCALE
  5
B7A
102
{ACAD_REACTORS
330
B78
102
}
330
B78
100
AcDbScale
 70
     0
300
1:2
140
1.0
141
2.0
290
     0
  0
SCALE
  5
B7B
102
{ACAD_REACTORS
330
B78
102
}
330
B78
100
AcDbScale
 70
     0
300
1:4
140
1.0
141
4.0
290
     0
  0
SCALE
  5
B7C
102
{ACAD_REACTORS
330
B78
102
}
330
B78
100
AcDbScale
 70
     0
300
1:5
140
1.0
141
5.0
290
     0
  0
SCALE
  5
B7D
102
{ACAD_REACTORS
330
B78
102
}
330
B78
100
AcDbScale
 70
     0
300
1:8
140
1.0
141
8.0
290
     0
  0
SCALE
  5
B7E
102
{ACAD_REACTORS
330
B78
102
}
330
B78
100
AcDbScale
 70
     0
300
1:10
140
1.0
141
10.0
290
     0
  0
SCALE
  5
B7F
102
{ACAD_REACTORS
330
B78
102
}
330
B78
100
AcDbScale
 70
     0
300
1:16
140
1.0
141
16.0
290
     0
  0
SCALE
  5
B80
102
{ACAD_REACTORS
330
B78
102
}
330
B78
100
AcDbScale
 70
     0
300
1:20
140
1.0
141
20.0
290
     0
  0
SCALE
  5
B81
102
{ACAD_REACTORS
330
B78
102
}
330
B78
100
AcDbScale
 70
     0
300
1:30
140
1.0
141
30.0
290
     0
  0
SCALE
  5
B82
102
{ACAD_REACTORS
330
B78
102
}
330
B78
100
AcDbScale
 70
     0
300
1:40
140
1.0
141
40.0
290
     0
  0
SCALE
  5
B83
102
{ACAD_REACTORS
330
B78
102
}
330
B78
100
AcDbScale
 70
     0
300
1:50
140
1.0
141
50.0
290
     0
  0
SCALE
  5
B84
102
{ACAD_REACTORS
330
B78
102
}
330
B78
100
AcDbScale
 70
     0
300
1:100
140
1.0
141
100.0
290
     0
  0
SCALE
  5
B85
102
{ACAD_REACTORS
330
B78
102
}
330
B78
100
AcDbScale
 70
     0
300
2:1
140
2.0
141
1.0
290
     0
  0
SCALE
  5
B86
102
{ACAD_REACTORS
330
B78
102
}
330
B78
100
AcDbScale
 70
     0
300
4:1
140
4.0
141
1.0
290
     0
  0
SCALE
  5
B87
102
{ACAD_REACTORS
330
B78
102
}
330
B78
100
AcDbScale
 70
     0
300
8:1
140
8.0
141
1.0
290
     0
  0
SCALE
  5
B88
102
{ACAD_REACTORS
330
B78
102
}
330
B78
100
AcDbScale
 70
     0
300
10:1
140
10.0
141
1.0
290
     0
  0
SCALE
  5
B89
102
{ACAD_REACTORS
330
B78
102
}
330
B78
100
AcDbScale
 70
     0
300
100:1
140
100.0
141
1.0
290
     0
  0
SCALE
  5
B8A
102
{ACAD_REACTORS
330
B78
102
}
330
B78
100
AcDbScale
 70
     0
300
1/128" = 1'-0"
140
0.0078125
141
12.0
290
     0
  0
SCALE
  5
B8B
102
{ACAD_REACTORS
330
B78
102
}
330
B78
100
AcDbScale
 70
     0
300
1/64" = 1'-0"
140
0.015625
141
12.0
290
     0
  0
SCALE
  5
B8C
102
{ACAD_REACTORS
330
B78
102
}
330
B78
100
AcDbScale
 70
     0
300
1/32" = 1'-0"
140
0.03125
141
12.0
290
     0
  0
SCALE
  5
B8D
102
{ACAD_REACTORS
330
B78
102
}
330
B78
100
AcDbScale
 70
     0
300
1/16" = 1'-0"
140
0.0625
141
12.0
290
     0
  0
SCALE
  5
B8E
102
{ACAD_REACTORS
330
B78
102
}
330
B78
100
AcDbScale
 70
     0
300
3/32" = 1'-0"
140
0.09375
141
12.0
290
     0
  0
SCALE
  5
B8F
102
{ACAD_REACTORS
330
B78
102
}
330
B78
100
AcDbScale
 70
     0
300
1/8" = 1'-0"
140
0.125
141
12.0
290
     0
  0
SCALE
  5
B90
102
{ACAD_REACTORS
330
B78
102
}
330
B78
100
AcDbScale
 70
     0
300
3/16" = 1'-0"
140
0.1875
141
12.0
290
     0
  0
SCALE
  5
B91
102
{ACAD_REACTORS
330
B78
102
}
330
B78
100
AcDbScale
 70
     0
300
1/4" = 1'-0"
140
0.25
141
12.0
290
     0
  0
SCALE
  5
B92
102
{ACAD_REACTORS
330
B78
102
}
330
B78
100
AcDbScale
 70
     0
300
3/8" = 1'-0"
140
0.375
141
12.0
290
     0
  0
SCALE
  5
B93
102
{ACAD_REACTORS
330
B78
102
}
330
B78
100
AcDbScale
 70
     0
300
1/2" = 1'-0"
140
0.5
141
12.0
290
     0
  0
SCALE
  5
B94
102
{ACAD_REACTORS
330
B78
102
}
330
B78
100
AcDbScale
 70
     0
300
3/4" = 1'-0"
140
0.75
141
12.0
290
     0
  0
SCALE
  5
B95
102
{ACAD_REACTORS
330
B78
102
}
330
B78
100
AcDbScale
 70
     0
300
1" = 1'-0"
140
1.0
141
12.0
290
     0
  0
SCALE
  5
B96
102
{ACAD_REACTORS
330
B78
102
}
330
B78
100
AcDbScale
 70
     0
300
1-1/2" = 1'-0"
140
1.5
141
12.0
290
     0
  0
SCALE
  5
B97
102
{ACAD_REACTORS
330
B78
102
}
330
B78
100
AcDbScale
 70
     0
300
3" = 1'-0"
140
3.0
141
12.0
290
     0
  0
SCALE
  5
B98
102
{ACAD_REACTORS
330
B78
102
}
330
B78
100
AcDbScale
 70
     0
300
6" = 1'-0"
140
6.0
141
12.0
290
     0
  0
SCALE
  5
B99
102
{ACAD_REACTORS
330
B78
102
}
330
B78
100
AcDbScale
 70
     0
300
1'-0" = 1'-0"
140
12.0
141
12.0
290
     0
  0
DICTIONARYVAR
  5
1A69
102
{ACAD_REACTORS
330
1A66
102
}
330
1A66
100
DictionaryVariables
280
     0
  1
1:1
  0
ENDSEC
  0
SECTION
  2
THUMBNAILIMAGE
 90
    16364
310
28000000B40000005500000001000800000000000000000000000000000000000000000000000000FFFFFF000000FF0000FFFF0000FF0000FFFF0000FF000000FF00FF000000000080808000C0C0C0000000FF007F7FFF000000A5005252A50000007F003F3F7F0000004C0026264C000000260013132600003FFF007F9FFF
310
000029A5005267A500001F7F003F4F7F0000134C00262F4C000009260013172600007FFF007FBFFF000052A500527CA500003F7F003F5F7F0000264C0026394C0000132600131C260000BFFF007FDFFF00007CA5005291A500005F7F003F6F7F0000394C0026424C00001C26001321260000FFFF007FFFFF0000A5A50052A5
310
A500007F7F003F7F7F00004C4C00264C4C00002626001326260000FFBF007FFFDF0000A57C0052A59100007F5F003F7F6F00004C3900264C420000261C001326210000FF7F007FFFBF0000A5520052A57C00007F3F003F7F5F00004C2600264C39000026130013261C0000FF3F007FFF9F0000A5290052A56700007F1F003F
310
7F4F00004C1300264C2F00002609001326170000FF00007FFF7F0000A5000052A55200007F00003F7F3F00004C0000264C260000260000132613003FFF00009FFF7F0029A5000067A552001F7F00004F7F3F00134C00002F4C260009260000172613007FFF0000BFFF7F0052A500007CA552003F7F00005F7F3F00264C0000
310
394C2600132600001C261300BFFF0000DFFF7F007CA5000091A552005F7F00006F7F3F00394C0000424C26001C26000021261300FFFF0000FFFF7F00A5A50000A5A552007F7F00007F7F3F004C4C00004C4C26002626000026261300FFBF0000FFDF7F00A57C0000A59152007F5F00007F6F3F004C3900004C422600261C00
310
0026211300FF7F0000FFBF7F00A5520000A57C52007F3F00007F5F3F004C2600004C39260026130000261C1300FF3F0000FF9F7F00A5290000A56752007F1F00007F4F3F004C1300004C2F26002609000026171300FF000000FF7F7F00A5000000A55252007F0000007F3F3F004C0000004C2626002600000026131300FF00
310
3F00FF7F9F00A5002900A55267007F001F007F3F4F004C0013004C262F002600090026131700FF007F00FF7FBF00A5005200A5527C007F003F007F3F5F004C0026004C2639002600130026131C00FF00BF00FF7FDF00A5007C00A55291007F005F007F3F6F004C0039004C26420026001C0026132100FF00FF00FF7FFF00A5
310
00A500A552A5007F007F007F3F7F004C004C004C264C002600260026132600BF00FF00DF7FFF007C00A5009152A5005F007F006F3F7F0039004C0042264C001C002600211326007F00FF00BF7FFF005200A5007C52A5003F007F005F3F7F0026004C0039264C00130026001C1326003F00FF009F7FFF002900A5006752A500
310
1F007F004F3F7F0013004C002F264C000900260017132600000000002D2D2D005B5B5B0089898900B7B7B700B3B3B30000000000000000000000000000000000000000000000000000000000000000000000000000000000000000000000000000000000000000000000000000000000000000000000000000000000000000
310
00000000000000000000070700000000000000000000000000000000000000000000000000000000000000000000000000000000000000000000000000000000000000000000000000000000000000000000000000000000000000000000000000000000000000000000000000000000000000000000000000000000000000
310
00000000000000000000000000000000000000000000000000000000000000000000000000000000000000000000000000000000000000000000000000000007070700000000000000000000000000000000000000000000000000000000000000000000000000000000000000000000000000000000000000000000000000
310
00000000000000000000000000000000000000000000000000000000000000000000000000000000000000000000000000000000000000000000000000000000000000000000000000000000000000000000000000000000000000000000000000000000000000000000000000000000000000000700070000000000000000
310
00000000000000000000000000000000000000000000000000000000000000000000000000000000000000000000000000000000000000000000000000000000000000000000000000000000000000000000000000000000000000000000000000000000000000000000000000000000000000000000000000000000000000
310
00000000000000000000000000000000000000000000000000000000000000000000000000000000000007000700000000000000000000000000000000000000000000000000000000000000000000000000000000000000000000000000000000000000000000000000000000000000000000000000000000000000000000
310
00000000000000000000000000000000000000000000000000000000000000000000000000000000000000000000000000000000000000000000000000000000000000000000000000000000000000000000000000000000000000000000000700070000000000000000000000000000000000000000000000000000000000
310
00000000000000000000000000000000000000000000000000000000000000000000000000000000000000000000000000000000000000000000000000000000000000000000000000000000000000000000000000000000000000000000000000000000000000000000000000000000000000000000000000000000000000
310
00000000000000000000000000000000000000000007000700000000000000000000000000000000000000000000000000000000000000000000000000000000000000000000000000000000000000000000000000000000000000000000000000000000000000000000000000000000000000000000000000000000000000
310
00000000000000000000000000000000000000000000000000000000000000000000000000000000000000000000000000000000000000000000000000000000000000000000000000000700070000000000000000000000000000000000000000000000000000000000000000000000000000000000000000000000000000
310
00000000000000000000000000000000000000000000000000000000000000000000000000000000000000000000000000000000000000000000000000000000000000000000000000000000000000000000000000000000000000000000000000000000000000000000000000000000000000000000000000000000000000
310
07000700000000000000000000000000000000000000000000000000000000000000000000000000000000000000000000000000000000000000000000000000000000000000000000000000000000000000000000000000000000000000000000000000000000000000000000000000000000000000000000000000000000
310
00000000000000000000000000000000000000000000000000000000000000000000000000000000000000000000000000000000000700070000000000000000000000000000000000000000000000000000000000000000000000000000000000000000000000000000000000000000000000000000000000000000000000
310
00000000000000000000000000000000000000000000000000000000000000000000000000000000000000000000000000000000000000000000000000000000000000000000000000000000000000000000000000000000000000000000000000000000000000000000070007000000000000000000000000000000000000
310
00000000000000000000000000000000000000000000000000000000000000000000000000000000000000000000000000000000000000000000000000000000000000000000000000000000000000000000000000000000000000000000000000000000000000000000000000000000000000000000000000000000000000
310
00000000000000000000000000000000000000000000000000000000000000000700070000000000000000000000000000000000000000000000000000000000000000000000000000000000000000000000000000000000000000000000000000000000000000000000000000000000000000000000000000000000000000
310
00000000000000000000000000000000000000000000000000000000000000000000000000000000000000000000000000000000000000000000000000000000000000000000000000000000000000000000000007070707070000000000000000000000000000000000000000000000000000000000000000000000000000
310
00000000000000000000000000000000000000000000000000000000000000000000000000000000000000000000000000000000000000000000000000000000000000000000000000000000000000000000000000000000000000000000000000000000000000000000000000000000000000000000000000000000000000
310
00000000000000000000070000000700000000000000000000000000000000000000000000000000000000000000000000000000000000000000000000000000000000000000000000000000000000000000000000000000000000000000000000000000000000000000000000000000000000000000000000000000000000
310
00000000000000000000000000000000000000000000000000000000000000000000000000000000000000000000000000000000000000000000000000000007000000070000000000000000000000000000000000000000000000000000000000000000000000000000000000000000000000000000000000000000000000
310
00000000000000000000000000000000000000000000000000000000000000000000000000000000000000000000000000000000000000000000000000000000000000000000000000000000000000000000000000000000000000000000000000000000000000000000000000000000000000000700000007000000000000
310
00000000000000000000000000000000000000000000000000000000000000000000000000000000000000000000000000000000000000000000000000000000000000000000000000000000000000000000000000000000000000000000000000000000000000000000000000000000000000000000000000000000000000
310
00000000000000000000000000000000000000000000000000000000000000000000000000000000000007000000070000000000000000000000000000000000000000000000000000000000000000000000000000000000000000000000000000000000000000000000000000000000000000000000000000000000000000
310
00000000000000000000000000000000000000000000000000000000000000000000000000000000000000000000000000000000000000000000000000000000000000000000000000000000000000000000000000000000000000000000000707070707000000000000000000000000000000000000000000000000000000
310
00000000000000000000000000000000000000000000000000000000000000000000000000000000000000000000000000000000000000000000000000000000000000000000000000000000000000000000000000000000000000000000000000000000000000000000000000000000000000000000000000000000000000
310
00000000000000000000000000000000000000000007070707070000000000000000000000000000000000000000000000000000000000000000000000000000000000000000000000000000000000000000000000000000000000000000000000000000000000000000000000000000000000000000000000000000000000
310
00000000000000000000000000000000000000000000000000000000000000000000000000000000000000000000000000000000000000000000000000000000000000000000000000000700000007000000000000000000000000000000000000000000000000000000000000000000000000000000000000000000000000
310
00000000000000000000000000000000000000000000000000000000000000000000000000000000000000000000000000000000000000000000000000000000000000000000000000000000000000000000000000000000000000000000000000000000000000000000000707070707000000000000000000000000000000
310
07000000070000000000000000000000000000000707070707000000000000000000000000000000000000000000000000000000000000000000000000000000000000000000000000000000000000000000000000000000000000000000000000000000000000000000000000000000000000000000000000000000000000
310
00000000000000000000000000000000000000000000000000000000000000000007000000070000000000000000000000000000070707070707070000000000000000000000000000070000000700000000000000000000000000000000000000000000000000000000000000000000000000000000000000000000000000
310
00000000000000000000000000000000000000000000000000000000000000000000000000000000000000000000000000000000000000000000000000000000000000000000000000000000000000000000000000000700000007000000000000000000000000000007000000000007000000000000000000000000000007
310
00000007000000000000000000000000000000000000000000000000000000000000000000000000000000000000000000000000000000000000000000000000000000000000000000000000000000000000000000000000000000000000000000000000000000000000000000000000000000000000000000000000000000
310
00000000000000000000000007000000070000000000000000000000000000070000000000070000000000000000000000000000070000000700000000000000000000000000000000000000000000000000000000000000000000000000000000000000000000000000000000000000000000000000000000000000000000
310
00000000000000000000000000000000000000000000000000000000000000000000000000000000000000000000000000000000000000000000000000000000000707070707070000000000000000000000000007000000000007000000000000000000000000000707070707070000000000000000000000000000000000
310
00000000000000000000000000000000000000000000000000000000000000000000000000000000000000000000000000000000000000000000000000000000000000000000000000000000000000000000000000000000000000000000000000000000000000000000000000000000000000000000070000000007000000
310
00000000000000000000070000000000070000000000000000000000000007000000000700000000000000000000000000000000000000000000000000000000000000000000000000000000000000000000000000000000000000000000000000000000000000000000000000000000000000000000000000000000000000
310
00000000000000000000000000000000000000000000000000000000000000000000000000000000000000000700000000070707070707070707070707070707000000000007070707070707070707070707070700000000070000000000000000000000000000000000000000000000000000000000000000000000000000
310
00000000000000000000000000000000000000000000000000000000000000000000000000000000000000000000000000000000000000000000000000000000000000000000000000000000000000000000000000000000000000000000000000070000000000000707000700000000070700070000000000000007000707
310
00000000070007070000000000000700000000000000000000000000000000000000000000000000000000000000000000000000000000000000000000000000000000000000000000000000000000000000000000000000000000000000000000000000000000000000000000000000000000000000000000000000000000
310
00000000000000000000000000000000000000000000000700000000000007070007070707070707070700000000000000070707070707070707000707000000000000070000000000000000000000000000000000000000000000000000000000000000000000000000000000000000000000000000000000000000000000
310
00000000000000000000000000000000000000000000000000000000000000000000000000000000000000000000000000000000000000000000000000000000000000000000000000000000070000000007070707070700000000070700070700000000000707000707000000000707070707070000000007000000000000
310
00000000000000000000000000000000000000000000000000000000000000000000000000000000000000000000000000000000000000000000000000000000000000000000000000000000000000000000000000000000000000000000000000000000000000000000000000000000000000000000000000000000000000
310
00000700000000070000000000000000000000000007070707070707000000000000000000000000000700000000070000000000000000000000000000000000000000000000000000000000000000000000000000000000000000000000000000000000000000000000000000000000000000000000000000000000000000
310
00000000000000000000000000000000000000000000000000000000000000000000000000000000000000000000000000000000000000070000000007000000000000000000000000000700000000000700000000000000000000000000070000000007000000000000000000000000000000000000000000000000000000
310
00000000000000000000000000000000000000000000000000000000000000000000000000000000000000000000000000000000000000000000000000000000000000000000000000000000000000000000000000000000000000000000000000000000000000000000000007000000000700000000000000000000000000
310
07000000000007000000000000000000000000000700000000070000000000000000000000000000000000000000000000000000000000000000000000000000000000000000000000000000000000000000000000000000000000000000000000000000000000000000000000000000000000000000000000000000000000
310
00000000000000000000000000000000000000000000000000000000000000000000070000000007000000000000000000000000000700000000000700000000000000000000000000070000000007000000000000000000000000000000000000000000000000000000000000000000000000000000000000000000000000
310
00000000000000000000000000000000000000000000000000000000000000000000000000000000000000000000000000000000000000000000000000000000000000000000000000000000000000000000000000000707000000000707000000000000000000000007070000000000070700000000000000000000000707
310
00000000070700000000000000000000000000000000000000000000000000000000000000000000000000000000000000000000000000000000000000000000000000000000000000000000000000000000000000000000000000000000000000000000000000000000000000000000000000000000000000000000000000
310
00000000000000000000000007070707070707070000000000000000000000070707070707070707000000000000000000000007070707070707070000000000000000000000000000000000000000000000000000000000000000000000000000000000000000000000000000000000000000000000000000000000000000
310
00000000000000000000000000000000000000000000000000000000000000000000000000000000000000000000000000000000000000000000000000000000000707070707070707000000000000000000000007070707070707070700000000000000000000000707070707070707000000000000000000000000000000
310
00000000000000000000000000000000000000000000000000000000000000000000000000000000000000000000000000000000000000000000000000000000000000000000000000000000000000000000000000000000000000000000000000000000000000000000000000000000000000000000070707070707070700
310
00000000000000000000070707070707070707000000000000000000000007070707070707070000000000000000000000000000000000000000000000000000000000000000000000000000000000000000000000000000000000000000000000000000000000000000000000000000000000000000000000000000000000
310
00000000000000000000000000000000000000000000000000000000000000000000000000000000000000000007000000000700000000000000000000000000070000000000070000000000000000000000000007000000000700000000000000000000000000000000000000000000000000000000000000000000000000
310
00000000000000000000000000000000000000000000000000000000000000000000000000000000000000000000000000000000000000000000000000000000000000000000000000000000000000000000000000000000000000000000000707070707070707070707070000000000000007070707070707070707070707
310
00000000000000070707070707070707070707000000000000000000000000000000000000000000000000000000000000000000000000000000000000000000000000000000000000000000000000000000000000000000000000000000000000000000000000000000000000000000000000000000000000000000000000
310
00000000000000000000000000000000000000000007000000000000000000000700000000000000070000000000000000000000070000000000000007000000000000000000000700000000000000000000000000000000000000000000000000000000000000000000000000000000000000000000000000000000000000
310
00000000000000000000000000000000000000000000000000000000000000000000000000000000000000000000000000000000000000000000000000000000000000000000000000000707070707070707070707070000000000000007070707070707070707070707000000000000000707070707070707070707070000
310
00000000000000000000000000000000000000000000000000000000000000000000000000000000000000000000000000000000000000000000000000000000000000000000000000000000000000000000000000000000000000000000000000000000000000000000000000000000000000000000000000000000000000
310
00000700000000000700000000000000000000000007000000000000000700000000000000000000000007000000000007000000000000000000000000000000000000000000000000000000000000000000000000000000000000000000000000000000000000000000000000000000000000000000000000000000000000
310
00000000000000000000000000000000000000000000000000000000000000000000000000000000000000000000000000000000000000070000000000070000000000000000000000000700000000000000070000000000000000000000000700000000000700000000000000000000000000000000000000000000000000
310
00000000000000000000000000000000000000000000000000000000000000000000000000000000000000000000000000000000000000000000000000000000000000000000000000000000000000000000000000000000000000000000000000000000000000000000000007000000000007000000000000000000000000
310
07000000000000000700000000000000000000000007000000000007000000000000000000000000000000000000000000000000000000000000000000000000000000000000000000000000000000000000000000000000000000000000000000000000000000000000000000000000000000000000000000000000000000
310
00000000000000000000000000000000000000000000000000000000000000000000070000000000070000000000000000000000000700000000000000070000000000000000000000000700000000000700000000000000000000000000000000000000000000000000000000000000000000000000000000000000000000
310
00000000000000000000000000000000000000000000000000000000000000000000000000000000000000000000000000000000000000000000000000000000000000000000000000000000000000000000000000000700000000000000070000000000000000000000070000000000000007000000000000000000000007
310
00000000000000070000000000000000000000000000000000000000000000000000000000000000000000000000000000000000000000000000000000000000000000000000000000000000000000000000000000000000000000000000000000000000000000000000000000000000000000000000000000000000000000
310
00000000000000000000000007000000000000000700000000000000000000000700000000000000070000000000000000000000070000000000000007000000000000000000000000000000000000000000000000000000000000000000000000000000000000000000000000000000000000000000000000000000000000
310
00000000000000000000000000000000000000000000000000000000000000000000000000000000000000000000000000000000000000000000000000000000000700000000000000070000000000000000000000070000000000000007000000000000000000000007000000000000000700000000000000000000000000
310
00000000000000000000000000000000000000000000000000000000000000000000000000000000000000000000000000000000000000000000000000000000000000000000000000000000000000000000000000000000000000000000000000000000000000000000000000000000000000000000070000000000000007
310
00000000000000000000000700000000000000070000000000000000000000070000000000000007000000000000000000000000000000000000000000000000000000000000000000000000000000000000000000000000000000000000000000000000000000000000000000000000000000000000000000000000000000
310
00000000000000000000000000000000000000000000000000000000000000000000000000000000000000000707070707070707070000000000000000000000070707070707070707000000000000000000000007070707070707070700000000000000000000000000000000000000000000000000000000000000000000
310
00000000000000000000000000000000000000000000000000000000000000000000000000000000000000000000000000000000000000000000000000000000000000000000000000000000000000000000000000000000000000000000000000000000000000000000000000000000000000000000070000000000070000
310
00000000000000000000000000000000000000000000000000000000000000000000000000000000000000000000000000000000000000000000000000000000000000000000000000000000000000000000000000000000000000000000000000000000000000000000000000000000000000000000000000000000000000
310
00000000000000000000000000000000000000000000000000000000000000000000000000000000000000000700000000000700000000000000000000000000000000000000000000000000000000000000000000000000000000000000000000000000000000000000000000000000000000000000000000000000000000
310
00000000000000000000000000000000000000000000000000000000000000000000000000000000000000000000000000000000000000000000000000000000000000000000000000000000000000000000000000000000000000000000000000070000000000070000000000000000000000000000000000000000000000
310
00000000000000000000000000000000000000000000000000000000000000000000000000000000000000000000000000000000000000000000000000000000000000000000000000000000000000000000000000000000000000000000000000000000000000000000000000000000000000000000000000000000000000
310
00000000000000000000000000000000000000000000000700000000000700000000000000000000000000000000000000000000000000000000000000000000000000000000000000000000000000000000000000000000000000000000000000000000000000000000000000000000000000000000000000000000000000
310
00000000000000000000000000000000000000000000000000000000000000000000000000000000000000000000000000000000000000000000000000000000000000000000000000000000070000000000070000000000000000000000000000000000000000000000000000000000000000000000000000000000000000
310
00000000000000000000000000000000000000000000000000000000000000000000000000000000000000000000000000000000000000000000000000000000000000000000000000000000000000000000000000000000000000000000000000000000000000000000000000000000000000000000000000000000000000
310
00000700000000000700000000000000000000000000000000000000000000000000000000000000000000000000000000000000000000000000000000000000000000000000000000000000000000000000000000000000000000000000000000000000000000000000000000000000000000000000000000000000000000
310
00000000000000000000000000000000000000000000000000000000000000000000000000000000000000000000000000000000000000070000000000070000000000000000000000000000000000000000000000000000000000000000000000000000000000000000000000000000000000000000000000000000000000
310
00000000000000000000000000000000000000000000000000000000000000000000000000000000000000000000000000000000000000000000000000000000000000000000000000000000000000000000000000000000000000000000000000000000000000000000000007000000000007000000000000000000000000
310
00000000000000000000000000000000000000000000000000000000000000000000000000000000000000000000000000000000000000000000000000000000000000000000000000000000000000000000000000000000000000000000000000000000000000000000000000000000000000000000000000000000000000
310
00000000000000000000000000000000000000000000000000000000000000000000070000000000070000000000000000000000000000000000000000000000000000000000000000000000000000000000000000000000000000000000000000000000000000000000000000000000000000000000000000000000000000
310
00000000000000000000000000000000000000000000000000000000000000000000000000000000000000000000000000000000000000000000000000000000000000000000000000000000000000000000000000000007000000000007000000000000000000000000000000000000000000000000000000000000000000
310
00000000000000000000000000000000000000000000000000000000000000000000000000000000000000000000000000000000000000000000000000000000000000000000000000000000000000000000000000000000000000000000000000000000000000000000000000000000000000000000000000000000000000
310
00000000000000000000000000070000000000070000000000000000000000000000000000000000000000000000000000000000000000000000000000000000000000000000000000000000000000000000000000000000000000000000000000000000000000000000000000000000000000000000000000000000000000
310
00000000000000000000000000000000000000000000000000000000000000000000000000000000000000000000000000000000000000000000000000000000000007000000000007000000000000000000000000000000000000000000000000000000000000000000000000000000000000000000000000000000000000
310
00000000000000000000000000000000000000000000000000000000000000000000000000000000000000000000000000000000000000000000000000000000000000000000000000000000000000000000000000000000000000000000000000000000000000000000000000000000000000000000000700000000000700
310
00000000000000000000000000000000000000000000000000000000000000000000000000000000000000000000000000000000000000000000000000000000000000000000000000000000000000000000000000000000000000000000000000000000000000000000000000000000000000000000000000000000000000
310
00000000000000000000000000000000000000000000000000000000000000000000000000000000000000000007000000000007000000000000000000000000000000000000000000000000000000000000000000000000000000000000000000000000000000000000000000000000000000000000000000000000000000
310
00000000000000000000000000000000000000000000000000000000000000000000000000000000000000000000000000000000000000000000000000000000000000000000000000000000000000000000000000000000000000000000000000000700000000000700000000000000000000000000000000000000000000
310
00000000000000000000000000000000000000000000000000000000000000000000000000000000000000000000000000000000000000000000000000000000000000000000000000000000000000000000000000000000000000000000000000000000000000000000000000000000000000000000000000000000000000
310
00000000000000000000000000000000000000000000000007000000000007000000000000000000000000000000000000000000000000000000000000000000000000000000000000000000000000000000000000000000000000000000000000000000000000000000000000000000000000000000000000000000000000
310
00000000000000000000000000000000000000000000000000000000000000000000000000000000000000000000000000000000000000000000000000000000000000000000000000000000000700000000000700000000000000000000000000000000000000000000000000000000000000000000000000000000000000
310
00000000000000000000000000000000000000000000000000000000000000000000000000000000000000000000000000000000000000000000000000000000000000000000000000000000000000000000000000000000000000000000000000000000000000000000000000000000000000000000000000000000000000
310
00000007000000000007000000000000000000000000000000000000000000000000000000000000000000000000000000000000000000000000000000000000000000000000000000000000000000000000000000000000000000000000000000000000000000000000000000000000000000000000000000000000000000
310
00000000000000000000000000000000000000000000000000000000000000000000000000000000000000000000000000000000000000000700000000000700000000000000000000000000000000000000000000000000000000000000000000000000000000000000000000000000000000000000000000000000000000
310
00000000000000000000000000000000000000000000000000000000000000000000000000000000000000000000000000000000000000000000000000000000000000000000000000000000000000000000000000000000000000000000000000000000000000000000000000070707070707070000000000000000000000
310
00000000000000000000000000000000000000000000000000000000000000000000000000000000000000000000000000000000000000000000000000000000000000000000000000000000000000000000000000000000000000000000000000000000000000000000000000000000000000000000000000000000000000
310
00000000000000000000000000000000000000000000000000000000000000000000000707070707070700000000000000000000000000000000000000000000000000000000000000000000000000000000000000000000000000000000000000000000000000000000000000000000000000000000000000000000000000
310
00000000000000000000000000000000000000000000000000000000000000000000000000000000000000000000000000000000000000000000000000000000000000000000000000000000000000000000000000000000070707000707070000000000000000000000000000000000000000000000000000000000000000
310
00000000000000000000000000000000000000000000000000000000000000000000000000000000000000000000000000000000000000000000000000000000000000000000000000000000000000000000000000000000000000000000000000000000000000000000000000000000000000000000000000000000000000
310
00000000000000000000000000000707070707070700000000000000000000000000000000000000000000000000000000000000000000000000000000000000000000000000000000000000000000000000000000000000000000000000000000000000000000000000000000000000000000000000000000000000000000
310
00000000000000000000000000000000000000000000000000000000000000000000000000000000000000000000000000000000000000000000000000000000000000070707000707070000000000000000000000000000000000000000000000000000000000000000000000000000000000000000000000000000000000
310
00000000000000000000000000000000000000000000000000000000000000000000000000000000000000000000000000000000000000000000000000000000000000000000000000000000000000000000000000000000000000000000000000000000000000000000000000000000000000000000000007000707070007
310
00000000000000000000000000000000000000000000000000000000000000000000000000000000000000000000000000000000000000000000000000000000000000000000000000000000000000000000000000000000000000000000000000000000000000000000000000000000000000000000000000000000000000
310
00000000000000000000000000000000000000000000000000000000000000000000000000000000000000000000070000000000070000000000000000000000000000000000000000000000000000000000000000000000000000000000000000000000000000000000000000000000000000000000000000000000000000
310
00000000000000000000000000000000000000000000000000000000000000000000000000000000000000000000000000000000000000000000000000000000000000000000000000000000000000000000000000000000000000000000000000000007000000000007000000000000000000000000000000000000000000
310
00000000000000000000000000000000000000000000000000000000000000000000000000000000000000000000000000000000000000000000000000000000000000000000000000000000000000000000000000000000000000000000000000000000000000000000000000000000000000000000000000000000000000
310
00000000000000000000000000000000000000000000000000070000000000070000000000000000000000000000000000000000000000000000000000000000000000000000000000000000000000000000000000000000000000000000000000000000000000000000000000000000000000000000000000000000000000
310
00000000000000000000000000000000000000000000000000000000000000000000000000000000000000000000000000000000000000000000000000000000000000000000000000000000000007000000000007000000000000000000000000000000000000000000000000000000000000000000000000000000000000
310
00000000000000000000000000000000000000000000000000000000000000000000000000000000000000000000000000000000000000000000000000000000000000000000000000000000000000000000000000000000000000000000000000000000000000000000000000000000000000000000000000000000000000
310
00000000070000000000070000000000000000000000000000000000000000000000000000000000000000000000000000000000000000000000000000000000000000000000000000000000000000000000000000000000000000000000000000000000000000000000000000000000000000000000000000000000000000
310
00000000000000000000000000000000000000000000000000000000000000000000000000000000000000000000000000000000000000000007000000000007000000000000000000000000000000000000000000000000000000000000000000000000000000000000000000000000000000000000000000000000000000
310
00000000000000000000000000000000000000000000000000000000000000000000000000000000000000000000000000000000000000000000000000000000000000000000000000000000000000000000000000000000000000000000000000000000000000000000000000000700000000000700000000000000000000
310
00000000000000000000000000000000000000000000000000000000000000000000000000000000000000000000000000000000000000000000000000000000000000000000000000000000000000000000000000000000000000000000000000000000000000000000000000000000000000000000000000000000000000
310
00000000000000000000000000000000000000000000000000000000000000000000000000070000000700000000000000000000000000000000000000000000000000000000000000000000000000000000000000000000000000000000000000000000000000000000000000000000000000000000000000000000000000
310
00000000000000000000000000000000000000000000000000000000000000000000000000000000000000000000000000000000000000000000000000000000000000000000000000000000000000000000000000000000000007070707070000000000000000000000000000000000000000000000000000000000000000
310
00000000000000000000000000000000000000000000000000000000000000000000000000000000000000000000000000000000000000000000000000000000000000000000000000000000000000000000000000000000000000000000000000000000000000000000000000000000000000000000000000000000000000
310
000000000000000000000000000000000000000000000000000000000000000000000000000000000000000000000000000000000000000000000000000000000000000000000000000000000000000000000000000000000000000000000000000000000000000000000000
  0
ENDSEC
  0
EOF
