  0
SECTION
  2
HEADER
  9
$ACADVER
  1
AC1015
  9
$ACADMAINTVER
 70
     6
  9
$DWGCODEPAGE
  3
ANSI_1252
  9
$INSBASE
 10
0.0
 20
0.0
 30
0.0
  9
$EXTMIN
 10
0.3084
 20
0.1938895
 30
0.0
  9
$EXTMAX
 10
192.759344916254
 20
275.808831655728
 30
0.0
  9
$LIMMIN
 10
0.0
 20
0.0
  9
$LIMMAX
 10
12.0
 20
9.0
  9
$ORTHOMODE
 70
     0
  9
$REGENMODE
 70
     1
  9
$FILLMODE
 70
     1
  9
$QTEXTMODE
 70
     0
  9
$MIRRTEXT
 70
     1
  9
$LTSCALE
 40
1.0
  9
$ATTMODE
 70
     1
  9
$TEXTSIZE
 40
0.2
  9
$TRACEWID
 40
0.05
  9
$TEXTSTYLE
  7
Standard
  9
$CLAYER
  8
0
  9
$CELTYPE
  6
ByBlock
  9
$CECOLOR
 62
   256
  9
$CELTSCALE
 40
1.0
  9
$DISPSILH
 70
     0
  9
$DIMSCALE
 40
1.0
  9
$DIMASZ
 40
0.18
  9
$DIMEXO
 40
0.0625
  9
$DIMDLI
 40
0.38
  9
$DIMRND
 40
0.0
  9
$DIMDLE
 40
0.0
  9
$DIMEXE
 40
0.18
  9
$DIMTP
 40
0.0
  9
$DIMTM
 40
0.0
  9
$DIMTXT
 40
0.18
  9
$DIMCEN
 40
0.09
  9
$DIMTSZ
 40
0.0
  9
$DIMTOL
 70
     0
  9
$DIMLIM
 70
     0
  9
$DIMTIH
 70
     1
  9
$DIMTOH
 70
     1
  9
$DIMSE1
 70
     0
  9
$DIMSE2
 70
     0
  9
$DIMTAD
 70
     0
  9
$DIMZIN
 70
     0
  9
$DIMBLK
  1

  9
$DIMASO
 70
     1
  9
$DIMSHO
 70
     1
  9
$DIMPOST
  1

  9
$DIMAPOST
  1

  9
$DIMALT
 70
     0
  9
$DIMALTD
 70
     2
  9
$DIMALTF
 40
25.4
  9
$DIMLFAC
 40
1.0
  9
$DIMTOFL
 70
     0
  9
$DIMTVP
 40
0.0
  9
$DIMTIX
 70
     0
  9
$DIMSOXD
 70
     0
  9
$DIMSAH
 70
     0
  9
$DIMBLK1
  1

  9
$DIMBLK2
  1

  9
$DIMSTYLE
  2
Standard
  9
$DIMCLRD
 70
     0
  9
$DIMCLRE
 70
     0
  9
$DIMCLRT
 70
     0
  9
$DIMTFAC
 40
1.0
  9
$DIMGAP
 40
0.09
  9
$DIMJUST
 70
     0
  9
$DIMSD1
 70
     0
  9
$DIMSD2
 70
     0
  9
$DIMTOLJ
 70
     1
  9
$DIMTZIN
 70
     0
  9
$DIMALTZ
 70
     0
  9
$DIMALTTZ
 70
     0
  9
$DIMUPT
 70
     0
  9
$DIMDEC
 70
     4
  9
$DIMTDEC
 70
     4
  9
$DIMALTU
 70
     2
  9
$DIMALTTD
 70
     2
  9
$DIMTXSTY
  7
Standard
  9
$DIMAUNIT
 70
     0
  9
$DIMADEC
 70
     0
  9
$DIMALTRND
 40
0.0
  9
$DIMAZIN
 70
     0
  9
$DIMDSEP
 70
    46
  9
$DIMATFIT
 70
     3
  9
$DIMFRAC
 70
     0
  9
$DIMLDRBLK
  1

  9
$DIMLUNIT
 70
     2
  9
$DIMLWD
 70
    -2
  9
$DIMLWE
 70
    -2
  9
$DIMTMOVE
 70
     2
  9
$LUNITS
 70
     2
  9
$LUPREC
 70
     4
  9
$SKETCHINC
 40
0.1
  9
$FILLETRAD
 40
0.5
  9
$AUNITS
 70
     0
  9
$AUPREC
 70
     0
  9
$MENU
  1
.
  9
$ELEVATION
 40
0.0
  9
$PELEVATION
 40
0.0
  9
$THICKNESS
 40
0.0
  9
$LIMCHECK
 70
     0
  9
$CHAMFERA
 40
0.5
  9
$CHAMFERB
 40
0.5
  9
$CHAMFERC
 40
1.0
  9
$CHAMFERD
 40
0.0
  9
$SKPOLY
 70
     0
  9
$TDCREATE
 40
2456646.436499746
  9
$TDUCREATE
 40
2456646.394833079
  9
$TDUPDATE
 40
2456646.438597003
  9
$TDUUPDATE
 40
2456646.396930336
  9
$TDINDWG
 40
0.0017415509
  9
$TDUSRTIMER
 40
0.0017415509
  9
$USRTIMER
 70
     1
  9
$ANGBASE
 50
0.0
  9
$ANGDIR
 70
     0
  9
$PDMODE
 70
     0
  9
$PDSIZE
 40
0.0
  9
$PLINEWID
 40
0.0
  9
$SPLFRAME
 70
     0
  9
$SPLINETYPE
 70
     6
  9
$SPLINESEGS
 70
     8
  9
$HANDSEED
  5
877
  9
$SURFTAB1
 70
     6
  9
$SURFTAB2
 70
     6
  9
$SURFTYPE
 70
     6
  9
$SURFU
 70
     6
  9
$SURFV
 70
     6
  9
$UCSBASE
  2

  9
$UCSNAME
  2

  9
$UCSORG
 10
0.0
 20
0.0
 30
0.0
  9
$UCSXDIR
 10
1.0
 20
0.0
 30
0.0
  9
$UCSYDIR
 10
0.0
 20
1.0
 30
0.0
  9
$UCSORTHOREF
  2

  9
$UCSORTHOVIEW
 70
     0
  9
$UCSORGTOP
 10
0.0
 20
0.0
 30
0.0
  9
$UCSORGBOTTOM
 10
0.0
 20
0.0
 30
0.0
  9
$UCSORGLEFT
 10
0.0
 20
0.0
 30
0.0
  9
$UCSORGRIGHT
 10
0.0
 20
0.0
 30
0.0
  9
$UCSORGFRONT
 10
0.0
 20
0.0
 30
0.0
  9
$UCSORGBACK
 10
0.0
 20
0.0
 30
0.0
  9
$PUCSBASE
  2

  9
$PUCSNAME
  2

  9
$PUCSORG
 10
0.0
 20
0.0
 30
0.0
  9
$PUCSXDIR
 10
1.0
 20
0.0
 30
0.0
  9
$PUCSYDIR
 10
0.0
 20
1.0
 30
0.0
  9
$PUCSORTHOREF
  2

  9
$PUCSORTHOVIEW
 70
     0
  9
$PUCSORGTOP
 10
0.0
 20
0.0
 30
0.0
  9
$PUCSORGBOTTOM
 10
0.0
 20
0.0
 30
0.0
  9
$PUCSORGLEFT
 10
0.0
 20
0.0
 30
0.0
  9
$PUCSORGRIGHT
 10
0.0
 20
0.0
 30
0.0
  9
$PUCSORGFRONT
 10
0.0
 20
0.0
 30
0.0
  9
$PUCSORGBACK
 10
0.0
 20
0.0
 30
0.0
  9
$USERI1
 70
     0
  9
$USERI2
 70
     0
  9
$USERI3
 70
     0
  9
$USERI4
 70
     0
  9
$USERI5
 70
     0
  9
$USERR1
 40
0.0
  9
$USERR2
 40
0.0
  9
$USERR3
 40
0.0
  9
$USERR4
 40
0.0
  9
$USERR5
 40
0.0
  9
$WORLDVIEW
 70
     1
  9
$SHADEDGE
 70
     3
  9
$SHADEDIF
 70
    70
  9
$TILEMODE
 70
     1
  9
$MAXACTVP
 70
    64
  9
$PINSBASE
 10
0.0
 20
0.0
 30
0.0
  9
$PLIMCHECK
 70
     0
  9
$PEXTMIN
 10
1.000000000000E+20
 20
1.000000000000E+20
 30
1.000000000000E+20
  9
$PEXTMAX
 10
-1.000000000000E+20
 20
-1.000000000000E+20
 30
-1.000000000000E+20
  9
$PLIMMIN
 10
0.0
 20
0.0
  9
$PLIMMAX
 10
12.0
 20
9.0
  9
$UNITMODE
 70
     0
  9
$VISRETAIN
 70
     1
  9
$PLINEGEN
 70
     0
  9
$PSLTSCALE
 70
     1
  9
$TREEDEPTH
 70
  3020
  9
$CMLSTYLE
  2
Standard
  9
$CMLJUST
 70
     0
  9
$CMLSCALE
 40
1.0
  9
$PROXYGRAPHICS
 70
     1
  9
$MEASUREMENT
 70
     0
  9
$CELWEIGHT
370
    -1
  9
$ENDCAPS
280
     0
  9
$JOINSTYLE
280
     0
  9
$LWDISPLAY
290
     0
  9
$INSUNITS
 70
     0
  9
$HYPERLINKBASE
  1

  9
$STYLESHEET
  1

  9
$XEDIT
290
     1
  9
$CEPSNTYPE
380
     0
  9
$PSTYLEMODE
290
     1
  9
$FINGERPRINTGUID
  2
{72AB620F-F757-4C33-8ED1-363ACF426DF1}
  9
$VERSIONGUID
  2
{FAEB1C32-E019-11D5-929B-00C0DF256EC4}
  9
$EXTNAMES
290
     1
  9
$PSVPSCALE
 40
0.0
  9
$OLESTARTUP
290
     0
  0
ENDSEC
  0
SECTION
  2
CLASSES
  0
CLASS
  1
ACDBDICTIONARYWDFLT
  2
AcDbDictionaryWithDefault
  3
ObjectDBX Classes
 90
        0
280
     0
281
     0
  0
CLASS
  1
SCALE
  2
AcDbScale
  3
ObjectDBX Classes
 90
     1153
280
     0
281
     0
  0
CLASS
  1
ACDBPLACEHOLDER
  2
AcDbPlaceHolder
  3
ObjectDBX Classes
 90
        0
280
     0
281
     0
  0
CLASS
  1
LAYOUT
  2
AcDbLayout
  3
ObjectDBX Classes
 90
        0
280
     0
281
     0
  0
ENDSEC
  0
SECTION
  2
TABLES
  0
TABLE
  2
VPORT
  5
8
330
0
100
AcDbSymbolTable
 70
     1
  0
VPORT
  5
33E
330
8
100
AcDbSymbolTableRecord
100
AcDbViewportTableRecord
  2
*Active
 70
     0
 10
0.0
 20
0.0
 11
1.0
 21
1.0
 12
96.379672458127
 22
137.904415827864
 13
0.0
 23
0.0
 14
0.5
 24
0.5
 15
0.5
 25
0.5
 16
0.0
 26
0.0
 36
1.0
 17
0.0
 27
0.0
 37
0.0
 40
281.325008288843
 41
1.319001386963
 42
50.0
 43
0.0
 44
0.0
 50
0.0
 51
0.0
 71
    16
 72
   100
 73
     1
 74
     3
 75
     0
 76
     0
 77
     0
 78
     0
281
     0
 65
     1
110
0.0
120
0.0
130
0.0
111
1.0
121
0.0
131
0.0
112
0.0
122
1.0
132
0.0
 79
     0
146
0.0
  0
ENDTAB
  0
TABLE
  2
LTYPE
  5
5
330
0
100
AcDbSymbolTable
 70
     1
  0
LTYPE
  5
14
330
5
100
AcDbSymbolTableRecord
100
AcDbLinetypeTableRecord
  2
ByBlock
 70
     0
  3

 72
    65
 73
     0
 40
0.0
  0
LTYPE
  5
15
330
5
100
AcDbSymbolTableRecord
100
AcDbLinetypeTableRecord
  2
ByLayer
 70
     0
  3

 72
    65
 73
     0
 40
0.0
  0
LTYPE
  5
16
330
5
100
AcDbSymbolTableRecord
100
AcDbLinetypeTableRecord
  2
Continuous
 70
     0
  3
Solid line
 72
    65
 73
     0
 40
0.0
  0
ENDTAB
  0
TABLE
  2
LAYER
  5
2
330
0
100
AcDbSymbolTable
 70
     1
  0
LAYER
  5
10
330
2
100
AcDbSymbolTableRecord
100
AcDbLayerTableRecord
  2
0
 70
     0
 62
     7
  6
Continuous
370
    -3
390
F
  0
ENDTAB
  0
TABLE
  2
STYLE
  5
3
330
0
100
AcDbSymbolTable
 70
     1
  0
STYLE
  5
11
330
3
100
AcDbSymbolTableRecord
100
AcDbTextStyleTableRecord
  2
Standard
 70
     0
 40
0.0
 41
1.0
 50
0.0
 71
     0
 42
0.2
  3
txt
  4

  0
ENDTAB
  0
TABLE
  2
VIEW
  5
6
330
0
100
AcDbSymbolTable
 70
     0
  0
ENDTAB
  0
TABLE
  2
UCS
  5
7
330
0
100
AcDbSymbolTable
 70
     0
  0
ENDTAB
  0
TABLE
  2
APPID
  5
9
330
0
100
AcDbSymbolTable
 70
     1
  0
APPID
  5
12
330
9
100
AcDbSymbolTableRecord
100
AcDbRegAppTableRecord
  2
ACAD
 70
     0
  0
ENDTAB
  0
TABLE
  2
DIMSTYLE
  5
A
330
0
100
AcDbSymbolTable
 70
     1
100
AcDbDimStyleTable
  0
DIMSTYLE
105
20
330
A
100
AcDbSymbolTableRecord
100
AcDbDimStyleTableRecord
  2
Standard
 70
     0
340
11
  0
ENDTAB
  0
TABLE
  2
BLOCK_RECORD
  5
1
330
0
100
AcDbSymbolTable
 70
     0
  0
BLOCK_RECORD
  5
1D
330
1
100
AcDbSymbolTableRecord
100
AcDbBlockTableRecord
  2
*Model_Space
340
1E
  0
BLOCK_RECORD
  5
1B
330
1
100
AcDbSymbolTableRecord
100
AcDbBlockTableRecord
  2
*Paper_Space
340
1C
  0
ENDTAB
  0
ENDSEC
  0
SECTION
  2
BLOCKS
  0
BLOCK
  5
341
330
1D
100
AcDbEntity
  8
0
100
AcDbBlockBegin
  2
*Model_Space
 70
     0
 10
0.0
 20
0.0
 30
0.0
  3
*Model_Space
  1
*Model_Space
  0
ENDBLK
  5
342
330
1D
100
AcDbEntity
  8
0
100
AcDbBlockEnd
  0
BLOCK
  5
33F
330
1B
100
AcDbEntity
 67
     1
  8
0
100
AcDbBlockBegin
  2
*Paper_Space
 70
     0
 10
0.0
 20
0.0
 30
0.0
  3
*Paper_Space
  1
*Paper_Space
  0
ENDBLK
  5
340
330
1B
100
AcDbEntity
 67
     1
  8
0
100
AcDbBlockEnd
  0
ENDSEC
  0
SECTION
  2
ENTITIES
  0
LINE
  5
E2
330
1D
100
AcDbEntity
  8
0
100
AcDbLine
 10
97.1935
 20
0.1941105
 30
0.0
 11
97.5102
 21
0.1941105
 31
0.0
  0
LINE
  5
E3
330
1D
100
AcDbEntity
  8
0
100
AcDbLine
 10
97.0576
 20
0.1941105
 30
0.0
 11
97.2329
 21
0.1941105
 31
0.0
  0
LINE
  5
E4
330
1D
100
AcDbEntity
  8
0
100
AcDbLine
 10
97.2329
 20
0.1941105
 30
0.0
 11
97.5102
 21
0.1941105
 31
0.0
  0
LINE
  5
E5
330
1D
100
AcDbEntity
  8
0
100
AcDbLine
 10
97.0444
 20
0.1941105
 30
0.0
 11
97.1935
 21
0.1941105
 31
0.0
  0
LINE
  5
12C
330
1D
100
AcDbEntity
  8
0
100
AcDbLine
 10
97.8879
 20
0.1941105
 30
0.0
 11
98.3678
 21
0.1941105
 31
0.0
  0
LINE
  5
12D
330
1D
100
AcDbEntity
  8
0
100
AcDbLine
 10
98.3678
 20
0.1941105
 30
0.0
 11
99.1262
 21
0.1941105
 31
0.0
  0
LINE
  5
12E
330
1D
100
AcDbEntity
  8
0
100
AcDbLine
 10
97.5102
 20
0.1941105
 30
0.0
 11
97.8879
 21
0.1941105
 31
0.0
  0
LINE
  5
130
330
1D
100
AcDbEntity
  8
0
100
AcDbLine
 10
98.6106
 20
0.1941105
 30
0.0
 11
99.3749
 21
0.1941105
 31
0.0
  0
LINE
  5
133
330
1D
100
AcDbEntity
  8
0
100
AcDbLine
 10
99.3749
 20
0.1941105
 30
0.0
 11
100.7825
 21
0.1941105
 31
0.0
  0
LINE
  5
134
330
1D
100
AcDbEntity
  8
0
100
AcDbLine
 10
99.1262
 20
0.1941105
 30
0.0
 11
100.0419
 21
0.1941105
 31
0.0
  0
LINE
  5
139
330
1D
100
AcDbEntity
  8
0
100
AcDbLine
 10
100.0419
 20
0.1941105
 30
0.0
 11
101.5165
 21
0.1941105
 31
0.0
  0
LINE
  5
13C
330
1D
100
AcDbEntity
  8
0
100
AcDbLine
 10
100.7825
 20
0.1941105
 30
0.0
 11
101.5165
 21
0.1941105
 31
0.0
  0
LINE
  5
13D
330
1D
100
AcDbEntity
  8
0
100
AcDbLine
 10
101.5165
 20
0.1941105
 30
0.0
 11
103.2385
 21
0.1941105
 31
0.0
  0
LINE
  5
13E
330
1D
100
AcDbEntity
  8
0
100
AcDbLine
 10
103.2385
 20
0.1941105
 30
0.0
 11
105.1775
 21
0.1941105
 31
0.0
  0
LINE
  5
142
330
1D
100
AcDbEntity
  8
0
100
AcDbLine
 10
106.2865
 20
0.1941105
 30
0.0
 11
106.4645
 21
0.1941105
 31
0.0
  0
LINE
  5
143
330
1D
100
AcDbEntity
  8
0
100
AcDbLine
 10
106.4645
 20
0.1941105
 30
0.0
 11
108.5765
 21
0.1941105
 31
0.0
  0
LINE
  5
146
330
1D
100
AcDbEntity
  8
0
100
AcDbLine
 10
105.1775
 20
0.1941105
 30
0.0
 11
106.4645
 21
0.1941105
 31
0.0
  0
LINE
  5
147
330
1D
100
AcDbEntity
  8
0
100
AcDbLine
 10
105.1775
 20
0.1941105
 30
0.0
 11
106.2865
 21
0.1941105
 31
0.0
  0
LINE
  5
14A
330
1D
100
AcDbEntity
  8
0
100
AcDbLine
 10
109.9935
 20
0.1941105
 30
0.0
 11
110.8095
 21
0.1941105
 31
0.0
  0
LINE
  5
14B
330
1D
100
AcDbEntity
  8
0
100
AcDbLine
 10
108.5765
 20
0.1941105
 30
0.0
 11
110.8095
 21
0.1941105
 31
0.0
  0
LINE
  5
14D
330
1D
100
AcDbEntity
  8
0
100
AcDbLine
 10
110.8095
 20
0.1941105
 30
0.0
 11
113.5295
 21
0.1941105
 31
0.0
  0
LINE
  5
150
330
1D
100
AcDbEntity
  8
0
100
AcDbLine
 10
113.5295
 20
0.1941105
 30
0.0
 11
116.3375
 21
0.1941105
 31
0.0
  0
LINE
  5
151
330
1D
100
AcDbEntity
  8
0
100
AcDbLine
 10
123.3605
 20
0.1941105
 30
0.0
 11
127.2385
 21
0.1941105
 31
0.0
  0
LINE
  5
152
330
1D
100
AcDbEntity
  8
0
100
AcDbLine
 10
133.7325
 20
0.1941085
 30
0.0
 11
134.7575
 21
0.1941105
 31
0.0
  0
LINE
  5
153
330
1D
100
AcDbEntity
  8
0
100
AcDbLine
 10
135.7435
 20
0.1941085
 30
0.0
 11
136.9385
 21
0.1941105
 31
0.0
  0
LINE
  5
154
330
1D
100
AcDbEntity
  8
0
100
AcDbLine
 10
138.0055
 20
0.1941085
 30
0.0
 11
138.8135
 21
0.1941105
 31
0.0
  0
LINE
  5
155
330
1D
100
AcDbEntity
  8
0
100
AcDbLine
 10
128.7975
 20
0.1941105
 30
0.0
 11
131.4925
 21
0.1941105
 31
0.0
  0
LINE
  5
156
330
1D
100
AcDbEntity
  8
0
100
AcDbLine
 10
128.7975
 20
0.1941105
 30
0.0
 11
131.3105
 21
0.1941105
 31
0.0
  0
LINE
  5
157
330
1D
100
AcDbEntity
  8
0
100
AcDbLine
 10
131.4925
 20
0.1941105
 30
0.0
 11
133.7325
 21
0.1941085
 31
0.0
  0
LINE
  5
158
330
1D
100
AcDbEntity
  8
0
100
AcDbLine
 10
134.7575
 20
0.1941105
 30
0.0
 11
135.7435
 21
0.1941085
 31
0.0
  0
LINE
  5
159
330
1D
100
AcDbEntity
  8
0
100
AcDbLine
 10
136.9385
 20
0.1941105
 30
0.0
 11
138.0055
 21
0.1941085
 31
0.0
  0
LINE
  5
15A
330
1D
100
AcDbEntity
  8
0
100
AcDbLine
 10
143.3255
 20
0.1938895
 30
0.0
 11
143.5065
 21
0.1938895
 31
0.0
  0
LINE
  5
15B
330
1D
100
AcDbEntity
  8
0
100
AcDbLine
 10
142.4915
 20
0.1938895
 30
0.0
 11
142.9295
 21
0.1939245
 31
0.0
  0
LINE
  5
15C
330
1D
100
AcDbEntity
  8
0
100
AcDbLine
 10
142.9415
 20
0.1938905
 30
0.0
 11
143.2145
 21
0.1938905
 31
0.0
  0
LINE
  5
15D
330
1D
100
AcDbEntity
  8
0
100
AcDbLine
 10
143.2145
 20
0.1938905
 30
0.0
 11
143.314185714286
 21
0.1938905
 31
0.0
  0
LINE
  5
15E
330
1D
100
AcDbEntity
  8
0
100
AcDbLine
 10
142.5615
 20
0.1938905
 30
0.0
 11
142.9415
 21
0.1938905
 31
0.0
  0
LINE
  5
15F
330
1D
100
AcDbEntity
  8
0
100
AcDbLine
 10
142.9295
 20
0.1939245
 30
0.0
 11
143.3255
 21
0.1938895
 31
0.0
  0
LINE
  5
160
330
1D
100
AcDbEntity
  8
0
100
AcDbLine
 10
141.2675
 20
0.1941085
 30
0.0
 11
141.9025
 21
0.1938895
 31
0.0
  0
LINE
  5
161
330
1D
100
AcDbEntity
  8
0
100
AcDbLine
 10
140.6525
 20
0.1941105
 30
0.0
 11
141.2675
 21
0.1941085
 31
0.0
  0
LINE
  5
162
330
1D
100
AcDbEntity
  8
0
100
AcDbLine
 10
140.1275
 20
0.1941085
 30
0.0
 11
140.6525
 21
0.1941105
 31
0.0
  0
LINE
  5
163
330
1D
100
AcDbEntity
  8
0
100
AcDbLine
 10
139.5175
 20
0.1941085
 30
0.0
 11
140.1275
 21
0.1941085
 31
0.0
  0
LINE
  5
164
330
1D
100
AcDbEntity
  8
0
100
AcDbLine
 10
141.9025
 20
0.1938895
 30
0.0
 11
142.4915
 21
0.1938895
 31
0.0
  0
LINE
  5
165
330
1D
100
AcDbEntity
  8
0
100
AcDbLine
 10
138.8135
 20
0.1941105
 30
0.0
 11
139.5175
 21
0.1941085
 31
0.0
  0
LINE
  5
166
330
1D
100
AcDbEntity
  8
0
100
AcDbLine
 10
127.2385
 20
0.1941105
 30
0.0
 11
128.7975
 21
0.1941105
 31
0.0
  0
LINE
  5
167
330
1D
100
AcDbEntity
  8
0
100
AcDbLine
 10
127.8595
 20
0.1941105
 30
0.0
 11
128.7975
 21
0.1941105
 31
0.0
  0
LINE
  5
168
330
1D
100
AcDbEntity
  8
0
100
AcDbLine
 10
123.6095
 20
0.1941105
 30
0.0
 11
127.8595
 21
0.1941105
 31
0.0
  0
LINE
  5
16A
330
1D
100
AcDbEntity
  8
0
100
AcDbLine
 10
116.3375
 20
0.1941105
 30
0.0
 11
118.9005
 21
0.1941105
 31
0.0
  0
LINE
  5
16E
330
1D
100
AcDbEntity
  8
0
100
AcDbLine
 10
168.0295
 20
1.6941105
 30
0.0
 11
171.1255
 21
1.7011105
 31
0.0
  0
LINE
  5
16F
330
1D
100
AcDbEntity
  8
0
100
AcDbLine
 10
165.5445
 20
1.6971105
 30
0.0
 11
168.0295
 21
1.6941105
 31
0.0
  0
LINE
  5
170
330
1D
100
AcDbEntity
  8
0
100
AcDbLine
 10
163.7675
 20
1.7011105
 30
0.0
 11
165.5445
 21
1.6971105
 31
0.0
  0
LINE
  5
171
330
1D
100
AcDbEntity
  8
0
100
AcDbLine
 10
163.8205
 20
1.6981105
 30
0.0
 11
164.397016729544
 21
1.699693467407
 31
0.0
  0
LINE
  5
172
330
1D
100
AcDbEntity
  8
0
100
AcDbLine
 10
163.1935
 20
1.6991105
 30
0.0
 11
163.8205
 21
1.6981105
 31
0.0
  0
LINE
  5
173
330
1D
100
AcDbEntity
  8
0
100
AcDbLine
 10
163.1935
 20
1.6991105
 30
0.0
 11
163.7675
 21
1.7011105
 31
0.0
  0
LINE
  5
184
330
1D
100
AcDbEntity
  8
0
100
AcDbLine
 10
171.1255
 20
1.7011105
 30
0.0
 11
174.2295
 21
1.7061105
 31
0.0
  0
LINE
  5
185
330
1D
100
AcDbEntity
  8
0
100
AcDbLine
 10
176.8405
 20
1.6961105
 30
0.0
 11
178.6185
 21
1.7021105
 31
0.0
  0
LINE
  5
186
330
1D
100
AcDbEntity
  8
0
100
AcDbLine
 10
178.5665
 20
1.7041105
 30
0.0
 11
179.1935
 21
1.7031105
 31
0.0
  0
LINE
  5
187
330
1D
100
AcDbEntity
  8
0
100
AcDbLine
 10
176.7455
 20
1.6991105
 30
0.0
 11
178.5665
 21
1.7041105
 31
0.0
  0
LINE
  5
188
330
1D
100
AcDbEntity
  8
0
100
AcDbLine
 10
174.2295
 20
1.7061105
 30
0.0
 11
176.7455
 21
1.6991105
 31
0.0
  0
LINE
  5
18B
330
1D
100
AcDbEntity
  8
0
100
AcDbLine
 10
178.6185
 20
1.7021105
 30
0.0
 11
179.1935
 21
1.7031105
 31
0.0
  0
LINE
  5
18C
330
1D
100
AcDbEntity
  8
0
100
AcDbLine
 10
174.3555
 20
1.6981105
 30
0.0
 11
176.8405
 21
1.6961105
 31
0.0
  0
LINE
  5
18D
330
1D
100
AcDbEntity
  8
0
100
AcDbLine
 10
171.530040532788
 20
1.701762143899
 30
0.0
 11
174.3555
 21
1.6981105
 31
0.0
  0
LINE
  5
1BF
330
1D
100
AcDbEntity
  8
0
100
AcDbLine
 10
120.2285
 20
0.1941105
 30
0.0
 11
123.3605
 21
0.1941105
 31
0.0
  0
LINE
  5
1C0
330
1D
100
AcDbEntity
  8
0
100
AcDbLine
 10
118.9005
 20
0.1941105
 30
0.0
 11
121.4925
 21
0.1941105
 31
0.0
  0
LINE
  5
1C1
330
1D
100
AcDbEntity
  8
0
100
AcDbLine
 10
118.9005
 20
0.1941105
 30
0.0
 11
120.2285
 21
0.1941105
 31
0.0
  0
LINE
  5
1C2
330
1D
100
AcDbEntity
  8
0
100
AcDbLine
 10
121.4925
 20
0.1941105
 30
0.0
 11
123.6095
 21
0.1941105
 31
0.0
  0
LINE
  5
4D2
330
1D
100
AcDbEntity
  8
0
100
AcDbLine
 10
135.695944916254
 20
149.366831655728
 30
0.0
 11
141.727044916254
 21
115.778831655728
 31
0.0
  0
LINE
  5
4D3
330
1D
100
AcDbEntity
  8
0
100
AcDbLine
 10
156.076344916254
 20
155.111831655728
 30
0.0
 11
162.107344916254
 21
121.523831655728
 31
0.0
  0
LINE
  5
4D4
330
1D
100
AcDbEntity
  8
0
100
AcDbLine
 10
149.448344916254
 20
117.576831655728
 30
0.0
 11
192.759344916254
 21
127.610831655728
 31
0.0
  0
LINE
  5
4D5
330
1D
100
AcDbEntity
  8
0
100
AcDbLine
 10
168.029344916254
 20
1.696831655728
 30
0.0
 11
171.125344916254
 21
1.703831655728
 31
0.0
  0
LINE
  5
4D6
330
1D
100
AcDbEntity
  8
0
100
AcDbLine
 10
164.235344916254
 20
71.341931655728
 30
0.0
 11
192.759344916254
 21
77.605131655728
 31
0.0
  0
LINE
  5
4D8
330
1D
100
AcDbEntity
  8
0
100
AcDbLine
 10
157.904344916254
 20
69.968531655728
 30
0.0
 11
159.928344916254
 21
70.428631655728
 31
0.0
  0
LINE
  5
4D9
330
1D
100
AcDbEntity
  8
0
100
AcDbLine
 10
154.70527377546
 20
74.938678775794
 30
0.0
 11
158.493344916254
 21
55.000031655728
 31
0.0
  0
LINE
  5
4DA
330
1D
100
AcDbEntity
  8
0
100
AcDbLine
 10
156.254344916254
 20
69.610631655728
 30
0.0
 11
157.904344916254
 21
69.968531655728
 31
0.0
  0
LINE
  5
4DB
330
1D
100
AcDbEntity
  8
0
100
AcDbLine
 10
161.392344916254
 20
33.302831655728
 30
0.0
 11
163.193344916254
 21
1.701831655728
 31
0.0
  0
LINE
  5
4DC
330
1D
100
AcDbEntity
  8
0
100
AcDbLine
 10
161.392344916254
 20
33.302831655728
 30
0.0
 11
163.193344916254
 21
1.701831655728
 31
0.0
  0
LINE
  5
4DD
330
1D
100
AcDbEntity
  8
0
100
AcDbLine
 10
165.544344916254
 20
1.699831655728
 30
0.0
 11
168.029344916254
 21
1.696831655728
 31
0.0
  0
LINE
  5
4DE
330
1D
100
AcDbEntity
  8
0
100
AcDbLine
 10
163.767344916254
 20
1.703831655728
 30
0.0
 11
165.544344916254
 21
1.699831655728
 31
0.0
  0
LINE
  5
4DF
330
1D
100
AcDbEntity
  8
0
100
AcDbLine
 10
163.820344916254
 20
1.700831655728
 30
0.0
 11
164.396861645798
 21
1.702414623135
 31
0.0
  0
LINE
  5
4E0
330
1D
100
AcDbEntity
  8
0
100
AcDbLine
 10
163.193344916254
 20
1.701831655728
 30
0.0
 11
163.820344916254
 21
1.700831655728
 31
0.0
  0
LINE
  5
4E1
330
1D
100
AcDbEntity
  8
0
100
AcDbLine
 10
163.193344916254
 20
1.701831655728
 30
0.0
 11
163.767344916254
 21
1.703831655728
 31
0.0
  0
LINE
  5
4E2
330
1D
100
AcDbEntity
  8
0
100
AcDbLine
 10
158.493344916254
 20
55.000031655728
 30
0.0
 11
161.392344916254
 21
33.302831655728
 31
0.0
  0
LINE
  5
4E3
330
1D
100
AcDbEntity
  8
0
100
AcDbLine
 10
141.756344916254
 20
113.020831655728
 30
0.0
 11
150.934344916254
 21
86.492731655728
 31
0.0
  0
LINE
  5
4E4
330
1D
100
AcDbEntity
  8
0
100
AcDbLine
 10
151.316311593764
 20
86.595051241007
 30
0.0
 11
154.70527377546
 21
74.938678775794
 31
0.0
  0
LINE
  5
4E5
330
1D
100
AcDbEntity
  8
0
100
AcDbLine
 10
151.224344916254
 20
86.570431655728
 30
0.0
 11
151.316311593764
 21
86.595051241007
 31
0.0
  0
LINE
  5
4E6
330
1D
100
AcDbEntity
  8
0
100
AcDbLine
 10
150.934344916254
 20
86.492731655728
 30
0.0
 11
151.224344916254
 21
86.570431655728
 31
0.0
  0
LINE
  5
4E7
330
1D
100
AcDbEntity
  8
0
100
AcDbLine
 10
163.119344916254
 20
71.095031655728
 30
0.0
 11
164.235344916254
 21
71.341931655728
 31
0.0
  0
LINE
  5
4E8
330
1D
100
AcDbEntity
  8
0
100
AcDbLine
 10
161.863344916254
 20
70.827431655728
 30
0.0
 11
163.119344916254
 21
71.095031655728
 31
0.0
  0
LINE
  5
4E9
330
1D
100
AcDbEntity
  8
0
100
AcDbLine
 10
159.928344916254
 20
70.428631655728
 30
0.0
 11
161.863344916254
 21
70.827431655728
 31
0.0
  0
LINE
  5
4EA
330
1D
100
AcDbEntity
  8
0
100
AcDbLine
 10
151.474144916254
 20
118.526831655728
 30
0.0
 11
159.449044916254
 21
120.774831655728
 31
0.0
  0
LINE
  5
4EB
330
1D
100
AcDbEntity
  8
0
100
AcDbLine
 10
141.727044916254
 20
115.778831655728
 30
0.0
 11
142.513523390417
 21
115.294332647538
 31
0.0
  0
LINE
  5
4EC
330
1D
100
AcDbEntity
  8
0
100
AcDbLine
 10
141.727044916254
 20
115.778831655728
 30
0.0
 11
142.102744916254
 21
115.884831655728
 31
0.0
  0
LINE
  5
4ED
330
1D
100
AcDbEntity
  8
0
100
AcDbLine
 10
142.102744916254
 20
115.884831655728
 30
0.0
 11
143.217544916254
 21
116.198831655728
 31
0.0
  0
LINE
  5
4EE
330
1D
100
AcDbEntity
  8
0
100
AcDbLine
 10
143.217544916254
 20
116.198831655728
 30
0.0
 11
144.651144916254
 21
116.602831655728
 31
0.0
  0
LINE
  5
4EF
330
1D
100
AcDbEntity
  8
0
100
AcDbLine
 10
144.651144916254
 20
116.602831655728
 30
0.0
 11
146.233844916254
 21
117.049831655728
 31
0.0
  0
LINE
  5
4F0
330
1D
100
AcDbEntity
  8
0
100
AcDbLine
 10
144.782344916254
 20
116.497831655728
 30
0.0
 11
146.329344916254
 21
116.859831655728
 31
0.0
  0
LINE
  5
4F1
330
1D
100
AcDbEntity
  8
0
100
AcDbLine
 10
146.233844916254
 20
117.049831655728
 30
0.0
 11
148.528944916254
 21
117.695831655728
 31
0.0
  0
LINE
  5
4F2
330
1D
100
AcDbEntity
  8
0
100
AcDbLine
 10
148.528944916254
 20
117.695831655728
 30
0.0
 11
151.474144916254
 21
118.526831655728
 31
0.0
  0
LINE
  5
4F3
330
1D
100
AcDbEntity
  8
0
100
AcDbLine
 10
148.338344916254
 20
117.337831655728
 30
0.0
 11
149.448344916254
 21
117.576831655728
 31
0.0
  0
LINE
  5
4F4
330
1D
100
AcDbEntity
  8
0
100
AcDbLine
 10
146.329344916254
 20
116.859831655728
 30
0.0
 11
148.338344916254
 21
117.337831655728
 31
0.0
  0
LINE
  5
4F5
330
1D
100
AcDbEntity
  8
0
100
AcDbLine
 10
142.759344916254
 20
116.026831655728
 30
0.0
 11
144.782344916254
 21
116.497831655728
 31
0.0
  0
LINE
  5
4F6
330
1D
100
AcDbEntity
  8
0
100
AcDbLine
 10
142.590344916254
 20
115.314831655728
 30
0.0
 11
142.939188527706
 21
115.40825758845
 31
0.0
  0
LINE
  5
4F7
330
1D
100
AcDbEntity
  8
0
100
AcDbLine
 10
142.204344916254
 20
115.211831655728
 30
0.0
 11
142.513523390417
 21
115.294332647538
 31
0.0
  0
LINE
  5
4F8
330
1D
100
AcDbEntity
  8
0
100
AcDbLine
 10
142.204344916254
 20
115.211831655728
 30
0.0
 11
142.590344916254
 21
115.314831655728
 31
0.0
  0
LINE
  5
4F9
330
1D
100
AcDbEntity
  8
0
100
AcDbLine
 10
141.756344916254
 20
113.020831655728
 30
0.0
 11
142.204344916254
 21
115.211831655728
 31
0.0
  0
LINE
  5
4FA
330
1D
100
AcDbEntity
  8
0
100
AcDbLine
 10
159.449044916254
 20
120.774831655728
 30
0.0
 11
159.815044916254
 21
120.877831655728
 31
0.0
  0
LINE
  5
4FB
330
1D
100
AcDbEntity
  8
0
100
AcDbLine
 10
159.815044916254
 20
120.877831655728
 30
0.0
 11
160.312144916254
 21
121.017831655728
 31
0.0
  0
LINE
  5
4FC
330
1D
100
AcDbEntity
  8
0
100
AcDbLine
 10
161.191744916254
 20
121.265831655728
 30
0.0
 11
161.548744916254
 21
121.366831655728
 31
0.0
  0
LINE
  5
4FD
330
1D
100
AcDbEntity
  8
0
100
AcDbLine
 10
160.758344916254
 20
121.143831655728
 30
0.0
 11
161.191744916254
 21
121.265831655728
 31
0.0
  0
LINE
  5
4FE
330
1D
100
AcDbEntity
  8
0
100
AcDbLine
 10
160.312144916254
 20
121.017831655728
 30
0.0
 11
160.758344916254
 21
121.143831655728
 31
0.0
  0
LINE
  5
4FF
330
1D
100
AcDbEntity
  8
0
100
AcDbLine
 10
161.548744916254
 20
121.366831655728
 30
0.0
 11
161.803644916254
 21
121.437831655728
 31
0.0
  0
LINE
  5
500
330
1D
100
AcDbEntity
  8
0
100
AcDbLine
 10
161.803644916254
 20
121.437831655728
 30
0.0
 11
161.994844916254
 21
121.491831655728
 31
0.0
  0
LINE
  5
501
330
1D
100
AcDbEntity
  8
0
100
AcDbLine
 10
161.527972670413
 20
120.381487159293
 30
0.0
 11
162.107344916254
 21
121.523831655728
 31
0.0
  0
LINE
  5
502
330
1D
100
AcDbEntity
  8
0
100
AcDbLine
 10
161.994844916254
 20
121.491831655728
 30
0.0
 11
162.084044916254
 21
121.516831655728
 31
0.0
  0
LINE
  5
503
330
1D
100
AcDbEntity
  8
0
100
AcDbLine
 10
176.840344916254
 20
1.698831655728
 30
0.0
 11
178.618344916254
 21
1.704831655728
 31
0.0
  0
LINE
  5
504
330
1D
100
AcDbEntity
  8
0
100
AcDbLine
 10
174.355344916254
 20
1.700831655728
 30
0.0
 11
176.840344916254
 21
1.698831655728
 31
0.0
  0
LINE
  5
505
330
1D
100
AcDbEntity
  8
0
100
AcDbLine
 10
171.125344916254
 20
1.703831655728
 30
0.0
 11
174.229344916254
 21
1.708831655728
 31
0.0
  0
LINE
  5
506
330
1D
100
AcDbEntity
  8
0
100
AcDbLine
 10
176.745344916254
 20
1.701831655728
 30
0.0
 11
178.566344916254
 21
1.706831655728
 31
0.0
  0
LINE
  5
507
330
1D
100
AcDbEntity
  8
0
100
AcDbLine
 10
174.229344916254
 20
1.708831655728
 30
0.0
 11
176.745344916254
 21
1.701831655728
 31
0.0
  0
LINE
  5
508
330
1D
100
AcDbEntity
  8
0
100
AcDbLine
 10
178.566344916254
 20
1.706831655728
 30
0.0
 11
179.193344916254
 21
1.705831655728
 31
0.0
  0
LINE
  5
509
330
1D
100
AcDbEntity
  8
0
100
AcDbLine
 10
177.193344916254
 20
36.106831655728
 30
0.0
 11
179.193344916254
 21
1.705831655728
 31
0.0
  0
LINE
  5
50A
330
1D
100
AcDbEntity
  8
0
100
AcDbLine
 10
177.193344916254
 20
36.106831655728
 30
0.0
 11
179.193344916254
 21
1.705831655728
 31
0.0
  0
LINE
  5
50B
330
1D
100
AcDbEntity
  8
0
100
AcDbLine
 10
178.618344916254
 20
1.704831655728
 30
0.0
 11
179.193344916254
 21
1.705831655728
 31
0.0
  0
LINE
  5
50C
330
1D
100
AcDbEntity
  8
0
100
AcDbLine
 10
171.529885449042
 20
1.704483299628
 30
0.0
 11
174.355344916254
 21
1.700831655728
 31
0.0
  0
LINE
  5
50D
330
1D
100
AcDbEntity
  8
0
100
AcDbLine
 10
173.493344916254
 20
60.505031655728
 30
0.0
 11
177.193344916254
 21
36.106831655728
 31
0.0
  0
LINE
  5
50E
330
1D
100
AcDbEntity
  8
0
100
AcDbLine
 10
192.759344916254
 20
77.605131655728
 30
0.0
 11
192.759344916254
 21
127.610831655728
 31
0.0
  0
LINE
  5
50F
330
1D
100
AcDbEntity
  8
0
100
AcDbLine
 10
192.759344916254
 20
127.610831655728
 30
0.0
 11
192.759344916254
 21
77.605131655728
 31
0.0
  0
LINE
  5
510
330
1D
100
AcDbEntity
  8
0
100
AcDbLine
 10
171.021528497971
 20
72.814192748888
 30
0.0
 11
173.493344916254
 21
60.505031655728
 31
0.0
  0
LINE
  5
511
330
1D
100
AcDbEntity
  8
0
100
AcDbLine
 10
121.183344916254
 20
208.102831655728
 30
0.0
 11
121.418644916254
 21
207.172831655728
 31
0.0
  0
LINE
  5
512
330
1D
100
AcDbEntity
  8
0
100
AcDbLine
 10
143.504844916254
 20
210.938831655728
 30
0.0
 11
149.859744916254
 21
184.223831655728
 31
0.0
  0
LINE
  5
513
330
1D
100
AcDbEntity
  8
0
100
AcDbLine
 10
121.669744916254
 20
206.179831655728
 30
0.0
 11
129.513944916254
 21
175.158831655728
 31
0.0
  0
LINE
  5
514
330
1D
100
AcDbEntity
  8
0
100
AcDbLine
 10
121.418644916254
 20
207.172831655728
 30
0.0
 11
121.669744916254
 21
206.179831655728
 31
0.0
  0
LINE
  5
515
330
1D
100
AcDbEntity
  8
0
100
AcDbLine
 10
129.513944916254
 20
175.158831655728
 30
0.0
 11
129.765044916254
 21
174.165831655728
 31
0.0
  0
LINE
  5
516
330
1D
100
AcDbEntity
  8
0
100
AcDbLine
 10
129.765044916254
 20
174.165831655728
 30
0.0
 11
130.000244916254
 21
173.235831655728
 31
0.0
  0
LINE
  5
517
330
1D
100
AcDbEntity
  8
0
100
AcDbLine
 10
130.000244916254
 20
173.235831655728
 30
0.0
 11
130.208244916254
 21
172.412831655728
 31
0.0
  0
LINE
  5
518
330
1D
100
AcDbEntity
  8
0
100
AcDbLine
 10
130.208244916254
 20
172.412831655728
 30
0.0
 11
130.365144916254
 21
171.791831655728
 31
0.0
  0
LINE
  5
519
330
1D
100
AcDbEntity
  8
0
100
AcDbLine
 10
130.365144916254
 20
171.791831655728
 30
0.0
 11
130.459344916254
 21
171.419831655728
 31
0.0
  0
LINE
  5
51A
330
1D
100
AcDbEntity
  8
0
100
AcDbLine
 10
130.494644916254
 20
171.279831655728
 30
0.0
 11
130.990399126347
 21
171.402646898108
 31
0.0
  0
LINE
  5
51B
330
1D
100
AcDbEntity
  8
0
100
AcDbLine
 10
130.459344916254
 20
171.419831655728
 30
0.0
 11
130.494644916254
 21
171.279831655728
 31
0.0
  0
LINE
  5
51C
330
1D
100
AcDbEntity
  8
0
100
AcDbLine
 10
130.987048396539
 20
171.418338183725
 30
0.0
 11
135.695944916254
 21
149.366831655728
 31
0.0
  0
LINE
  5
51D
330
1D
100
AcDbEntity
  8
0
100
AcDbLine
 10
149.859744916254
 20
184.223831655728
 30
0.0
 11
156.076344916254
 21
155.111831655728
 31
0.0
  0
LINE
  5
51E
330
1D
100
AcDbEntity
  8
0
100
AcDbLine
 10
131.483944916254
 20
257.308831655728
 30
0.0
 11
135.459044916254
 21
242.048831655728
 31
0.0
  0
LINE
  5
51F
330
1D
100
AcDbEntity
  8
0
100
AcDbLine
 10
105.913294916254
 20
243.465831655728
 30
0.0
 11
106.639464916254
 21
240.889831655728
 31
0.0
  0
LINE
  5
520
330
1D
100
AcDbEntity
  8
0
100
AcDbLine
 10
108.093094916254
 20
241.883831655728
 30
0.0
 11
109.048384916254
 21
238.494831655728
 31
0.0
  0
LINE
  5
521
330
1D
100
AcDbEntity
  8
0
100
AcDbLine
 10
109.114854916254
 20
241.651831655728
 30
0.0
 11
110.126304916254
 21
238.063831655728
 31
0.0
  0
LINE
  5
522
330
1D
100
AcDbEntity
  8
0
100
AcDbLine
 10
116.504944916254
 20
231.243831655728
 30
0.0
 11
121.817514270325
 21
210.337367266102
 31
0.0
  0
LINE
  5
523
330
1D
100
AcDbEntity
  8
0
100
AcDbLine
 10
108.370729749567
 20
237.286325517399
 30
0.0
 11
108.977774916254
 21
235.992831655728
 31
0.0
  0
LINE
  5
524
330
1D
100
AcDbEntity
  8
0
100
AcDbLine
 10
107.656064916254
 20
237.283831655728
 30
0.0
 11
108.040234916254
 21
237.192831655728
 31
0.0
  0
LINE
  5
525
330
1D
100
AcDbEntity
  8
0
100
AcDbLine
 10
108.040234916254
 20
237.192831655728
 30
0.0
 11
108.370729749567
 21
237.286325517399
 31
0.0
  0
LINE
  5
526
330
1D
100
AcDbEntity
  8
0
100
AcDbLine
 10
106.556114916254
 20
238.852831655728
 30
0.0
 11
106.746034916254
 21
238.178831655728
 31
0.0
  0
LINE
  5
527
330
1D
100
AcDbEntity
  8
0
100
AcDbLine
 10
106.556114916254
 20
238.852831655728
 30
0.0
 11
106.999131480202
 21
238.97782151696
 31
0.0
  0
LINE
  5
528
330
1D
100
AcDbEntity
  8
0
100
AcDbLine
 10
106.391244916254
 20
239.437831655728
 30
0.0
 11
106.83420031369
 21
239.562804965015
 31
0.0
  0
LINE
  5
529
330
1D
100
AcDbEntity
  8
0
100
AcDbLine
 10
106.415714916254
 20
239.350831655728
 30
0.0
 11
106.858718877454
 21
239.475817961301
 31
0.0
  0
LINE
  5
52A
330
1D
100
AcDbEntity
  8
0
100
AcDbLine
 10
106.639464916254
 20
240.889831655728
 30
0.0
 11
107.189274916254
 21
238.939831655728
 31
0.0
  0
LINE
  5
52B
330
1D
100
AcDbEntity
  8
0
100
AcDbLine
 10
106.391244916254
 20
239.437831655728
 30
0.0
 11
106.415714916254
 21
239.350831655728
 31
0.0
  0
LINE
  5
52C
330
1D
100
AcDbEntity
  8
0
100
AcDbLine
 10
106.020634916254
 20
240.752831655728
 30
0.0
 11
106.225794916254
 21
240.024831655728
 31
0.0
  0
LINE
  5
52D
330
1D
100
AcDbEntity
  8
0
100
AcDbLine
 10
106.020634916254
 20
240.752831655728
 30
0.0
 11
106.463616625439
 21
240.87756242702
 31
0.0
  0
LINE
  5
52E
330
1D
100
AcDbEntity
  8
0
100
AcDbLine
 10
106.225794916254
 20
240.024831655728
 30
0.0
 11
106.391244916254
 21
239.437831655728
 31
0.0
  0
LINE
  5
52F
330
1D
100
AcDbEntity
  8
0
100
AcDbLine
 10
106.225794916254
 20
240.024831655728
 30
0.0
 11
106.668811538326
 21
240.149571553604
 31
0.0
  0
LINE
  5
530
330
1D
100
AcDbEntity
  8
0
100
AcDbLine
 10
106.086774916254
 20
240.517831655728
 30
0.0
 11
106.291944916254
 21
239.789831655728
 31
0.0
  0
LINE
  5
531
330
1D
100
AcDbEntity
  8
0
100
AcDbLine
 10
105.921334916254
 20
241.104831655728
 30
0.0
 11
106.086774916254
 21
240.517831655728
 31
0.0
  0
LINE
  5
532
330
1D
100
AcDbEntity
  8
0
100
AcDbLine
 10
105.896854916254
 20
241.191831655728
 30
0.0
 11
105.921334916254
 21
241.104831655728
 31
0.0
  0
LINE
  5
533
330
1D
100
AcDbEntity
  8
0
100
AcDbLine
 10
105.896854916254
 20
241.191831655728
 30
0.0
 11
106.339882940215
 21
241.316574764026
 31
0.0
  0
LINE
  5
534
330
1D
100
AcDbEntity
  8
0
100
AcDbLine
 10
105.896854916254
 20
241.191831655728
 30
0.0
 11
106.020634916254
 21
240.752831655728
 31
0.0
  0
LINE
  5
535
330
1D
100
AcDbEntity
  8
0
100
AcDbLine
 10
106.291944916254
 20
239.789831655728
 30
0.0
 11
106.415714916254
 21
239.350831655728
 31
0.0
  0
LINE
  5
536
330
1D
100
AcDbEntity
  8
0
100
AcDbLine
 10
106.415782867281
 20
239.350850826997
 30
0.0
 11
106.556114916254
 21
238.852831655728
 31
0.0
  0
LINE
  5
537
330
1D
100
AcDbEntity
  8
0
100
AcDbLine
 10
106.827424916254
 20
237.890831655728
 30
0.0
 11
107.270512999544
 21
238.015591674892
 31
0.0
  0
LINE
  5
538
330
1D
100
AcDbEntity
  8
0
100
AcDbLine
 10
106.746034916254
 20
238.178831655728
 30
0.0
 11
106.827424916254
 21
237.890831655728
 31
0.0
  0
LINE
  5
539
330
1D
100
AcDbEntity
  8
0
100
AcDbLine
 10
106.746034916254
 20
238.178831655728
 30
0.0
 11
107.189218275424
 21
238.303868575498
 31
0.0
  0
LINE
  5
53A
330
1D
100
AcDbEntity
  8
0
100
AcDbLine
 10
106.746034916254
 20
238.178831655728
 30
0.0
 11
107.189218275424
 21
238.303868575498
 31
0.0
  0
LINE
  5
53B
330
1D
100
AcDbEntity
  8
0
100
AcDbLine
 10
107.386194916254
 20
237.604831655728
 30
0.0
 11
107.656064916254
 21
237.283831655728
 31
0.0
  0
LINE
  5
53C
330
1D
100
AcDbEntity
  8
0
100
AcDbLine
 10
106.929744916254
 20
239.223831655728
 30
0.0
 11
107.261714916254
 21
238.046831655728
 31
0.0
  0
LINE
  5
53D
330
1D
100
AcDbEntity
  8
0
100
AcDbLine
 10
107.189274916254
 20
238.939831655728
 30
0.0
 11
107.531584916254
 21
237.724831655728
 31
0.0
  0
LINE
  5
53E
330
1D
100
AcDbEntity
  8
0
100
AcDbLine
 10
107.531584916254
 20
237.724831655728
 30
0.0
 11
107.656064916254
 21
237.283831655728
 31
0.0
  0
LINE
  5
53F
330
1D
100
AcDbEntity
  8
0
100
AcDbLine
 10
108.977774916254
 20
235.992831655728
 30
0.0
 11
109.585444916254
 21
234.943831655728
 31
0.0
  0
LINE
  5
540
330
1D
100
AcDbEntity
  8
0
100
AcDbLine
 10
110.101994916254
 20
234.249831655728
 30
0.0
 11
110.286089340048
 21
234.104026155707
 31
0.0
  0
LINE
  5
541
330
1D
100
AcDbEntity
  8
0
100
AcDbLine
 10
109.585444916254
 20
234.943831655728
 30
0.0
 11
110.101994916254
 21
234.249831655728
 31
0.0
  0
LINE
  5
542
330
1D
100
AcDbEntity
  8
0
100
AcDbLine
 10
109.781194916254
 20
235.894831655728
 30
0.0
 11
110.242144916254
 21
234.259831655728
 31
0.0
  0
LINE
  5
543
330
1D
100
AcDbEntity
  8
0
100
AcDbLine
 10
110.242144916254
 20
234.259831655728
 30
0.0
 11
110.399244916254
 21
233.702831655728
 31
0.0
  0
LINE
  5
544
330
1D
100
AcDbEntity
  8
0
100
AcDbLine
 10
110.902244916254
 20
235.310831655728
 30
0.0
 11
111.390344916254
 21
233.579831655728
 31
0.0
  0
LINE
  5
545
330
1D
100
AcDbEntity
  8
0
100
AcDbLine
 10
110.126304916254
 20
238.063831655728
 30
0.0
 11
110.902244916254
 21
235.310831655728
 31
0.0
  0
LINE
  5
546
330
1D
100
AcDbEntity
  8
0
100
AcDbLine
 10
109.048384916254
 20
238.494831655728
 30
0.0
 11
109.781194916254
 21
235.894831655728
 31
0.0
  0
LINE
  5
547
330
1D
100
AcDbEntity
  8
0
100
AcDbLine
 10
110.399244916254
 20
233.702831655728
 30
0.0
 11
111.556644916254
 21
232.989831655728
 31
0.0
  0
LINE
  5
548
330
1D
100
AcDbEntity
  8
0
100
AcDbLine
 10
111.556644916254
 20
232.989831655728
 30
0.0
 11
115.782065989005
 21
233.808346394477
 31
0.0
  0
LINE
  5
549
330
1D
100
AcDbEntity
  8
0
100
AcDbLine
 10
115.782065989005
 20
233.808346394477
 30
0.0
 11
116.504944916254
 21
231.243831655728
 31
0.0
  0
LINE
  5
54A
330
1D
100
AcDbEntity
  8
0
100
AcDbLine
 10
111.556644916254
 20
232.989831655728
 30
0.0
 11
115.782065989005
 21
233.808346394477
 31
0.0
  0
LINE
  5
54B
330
1D
100
AcDbEntity
  8
0
100
AcDbLine
 10
111.390344916254
 20
233.579831655728
 30
0.0
 11
111.556644916254
 21
232.989831655728
 31
0.0
  0
LINE
  5
54C
330
1D
100
AcDbEntity
  8
0
100
AcDbLine
 10
120.975444916254
 20
208.924831655728
 30
0.0
 11
121.183344916254
 21
208.102831655728
 31
0.0
  0
LINE
  5
54D
330
1D
100
AcDbEntity
  8
0
100
AcDbLine
 10
120.818544916254
 20
209.545831655728
 30
0.0
 11
120.975444916254
 21
208.924831655728
 31
0.0
  0
LINE
  5
54E
330
1D
100
AcDbEntity
  8
0
100
AcDbLine
 10
120.724444916254
 20
209.917831655728
 30
0.0
 11
120.818544916254
 21
209.545831655728
 31
0.0
  0
LINE
  5
54F
330
1D
100
AcDbEntity
  8
0
100
AcDbLine
 10
120.689144916254
 20
210.057831655728
 30
0.0
 11
120.724444916254
 21
209.917831655728
 31
0.0
  0
LINE
  5
550
330
1D
100
AcDbEntity
  8
0
100
AcDbLine
 10
120.689144916254
 20
210.057831655728
 30
0.0
 11
121.817514270325
 21
210.337367266102
 31
0.0
  0
LINE
  5
551
330
1D
100
AcDbEntity
  8
0
100
AcDbLine
 10
113.037544916254
 20
271.848831655728
 30
0.0
 11
123.399444916254
 21
275.808831655728
 31
0.0
  0
LINE
  5
552
330
1D
100
AcDbEntity
  8
0
100
AcDbLine
 10
100.917585916254
 20
258.855831655728
 30
0.0
 11
101.122751916254
 21
258.127831655728
 31
0.0
  0
LINE
  5
553
330
1D
100
AcDbEntity
  8
0
100
AcDbLine
 10
101.172533916254
 20
260.283831655728
 30
0.0
 11
101.722314916254
 21
258.333831655728
 31
0.0
  0
LINE
  5
554
330
1D
100
AcDbEntity
  8
0
100
AcDbLine
 10
102.525514916254
 20
261.634831655728
 30
0.0
 11
103.480804916254
 21
258.245831655728
 31
0.0
  0
LINE
  5
555
330
1D
100
AcDbEntity
  8
0
100
AcDbLine
 10
104.231244916254
 20
258.976831655728
 30
0.0
 11
105.409014916254
 21
254.798831655728
 31
0.0
  0
LINE
  5
556
330
1D
100
AcDbEntity
  8
0
100
AcDbLine
 10
107.937094916254
 20
245.829831655728
 30
0.0
 11
109.114854916254
 21
241.651831655728
 31
0.0
  0
LINE
  5
557
330
1D
100
AcDbEntity
  8
0
100
AcDbLine
 10
103.143344916254
 20
252.656831655728
 30
0.0
 11
104.014744916254
 21
249.564831655728
 31
0.0
  0
LINE
  5
558
330
1D
100
AcDbEntity
  8
0
100
AcDbLine
 10
103.381774916254
 20
250.113831655728
 30
0.0
 11
103.571694916254
 21
249.439831655728
 31
0.0
  0
LINE
  5
559
330
1D
100
AcDbEntity
  8
0
100
AcDbLine
 10
103.288764916254
 20
252.776831655728
 30
0.0
 11
104.180894916254
 21
249.611831655728
 31
0.0
  0
LINE
  5
55A
330
1D
100
AcDbEntity
  8
0
100
AcDbLine
 10
106.673054916254
 20
250.314831655728
 30
0.0
 11
107.937094916254
 21
245.829831655728
 31
0.0
  0
LINE
  5
55B
330
1D
100
AcDbEntity
  8
0
100
AcDbLine
 10
104.593184916254
 20
254.299831655728
 30
0.0
 11
105.786954916254
 21
250.064831655728
 31
0.0
  0
LINE
  5
55C
330
1D
100
AcDbEntity
  8
0
100
AcDbLine
 10
104.325314916254
 20
246.766831655728
 30
0.0
 11
104.768308993661
 21
246.891815172751
 31
0.0
  0
LINE
  5
55D
330
1D
100
AcDbEntity
  8
0
100
AcDbLine
 10
104.325314916254
 20
246.766831655728
 30
0.0
 11
104.768308993661
 21
246.891815172751
 31
0.0
  0
LINE
  5
55E
330
1D
100
AcDbEntity
  8
0
100
AcDbLine
 10
104.295844916254
 20
246.870831655728
 30
0.0
 11
104.738978697222
 21
246.995854587821
 31
0.0
  0
LINE
  5
55F
330
1D
100
AcDbEntity
  8
0
100
AcDbLine
 10
104.575544916254
 20
245.878831655728
 30
0.0
 11
104.656934916254
 21
245.590831655728
 31
0.0
  0
LINE
  5
560
330
1D
100
AcDbEntity
  8
0
100
AcDbLine
 10
104.575544916254
 20
245.878831655728
 30
0.0
 11
105.018646428638
 21
246.003846189185
 31
0.0
  0
LINE
  5
561
330
1D
100
AcDbEntity
  8
0
100
AcDbLine
 10
104.385624916254
 20
246.552831655728
 30
0.0
 11
104.828637391245
 21
246.677820363328
 31
0.0
  0
LINE
  5
562
330
1D
100
AcDbEntity
  8
0
100
AcDbLine
 10
104.014744916254
 20
249.564831655728
 30
0.0
 11
104.886144916254
 21
246.473831655728
 31
0.0
  0
LINE
  5
563
330
1D
100
AcDbEntity
  8
0
100
AcDbLine
 10
104.180894916254
 20
249.611831655728
 30
0.0
 11
105.073014916254
 21
246.446831655728
 31
0.0
  0
LINE
  5
564
330
1D
100
AcDbEntity
  8
0
100
AcDbLine
 10
103.928954916254
 20
248.172831655728
 30
0.0
 11
104.133464916254
 21
247.447831655728
 31
0.0
  0
LINE
  5
565
330
1D
100
AcDbEntity
  8
0
100
AcDbLine
 10
103.909144916254
 20
248.242831655728
 30
0.0
 11
104.114314916254
 21
247.514831655728
 31
0.0
  0
LINE
  5
566
330
1D
100
AcDbEntity
  8
0
100
AcDbLine
 10
104.114314916254
 20
247.514831655728
 30
0.0
 11
104.238084916254
 21
247.075831655728
 31
0.0
  0
LINE
  5
567
330
1D
100
AcDbEntity
  8
0
100
AcDbLine
 10
104.012744916247
 20
247.875791168734
 30
0.0
 11
104.197524916254
 21
247.219831655728
 31
0.0
  0
LINE
  5
568
330
1D
100
AcDbEntity
  8
0
100
AcDbLine
 10
104.012744916247
 20
247.875791168734
 30
0.0
 11
104.197524916254
 21
247.219831655728
 31
0.0
  0
LINE
  5
569
330
1D
100
AcDbEntity
  8
0
100
AcDbLine
 10
104.197524916254
 20
247.219831655728
 30
0.0
 11
104.240934027123
 21
247.065951639891
 31
0.0
  0
LINE
  5
56A
330
1D
100
AcDbEntity
  8
0
100
AcDbLine
 10
104.197524916254
 20
247.219831655728
 30
0.0
 11
104.240934027123
 21
247.065951639891
 31
0.0
  0
LINE
  5
56B
330
1D
100
AcDbEntity
  8
0
100
AcDbLine
 10
104.133464916254
 20
247.447831655728
 30
0.0
 11
104.295844916254
 21
246.870831655728
 31
0.0
  0
LINE
  5
56C
330
1D
100
AcDbEntity
  8
0
100
AcDbLine
 10
104.133464916254
 20
247.447831655728
 30
0.0
 11
104.576399878711
 21
247.57254856076
 31
0.0
  0
LINE
  5
56D
330
1D
100
AcDbEntity
  8
0
100
AcDbLine
 10
104.295844916254
 20
246.870831655728
 30
0.0
 11
104.325314916254
 21
246.766831655728
 31
0.0
  0
LINE
  5
56E
330
1D
100
AcDbEntity
  8
0
100
AcDbLine
 10
104.114314916254
 20
247.514831655728
 30
0.0
 11
104.238084916254
 21
247.075831655728
 31
0.0
  0
LINE
  5
56F
330
1D
100
AcDbEntity
  8
0
100
AcDbLine
 10
104.325323245202
 20
246.766834005604
 30
0.0
 11
104.385624916254
 21
246.552831655728
 31
0.0
  0
LINE
  5
570
330
1D
100
AcDbEntity
  8
0
100
AcDbLine
 10
104.385624916254
 20
246.552831655728
 30
0.0
 11
104.575544916254
 21
245.878831655728
 31
0.0
  0
LINE
  5
571
330
1D
100
AcDbEntity
  8
0
100
AcDbLine
 10
103.928954916254
 20
248.172831655728
 30
0.0
 11
104.371937114198
 21
248.297811821155
 31
0.0
  0
LINE
  5
572
330
1D
100
AcDbEntity
  8
0
100
AcDbLine
 10
103.928954916254
 20
248.172831655728
 30
0.0
 11
104.371937114198
 21
248.297811821155
 31
0.0
  0
LINE
  5
573
330
1D
100
AcDbEntity
  8
0
100
AcDbLine
 10
103.761604916254
 20
248.766831655728
 30
0.0
 11
103.843004916254
 21
248.477831655728
 31
0.0
  0
LINE
  5
574
330
1D
100
AcDbEntity
  8
0
100
AcDbLine
 10
103.761604916254
 20
248.766831655728
 30
0.0
 11
104.204552665103
 21
248.891552161016
 31
0.0
  0
LINE
  5
575
330
1D
100
AcDbEntity
  8
0
100
AcDbLine
 10
103.801164916254
 20
248.625831655728
 30
0.0
 11
103.928954916254
 21
248.172831655728
 31
0.0
  0
LINE
  5
576
330
1D
100
AcDbEntity
  8
0
100
AcDbLine
 10
103.839907272634
 20
248.488494716686
 30
0.0
 11
103.909144916254
 21
248.242831655728
 31
0.0
  0
LINE
  5
577
330
1D
100
AcDbEntity
  8
0
100
AcDbLine
 10
103.719224916254
 20
248.916831655728
 30
0.0
 11
103.743704916254
 21
248.829831655728
 31
0.0
  0
LINE
  5
578
330
1D
100
AcDbEntity
  8
0
100
AcDbLine
 10
103.743704916254
 20
248.829831655728
 30
0.0
 11
103.801197645904
 21
248.625840889862
 31
0.0
  0
LINE
  5
579
330
1D
100
AcDbEntity
  8
0
100
AcDbLine
 10
103.843004916254
 20
248.477831655728
 30
0.0
 11
104.285955298429
 21
248.602803550033
 31
0.0
  0
LINE
  5
57A
330
1D
100
AcDbEntity
  8
0
100
AcDbLine
 10
103.839907272634
 20
248.488494716686
 30
0.0
 11
103.909144916254
 21
248.242831655728
 31
0.0
  0
LINE
  5
57B
330
1D
100
AcDbEntity
  8
0
100
AcDbLine
 10
103.571694916254
 20
249.439831655728
 30
0.0
 11
103.719273417452
 21
248.916845339546
 31
0.0
  0
LINE
  5
57C
330
1D
100
AcDbEntity
  8
0
100
AcDbLine
 10
103.571694916254
 20
249.439831655728
 30
0.0
 11
103.761604916254
 21
248.766831655728
 31
0.0
  0
LINE
  5
57D
330
1D
100
AcDbEntity
  8
0
100
AcDbLine
 10
103.571694916254
 20
249.439831655728
 30
0.0
 11
104.014744916254
 21
249.564831655728
 31
0.0
  0
LINE
  5
57E
330
1D
100
AcDbEntity
  8
0
100
AcDbLine
 10
104.886144916254
 20
246.473831655728
 30
0.0
 11
105.695274916254
 21
243.603831655728
 31
0.0
  0
LINE
  5
57F
330
1D
100
AcDbEntity
  8
0
100
AcDbLine
 10
105.073014916254
 20
246.446831655728
 30
0.0
 11
105.913294916254
 21
243.465831655728
 31
0.0
  0
LINE
  5
580
330
1D
100
AcDbEntity
  8
0
100
AcDbLine
 10
106.980724916254
 20
245.829831655728
 30
0.0
 11
108.093094916254
 21
241.883831655728
 31
0.0
  0
LINE
  5
581
330
1D
100
AcDbEntity
  8
0
100
AcDbLine
 10
104.994394916254
 20
244.392831655728
 30
0.0
 11
105.199554916254
 21
243.665831655728
 31
0.0
  0
LINE
  5
582
330
1D
100
AcDbEntity
  8
0
100
AcDbLine
 10
105.199554916254
 20
243.665831655728
 30
0.0
 11
105.642623781762
 21
243.790586263753
 31
0.0
  0
LINE
  5
583
330
1D
100
AcDbEntity
  8
0
100
AcDbLine
 10
105.133414916254
 20
243.899831655728
 30
0.0
 11
105.286738071588
 21
243.355922232986
 31
0.0
  0
LINE
  5
584
330
1D
100
AcDbEntity
  8
0
100
AcDbLine
 10
105.133414916254
 20
243.899831655728
 30
0.0
 11
105.286738071588
 21
243.355922232985
 31
0.0
  0
LINE
  5
585
330
1D
100
AcDbEntity
  8
0
100
AcDbLine
 10
105.430337763785
 20
242.846758277536
 30
0.0
 11
105.476374916254
 21
242.682831655728
 31
0.0
  0
LINE
  5
586
330
1D
100
AcDbEntity
  8
0
100
AcDbLine
 10
105.476374916254
 20
242.682831655728
 30
0.0
 11
105.638754916254
 21
242.106831655728
 31
0.0
  0
LINE
  5
587
330
1D
100
AcDbEntity
  8
0
100
AcDbLine
 10
105.430337763785
 20
242.846758277536
 30
0.0
 11
105.476374916254
 21
242.682831655728
 31
0.0
  0
LINE
  5
588
330
1D
100
AcDbEntity
  8
0
100
AcDbLine
 10
105.550924215914
 20
242.41874600493
 30
0.0
 11
105.638754916254
 21
242.106831655728
 31
0.0
  0
LINE
  5
589
330
1D
100
AcDbEntity
  8
0
100
AcDbLine
 10
105.668224916254
 20
242.002831655728
 30
0.0
 11
106.111316932665
 21
242.127593486328
 31
0.0
  0
LINE
  5
58A
330
1D
100
AcDbEntity
  8
0
100
AcDbLine
 10
105.638754916254
 20
242.106831655728
 30
0.0
 11
105.668224916254
 21
242.002831655728
 31
0.0
  0
LINE
  5
58B
330
1D
100
AcDbEntity
  8
0
100
AcDbLine
 10
105.550924215913
 20
242.41874600493
 30
0.0
 11
105.638754916254
 21
242.106831655728
 31
0.0
  0
LINE
  5
58C
330
1D
100
AcDbEntity
  8
0
100
AcDbLine
 10
105.540464916254
 20
242.455831655728
 30
0.0
 11
105.668224916254
 21
242.002831655728
 31
0.0
  0
LINE
  5
58D
330
1D
100
AcDbEntity
  8
0
100
AcDbLine
 10
105.540464916254
 20
242.455831655728
 30
0.0
 11
105.983577724796
 21
242.580849376229
 31
0.0
  0
LINE
  5
58E
330
1D
100
AcDbEntity
  8
0
100
AcDbLine
 10
105.199554916254
 20
243.665831655728
 30
0.0
 11
105.323334916254
 21
243.225831655728
 31
0.0
  0
LINE
  5
58F
330
1D
100
AcDbEntity
  8
0
100
AcDbLine
 10
105.323334916254
 20
243.225831655728
 30
0.0
 11
105.766562709099
 21
243.350881817348
 31
0.0
  0
LINE
  5
590
330
1D
100
AcDbEntity
  8
0
100
AcDbLine
 10
105.286738071588
 20
243.355922232985
 30
0.0
 11
105.323334916254
 21
243.225831655728
 31
0.0
  0
LINE
  5
591
330
1D
100
AcDbEntity
  8
0
100
AcDbLine
 10
105.286738071588
 20
243.355922232985
 30
0.0
 11
105.323334916254
 21
243.225831655728
 31
0.0
  0
LINE
  5
592
330
1D
100
AcDbEntity
  8
0
100
AcDbLine
 10
105.32349992174
 20
243.225878209584
 30
0.0
 11
105.350744866349
 21
243.129295161649
 31
0.0
  0
LINE
  5
593
330
1D
100
AcDbEntity
  8
0
100
AcDbLine
 10
105.323485103816
 20
243.225874028926
 30
0.0
 11
105.357692518064
 21
243.104632560703
 31
0.0
  0
LINE
  5
594
330
1D
100
AcDbEntity
  8
0
100
AcDbLine
 10
105.323485103816
 20
243.225874028926
 30
0.0
 11
105.357692518064
 21
243.104632560703
 31
0.0
  0
LINE
  5
595
330
1D
100
AcDbEntity
  8
0
100
AcDbLine
 10
105.323409064575
 20
243.225852575579
 30
0.0
 11
105.476374916254
 21
242.682831655728
 31
0.0
  0
LINE
  5
596
330
1D
100
AcDbEntity
  8
0
100
AcDbLine
 10
105.335944916254
 20
243.181831655728
 30
0.0
 11
105.540464916254
 21
242.455831655728
 31
0.0
  0
LINE
  5
597
330
1D
100
AcDbEntity
  8
0
100
AcDbLine
 10
105.335944916254
 20
243.181831655728
 30
0.0
 11
105.779043945712
 21
243.306594756997
 31
0.0
  0
LINE
  5
598
330
1D
100
AcDbEntity
  8
0
100
AcDbLine
 10
104.646034916254
 20
245.628831655728
 30
0.0
 11
104.722784916254
 21
245.356831655728
 31
0.0
  0
LINE
  5
599
330
1D
100
AcDbEntity
  8
0
100
AcDbLine
 10
104.828944916254
 20
244.979831655728
 30
0.0
 11
104.994394916254
 21
244.392831655728
 31
0.0
  0
LINE
  5
59A
330
1D
100
AcDbEntity
  8
0
100
AcDbLine
 10
104.828944916254
 20
244.979831655728
 30
0.0
 11
105.272094984818
 21
245.104859183099
 31
0.0
  0
LINE
  5
59B
330
1D
100
AcDbEntity
  8
0
100
AcDbLine
 10
104.804474916254
 20
245.066831655728
 30
0.0
 11
104.828944916254
 21
244.979831655728
 31
0.0
  0
LINE
  5
59C
330
1D
100
AcDbEntity
  8
0
100
AcDbLine
 10
104.804474916254
 20
245.066831655728
 30
0.0
 11
105.247571597179
 21
245.191844120652
 31
0.0
  0
LINE
  5
59D
330
1D
100
AcDbEntity
  8
0
100
AcDbLine
 10
104.722784916254
 20
245.356831655728
 30
0.0
 11
104.804478602704
 21
245.0668326958
 31
0.0
  0
LINE
  5
59E
330
1D
100
AcDbEntity
  8
0
100
AcDbLine
 10
104.722784916254
 20
245.356831655728
 30
0.0
 11
105.165883179796
 21
245.481594541338
 31
0.0
  0
LINE
  5
59F
330
1D
100
AcDbEntity
  8
0
100
AcDbLine
 10
104.722784916254
 20
245.356831655728
 30
0.0
 11
105.165883179796
 21
245.481594541338
 31
0.0
  0
LINE
  5
5A0
330
1D
100
AcDbEntity
  8
0
100
AcDbLine
 10
104.656934916254
 20
245.590831655728
 30
0.0
 11
105.099921191589
 21
245.715563008893
 31
0.0
  0
LINE
  5
5A1
330
1D
100
AcDbEntity
  8
0
100
AcDbLine
 10
105.054266511582
 20
244.180672122664
 30
0.0
 11
105.133414916254
 21
243.899831655728
 31
0.0
  0
LINE
  5
5A2
330
1D
100
AcDbEntity
  8
0
100
AcDbLine
 10
105.054266511582
 20
244.180672122664
 30
0.0
 11
105.133414916254
 21
243.899831655728
 31
0.0
  0
LINE
  5
5A3
330
1D
100
AcDbEntity
  8
0
100
AcDbLine
 10
104.994394916254
 20
244.392831655728
 30
0.0
 11
105.054266511582
 21
244.180672122664
 31
0.0
  0
LINE
  5
5A4
330
1D
100
AcDbEntity
  8
0
100
AcDbLine
 10
104.994394916254
 20
244.392831655728
 30
0.0
 11
105.437583009107
 21
244.517869911029
 31
0.0
  0
LINE
  5
5A5
330
1D
100
AcDbEntity
  8
0
100
AcDbLine
 10
105.144104916254
 20
243.861831655728
 30
0.0
 11
105.188156536775
 21
243.70563735316
 31
0.0
  0
LINE
  5
5A6
330
1D
100
AcDbEntity
  8
0
100
AcDbLine
 10
105.144104916254
 20
243.861831655728
 30
0.0
 11
105.175355309406
 21
243.751049333976
 31
0.0
  0
LINE
  5
5A7
330
1D
100
AcDbEntity
  8
0
100
AcDbLine
 10
105.144104916254
 20
243.861831655728
 30
0.0
 11
105.188156536775
 21
243.70563735316
 31
0.0
  0
LINE
  5
5A8
330
1D
100
AcDbEntity
  8
0
100
AcDbLine
 10
105.786954916254
 20
250.064831655728
 30
0.0
 11
106.980724916254
 21
245.829831655728
 31
0.0
  0
LINE
  5
5A9
330
1D
100
AcDbEntity
  8
0
100
AcDbLine
 10
102.08911332092
 20
254.699991188812
 30
0.0
 11
102.215134916254
 21
254.252831655728
 31
0.0
  0
LINE
  5
5AA
330
1D
100
AcDbEntity
  8
0
100
AcDbLine
 10
102.148984916254
 20
254.487831655728
 30
0.0
 11
102.314464916254
 21
253.900831655728
 31
0.0
  0
LINE
  5
5AB
330
1D
100
AcDbEntity
  8
0
100
AcDbLine
 10
102.115806582916
 20
254.605276100187
 30
0.0
 11
102.215134916254
 21
254.252831655728
 31
0.0
  0
LINE
  5
5AC
330
1D
100
AcDbEntity
  8
0
100
AcDbLine
 10
102.115806582916
 20
254.605276100187
 30
0.0
 11
102.215134916254
 21
254.252831655728
 31
0.0
  0
LINE
  5
5AD
330
1D
100
AcDbEntity
  8
0
100
AcDbLine
 10
102.448484916254
 20
255.757831655728
 30
0.0
 11
103.288764916254
 21
252.776831655728
 31
0.0
  0
LINE
  5
5AE
330
1D
100
AcDbEntity
  8
0
100
AcDbLine
 10
103.480804916254
 20
258.245831655728
 30
0.0
 11
104.593184916254
 21
254.299831655728
 31
0.0
  0
LINE
  5
5AF
330
1D
100
AcDbEntity
  8
0
100
AcDbLine
 10
102.314464916254
 20
253.900831655728
 30
0.0
 11
102.757461786278
 21
254.025566695871
 31
0.0
  0
LINE
  5
5B0
330
1D
100
AcDbEntity
  8
0
100
AcDbLine
 10
102.314464916254
 20
253.900831655728
 30
0.0
 11
102.757461786278
 21
254.025566695871
 31
0.0
  0
LINE
  5
5B1
330
1D
100
AcDbEntity
  8
0
100
AcDbLine
 10
102.420624916254
 20
253.523831655728
 30
0.0
 11
102.497354916254
 21
253.251831655728
 31
0.0
  0
LINE
  5
5B2
330
1D
100
AcDbEntity
  8
0
100
AcDbLine
 10
102.420624916254
 20
253.523831655728
 30
0.0
 11
102.863739087725
 21
253.648599020524
 31
0.0
  0
LINE
  5
5B3
330
1D
100
AcDbEntity
  8
0
100
AcDbLine
 10
102.420624916254
 20
253.523831655728
 30
0.0
 11
102.863739087725
 21
253.648599020524
 31
0.0
  0
LINE
  5
5B4
330
1D
100
AcDbEntity
  8
0
100
AcDbLine
 10
102.338904916254
 20
253.813831655728
 30
0.0
 11
102.781983159305
 21
253.938588904182
 31
0.0
  0
LINE
  5
5B5
330
1D
100
AcDbEntity
  8
0
100
AcDbLine
 10
102.314464916254
 20
253.900831655728
 30
0.0
 11
102.338904916254
 21
253.813831655728
 31
0.0
  0
LINE
  5
5B6
330
1D
100
AcDbEntity
  8
0
100
AcDbLine
 10
102.215134916254
 20
254.252831655728
 30
0.0
 11
102.338904916254
 21
253.813831655728
 31
0.0
  0
LINE
  5
5B7
330
1D
100
AcDbEntity
  8
0
100
AcDbLine
 10
102.338929024564
 20
253.813838443889
 30
0.0
 11
102.420624916254
 21
253.523831655728
 31
0.0
  0
LINE
  5
5B8
330
1D
100
AcDbEntity
  8
0
100
AcDbLine
 10
102.757754916254
 20
252.327831655728
 30
0.0
 11
102.947674916254
 21
251.653831655728
 31
0.0
  0
LINE
  5
5B9
330
1D
100
AcDbEntity
  8
0
100
AcDbLine
 10
103.234234916254
 20
250.637831655728
 30
0.0
 11
103.677197113344
 21
250.762556932981
 31
0.0
  0
LINE
  5
5BA
330
1D
100
AcDbEntity
  8
0
100
AcDbLine
 10
103.234234916254
 20
250.637831655728
 30
0.0
 11
103.677197113344
 21
250.762556932981
 31
0.0
  0
LINE
  5
5BB
330
1D
100
AcDbEntity
  8
0
100
AcDbLine
 10
103.300374916254
 20
250.402831655728
 30
0.0
 11
103.743354168531
 21
250.527810990084
 31
0.0
  0
LINE
  5
5BC
330
1D
100
AcDbEntity
  8
0
100
AcDbLine
 10
103.381774916254
 20
250.113831655728
 30
0.0
 11
103.824797849328
 21
250.238823313905
 31
0.0
  0
LINE
  5
5BD
330
1D
100
AcDbEntity
  8
0
100
AcDbLine
 10
102.905294916254
 20
251.804831655728
 30
0.0
 11
102.929764916254
 21
251.717831655728
 31
0.0
  0
LINE
  5
5BE
330
1D
100
AcDbEntity
  8
0
100
AcDbLine
 10
102.905294916254
 20
251.804831655728
 30
0.0
 11
103.029064916254
 21
251.364831655728
 31
0.0
  0
LINE
  5
5BF
330
1D
100
AcDbEntity
  8
0
100
AcDbLine
 10
102.905294916254
 20
251.804831655728
 30
0.0
 11
103.348304843675
 21
251.929569668595
 31
0.0
  0
LINE
  5
5C0
330
1D
100
AcDbEntity
  8
0
100
AcDbLine
 10
102.827143639956
 20
252.081580603838
 30
0.0
 11
102.847554916254
 21
252.008831655728
 31
0.0
  0
LINE
  5
5C1
330
1D
100
AcDbEntity
  8
0
100
AcDbLine
 10
102.847554916254
 20
252.008831655728
 30
0.0
 11
102.989456726352
 21
251.505472605249
 31
0.0
  0
LINE
  5
5C2
330
1D
100
AcDbEntity
  8
0
100
AcDbLine
 10
102.847554916254
 20
252.008831655728
 30
0.0
 11
102.989456726352
 21
251.505472605249
 31
0.0
  0
LINE
  5
5C3
330
1D
100
AcDbEntity
  8
0
100
AcDbLine
 10
102.827143639956
 20
252.081580603838
 30
0.0
 11
102.847554916254
 21
252.008831655728
 31
0.0
  0
LINE
  5
5C4
330
1D
100
AcDbEntity
  8
0
100
AcDbLine
 10
103.173699915309
 20
250.852331561594
 30
0.0
 11
103.300374916254
 21
250.402831655728
 31
0.0
  0
LINE
  5
5C5
330
1D
100
AcDbEntity
  8
0
100
AcDbLine
 10
103.173699915309
 20
250.852331561594
 30
0.0
 11
103.300374916254
 21
250.402831655728
 31
0.0
  0
LINE
  5
5C6
330
1D
100
AcDbEntity
  8
0
100
AcDbLine
 10
103.234234916254
 20
250.637831655728
 30
0.0
 11
103.300471604725
 21
250.402858934795
 31
0.0
  0
LINE
  5
5C7
330
1D
100
AcDbEntity
  8
0
100
AcDbLine
 10
103.029064916254
 20
251.364831655728
 30
0.0
 11
103.173699915309
 21
250.852331561594
 31
0.0
  0
LINE
  5
5C8
330
1D
100
AcDbEntity
  8
0
100
AcDbLine
 10
103.029064916254
 20
251.364831655728
 30
0.0
 11
103.234234916254
 21
250.637831655728
 31
0.0
  0
LINE
  5
5C9
330
1D
100
AcDbEntity
  8
0
100
AcDbLine
 10
103.029064916254
 20
251.364831655728
 30
0.0
 11
103.472225039385
 21
251.48986201983
 31
0.0
  0
LINE
  5
5CA
330
1D
100
AcDbEntity
  8
0
100
AcDbLine
 10
103.029064916254
 20
251.364831655728
 30
0.0
 11
103.472225039385
 21
251.48986201983
 31
0.0
  0
LINE
  5
5CB
330
1D
100
AcDbEntity
  8
0
100
AcDbLine
 10
103.126869419954
 20
251.018270880808
 30
0.0
 11
103.150374916254
 21
250.934831655728
 31
0.0
  0
LINE
  5
5CC
330
1D
100
AcDbEntity
  8
0
100
AcDbLine
 10
103.126869419954
 20
251.018270880808
 30
0.0
 11
103.150374916254
 21
250.934831655728
 31
0.0
  0
LINE
  5
5CD
330
1D
100
AcDbEntity
  8
0
100
AcDbLine
 10
103.150374916254
 20
250.934831655728
 30
0.0
 11
103.312754916254
 21
250.358831655728
 31
0.0
  0
LINE
  5
5CE
330
1D
100
AcDbEntity
  8
0
100
AcDbLine
 10
102.947674916254
 20
251.653831655728
 30
0.0
 11
103.029064916254
 21
251.364831655728
 31
0.0
  0
LINE
  5
5CF
330
1D
100
AcDbEntity
  8
0
100
AcDbLine
 10
103.300374916254
 20
250.402831655728
 30
0.0
 11
103.381774916254
 21
250.113831655728
 31
0.0
  0
LINE
  5
5D0
330
1D
100
AcDbEntity
  8
0
100
AcDbLine
 10
102.757754916254
 20
252.327831655728
 30
0.0
 11
103.200834844079
 21
252.452839394039
 31
0.0
  0
LINE
  5
5D1
330
1D
100
AcDbEntity
  8
0
100
AcDbLine
 10
102.497354916254
 20
253.251831655728
 30
0.0
 11
102.940426377262
 21
253.376587698524
 31
0.0
  0
LINE
  5
5D2
330
1D
100
AcDbEntity
  8
0
100
AcDbLine
 10
102.497354916254
 20
253.251831655728
 30
0.0
 11
102.940426377262
 21
253.376587698524
 31
0.0
  0
LINE
  5
5D3
330
1D
100
AcDbEntity
  8
0
100
AcDbLine
 10
102.486444916254
 20
253.289831655728
 30
0.0
 11
102.567834916254
 21
253.001831655728
 31
0.0
  0
LINE
  5
5D4
330
1D
100
AcDbEntity
  8
0
100
AcDbLine
 10
102.567834916254
 20
253.001831655728
 30
0.0
 11
102.757754916254
 21
252.327831655728
 31
0.0
  0
LINE
  5
5D5
330
1D
100
AcDbEntity
  8
0
100
AcDbLine
 10
102.567834916254
 20
253.001831655728
 30
0.0
 11
103.010908142885
 21
253.126587491712
 31
0.0
  0
LINE
  5
5D6
330
1D
100
AcDbEntity
  8
0
100
AcDbLine
 10
102.567834916254
 20
253.001831655728
 30
0.0
 11
103.010908142885
 21
253.126587491712
 31
0.0
  0
LINE
  5
5D7
330
1D
100
AcDbEntity
  8
0
100
AcDbLine
 10
102.148984916254
 20
254.487831655728
 30
0.0
 11
102.591971733905
 21
254.612563161592
 31
0.0
  0
LINE
  5
5D8
330
1D
100
AcDbEntity
  8
0
100
AcDbLine
 10
102.148984916254
 20
254.487831655728
 30
0.0
 11
102.591971733905
 21
254.612563161592
 31
0.0
  0
LINE
  5
5D9
330
1D
100
AcDbEntity
  8
0
100
AcDbLine
 10
101.602944916254
 20
256.424831655728
 30
0.0
 11
102.04597902915
 21
256.549576478483
 31
0.0
  0
LINE
  5
5DA
330
1D
100
AcDbEntity
  8
0
100
AcDbLine
 10
101.559535805385
 20
256.578711671561
 30
0.0
 11
101.667004916254
 21
256.196831655728
 31
0.0
  0
LINE
  5
5DB
330
1D
100
AcDbEntity
  8
0
100
AcDbLine
 10
101.559535805385
 20
256.578711671561
 30
0.0
 11
101.667004916254
 21
256.196831655728
 31
0.0
  0
LINE
  5
5DC
330
1D
100
AcDbEntity
  8
0
100
AcDbLine
 10
101.602944916254
 20
256.424831655728
 30
0.0
 11
102.04597902915
 21
256.549576478483
 31
0.0
  0
LINE
  5
5DD
330
1D
100
AcDbEntity
  8
0
100
AcDbLine
 10
101.475154916254
 20
256.877831655728
 30
0.0
 11
101.602944916254
 21
256.424831655728
 31
0.0
  0
LINE
  5
5DE
330
1D
100
AcDbEntity
  8
0
100
AcDbLine
 10
101.628804916254
 20
258.029831655728
 30
0.0
 11
102.334214916254
 21
255.526831655728
 31
0.0
  0
LINE
  5
5DF
330
1D
100
AcDbEntity
  8
0
100
AcDbLine
 10
101.722314916254
 20
258.333831655728
 30
0.0
 11
102.448484916254
 21
255.757831655728
 31
0.0
  0
LINE
  5
5E0
330
1D
100
AcDbEntity
  8
0
100
AcDbLine
 10
101.602944916254
 20
256.424831655728
 30
0.0
 11
101.807464916254
 21
255.698831655728
 31
0.0
  0
LINE
  5
5E1
330
1D
100
AcDbEntity
  8
0
100
AcDbLine
 10
101.667004916254
 20
256.196831655728
 30
0.0
 11
101.79452559962
 21
255.744763319507
 31
0.0
  0
LINE
  5
5E2
330
1D
100
AcDbEntity
  8
0
100
AcDbLine
 10
101.667004916254
 20
256.196831655728
 30
0.0
 11
101.79452559962
 21
255.744763319507
 31
0.0
  0
LINE
  5
5E3
330
1D
100
AcDbEntity
  8
0
100
AcDbLine
 10
101.820044916254
 20
255.654831655728
 30
0.0
 11
101.943824916254
 21
255.214831655728
 31
0.0
  0
LINE
  5
5E4
330
1D
100
AcDbEntity
  8
0
100
AcDbLine
 10
101.820044916254
 20
255.654831655728
 30
0.0
 11
102.262991822274
 21
255.779551923701
 31
0.0
  0
LINE
  5
5E5
330
1D
100
AcDbEntity
  8
0
100
AcDbLine
 10
101.807464916254
 20
255.698831655728
 30
0.0
 11
101.90373182127
 21
255.357350332356
 31
0.0
  0
LINE
  5
5E6
330
1D
100
AcDbEntity
  8
0
100
AcDbLine
 10
101.807464916254
 20
255.698831655728
 30
0.0
 11
102.250512817824
 21
255.823831063687
 31
0.0
  0
LINE
  5
5E7
330
1D
100
AcDbEntity
  8
0
100
AcDbLine
 10
101.807464916254
 20
255.698831655728
 30
0.0
 11
101.90373182127
 21
255.357350332356
 31
0.0
  0
LINE
  5
5E8
330
1D
100
AcDbEntity
  8
0
100
AcDbLine
 10
101.807464916254
 20
255.698831655728
 30
0.0
 11
102.250512817824
 21
255.823831063687
 31
0.0
  0
LINE
  5
5E9
330
1D
100
AcDbEntity
  8
0
100
AcDbLine
 10
101.90373182127
 20
255.357350332356
 30
0.0
 11
101.943824916254
 21
255.214831655728
 31
0.0
  0
LINE
  5
5EA
330
1D
100
AcDbEntity
  8
0
100
AcDbLine
 10
102.036934916254
 20
254.884831655728
 30
0.0
 11
102.115806582916
 21
254.605276100187
 31
0.0
  0
LINE
  5
5EB
330
1D
100
AcDbEntity
  8
0
100
AcDbLine
 10
102.036934916254
 20
254.884831655728
 30
0.0
 11
102.115806582916
 21
254.605276100187
 31
0.0
  0
LINE
  5
5EC
330
1D
100
AcDbEntity
  8
0
100
AcDbLine
 10
101.960184916254
 20
255.156831655728
 30
0.0
 11
102.036934916254
 21
254.884831655728
 31
0.0
  0
LINE
  5
5ED
330
1D
100
AcDbEntity
  8
0
100
AcDbLine
 10
101.943824916254
 20
255.214831655728
 30
0.0
 11
101.960192000113
 21
255.156833654334
 31
0.0
  0
LINE
  5
5EE
330
1D
100
AcDbEntity
  8
0
100
AcDbLine
 10
101.943824916254
 20
255.214831655728
 30
0.0
 11
101.960192000113
 21
255.156833654334
 31
0.0
  0
LINE
  5
5EF
330
1D
100
AcDbEntity
  8
0
100
AcDbLine
 10
101.943824916254
 20
255.214831655728
 30
0.0
 11
102.148984916254
 21
254.487831655728
 31
0.0
  0
LINE
  5
5F0
330
1D
100
AcDbEntity
  8
0
100
AcDbLine
 10
101.943824916254
 20
255.214831655728
 30
0.0
 11
102.386930789117
 21
255.339847419429
 31
0.0
  0
LINE
  5
5F1
330
1D
100
AcDbEntity
  8
0
100
AcDbLine
 10
101.90373182127
 20
255.357350332356
 30
0.0
 11
101.943824916254
 21
255.214831655728
 31
0.0
  0
LINE
  5
5F2
330
1D
100
AcDbEntity
  8
0
100
AcDbLine
 10
101.122751916254
 20
258.127831655728
 30
0.0
 11
101.246554916254
 21
257.688831655728
 31
0.0
  0
LINE
  5
5F3
330
1D
100
AcDbEntity
  8
0
100
AcDbLine
 10
101.122751916254
 20
258.127831655728
 30
0.0
 11
101.56590748559
 21
258.252861228902
 31
0.0
  0
LINE
  5
5F4
330
1D
100
AcDbEntity
  8
0
100
AcDbLine
 10
101.122751916254
 20
258.127831655728
 30
0.0
 11
101.56590748559
 21
258.252861228902
 31
0.0
  0
LINE
  5
5F5
330
1D
100
AcDbEntity
  8
0
100
AcDbLine
 10
101.246554916254
 20
257.688831655728
 30
0.0
 11
101.689673812832
 21
257.813851093878
 31
0.0
  0
LINE
  5
5F6
330
1D
100
AcDbEntity
  8
0
100
AcDbLine
 10
101.246554916254
 20
257.688831655728
 30
0.0
 11
101.689673812832
 21
257.813851093878
 31
0.0
  0
LINE
  5
5F7
330
1D
100
AcDbEntity
  8
0
100
AcDbLine
 10
101.475154916254
 20
256.877831655728
 30
0.0
 11
101.91823762051
 21
257.002840177364
 31
0.0
  0
LINE
  5
5F8
330
1D
100
AcDbEntity
  8
0
100
AcDbLine
 10
101.475154916254
 20
256.877831655728
 30
0.0
 11
101.559535805385
 21
256.578711671561
 31
0.0
  0
LINE
  5
5F9
330
1D
100
AcDbEntity
  8
0
100
AcDbLine
 10
101.475154916254
 20
256.877831655728
 30
0.0
 11
101.559535805385
 21
256.578711671561
 31
0.0
  0
LINE
  5
5FA
330
1D
100
AcDbEntity
  8
0
100
AcDbLine
 10
101.475154916254
 20
256.877831655728
 30
0.0
 11
101.91823762051
 21
257.002840177364
 31
0.0
  0
LINE
  5
5FB
330
1D
100
AcDbEntity
  8
0
100
AcDbLine
 10
105.409014916254
 20
254.798831655728
 30
0.0
 11
106.673054916254
 21
250.314831655728
 31
0.0
  0
LINE
  5
5FC
330
1D
100
AcDbEntity
  8
0
100
AcDbLine
 10
101.789444916254
 20
267.639831655728
 30
0.0
 11
113.037544916254
 21
271.848831655728
 31
0.0
  0
LINE
  5
5FD
330
1D
100
AcDbEntity
  8
0
100
AcDbLine
 10
101.174655916254
 20
266.426831655728
 30
0.0
 11
101.789444916254
 21
267.639831655728
 31
0.0
  0
LINE
  5
5FE
330
1D
100
AcDbEntity
  8
0
100
AcDbLine
 10
101.789444916254
 20
267.639831655728
 30
0.0
 11
101.955754916254
 21
267.049831655728
 31
0.0
  0
LINE
  5
5FF
330
1D
100
AcDbEntity
  8
0
100
AcDbLine
 10
101.158629916254
 20
263.731831655728
 30
0.0
 11
101.316460350561
 21
262.310880632425
 31
0.0
  0
LINE
  5
600
330
1D
100
AcDbEntity
  8
0
100
AcDbLine
 10
102.443844916254
 20
265.317831655728
 30
0.0
 11
103.219794916254
 21
262.564831655728
 31
0.0
  0
LINE
  5
601
330
1D
100
AcDbEntity
  8
0
100
AcDbLine
 10
101.792704916254
 20
264.234831655728
 30
0.0
 11
102.525514916254
 21
261.634831655728
 31
0.0
  0
LINE
  5
602
330
1D
100
AcDbEntity
  8
0
100
AcDbLine
 10
100.397345916254
 20
260.701831655728
 30
0.0
 11
100.840295815976
 21
260.826552837012
 31
0.0
  0
LINE
  5
603
330
1D
100
AcDbEntity
  8
0
100
AcDbLine
 10
100.315952916254
 20
260.989831655728
 30
0.0
 11
100.397345916254
 21
260.701831655728
 31
0.0
  0
LINE
  5
604
330
1D
100
AcDbEntity
  8
0
100
AcDbLine
 10
100.315952916254
 20
260.989831655728
 30
0.0
 11
100.587263916254
 21
260.027831655728
 31
0.0
  0
LINE
  5
605
330
1D
100
AcDbEntity
  8
0
100
AcDbLine
 10
100.397345916254
 20
260.701831655728
 30
0.0
 11
100.840295815976
 21
260.826552837012
 31
0.0
  0
LINE
  5
606
330
1D
100
AcDbEntity
  8
0
100
AcDbLine
 10
100.767796916254
 20
261.083831655728
 30
0.0
 11
101.099746916254
 21
259.905831655728
 31
0.0
  0
LINE
  5
607
330
1D
100
AcDbEntity
  8
0
100
AcDbLine
 10
100.830192916254
 20
261.498831655728
 30
0.0
 11
101.172533916254
 21
260.283831655728
 31
0.0
  0
LINE
  5
608
330
1D
100
AcDbEntity
  8
0
100
AcDbLine
 10
100.397345916254
 20
260.701831655728
 30
0.0
 11
100.587263916254
 21
260.027831655728
 31
0.0
  0
LINE
  5
609
330
1D
100
AcDbEntity
  8
0
100
AcDbLine
 10
100.587263916254
 20
260.027831655728
 30
0.0
 11
100.858575916254
 21
259.064831655728
 31
0.0
  0
LINE
  5
60A
330
1D
100
AcDbEntity
  8
0
100
AcDbLine
 10
100.587263916254
 20
260.027831655728
 30
0.0
 11
101.030222422352
 21
260.15255511955
 31
0.0
  0
LINE
  5
60B
330
1D
100
AcDbEntity
  8
0
100
AcDbLine
 10
100.587263916254
 20
260.027831655728
 30
0.0
 11
100.858575916254
 21
259.064831655728
 31
0.0
  0
LINE
  5
60C
330
1D
100
AcDbEntity
  8
0
100
AcDbLine
 10
100.587263916254
 20
260.027831655728
 30
0.0
 11
100.777181916254
 21
259.353831655728
 31
0.0
  0
LINE
  5
60D
330
1D
100
AcDbEntity
  8
0
100
AcDbLine
 10
100.587263916254
 20
260.027831655728
 30
0.0
 11
101.030222422352
 21
260.15255511955
 31
0.0
  0
LINE
  5
60E
330
1D
100
AcDbEntity
  8
0
100
AcDbLine
 10
100.397345916254
 20
260.701831655728
 30
0.0
 11
100.587263916254
 21
260.027831655728
 31
0.0
  0
LINE
  5
60F
330
1D
100
AcDbEntity
  8
0
100
AcDbLine
 10
100.727667916254
 20
259.529831655728
 30
0.0
 11
101.170611488429
 21
259.654551196118
 31
0.0
  0
LINE
  5
610
330
1D
100
AcDbEntity
  8
0
100
AcDbLine
 10
100.752139916254
 20
259.442831655728
 30
0.0
 11
100.917585916254
 21
258.855831655728
 31
0.0
  0
LINE
  5
611
330
1D
100
AcDbEntity
  8
0
100
AcDbLine
 10
100.752139916254
 20
259.442831655728
 30
0.0
 11
101.195076707678
 21
259.567799363026
 31
0.0
  0
LINE
  5
612
330
1D
100
AcDbEntity
  8
0
100
AcDbLine
 10
100.727667916254
 20
259.529831655728
 30
0.0
 11
100.752139916254
 21
259.442831655728
 31
0.0
  0
LINE
  5
613
330
1D
100
AcDbEntity
  8
0
100
AcDbLine
 10
100.727667916254
 20
259.529831655728
 30
0.0
 11
101.170611488429
 21
259.654551196118
 31
0.0
  0
LINE
  5
614
330
1D
100
AcDbEntity
  8
0
100
AcDbLine
 10
100.917585916254
 20
258.855831655728
 30
0.0
 11
101.36061183143
 21
258.980824225785
 31
0.0
  0
LINE
  5
615
330
1D
100
AcDbEntity
  8
0
100
AcDbLine
 10
100.917585916254
 20
258.855831655728
 30
0.0
 11
101.36061183143
 21
258.980824225785
 31
0.0
  0
LINE
  5
616
330
1D
100
AcDbEntity
  8
0
100
AcDbLine
 10
100.858671636808
 20
259.064858661728
 30
0.0
 11
100.917585916254
 21
258.855831655728
 31
0.0
  0
LINE
  5
617
330
1D
100
AcDbEntity
  8
0
100
AcDbLine
 10
100.777181916254
 20
259.353831655728
 30
0.0
 11
100.858575916254
 21
259.064831655728
 31
0.0
  0
LINE
  5
618
330
1D
100
AcDbEntity
  8
0
100
AcDbLine
 10
100.315952916254
 20
260.989831655728
 30
0.0
 11
100.759060339918
 21
261.114847010455
 31
0.0
  0
LINE
  5
619
330
1D
100
AcDbEntity
  8
0
100
AcDbLine
 10
100.315952916254
 20
260.989831655728
 30
0.0
 11
100.759060339918
 21
261.114847010455
 31
0.0
  0
LINE
  5
61A
330
1D
100
AcDbEntity
  8
0
100
AcDbLine
 10
100.643291916254
 20
261.525831655728
 30
0.0
 11
100.767796916254
 21
261.083831655728
 31
0.0
  0
LINE
  5
61B
330
1D
100
AcDbEntity
  8
0
100
AcDbLine
 10
100.643291916254
 20
261.525831655728
 30
0.0
 11
100.705714916254
 21
261.940831655728
 31
0.0
  0
LINE
  5
61C
330
1D
100
AcDbEntity
  8
0
100
AcDbLine
 10
100.643291916254
 20
261.525831655728
 30
0.0
 11
100.759060339918
 21
261.114847010455
 31
0.0
  0
LINE
  5
61D
330
1D
100
AcDbEntity
  8
0
100
AcDbLine
 10
100.643291916254
 20
261.525831655728
 30
0.0
 11
100.759060339918
 21
261.114847010455
 31
0.0
  0
LINE
  5
61E
330
1D
100
AcDbEntity
  8
0
100
AcDbLine
 10
100.705714916254
 20
261.940831655728
 30
0.0
 11
100.830192916254
 21
261.498831655728
 31
0.0
  0
LINE
  5
61F
330
1D
100
AcDbEntity
  8
0
100
AcDbLine
 10
100.705714916254
 20
261.940831655728
 30
0.0
 11
100.986130916254
 21
262.217831655728
 31
0.0
  0
LINE
  5
620
330
1D
100
AcDbEntity
  8
0
100
AcDbLine
 10
100.986130916254
 20
262.217831655728
 30
0.0
 11
101.322899507024
 21
262.312694448747
 31
0.0
  0
LINE
  5
621
330
1D
100
AcDbEntity
  8
0
100
AcDbLine
 10
100.986130916254
 20
262.217831655728
 30
0.0
 11
101.322899507024
 21
262.312694448747
 31
0.0
  0
LINE
  5
622
330
1D
100
AcDbEntity
  8
0
100
AcDbLine
 10
103.219794916254
 20
262.564831655728
 30
0.0
 11
104.231244916254
 21
258.976831655728
 31
0.0
  0
LINE
  5
623
330
1D
100
AcDbEntity
  8
0
100
AcDbLine
 10
101.128934916254
 20
264.943831655728
 30
0.0
 11
101.207289916254
 21
265.804831655728
 31
0.0
  0
LINE
  5
624
330
1D
100
AcDbEntity
  8
0
100
AcDbLine
 10
101.128934916254
 20
264.943831655728
 30
0.0
 11
101.158629916254
 21
263.731831655728
 31
0.0
  0
LINE
  5
625
330
1D
100
AcDbEntity
  8
0
100
AcDbLine
 10
101.207289916254
 20
265.804831655728
 30
0.0
 11
101.287917781238
 21
266.025232187935
 31
0.0
  0
LINE
  5
626
330
1D
100
AcDbEntity
  8
0
100
AcDbLine
 10
101.207289916254
 20
265.804831655728
 30
0.0
 11
101.287917781238
 21
266.025232187935
 31
0.0
  0
LINE
  5
627
330
1D
100
AcDbEntity
  8
0
100
AcDbLine
 10
101.331744916254
 20
265.869831655728
 30
0.0
 11
101.792704916254
 21
264.234831655728
 31
0.0
  0
LINE
  5
628
330
1D
100
AcDbEntity
  8
0
100
AcDbLine
 10
101.174655916254
 20
266.426831655728
 30
0.0
 11
101.287917781238
 21
266.025232187935
 31
0.0
  0
LINE
  5
629
330
1D
100
AcDbEntity
  8
0
100
AcDbLine
 10
101.174655916254
 20
266.426831655728
 30
0.0
 11
101.287917781238
 21
266.025232187935
 31
0.0
  0
LINE
  5
62A
330
1D
100
AcDbEntity
  8
0
100
AcDbLine
 10
101.174655916254
 20
266.426831655728
 30
0.0
 11
101.331744916254
 21
265.869831655728
 31
0.0
  0
LINE
  5
62B
330
1D
100
AcDbEntity
  8
0
100
AcDbLine
 10
101.955754916254
 20
267.049831655728
 30
0.0
 11
102.443844916254
 21
265.317831655728
 31
0.0
  0
LINE
  5
62C
330
1D
100
AcDbEntity
  8
0
100
AcDbLine
 10
128.888044916254
 20
266.427831655728
 30
0.0
 11
129.313444916254
 21
265.007831655728
 31
0.0
  0
LINE
  5
62D
330
1D
100
AcDbEntity
  8
0
100
AcDbLine
 10
128.318644916254
 20
268.106831655728
 30
0.0
 11
128.888044916254
 21
266.427831655728
 31
0.0
  0
LINE
  5
62E
330
1D
100
AcDbEntity
  8
0
100
AcDbLine
 10
127.576644916254
 20
270.006831655728
 30
0.0
 11
128.318644916254
 21
268.106831655728
 31
0.0
  0
LINE
  5
62F
330
1D
100
AcDbEntity
  8
0
100
AcDbLine
 10
126.802144916254
 20
271.777831655728
 30
0.0
 11
127.576644916254
 21
270.006831655728
 31
0.0
  0
LINE
  5
630
330
1D
100
AcDbEntity
  8
0
100
AcDbLine
 10
125.968744916254
 20
273.367831655728
 30
0.0
 11
126.802144916254
 21
271.777831655728
 31
0.0
  0
LINE
  5
631
330
1D
100
AcDbEntity
  8
0
100
AcDbLine
 10
125.160344916254
 20
274.574831655728
 30
0.0
 11
125.968744916254
 21
273.367831655728
 31
0.0
  0
LINE
  5
632
330
1D
100
AcDbEntity
  8
0
100
AcDbLine
 10
124.456444916254
 20
275.363831655728
 30
0.0
 11
125.160344916254
 21
274.574831655728
 31
0.0
  0
LINE
  5
633
330
1D
100
AcDbEntity
  8
0
100
AcDbLine
 10
123.807144916254
 20
275.763831655728
 30
0.0
 11
124.456444916254
 21
275.363831655728
 31
0.0
  0
LINE
  5
634
330
1D
100
AcDbEntity
  8
0
100
AcDbLine
 10
123.399444916254
 20
275.808831655728
 30
0.0
 11
123.807144916254
 21
275.763831655728
 31
0.0
  0
LINE
  5
635
330
1D
100
AcDbEntity
  8
0
100
AcDbLine
 10
130.922044916254
 20
259.301831655728
 30
0.0
 11
131.483944916254
 21
257.308831655728
 31
0.0
  0
LINE
  5
636
330
1D
100
AcDbEntity
  8
0
100
AcDbLine
 10
129.387544916254
 20
264.745831655728
 30
0.0
 11
129.604344916254
 21
263.976831655728
 31
0.0
  0
LINE
  5
637
330
1D
100
AcDbEntity
  8
0
100
AcDbLine
 10
129.604344916254
 20
263.976831655728
 30
0.0
 11
130.922044916254
 21
259.301831655728
 31
0.0
  0
LINE
  5
638
330
1D
100
AcDbEntity
  8
0
100
AcDbLine
 10
129.313444916254
 20
265.007831655728
 30
0.0
 11
129.387544916254
 21
264.745831655728
 31
0.0
  0
LINE
  5
639
330
1D
100
AcDbEntity
  8
0
100
AcDbLine
 10
129.313444916254
 20
265.007831655728
 30
0.0
 11
129.387544916254
 21
264.745831655728
 31
0.0
  0
LINE
  5
63A
330
1D
100
AcDbEntity
  8
0
100
AcDbLine
 10
135.459044916254
 20
242.048831655728
 30
0.0
 11
136.885344916254
 21
236.988831655728
 31
0.0
  0
LINE
  5
63B
330
1D
100
AcDbEntity
  8
0
100
AcDbLine
 10
136.885344916254
 20
236.988831655728
 30
0.0
 11
143.504844916254
 21
210.938831655728
 31
0.0
  0
LINE
  5
758
330
1D
100
AcDbEntity
  8
0
100
AcDbLine
 10
123.6774
 20
0.1941105
 30
0.0
 11
127.3064
 21
0.1941105
 31
0.0
  0
LINE
  5
759
330
1D
100
AcDbEntity
  8
0
100
AcDbLine
 10
128.8644
 20
0.1941105
 30
0.0
 11
131.3784
 21
0.1941105
 31
0.0
  0
LINE
  5
75A
330
1D
100
AcDbEntity
  8
0
100
AcDbLine
 10
131.3784
 20
0.1941105
 30
0.0
 11
131.5604
 21
0.1941105
 31
0.0
  0
LINE
  5
75B
330
1D
100
AcDbEntity
  8
0
100
AcDbLine
 10
128.8654
 20
0.1941105
 30
0.0
 11
131.5604
 21
0.1941105
 31
0.0
  0
LINE
  5
75C
330
1D
100
AcDbEntity
  8
0
100
AcDbLine
 10
131.5604
 20
0.1941105
 30
0.0
 11
133.8004
 21
0.1941085
 31
0.0
  0
LINE
  5
75D
330
1D
100
AcDbEntity
  8
0
100
AcDbLine
 10
127.3064
 20
0.1941105
 30
0.0
 11
128.8644
 21
0.1941105
 31
0.0
  0
LINE
  5
75E
330
1D
100
AcDbEntity
  8
0
100
AcDbLine
 10
127.9274
 20
0.1941105
 30
0.0
 11
128.8654
 21
0.1941105
 31
0.0
  0
LINE
  5
75F
330
1D
100
AcDbEntity
  8
0
100
AcDbLine
 10
123.6774
 20
0.1941105
 30
0.0
 11
127.9274
 21
0.1941105
 31
0.0
  0
LINE
  5
760
330
1D
100
AcDbEntity
  8
0
100
AcDbLine
 10
102.5454
 20
0.1941105
 30
0.0
 11
104.4934
 21
0.1941105
 31
0.0
  0
LINE
  5
761
330
1D
100
AcDbEntity
  8
0
100
AcDbLine
 10
104.4934
 20
0.1941105
 30
0.0
 11
106.3544
 21
0.1941105
 31
0.0
  0
LINE
  5
762
330
1D
100
AcDbEntity
  8
0
100
AcDbLine
 10
103.3064
 20
0.1941105
 30
0.0
 11
105.2464
 21
0.1941105
 31
0.0
  0
LINE
  5
763
330
1D
100
AcDbEntity
  8
0
100
AcDbLine
 10
98.6785
 20
0.1941105
 30
0.0
 11
99.4428
 21
0.1941105
 31
0.0
  0
LINE
  5
764
330
1D
100
AcDbEntity
  8
0
100
AcDbLine
 10
99.1941
 20
0.1941105
 30
0.0
 11
100.1099
 21
0.1941105
 31
0.0
  0
LINE
  5
765
330
1D
100
AcDbEntity
  8
0
100
AcDbLine
 10
100.1099
 20
0.1941105
 30
0.0
 11
101.5844
 21
0.1941105
 31
0.0
  0
LINE
  5
766
330
1D
100
AcDbEntity
  8
0
100
AcDbLine
 10
97.9558
 20
0.1941105
 30
0.0
 11
98.4361
 21
0.1941105
 31
0.0
  0
LINE
  5
767
330
1D
100
AcDbEntity
  8
0
100
AcDbLine
 10
98.4361
 20
0.1941105
 30
0.0
 11
99.1941
 21
0.1941105
 31
0.0
  0
LINE
  5
768
330
1D
100
AcDbEntity
  8
0
100
AcDbLine
 10
97.5857
 20
0.1941105
 30
0.0
 11
97.9558
 21
0.1941105
 31
0.0
  0
LINE
  5
769
330
1D
100
AcDbEntity
  8
0
100
AcDbLine
 10
97.1126
 20
0.1941105
 30
0.0
 11
97.2614
 21
0.1941105
 31
0.0
  0
LINE
  5
76A
330
1D
100
AcDbEntity
  8
0
100
AcDbLine
 10
97.2614
 20
0.1941105
 30
0.0
 11
97.5857
 21
0.1941105
 31
0.0
  0
LINE
  5
76B
330
1D
100
AcDbEntity
  8
0
100
AcDbLine
 10
97.1253
 20
0.1941105
 30
0.0
 11
97.3008
 21
0.1941105
 31
0.0
  0
LINE
  5
76C
330
1D
100
AcDbEntity
  8
0
100
AcDbLine
 10
97.3008
 20
0.1941105
 30
0.0
 11
97.5779
 21
0.1941105
 31
0.0
  0
LINE
  5
76D
330
1D
100
AcDbEntity
  8
0
100
AcDbLine
 10
97.0444
 20
0.1941105
 30
0.0
 11
97.1253
 21
0.1941105
 31
0.0
  0
LINE
  5
76E
330
1D
100
AcDbEntity
  8
0
100
AcDbLine
 10
97.0444
 20
0.1941105
 30
0.0
 11
97.1126
 21
0.1941105
 31
0.0
  0
LINE
  5
76F
330
1D
100
AcDbEntity
  8
0
100
AcDbLine
 10
97.5779
 20
0.1941105
 30
0.0
 11
97.9558
 21
0.1941105
 31
0.0
  0
LINE
  5
770
330
1D
100
AcDbEntity
  8
0
100
AcDbLine
 10
100.8504
 20
0.1941105
 30
0.0
 11
102.5454
 21
0.1941105
 31
0.0
  0
LINE
  5
771
330
1D
100
AcDbEntity
  8
0
100
AcDbLine
 10
101.5844
 20
0.1941105
 30
0.0
 11
103.3064
 21
0.1941105
 31
0.0
  0
LINE
  5
772
330
1D
100
AcDbEntity
  8
0
100
AcDbLine
 10
115.2514
 20
0.1941105
 30
0.0
 11
117.1944
 21
0.1941105
 31
0.0
  0
LINE
  5
773
330
1D
100
AcDbEntity
  8
0
100
AcDbLine
 10
113.5974
 20
0.1941105
 30
0.0
 11
116.4054
 21
0.1941105
 31
0.0
  0
LINE
  5
774
330
1D
100
AcDbEntity
  8
0
100
AcDbLine
 10
116.4054
 20
0.1941105
 30
0.0
 11
118.9684
 21
0.1941105
 31
0.0
  0
LINE
  5
775
330
1D
100
AcDbEntity
  8
0
100
AcDbLine
 10
118.9684
 20
0.1941105
 30
0.0
 11
121.5604
 21
0.1941105
 31
0.0
  0
LINE
  5
776
330
1D
100
AcDbEntity
  8
0
100
AcDbLine
 10
106.3544
 20
0.1941105
 30
0.0
 11
108.3524
 21
0.1941105
 31
0.0
  0
LINE
  5
777
330
1D
100
AcDbEntity
  8
0
100
AcDbLine
 10
106.5324
 20
0.1941105
 30
0.0
 11
108.6454
 21
0.1941105
 31
0.0
  0
LINE
  5
778
330
1D
100
AcDbEntity
  8
0
100
AcDbLine
 10
108.6454
 20
0.1941105
 30
0.0
 11
110.8774
 21
0.1941105
 31
0.0
  0
LINE
  5
779
330
1D
100
AcDbEntity
  8
0
100
AcDbLine
 10
110.8774
 20
0.1941105
 30
0.0
 11
113.5974
 21
0.1941105
 31
0.0
  0
LINE
  5
77A
330
1D
100
AcDbEntity
  8
0
100
AcDbLine
 10
111.8324
 20
0.1941105
 30
0.0
 11
115.2514
 21
0.1941105
 31
0.0
  0
LINE
  5
77B
330
1D
100
AcDbEntity
  8
0
100
AcDbLine
 10
105.2464
 20
0.1941105
 30
0.0
 11
106.5324
 21
0.1941105
 31
0.0
  0
LINE
  5
77C
330
1D
100
AcDbEntity
  8
0
100
AcDbLine
 10
121.5604
 20
0.1941105
 30
0.0
 11
123.6774
 21
0.1941105
 31
0.0
  0
LINE
  5
77D
330
1D
100
AcDbEntity
  8
0
100
AcDbLine
 10
121.5604
 20
0.1941105
 30
0.0
 11
123.4284
 21
0.1941105
 31
0.0
  0
LINE
  5
77E
330
1D
100
AcDbEntity
  8
0
100
AcDbLine
 10
133.8004
 20
0.1941085
 30
0.0
 11
134.8254
 21
0.1941085
 31
0.0
  0
LINE
  5
77F
330
1D
100
AcDbEntity
  8
0
100
AcDbLine
 10
140.1954
 20
0.1941085
 30
0.0
 11
140.7204
 21
0.1941105
 31
0.0
  0
LINE
  5
780
330
1D
100
AcDbEntity
  8
0
100
AcDbLine
 10
139.5854
 20
0.1941085
 30
0.0
 11
140.1954
 21
0.1941085
 31
0.0
  0
LINE
  5
781
330
1D
100
AcDbEntity
  8
0
100
AcDbLine
 10
143.0094
 20
0.1939235
 30
0.0
 11
143.2824
 21
0.1938905
 31
0.0
  0
LINE
  5
782
330
1D
100
AcDbEntity
  8
0
100
AcDbLine
 10
142.9934
 20
0.1939255
 30
0.0
 11
143.3924
 21
0.1938895
 31
0.0
  0
LINE
  5
783
330
1D
100
AcDbEntity
  8
0
100
AcDbLine
 10
142.5564
 20
0.1939985
 30
0.0
 11
142.9934
 21
0.1939255
 31
0.0
  0
LINE
  5
784
330
1D
100
AcDbEntity
  8
0
100
AcDbLine
 10
142.395525922162
 20
0.193968576323
 30
0.0
 11
142.6294
 21
0.1938905
 31
0.0
  0
LINE
  5
785
330
1D
100
AcDbEntity
  8
0
100
AcDbLine
 10
142.6294
 20
0.1938905
 30
0.0
 11
143.0094
 21
0.1939235
 31
0.0
  0
LINE
  5
786
330
1D
100
AcDbEntity
  8
0
100
AcDbLine
 10
141.9704
 20
0.1938895
 30
0.0
 11
142.5564
 21
0.1939985
 31
0.0
  0
LINE
  5
787
330
1D
100
AcDbEntity
  8
0
100
AcDbLine
 10
134.8254
 20
0.1941085
 30
0.0
 11
135.8114
 21
0.1941105
 31
0.0
  0
LINE
  5
788
330
1D
100
AcDbEntity
  8
0
100
AcDbLine
 10
135.8114
 20
0.1941105
 30
0.0
 11
137.0064
 21
0.1941085
 31
0.0
  0
LINE
  5
789
330
1D
100
AcDbEntity
  8
0
100
AcDbLine
 10
141.3364
 20
0.1941105
 30
0.0
 11
141.9704
 21
0.1938895
 31
0.0
  0
LINE
  5
78A
330
1D
100
AcDbEntity
  8
0
100
AcDbLine
 10
140.7204
 20
0.1941105
 30
0.0
 11
141.3364
 21
0.1941105
 31
0.0
  0
LINE
  5
78B
330
1D
100
AcDbEntity
  8
0
100
AcDbLine
 10
138.0734
 20
0.1941105
 30
0.0
 11
138.8814
 21
0.1941085
 31
0.0
  0
LINE
  5
78C
330
1D
100
AcDbEntity
  8
0
100
AcDbLine
 10
137.0064
 20
0.1941085
 30
0.0
 11
138.0734
 21
0.1941105
 31
0.0
  0
LINE
  5
78D
330
1D
100
AcDbEntity
  8
0
100
AcDbLine
 10
138.8814
 20
0.1941085
 30
0.0
 11
139.5854
 21
0.1941085
 31
0.0
  0
LINE
  5
78E
330
1D
100
AcDbEntity
  8
0
100
AcDbLine
 10
143.0844
 20
38.0992105
 30
0.0
 11
143.1084
 21
35.7317105
 31
0.0
  0
LINE
  5
78F
330
1D
100
AcDbEntity
  8
0
100
AcDbLine
 10
143.1084
 20
35.7317105
 30
0.0
 11
143.1354
 21
33.7680105
 31
0.0
  0
LINE
  5
790
330
1D
100
AcDbEntity
  8
0
100
AcDbLine
 10
143.0664
 20
41.0028105
 30
0.0
 11
143.0714
 21
39.8442105
 31
0.0
  0
LINE
  5
791
330
1D
100
AcDbEntity
  8
0
100
AcDbLine
 10
143.0714
 20
39.8442105
 30
0.0
 11
143.0844
 21
38.0992105
 31
0.0
  0
LINE
  5
792
330
1D
100
AcDbEntity
  8
0
100
AcDbLine
 10
143.1844
 20
31.0460105
 30
0.0
 11
143.2074
 21
29.9340105
 31
0.0
  0
LINE
  5
793
330
1D
100
AcDbEntity
  8
0
100
AcDbLine
 10
143.2074
 20
29.9340105
 30
0.0
 11
143.2214
 21
29.2866105
 31
0.0
  0
LINE
  5
794
330
1D
100
AcDbEntity
  8
0
100
AcDbLine
 10
143.1594
 20
32.3460105
 30
0.0
 11
143.1844
 21
31.0460105
 31
0.0
  0
LINE
  5
795
330
1D
100
AcDbEntity
  8
0
100
AcDbLine
 10
143.1354
 20
33.7680105
 30
0.0
 11
143.1594
 21
32.3460105
 31
0.0
  0
LINE
  5
796
330
1D
100
AcDbEntity
  8
0
100
AcDbLine
 10
95.0689
 20
73.0429105
 30
0.0
 11
95.8474
 21
70.2028105
 31
0.0
  0
LINE
  5
797
330
1D
100
AcDbEntity
  8
0
100
AcDbLine
 10
5.01803
 20
103.2251105
 30
0.0
 11
6.647786516132
 21
105.695721528223
 31
0.0
  0
LINE
  5
798
330
1D
100
AcDbEntity
  8
0
100
AcDbLine
 10
4.99141
 20
102.8191105
 30
0.0
 11
5.13003
 21
102.6631105
 31
0.0
  0
LINE
  5
799
330
1D
100
AcDbEntity
  8
0
100
AcDbLine
 10
4.95023
 20
103.0261105
 30
0.0
 11
5.01803
 21
103.2251105
 31
0.0
  0
LINE
  5
79A
330
1D
100
AcDbEntity
  8
0
100
AcDbLine
 10
4.95023
 20
103.0261105
 30
0.0
 11
4.99141
 21
102.8191105
 31
0.0
  0
LINE
  5
79B
330
1D
100
AcDbEntity
  8
0
100
AcDbLine
 10
9.7524
 20
103.5171105
 30
0.0
 11
10.7634
 21
102.8461105
 31
0.0
  0
LINE
  5
79C
330
1D
100
AcDbEntity
  8
0
100
AcDbLine
 10
24.6893
 20
89.8259105
 30
0.0
 11
24.8952
 21
89.8695105
 31
0.0
  0
LINE
  5
79D
330
1D
100
AcDbEntity
  8
0
100
AcDbLine
 10
25.052
 20
90.0098105
 30
0.0
 11
26.516074540365
 21
92.229178839024
 31
0.0
  0
LINE
  5
79E
330
1D
100
AcDbEntity
  8
0
100
AcDbLine
 10
24.4904
 20
89.8921105
 30
0.0
 11
24.6893
 21
89.8259105
 31
0.0
  0
LINE
  5
79F
330
1D
100
AcDbEntity
  8
0
100
AcDbLine
 10
24.8952
 20
89.8695105
 30
0.0
 11
25.052
 21
90.0098105
 31
0.0
  0
LINE
  5
7A0
330
1D
100
AcDbEntity
  8
0
100
AcDbLine
 10
19.0684
 20
97.5957105
 30
0.0
 11
20.9004
 21
96.3445105
 31
0.0
  0
LINE
  5
7A1
330
1D
100
AcDbEntity
  8
0
100
AcDbLine
 10
20.9004
 20
96.3445105
 30
0.0
 11
22.3481
 21
95.3129105
 31
0.0
  0
LINE
  5
7A2
330
1D
100
AcDbEntity
  8
0
100
AcDbLine
 10
22.3481
 20
95.3129105
 30
0.0
 11
23.639
 21
94.3667105
 31
0.0
  0
LINE
  5
7A3
330
1D
100
AcDbEntity
  8
0
100
AcDbLine
 10
23.639
 20
94.3667105
 30
0.0
 11
24.6651
 21
93.6036105
 31
0.0
  0
LINE
  5
7A4
330
1D
100
AcDbEntity
  8
0
100
AcDbLine
 10
24.6651
 20
93.6036105
 30
0.0
 11
25.701
 21
92.8315105
 31
0.0
  0
LINE
  5
7A5
330
1D
100
AcDbEntity
  8
0
100
AcDbLine
 10
25.701
 20
92.8315105
 30
0.0
 11
26.2926
 21
92.3934105
 31
0.0
  0
LINE
  5
7A6
330
1D
100
AcDbEntity
  8
0
100
AcDbLine
 10
16.7714
 20
99.0830105
 30
0.0
 11
19.0684
 21
97.5957105
 31
0.0
  0
LINE
  5
7A7
330
1D
100
AcDbEntity
  8
0
100
AcDbLine
 10
31.5832
 20
89.7008105
 30
0.0
 11
32.5479
 21
89.4204105
 31
0.0
  0
LINE
  5
7A8
330
1D
100
AcDbEntity
  8
0
100
AcDbLine
 10
32.7226
 20
89.4106105
 30
0.0
 11
34.1316
 21
89.1664105
 31
0.0
  0
LINE
  5
7A9
330
1D
100
AcDbEntity
  8
0
100
AcDbLine
 10
32.5479
 20
89.4204105
 30
0.0
 11
32.7226
 21
89.4106105
 31
0.0
  0
LINE
  5
7AA
330
1D
100
AcDbEntity
  8
0
100
AcDbLine
 10
28.755
 20
90.9577105
 30
0.0
 11
29.9145
 21
90.3719105
 31
0.0
  0
LINE
  5
7AB
330
1D
100
AcDbEntity
  8
0
100
AcDbLine
 10
11.8734
 20
102.1331105
 30
0.0
 11
13.1484
 21
101.3341105
 31
0.0
  0
LINE
  5
7AC
330
1D
100
AcDbEntity
  8
0
100
AcDbLine
 10
13.1484
 20
101.3341105
 30
0.0
 11
14.4884
 21
100.5041105
 31
0.0
  0
LINE
  5
7AD
330
1D
100
AcDbEntity
  8
0
100
AcDbLine
 10
14.4884
 20
100.5041105
 30
0.0
 11
16.7714
 21
99.0830105
 31
0.0
  0
LINE
  5
7AE
330
1D
100
AcDbEntity
  8
0
100
AcDbLine
 10
10.7634
 20
102.8461105
 30
0.0
 11
11.8734
 21
102.1331105
 31
0.0
  0
LINE
  5
7AF
330
1D
100
AcDbEntity
  8
0
100
AcDbLine
 10
1.2624
 20
110.5661105
 30
0.0
 11
3.7024
 21
108.2111105
 31
0.0
  0
LINE
  5
7B0
330
1D
100
AcDbEntity
  8
0
100
AcDbLine
 10
3.7024
 20
108.2111105
 30
0.0
 11
6.2554
 21
105.9801105
 31
0.0
  0
LINE
  5
7B1
330
1D
100
AcDbEntity
  8
0
100
AcDbLine
 10
6.2554
 20
105.9801105
 30
0.0
 11
6.4104
 21
105.8671105
 31
0.0
  0
LINE
  5
7B2
330
1D
100
AcDbEntity
  8
0
100
AcDbLine
 10
0.4974
 20
111.5521105
 30
0.0
 11
0.7254
 21
111.1791105
 31
0.0
  0
LINE
  5
7B3
330
1D
100
AcDbEntity
  8
0
100
AcDbLine
 10
0.7254
 20
111.1791105
 30
0.0
 11
1.2624
 21
110.5661105
 31
0.0
  0
LINE
  5
7B4
330
1D
100
AcDbEntity
  8
0
100
AcDbLine
 10
0.5384
 20
113.2651105
 30
0.0
 11
0.9434
 21
113.6991105
 31
0.0
  0
LINE
  5
7B5
330
1D
100
AcDbEntity
  8
0
100
AcDbLine
 10
1.4994
 20
114.0141105
 30
0.0
 11
2.3964
 21
114.2621105
 31
0.0
  0
LINE
  5
7B6
330
1D
100
AcDbEntity
  8
0
100
AcDbLine
 10
5.2914
 20
114.7831105
 30
0.0
 11
8.1984
 21
115.1871105
 31
0.0
  0
LINE
  5
7B7
330
1D
100
AcDbEntity
  8
0
100
AcDbLine
 10
2.3964
 20
114.2621105
 30
0.0
 11
5.2914
 21
114.7831105
 31
0.0
  0
LINE
  5
7B8
330
1D
100
AcDbEntity
  8
0
100
AcDbLine
 10
0.3084
 20
112.1121105
 30
0.0
 11
0.3124
 21
112.7091105
 31
0.0
  0
LINE
  5
7B9
330
1D
100
AcDbEntity
  8
0
100
AcDbLine
 10
1.2624
 20
110.5661105
 30
0.0
 11
3.7024
 21
108.2111105
 31
0.0
  0
LINE
  5
7BA
330
1D
100
AcDbEntity
  8
0
100
AcDbLine
 10
6.4104
 20
105.8671105
 30
0.0
 11
6.8744
 21
105.5321105
 31
0.0
  0
LINE
  5
7BB
330
1D
100
AcDbEntity
  8
0
100
AcDbLine
 10
6.8744
 20
105.5321105
 30
0.0
 11
7.6344
 21
104.9901105
 31
0.0
  0
LINE
  5
7BC
330
1D
100
AcDbEntity
  8
0
100
AcDbLine
 10
7.6344
 20
104.9901105
 30
0.0
 11
8.2084
 21
104.5841105
 31
0.0
  0
LINE
  5
7BD
330
1D
100
AcDbEntity
  8
0
100
AcDbLine
 10
8.1984
 20
115.1871105
 30
0.0
 11
14.0454
 21
115.7021105
 31
0.0
  0
LINE
  5
7BE
330
1D
100
AcDbEntity
  8
0
100
AcDbLine
 10
14.0524
 20
115.6981105
 30
0.0
 11
16.1424
 21
115.8081105
 31
0.0
  0
LINE
  5
7BF
330
1D
100
AcDbEntity
  8
0
100
AcDbLine
 10
16.1424
 20
115.8081105
 30
0.0
 11
19.3014
 21
115.9071105
 31
0.0
  0
LINE
  5
7C0
330
1D
100
AcDbEntity
  8
0
100
AcDbLine
 10
19.3014
 20
115.9071105
 30
0.0
 11
25.2755
 21
115.9681105
 31
0.0
  0
LINE
  5
7C1
330
1D
100
AcDbEntity
  8
0
100
AcDbLine
 10
25.2755
 20
115.9681105
 30
0.0
 11
53.6381
 21
115.9511105
 31
0.0
  0
LINE
  5
7C2
330
1D
100
AcDbEntity
  8
0
100
AcDbLine
 10
8.2084
 20
104.5841105
 30
0.0
 11
9.7524
 21
103.5171105
 31
0.0
  0
LINE
  5
7C3
330
1D
100
AcDbEntity
  8
0
100
AcDbLine
 10
53.6381
 20
115.9511105
 30
0.0
 11
78.764
 21
115.7241105
 31
0.0
  0
LINE
  5
7C4
330
1D
100
AcDbEntity
  8
0
100
AcDbLine
 10
34.1316
 20
89.1664105
 30
0.0
 11
78.1314
 21
84.5353105
 31
0.0
  0
LINE
  5
7C5
330
1D
100
AcDbEntity
  8
0
100
AcDbLine
 10
78.1314
 20
84.5353105
 30
0.0
 11
81.5356
 21
84.1258105
 31
0.0
  0
LINE
  5
7C6
330
1D
100
AcDbEntity
  8
0
100
AcDbLine
 10
83.1269
 20
83.8447105
 30
0.0
 11
84.7436
 21
83.4497105
 31
0.0
  0
LINE
  5
7C7
330
1D
100
AcDbEntity
  8
0
100
AcDbLine
 10
84.7436
 20
83.4497105
 30
0.0
 11
86.2741
 21
82.9342105
 31
0.0
  0
LINE
  5
7C8
330
1D
100
AcDbEntity
  8
0
100
AcDbLine
 10
86.2741
 20
82.9342105
 30
0.0
 11
88.0344
 21
82.1091105
 31
0.0
  0
LINE
  5
7C9
330
1D
100
AcDbEntity
  8
0
100
AcDbLine
 10
89.6536
 20
81.0565105
 30
0.0
 11
91.3279
 21
79.5513105
 31
0.0
  0
LINE
  5
7CA
330
1D
100
AcDbEntity
  8
0
100
AcDbLine
 10
91.3279
 20
79.5513105
 30
0.0
 11
92.7904
 21
77.7271105
 31
0.0
  0
LINE
  5
7CB
330
1D
100
AcDbEntity
  8
0
100
AcDbLine
 10
88.0344
 20
82.1091105
 30
0.0
 11
89.6536
 21
81.0565105
 31
0.0
  0
LINE
  5
7CC
330
1D
100
AcDbEntity
  8
0
100
AcDbLine
 10
92.7904
 20
77.7271105
 30
0.0
 11
94.0276
 21
75.5916105
 31
0.0
  0
LINE
  5
7CD
330
1D
100
AcDbEntity
  8
0
100
AcDbLine
 10
81.5356
 20
84.1258105
 30
0.0
 11
83.1269
 21
83.8447105
 31
0.0
  0
LINE
  5
7CE
330
1D
100
AcDbEntity
  8
0
100
AcDbLine
 10
94.0276
 20
75.5916105
 30
0.0
 11
95.0689
 21
73.0429105
 31
0.0
  0
LINE
  5
7CF
330
1D
100
AcDbEntity
  8
0
100
AcDbLine
 10
95.8474
 20
70.2028105
 30
0.0
 11
96.2251
 21
68.1637105
 31
0.0
  0
LINE
  5
7D0
330
1D
100
AcDbEntity
  8
0
100
AcDbLine
 10
96.2251
 20
68.1637105
 30
0.0
 11
96.4977
 21
66.0186105
 31
0.0
  0
LINE
  5
7D1
330
1D
100
AcDbEntity
  8
0
100
AcDbLine
 10
96.4977
 20
66.0186105
 30
0.0
 11
96.7191
 21
63.0039105
 31
0.0
  0
LINE
  5
7D2
330
1D
100
AcDbEntity
  8
0
100
AcDbLine
 10
96.7191
 20
63.0039105
 30
0.0
 11
96.7939
 21
60.9021105
 31
0.0
  0
LINE
  5
7D3
330
1D
100
AcDbEntity
  8
0
100
AcDbLine
 10
96.8395
 20
56.4787105
 30
0.0
 11
97.0444
 21
0.1941105
 31
0.0
  0
LINE
  5
7D4
330
1D
100
AcDbEntity
  8
0
100
AcDbLine
 10
96.8395
 20
56.4787105
 30
0.0
 11
97.0444
 21
0.1941105
 31
0.0
  0
LINE
  5
7D5
330
1D
100
AcDbEntity
  8
0
100
AcDbLine
 10
96.7939
 20
60.9021105
 30
0.0
 11
96.8395
 21
56.4787105
 31
0.0
  0
LINE
  5
7D6
330
1D
100
AcDbEntity
  8
0
100
AcDbLine
 10
56.0038
 20
158.9881105
 30
0.0
 11
58.0186
 21
157.8401105
 31
0.0
  0
LINE
  5
7D7
330
1D
100
AcDbEntity
  8
0
100
AcDbLine
 10
60.1118
 20
156.8551105
 30
0.0
 11
61.5389
 21
156.2661105
 31
0.0
  0
LINE
  5
7D8
330
1D
100
AcDbEntity
  8
0
100
AcDbLine
 10
58.0186
 20
157.8401105
 30
0.0
 11
60.1118
 21
156.8551105
 31
0.0
  0
LINE
  5
7D9
330
1D
100
AcDbEntity
  8
0
100
AcDbLine
 10
55.033
 20
159.6391105
 30
0.0
 11
56.0038
 21
158.9881105
 31
0.0
  0
LINE
  5
7DA
330
1D
100
AcDbEntity
  8
0
100
AcDbLine
 10
54.0907
 20
160.3491105
 30
0.0
 11
55.033
 21
159.6391105
 31
0.0
  0
LINE
  5
7DB
330
1D
100
AcDbEntity
  8
0
100
AcDbLine
 10
85.2912
 20
147.9631105
 30
0.0
 11
87.7386
 21
147.0671105
 31
0.0
  0
LINE
  5
7DC
330
1D
100
AcDbEntity
  8
0
100
AcDbLine
 10
82.5486
 20
148.9151105
 30
0.0
 11
85.2912
 21
147.9631105
 31
0.0
  0
LINE
  5
7DD
330
1D
100
AcDbEntity
  8
0
100
AcDbLine
 10
93.9581
 20
143.6921105
 30
0.0
 11
94.9431
 21
142.7031105
 31
0.0
  0
LINE
  5
7DE
330
1D
100
AcDbEntity
  8
0
100
AcDbLine
 10
93.2306
 20
144.2781105
 30
0.0
 11
93.9581
 21
143.6921105
 31
0.0
  0
LINE
  5
7DF
330
1D
100
AcDbEntity
  8
0
100
AcDbLine
 10
90.5786
 20
145.8521105
 30
0.0
 11
92.4256
 21
144.8301105
 31
0.0
  0
LINE
  5
7E0
330
1D
100
AcDbEntity
  8
0
100
AcDbLine
 10
89.2268
 20
146.4661105
 30
0.0
 11
90.5786
 21
145.8521105
 31
0.0
  0
LINE
  5
7E1
330
1D
100
AcDbEntity
  8
0
100
AcDbLine
 10
87.7386
 20
147.0671105
 30
0.0
 11
89.2268
 21
146.4661105
 31
0.0
  0
LINE
  5
7E2
330
1D
100
AcDbEntity
  8
0
100
AcDbLine
 10
79.927
 20
159.1201105
 30
0.0
 11
87.2444
 21
157.3871105
 31
0.0
  0
LINE
  5
7E3
330
1D
100
AcDbEntity
  8
0
100
AcDbLine
 10
87.2444
 20
157.3871105
 30
0.0
 11
94.9399
 21
155.4811105
 31
0.0
  0
LINE
  5
7E4
330
1D
100
AcDbEntity
  8
0
100
AcDbLine
 10
73.0837
 20
160.6351105
 30
0.0
 11
79.927
 21
159.1201105
 31
0.0
  0
LINE
  5
7E5
330
1D
100
AcDbEntity
  8
0
100
AcDbLine
 10
53.1799
 20
161.1251105
 30
0.0
 11
54.0907
 21
160.3491105
 31
0.0
  0
LINE
  5
7E6
330
1D
100
AcDbEntity
  8
0
100
AcDbLine
 10
68.044
 20
161.6571105
 30
0.0
 11
72.9897
 21
160.6591105
 31
0.0
  0
LINE
  5
7E7
330
1D
100
AcDbEntity
  8
0
100
AcDbLine
 10
52.3034
 20
161.9711105
 30
0.0
 11
53.1799
 21
161.1251105
 31
0.0
  0
LINE
  5
7E8
330
1D
100
AcDbEntity
  8
0
100
AcDbLine
 10
52.1255
 20
162.2171105
 30
0.0
 11
52.3034
 21
161.9711105
 31
0.0
  0
LINE
  5
7E9
330
1D
100
AcDbEntity
  8
0
100
AcDbLine
 10
52.1131
 20
163.0871105
 30
0.0
 11
52.281
 21
163.3421105
 31
0.0
  0
LINE
  5
7EA
330
1D
100
AcDbEntity
  8
0
100
AcDbLine
 10
58.1073
 20
163.2081105
 30
0.0
 11
63.0882
 21
162.5231105
 31
0.0
  0
LINE
  5
7EB
330
1D
100
AcDbEntity
  8
0
100
AcDbLine
 10
63.0882
 20
162.5231105
 30
0.0
 11
68.044
 21
161.6571105
 31
0.0
  0
LINE
  5
7EC
330
1D
100
AcDbEntity
  8
0
100
AcDbLine
 10
52.0274
 20
162.7931105
 30
0.0
 11
52.0344
 21
162.4841105
 31
0.0
  0
LINE
  5
7ED
330
1D
100
AcDbEntity
  8
0
100
AcDbLine
 10
52.0274
 20
162.7931105
 30
0.0
 11
52.1131
 21
163.0871105
 31
0.0
  0
LINE
  5
7EE
330
1D
100
AcDbEntity
  8
0
100
AcDbLine
 10
72.9897
 20
160.6591105
 30
0.0
 11
73.0837
 21
160.6351105
 31
0.0
  0
LINE
  5
7EF
330
1D
100
AcDbEntity
  8
0
100
AcDbLine
 10
96.3916
 20
140.4291105
 30
0.0
 11
96.8722
 21
139.1501105
 31
0.0
  0
LINE
  5
7F0
330
1D
100
AcDbEntity
  8
0
100
AcDbLine
 10
96.8722
 20
139.1501105
 30
0.0
 11
97.1383
 21
138.1331105
 31
0.0
  0
LINE
  5
7F1
330
1D
100
AcDbEntity
  8
0
100
AcDbLine
 10
97.1383
 20
138.1331105
 30
0.0
 11
97.333
 21
137.0721105
 31
0.0
  0
LINE
  5
7F2
330
1D
100
AcDbEntity
  8
0
100
AcDbLine
 10
97.333
 20
137.0721105
 30
0.0
 11
97.5461
 21
134.8371105
 31
0.0
  0
LINE
  5
7F3
330
1D
100
AcDbEntity
  8
0
100
AcDbLine
 10
95.7521
 20
141.6151105
 30
0.0
 11
96.3916
 21
140.4291105
 31
0.0
  0
LINE
  5
7F4
330
1D
100
AcDbEntity
  8
0
100
AcDbLine
 10
94.9431
 20
142.7031105
 30
0.0
 11
95.7521
 21
141.6151105
 31
0.0
  0
LINE
  5
7F5
330
1D
100
AcDbEntity
  8
0
100
AcDbLine
 10
94.9399
 20
155.4811105
 30
0.0
 11
103.0104
 21
153.4121105
 31
0.0
  0
LINE
  5
7F6
330
1D
100
AcDbEntity
  8
0
100
AcDbLine
 10
53.0856
 20
163.6651105
 30
0.0
 11
55.6023
 21
163.4681105
 31
0.0
  0
LINE
  5
7F7
330
1D
100
AcDbEntity
  8
0
100
AcDbLine
 10
55.6023
 20
163.4681105
 30
0.0
 11
58.1073
 21
163.2081105
 31
0.0
  0
LINE
  5
7F8
330
1D
100
AcDbEntity
  8
0
100
AcDbLine
 10
98.1287
 20
116.7901105
 30
0.0
 11
98.4519
 21
116.7901105
 31
0.0
  0
LINE
  5
7F9
330
1D
100
AcDbEntity
  8
0
100
AcDbLine
 10
98.4519
 20
116.7901105
 30
0.0
 11
98.9983
 21
116.7901105
 31
0.0
  0
LINE
  5
7FA
330
1D
100
AcDbEntity
  8
0
100
AcDbLine
 10
98.0199
 20
116.7901105
 30
0.0
 11
98.1287
 21
116.7901105
 31
0.0
  0
LINE
  5
7FB
330
1D
100
AcDbEntity
  8
0
100
AcDbLine
 10
99.4581
 20
115.3541105
 30
0.0
 11
100.3764
 21
115.2511105
 31
0.0
  0
LINE
  5
7FC
330
1D
100
AcDbEntity
  8
0
100
AcDbLine
 10
99.1489
 20
115.3881105
 30
0.0
 11
99.3969
 21
115.3611105
 31
0.0
  0
LINE
  5
7FD
330
1D
100
AcDbEntity
  8
0
100
AcDbLine
 10
99.1489
 20
115.3881105
 30
0.0
 11
99.4581
 21
115.3541105
 31
0.0
  0
LINE
  5
7FE
330
1D
100
AcDbEntity
  8
0
100
AcDbLine
 10
99.419705556341
 20
115.358332398721
 30
0.0
 11
99.609617247191
 21
116.7901105
 31
0.0
  0
LINE
  5
7FF
330
1D
100
AcDbEntity
  8
0
100
AcDbLine
 10
100.3764
 20
115.2511105
 30
0.0
 11
101.6644
 21
115.1111105
 31
0.0
  0
LINE
  5
800
330
1D
100
AcDbEntity
  8
0
100
AcDbLine
 10
101.6644
 20
115.1111105
 30
0.0
 11
103.1994
 21
114.9561105
 31
0.0
  0
LINE
  5
801
330
1D
100
AcDbEntity
  8
0
100
AcDbLine
 10
103.1994
 20
114.9561105
 30
0.0
 11
105.0514
 21
114.7901105
 31
0.0
  0
LINE
  5
802
330
1D
100
AcDbEntity
  8
0
100
AcDbLine
 10
105.0514
 20
114.7901105
 30
0.0
 11
107.7934
 21
114.5881105
 31
0.0
  0
LINE
  5
803
330
1D
100
AcDbEntity
  8
0
100
AcDbLine
 10
107.7934
 20
114.5881105
 30
0.0
 11
110.9034
 21
114.4221105
 31
0.0
  0
LINE
  5
804
330
1D
100
AcDbEntity
  8
0
100
AcDbLine
 10
104.9024
 20
116.7901105
 30
0.0
 11
106.7774
 21
116.7901105
 31
0.0
  0
LINE
  5
805
330
1D
100
AcDbEntity
  8
0
100
AcDbLine
 10
106.7774
 20
116.7901105
 30
0.0
 11
108.5524
 21
116.7901105
 31
0.0
  0
LINE
  5
806
330
1D
100
AcDbEntity
  8
0
100
AcDbLine
 10
110.9034
 20
114.4221105
 30
0.0
 11
113.0634
 21
114.3441105
 31
0.0
  0
LINE
  5
807
330
1D
100
AcDbEntity
  8
0
100
AcDbLine
 10
115.3114
 20
114.2931105
 30
0.0
 11
116.8654
 21
114.2721105
 31
0.0
  0
LINE
  5
808
330
1D
100
AcDbEntity
  8
0
100
AcDbLine
 10
113.0634
 20
114.3441105
 30
0.0
 11
115.3114
 21
114.2931105
 31
0.0
  0
LINE
  5
809
330
1D
100
AcDbEntity
  8
0
100
AcDbLine
 10
143.0624
 20
42.5708105
 30
0.0
 11
143.0624
 21
42.5128105
 31
0.0
  0
LINE
  5
80A
330
1D
100
AcDbEntity
  8
0
100
AcDbLine
 10
143.0624
 20
42.5128105
 30
0.0
 11
143.0624
 21
42.5708105
 31
0.0
  0
LINE
  5
80B
330
1D
100
AcDbEntity
  8
0
100
AcDbLine
 10
143.0624
 20
42.5128105
 30
0.0
 11
143.0624
 21
42.2371105
 31
0.0
  0
LINE
  5
80C
330
1D
100
AcDbEntity
  8
0
100
AcDbLine
 10
143.0624
 20
42.2371105
 30
0.0
 11
143.0634
 21
41.7597105
 31
0.0
  0
LINE
  5
80D
330
1D
100
AcDbEntity
  8
0
100
AcDbLine
 10
143.0624
 20
42.2371105
 30
0.0
 11
143.0624
 21
42.5128105
 31
0.0
  0
LINE
  5
80E
330
1D
100
AcDbEntity
  8
0
100
AcDbLine
 10
142.0294
 20
112.9421105
 30
0.0
 11
142.1744
 21
112.2891105
 31
0.0
  0
LINE
  5
80F
330
1D
100
AcDbEntity
  8
0
100
AcDbLine
 10
142.1744
 20
112.2891105
 30
0.0
 11
143.0624
 21
42.5708105
 31
0.0
  0
LINE
  5
810
330
1D
100
AcDbEntity
  8
0
100
AcDbLine
 10
143.0634
 20
41.7597105
 30
0.0
 11
143.0664
 21
41.0028105
 31
0.0
  0
LINE
  5
811
330
1D
100
AcDbEntity
  8
0
100
AcDbLine
 10
143.062401499625
 20
42.23639457898
 30
0.0
 11
143.0644
 21
41.6821105
 31
0.0
  0
LINE
  5
812
330
1D
100
AcDbEntity
  8
0
100
AcDbLine
 10
143.0644
 20
41.6821105
 30
0.0
 11
143.06670826444
 21
41.062976270539
 31
0.0
  0
LINE
  5
813
330
1D
100
AcDbEntity
  8
0
100
AcDbLine
 10
119.8044
 20
114.2601105
 30
0.0
 11
122.3134
 21
114.2741105
 31
0.0
  0
LINE
  5
814
330
1D
100
AcDbEntity
  8
0
100
AcDbLine
 10
122.3134
 20
114.2741105
 30
0.0
 11
124.8354
 21
114.3011105
 31
0.0
  0
LINE
  5
815
330
1D
100
AcDbEntity
  8
0
100
AcDbLine
 10
126.8274
 20
114.3271105
 30
0.0
 11
128.9424
 21
114.3541105
 31
0.0
  0
LINE
  5
816
330
1D
100
AcDbEntity
  8
0
100
AcDbLine
 10
128.9424
 20
114.3541105
 30
0.0
 11
130.9414
 21
114.3761105
 31
0.0
  0
LINE
  5
817
330
1D
100
AcDbEntity
  8
0
100
AcDbLine
 10
124.8354
 20
114.3011105
 30
0.0
 11
126.8274
 21
114.3271105
 31
0.0
  0
LINE
  5
818
330
1D
100
AcDbEntity
  8
0
100
AcDbLine
 10
130.9414
 20
114.3761105
 30
0.0
 11
133.0084
 21
114.3901105
 31
0.0
  0
LINE
  5
819
330
1D
100
AcDbEntity
  8
0
100
AcDbLine
 10
133.0084
 20
114.3901105
 30
0.0
 11
134.8654
 21
114.3931105
 31
0.0
  0
LINE
  5
81A
330
1D
100
AcDbEntity
  8
0
100
AcDbLine
 10
134.8654
 20
114.3931105
 30
0.0
 11
136.4434
 21
114.3851105
 31
0.0
  0
LINE
  5
81B
330
1D
100
AcDbEntity
  8
0
100
AcDbLine
 10
136.4434
 20
114.3851105
 30
0.0
 11
137.7724
 21
114.3701105
 31
0.0
  0
LINE
  5
81C
330
1D
100
AcDbEntity
  8
0
100
AcDbLine
 10
138.8304
 20
114.3511105
 30
0.0
 11
139.6854
 21
114.3321105
 31
0.0
  0
LINE
  5
81D
330
1D
100
AcDbEntity
  8
0
100
AcDbLine
 10
139.6854
 20
114.3321105
 30
0.0
 11
140.1554
 21
114.3191105
 31
0.0
  0
LINE
  5
81E
330
1D
100
AcDbEntity
  8
0
100
AcDbLine
 10
137.7724
 20
114.3701105
 30
0.0
 11
138.8304
 21
114.3511105
 31
0.0
  0
LINE
  5
81F
330
1D
100
AcDbEntity
  8
0
100
AcDbLine
 10
116.8654
 20
114.2721105
 30
0.0
 11
119.8044
 21
114.2601105
 31
0.0
  0
LINE
  5
820
330
1D
100
AcDbEntity
  8
0
100
AcDbLine
 10
140.1554
 20
114.3191105
 30
0.0
 11
140.2484
 21
114.3171105
 31
0.0
  0
LINE
  5
821
330
1D
100
AcDbEntity
  8
0
100
AcDbLine
 10
140.8984
 20
114.2341105
 30
0.0
 11
141.1044
 21
114.1331105
 31
0.0
  0
LINE
  5
822
330
1D
100
AcDbEntity
  8
0
100
AcDbLine
 10
141.1044
 20
114.1331105
 30
0.0
 11
141.5894
 21
113.7961105
 31
0.0
  0
LINE
  5
823
330
1D
100
AcDbEntity
  8
0
100
AcDbLine
 10
141.5894
 20
113.7961105
 30
0.0
 11
141.8334
 21
113.6091105
 31
0.0
  0
LINE
  5
824
330
1D
100
AcDbEntity
  8
0
100
AcDbLine
 10
140.2484
 20
114.3171105
 30
0.0
 11
140.8984
 21
114.2341105
 31
0.0
  0
LINE
  5
825
330
1D
100
AcDbEntity
  8
0
100
AcDbLine
 10
141.8334
 20
113.6091105
 30
0.0
 11
142.0294
 21
112.9421105
 31
0.0
  0
LINE
  5
826
330
1D
100
AcDbEntity
  8
0
100
AcDbLine
 10
140.0134
 20
115.0831105
 30
0.0
 11
140.046929827738
 21
114.322110738807
 31
0.0
  0
LINE
  5
827
330
1D
100
AcDbEntity
  8
0
100
AcDbLine
 10
115.8424
 20
116.7901105
 30
0.0
 11
117.6104
 21
116.7901105
 31
0.0
  0
LINE
  5
828
330
1D
100
AcDbEntity
  8
0
100
AcDbLine
 10
117.6104
 20
116.7901105
 30
0.0
 11
119.6014
 21
116.7901105
 31
0.0
  0
LINE
  5
829
330
1D
100
AcDbEntity
  8
0
100
AcDbLine
 10
112.3644
 20
116.7901105
 30
0.0
 11
114.0904
 21
116.7901105
 31
0.0
  0
LINE
  5
82A
330
1D
100
AcDbEntity
  8
0
100
AcDbLine
 10
114.0904
 20
116.7901105
 30
0.0
 11
115.8424
 21
116.7901105
 31
0.0
  0
LINE
  5
82B
330
1D
100
AcDbEntity
  8
0
100
AcDbLine
 10
108.5524
 20
116.7901105
 30
0.0
 11
110.4234
 21
116.7901105
 31
0.0
  0
LINE
  5
82C
330
1D
100
AcDbEntity
  8
0
100
AcDbLine
 10
110.4234
 20
116.7901105
 30
0.0
 11
112.3644
 21
116.7901105
 31
0.0
  0
LINE
  5
82D
330
1D
100
AcDbEntity
  8
0
100
AcDbLine
 10
101.7624
 20
116.7901105
 30
0.0
 11
103.2224
 21
116.7901105
 31
0.0
  0
LINE
  5
82E
330
1D
100
AcDbEntity
  8
0
100
AcDbLine
 10
103.2224
 20
116.7901105
 30
0.0
 11
104.9024
 21
116.7901105
 31
0.0
  0
LINE
  5
82F
330
1D
100
AcDbEntity
  8
0
100
AcDbLine
 10
99.715
 20
116.7901105
 30
0.0
 11
100.6364
 21
116.7901105
 31
0.0
  0
LINE
  5
830
330
1D
100
AcDbEntity
  8
0
100
AcDbLine
 10
100.6364
 20
116.7901105
 30
0.0
 11
101.7624
 21
116.7901105
 31
0.0
  0
LINE
  5
831
330
1D
100
AcDbEntity
  8
0
100
AcDbLine
 10
98.9983
 20
116.7901105
 30
0.0
 11
99.715
 21
116.7901105
 31
0.0
  0
LINE
  5
832
330
1D
100
AcDbEntity
  8
0
100
AcDbLine
 10
97.7688
 20
116.8571105
 30
0.0
 11
98.0199
 21
116.7901105
 31
0.0
  0
LINE
  5
833
330
1D
100
AcDbEntity
  8
0
100
AcDbLine
 10
97.5859
 20
117.0421105
 30
0.0
 11
97.7688
 21
116.8571105
 31
0.0
  0
LINE
  5
834
330
1D
100
AcDbEntity
  8
0
100
AcDbLine
 10
119.5784
 20
116.8571105
 30
0.0
 11
119.6014
 21
116.7901105
 31
0.0
  0
LINE
  5
835
330
1D
100
AcDbEntity
  8
0
100
AcDbLine
 10
119.7884
 20
116.8261105
 30
0.0
 11
122.0154
 21
117.7261105
 31
0.0
  0
LINE
  5
836
330
1D
100
AcDbEntity
  8
0
100
AcDbLine
 10
139.7774
 20
116.8631105
 30
0.0
 11
140.0134
 21
115.0831105
 31
0.0
  0
LINE
  5
837
330
1D
100
AcDbEntity
  8
0
100
AcDbLine
 10
139.3854
 20
118.6141105
 30
0.0
 11
139.7774
 21
116.8631105
 31
0.0
  0
LINE
  5
838
330
1D
100
AcDbEntity
  8
0
100
AcDbLine
 10
138.8414
 20
120.3251105
 30
0.0
 11
139.3854
 21
118.6141105
 31
0.0
  0
LINE
  5
839
330
1D
100
AcDbEntity
  8
0
100
AcDbLine
 10
122.0154
 20
117.7261105
 30
0.0
 11
130.0234
 21
120.9611105
 31
0.0
  0
LINE
  5
83A
330
1D
100
AcDbEntity
  8
0
100
AcDbLine
 10
138.1484
 20
121.9811105
 30
0.0
 11
138.8414
 21
120.3251105
 31
0.0
  0
LINE
  5
83B
330
1D
100
AcDbEntity
  8
0
100
AcDbLine
 10
137.2744
 20
123.5691105
 30
0.0
 11
138.1484
 21
121.9811105
 31
0.0
  0
LINE
  5
83C
330
1D
100
AcDbEntity
  8
0
100
AcDbLine
 10
137.115135160198
 20
123.827146882083
 30
0.0
 11
137.2744
 21
123.5691105
 31
0.0
  0
LINE
  5
841
330
1D
100
AcDbEntity
  8
0
100
AcDbLine
 10
130.0234
 20
120.9611105
 30
0.0
 11
131.9034
 21
121.7211105
 31
0.0
  0
LINE
  5
842
330
1D
100
AcDbEntity
  8
0
100
AcDbLine
 10
119.6014
 20
116.7901105
 30
0.0
 11
119.7884
 21
116.8261105
 31
0.0
  0
LINE
  5
843
330
1D
100
AcDbEntity
  8
0
100
AcDbLine
 10
97.5198
 20
117.2931105
 30
0.0
 11
97.5859
 21
117.0421105
 31
0.0
  0
LINE
  5
844
330
1D
100
AcDbEntity
  8
0
100
AcDbLine
 10
97.5198
 20
117.2931105
 30
0.0
 11
97.5964
 21
130.0281105
 31
0.0
  0
LINE
  5
845
330
1D
100
AcDbEntity
  8
0
100
AcDbLine
 10
97.5461
 20
134.8371105
 30
0.0
 11
97.5958
 21
133.2771105
 31
0.0
  0
LINE
  5
846
330
1D
100
AcDbEntity
  8
0
100
AcDbLine
 10
97.5958
 20
133.2771105
 30
0.0
 11
97.5964
 21
130.0281105
 31
0.0
  0
LINE
  5
84B
330
1D
100
AcDbEntity
  8
0
100
AcDbLine
 10
132.1104
 20
145.1261105
 30
0.0
 11
134.4124
 21
144.2241105
 31
0.0
  0
LINE
  5
84C
330
1D
100
AcDbEntity
  8
0
100
AcDbLine
 10
120.2634
 20
148.7851105
 30
0.0
 11
124.5224
 21
147.5881105
 31
0.0
  0
LINE
  5
84D
330
1D
100
AcDbEntity
  8
0
100
AcDbLine
 10
124.5224
 20
147.5881105
 30
0.0
 11
126.6374
 21
146.9601105
 31
0.0
  0
LINE
  5
84E
330
1D
100
AcDbEntity
  8
0
100
AcDbLine
 10
126.6374
 20
146.9601105
 30
0.0
 11
129.7804
 21
145.9521105
 31
0.0
  0
LINE
  5
84F
330
1D
100
AcDbEntity
  8
0
100
AcDbLine
 10
129.7804
 20
145.9521105
 30
0.0
 11
132.1104
 21
145.1261105
 31
0.0
  0
LINE
  5
850
330
1D
100
AcDbEntity
  8
0
100
AcDbLine
 10
134.4124
 20
144.2241105
 30
0.0
 11
135.985435110169
 21
143.514620622877
 31
0.0
  0
LINE
  5
851
330
1D
100
AcDbEntity
  8
0
100
AcDbLine
 10
136.058907861678
 20
143.481482027874
 30
0.0
 11
136.813867696435
 21
143.140970645177
 31
0.0
  0
LINE
  5
852
330
1D
100
AcDbEntity
  8
0
100
AcDbLine
 10
143.394554761905
 20
0.1938905
 30
0.0
 11
143.4634
 21
0.1938905
 31
0.0
  0
LINE
  5
853
330
1D
100
AcDbEntity
  8
0
100
AcDbLine
 10
143.2824
 20
0.1938905
 30
0.0
 11
143.381316666667
 21
0.1938905
 31
0.0
  0
LINE
  5
854
330
1D
100
AcDbEntity
  8
0
100
AcDbLine
 10
143.2404
 20
28.5055105
 30
0.0
 11
143.6014
 21
0.1938895
 31
0.0
  0
LINE
  5
855
330
1D
100
AcDbEntity
  8
0
100
AcDbLine
 10
143.2404
 20
28.5055105
 30
0.0
 11
143.6014
 21
0.1938895
 31
0.0
  0
LINE
  5
856
330
1D
100
AcDbEntity
  8
0
100
AcDbLine
 10
143.2404
 20
28.5055105
 30
0.0
 11
143.2414
 21
28.4457105
 31
0.0
  0
LINE
  5
857
330
1D
100
AcDbEntity
  8
0
100
AcDbLine
 10
143.3924
 20
0.1938895
 30
0.0
 11
143.5734
 21
0.1939735
 31
0.0
  0
LINE
  5
858
330
1D
100
AcDbEntity
  8
0
100
AcDbLine
 10
143.4634
 20
0.1938905
 30
0.0
 11
143.5654
 21
0.1938905
 31
0.0
  0
LINE
  5
859
330
1D
100
AcDbEntity
  8
0
100
AcDbLine
 10
143.2214
 20
29.2866105
 30
0.0
 11
143.2334
 21
28.7844105
 31
0.0
  0
LINE
  5
85A
330
1D
100
AcDbEntity
  8
0
100
AcDbLine
 10
143.209504684292
 20
29.843003547753
 30
0.0
 11
143.2224
 21
29.2668105
 31
0.0
  0
LINE
  5
85B
330
1D
100
AcDbEntity
  8
0
100
AcDbLine
 10
143.2224
 20
29.2668105
 30
0.0
 11
143.2334
 21
28.7844105
 31
0.0
  0
LINE
  5
85C
330
1D
100
AcDbEntity
  8
0
100
AcDbLine
 10
143.2334
 20
28.7844105
 30
0.0
 11
143.2404
 21
28.5056105
 31
0.0
  0
LINE
  5
85D
330
1D
100
AcDbEntity
  8
0
100
AcDbLine
 10
143.2334
 20
28.7844105
 30
0.0
 11
143.2404
 21
28.5055105
 31
0.0
  0
LINE
  5
85E
330
1D
100
AcDbEntity
  8
0
100
AcDbLine
 10
143.2404
 20
28.5056105
 30
0.0
 11
143.2414
 21
28.4457105
 31
0.0
  0
LINE
  5
85F
330
1D
100
AcDbEntity
  8
0
100
AcDbLine
 10
31.5832
 20
89.7008105
 30
0.0
 11
29.9145
 21
90.3719105
 31
0.0
  0
LINE
  5
860
330
1D
100
AcDbEntity
  8
0
100
AcDbLine
 10
28.755
 20
90.9577105
 30
0.0
 11
26.516074540365
 21
92.229178839024
 31
0.0
  0
LINE
  5
861
330
1D
100
AcDbEntity
  8
0
100
AcDbLine
 10
26.516074540365
 20
92.229178839024
 30
0.0
 11
26.2926
 21
92.3934105
 31
0.0
  0
LINE
  5
862
330
1D
100
AcDbEntity
  8
0
100
AcDbLine
 10
0.4974
 20
111.5521105
 30
0.0
 11
0.3084
 21
112.1121105
 31
0.0
  0
LINE
  5
863
330
1D
100
AcDbEntity
  8
0
100
AcDbLine
 10
0.3124
 20
112.7091105
 30
0.0
 11
0.5384
 21
113.2651105
 31
0.0
  0
LINE
  5
864
330
1D
100
AcDbEntity
  8
0
100
AcDbLine
 10
0.9434
 20
113.6991105
 30
0.0
 11
1.4994
 21
114.0141105
 31
0.0
  0
LINE
  5
865
330
1D
100
AcDbEntity
  8
0
100
AcDbLine
 10
5.13003
 20
102.6631105
 30
0.0
 11
24.4904
 21
89.8921105
 31
0.0
  0
LINE
  5
866
330
1D
100
AcDbEntity
  8
0
100
AcDbLine
 10
78.764
 20
115.7241105
 30
0.0
 11
99.1489
 21
115.3881105
 31
0.0
  0
LINE
  5
867
330
1D
100
AcDbEntity
  8
0
100
AcDbLine
 10
131.9034
 20
121.7211105
 30
0.0
 11
140.067836595616
 21
125.019184008295
 31
0.0
  0
LINE
  5
868
330
1D
100
AcDbEntity
  8
0
100
AcDbLine
 10
92.4256
 20
144.8301105
 30
0.0
 11
93.2306
 21
144.2781105
 31
0.0
  0
LINE
  5
869
330
1D
100
AcDbEntity
  8
0
100
AcDbLine
 10
61.5389
 20
156.2661105
 30
0.0
 11
82.5486
 21
148.9151105
 31
0.0
  0
LINE
  5
86D
330
1D
100
AcDbEntity
  8
0
100
AcDbLine
 10
120.2634
 20
148.7851105
 30
0.0
 11
103.0104
 21
153.4121105
 31
0.0
  0
LINE
  5
86E
330
1D
100
AcDbEntity
  8
0
100
AcDbLine
 10
52.281
 20
163.3421105
 30
0.0
 11
52.629049729019
 21
163.578702523373
 31
0.0
  0
LINE
  5
86F
330
1D
100
AcDbEntity
  8
0
100
AcDbLine
 10
52.629049729019
 20
163.578702523373
 30
0.0
 11
53.0856
 21
163.6651105
 31
0.0
  0
LINE
  5
870
330
1D
100
AcDbEntity
  8
0
100
AcDbLine
 10
52.1255
 20
162.2171105
 30
0.0
 11
52.0344
 21
162.4841105
 31
0.0
  0
ENDSEC
  0
SECTION
  2
OBJECTS
  0
DICTIONARY
  5
C
330
0
100
AcDbDictionary
281
     1
  3
ACAD_GROUP
350
D
  3
ACAD_LAYOUT
350
1A
  3
ACAD_MLEADERSTYLE
350
872
  3
ACAD_MLINESTYLE
350
17
  3
ACAD_PLOTSETTINGS
350
19
  3
ACAD_PLOTSTYLENAME
350
E
  3
ACAD_SCALELIST
350
343
  3
AcDbVariableDictionary
350
874
  3
DWGPROPS
350
876
  0
DICTIONARY
  5
D
102
{ACAD_REACTORS
330
C
102
}
330
C
100
AcDbDictionary
281
     1
  0
DICTIONARY
  5
1A
102
{ACAD_REACTORS
330
C
102
}
330
C
100
AcDbDictionary
281
     1
  3
Layout1
350
1C
  3
Model
350
1E
  0
DICTIONARY
  5
872
102
{ACAD_REACTORS
330
C
102
}
330
C
100
AcDbDictionary
281
     1
  0
DICTIONARY
  5
17
102
{ACAD_REACTORS
330
C
102
}
330
C
100
AcDbDictionary
281
     1
  3
Standard
350
18
  0
DICTIONARY
  5
19
102
{ACAD_REACTORS
330
C
102
}
330
C
100
AcDbDictionary
281
     1
  0
ACDBDICTIONARYWDFLT
  5
E
102
{ACAD_REACTORS
330
C
102
}
330
C
100
AcDbDictionary
281
     1
  3
Normal
350
F
100
AcDbDictionaryWithDefault
340
F
  0
DICTIONARY
  5
343
102
{ACAD_REACTORS
330
C
102
}
330
C
100
AcDbDictionary
281
     1
  3
A0
350
344
  3
A1
350
345
  3
A2
350
346
  3
A3
350
347
  3
A4
350
348
  3
A5
350
349
  3
A6
350
34A
  3
A7
350
34B
  3
A8
350
34C
  3
A9
350
34D
  3
B0
350
34E
  3
B1
350
34F
  3
B2
350
350
  3
B3
350
351
  3
B4
350
352
  3
B5
350
353
  3
B6
350
354
  3
B7
350
355
  3
B8
350
356
  3
B9
350
357
  3
C0
350
358
  3
C1
350
359
  3
C2
350
35A
  3
C3
350
35B
  3
C4
350
35C
  3
C5
350
35D
  3
C6
350
35E
  3
C7
350
35F
  3
C8
350
360
  3
C9
350
361
  3
D0
350
362
  3
D1
350
363
  3
D2
350
364
  0
DICTIONARY
  5
874
102
{ACAD_REACTORS
330
C
102
}
330
C
100
AcDbDictionary
281
     1
  0
XRECORD
  5
876
102
{ACAD_REACTORS
330
C
102
}
330
C
100
AcDbXrecord
280
     1
  1
DWGPROPS COOKIE
  2

  3

  4

  6

  7

  8
MARTIN
  9

300
=
301
=
302
=
303
=
304
=
305
=
306
=
307
=
308
=
309
=
 40
0.0
 41
2456646.394833079
 42
2456646.396930336
  1

 90
        0
  0
LAYOUT
  5
1C
102
{ACAD_REACTORS
330
1A
102
}
330
1A
100
AcDbPlotSettings
  1

  2
none_device
  4

  6

 40
0.0
 41
0.0
 42
0.0
 43
0.0
 44
0.0
 45
0.0
 46
0.0
 47
0.0
 48
0.0
 49
0.0
140
0.0
141
0.0
142
1.0
143
1.0
 70
   688
 72
     0
 73
     0
 74
     5
  7

 75
    16
147
1.0
148
0.0
149
0.0
100
AcDbLayout
  1
Layout1
 70
     1
 71
     1
 10
0.0
 20
0.0
 11
12.0
 21
9.0
 12
0.0
 22
0.0
 32
0.0
 14
1.000000000000E+20
 24
1.000000000000E+20
 34
1.000000000000E+20
 15
-1.000000000000E+20
 25
-1.000000000000E+20
 35
-1.000000000000E+20
146
0.0
 13
0.0
 23
0.0
 33
0.0
 16
1.0
 26
0.0
 36
0.0
 17
0.0
 27
1.0
 37
0.0
 76
     0
330
1B
  0
LAYOUT
  5
1E
102
{ACAD_REACTORS
330
1A
102
}
330
1A
100
AcDbPlotSettings
  1

  2
none_device
  4

  6

 40
0.0
 41
0.0
 42
0.0
 43
0.0
 44
0.0
 45
0.0
 46
0.0
 47
0.0
 48
0.0
 49
0.0
140
0.0
141
0.0
142
1.0
143
1.0
 70
  1712
 72
     0
 73
     0
 74
     0
  7

 75
     0
147
1.0
148
0.0
149
0.0
100
AcDbLayout
  1
Model
 70
     1
 71
     0
 10
0.0
 20
0.0
 11
12.0
 21
9.0
 12
0.0
 22
0.0
 32
0.0
 14
0.3084
 24
0.1938895
 34
0.0
 15
192.759344916254
 25
275.808831655728
 35
0.0
146
0.0
 13
0.0
 23
0.0
 33
0.0
 16
1.0
 26
0.0
 36
0.0
 17
0.0
 27
1.0
 37
0.0
 76
     0
330
1D
331
33E
  0
MLINESTYLE
  5
18
102
{ACAD_REACTORS
330
17
102
}
330
17
100
AcDbMlineStyle
  2
Standard
 70
     0
  3

 62
   256
 51
90.0
 52
90.0
 71
     2
 49
0.5
 62
   256
  6
BYLAYER
 49
-0.5
 62
   256
  6
BYLAYER
  0
ACDBPLACEHOLDER
  5
F
102
{ACAD_REACTORS
330
E
102
}
330
E
  0
SCALE
  5
344
102
{ACAD_REACTORS
330
343
102
}
330
343
100
AcDbScale
 70
     0
300
1:1
140
1.0
141
1.0
290
     1
  0
SCALE
  5
345
102
{ACAD_REACTORS
330
343
102
}
330
343
100
AcDbScale
 70
     0
300
1:2
140
1.0
141
2.0
290
     0
  0
SCALE
  5
346
102
{ACAD_REACTORS
330
343
102
}
330
343
100
AcDbScale
 70
     0
300
1:4
140
1.0
141
4.0
290
     0
  0
SCALE
  5
347
102
{ACAD_REACTORS
330
343
102
}
330
343
100
AcDbScale
 70
     0
300
1:5
140
1.0
141
5.0
290
     0
  0
SCALE
  5
348
102
{ACAD_REACTORS
330
343
102
}
330
343
100
AcDbScale
 70
     0
300
1:8
140
1.0
141
8.0
290
     0
  0
SCALE
  5
349
102
{ACAD_REACTORS
330
343
102
}
330
343
100
AcDbScale
 70
     0
300
1:10
140
1.0
141
10.0
290
     0
  0
SCALE
  5
34A
102
{ACAD_REACTORS
330
343
102
}
330
343
100
AcDbScale
 70
     0
300
1:16
140
1.0
141
16.0
290
     0
  0
SCALE
  5
34B
102
{ACAD_REACTORS
330
343
102
}
330
343
100
AcDbScale
 70
     0
300
1:20
140
1.0
141
20.0
290
     0
  0
SCALE
  5
34C
102
{ACAD_REACTORS
330
343
102
}
330
343
100
AcDbScale
 70
     0
300
1:30
140
1.0
141
30.0
290
     0
  0
SCALE
  5
34D
102
{ACAD_REACTORS
330
343
102
}
330
343
100
AcDbScale
 70
     0
300
1:40
140
1.0
141
40.0
290
     0
  0
SCALE
  5
34E
102
{ACAD_REACTORS
330
343
102
}
330
343
100
AcDbScale
 70
     0
300
1:50
140
1.0
141
50.0
290
     0
  0
SCALE
  5
34F
102
{ACAD_REACTORS
330
343
102
}
330
343
100
AcDbScale
 70
     0
300
1:100
140
1.0
141
100.0
290
     0
  0
SCALE
  5
350
102
{ACAD_REACTORS
330
343
102
}
330
343
100
AcDbScale
 70
     0
300
2:1
140
2.0
141
1.0
290
     0
  0
SCALE
  5
351
102
{ACAD_REACTORS
330
343
102
}
330
343
100
AcDbScale
 70
     0
300
4:1
140
4.0
141
1.0
290
     0
  0
SCALE
  5
352
102
{ACAD_REACTORS
330
343
102
}
330
343
100
AcDbScale
 70
     0
300
8:1
140
8.0
141
1.0
290
     0
  0
SCALE
  5
353
102
{ACAD_REACTORS
330
343
102
}
330
343
100
AcDbScale
 70
     0
300
10:1
140
10.0
141
1.0
290
     0
  0
SCALE
  5
354
102
{ACAD_REACTORS
330
343
102
}
330
343
100
AcDbScale
 70
     0
300
100:1
140
100.0
141
1.0
290
     0
  0
SCALE
  5
355
102
{ACAD_REACTORS
330
343
102
}
330
343
100
AcDbScale
 70
     0
300
1/128" = 1'-0"
140
0.0078125
141
12.0
290
     0
  0
SCALE
  5
356
102
{ACAD_REACTORS
330
343
102
}
330
343
100
AcDbScale
 70
     0
300
1/64" = 1'-0"
140
0.015625
141
12.0
290
     0
  0
SCALE
  5
357
102
{ACAD_REACTORS
330
343
102
}
330
343
100
AcDbScale
 70
     0
300
1/32" = 1'-0"
140
0.03125
141
12.0
290
     0
  0
SCALE
  5
358
102
{ACAD_REACTORS
330
343
102
}
330
343
100
AcDbScale
 70
     0
300
1/16" = 1'-0"
140
0.0625
141
12.0
290
     0
  0
SCALE
  5
359
102
{ACAD_REACTORS
330
343
102
}
330
343
100
AcDbScale
 70
     0
300
3/32" = 1'-0"
140
0.09375
141
12.0
290
     0
  0
SCALE
  5
35A
102
{ACAD_REACTORS
330
343
102
}
330
343
100
AcDbScale
 70
     0
300
1/8" = 1'-0"
140
0.125
141
12.0
290
     0
  0
SCALE
  5
35B
102
{ACAD_REACTORS
330
343
102
}
330
343
100
AcDbScale
 70
     0
300
3/16" = 1'-0"
140
0.1875
141
12.0
290
     0
  0
SCALE
  5
35C
102
{ACAD_REACTORS
330
343
102
}
330
343
100
AcDbScale
 70
     0
300
1/4" = 1'-0"
140
0.25
141
12.0
290
     0
  0
SCALE
  5
35D
102
{ACAD_REACTORS
330
343
102
}
330
343
100
AcDbScale
 70
     0
300
3/8" = 1'-0"
140
0.375
141
12.0
290
     0
  0
SCALE
  5
35E
102
{ACAD_REACTORS
330
343
102
}
330
343
100
AcDbScale
 70
     0
300
1/2" = 1'-0"
140
0.5
141
12.0
290
     0
  0
SCALE
  5
35F
102
{ACAD_REACTORS
330
343
102
}
330
343
100
AcDbScale
 70
     0
300
3/4" = 1'-0"
140
0.75
141
12.0
290
     0
  0
SCALE
  5
360
102
{ACAD_REACTORS
330
343
102
}
330
343
100
AcDbScale
 70
     0
300
1" = 1'-0"
140
1.0
141
12.0
290
     0
  0
SCALE
  5
361
102
{ACAD_REACTORS
330
343
102
}
330
343
100
AcDbScale
 70
     0
300
1-1/2" = 1'-0"
140
1.5
141
12.0
290
     0
  0
SCALE
  5
362
102
{ACAD_REACTORS
330
343
102
}
330
343
100
AcDbScale
 70
     0
300
3" = 1'-0"
140
3.0
141
12.0
290
     0
  0
SCALE
  5
363
102
{ACAD_REACTORS
330
343
102
}
330
343
100
AcDbScale
 70
     0
300
6" = 1'-0"
140
6.0
141
12.0
290
     0
  0
SCALE
  5
364
102
{ACAD_REACTORS
330
343
102
}
330
343
100
AcDbScale
 70
     0
300
1'-0" = 1'-0"
140
12.0
141
12.0
290
     0
  0
ENDSEC
  0
SECTION
  2
THUMBNAILIMAGE
 90
    16364
310
28000000B40000005500000001000800000000000000000000000000000000000000000000000000FFFFFF000000FF0000FFFF0000FF0000FFFF0000FF000000FF00FF000000000080808000C0C0C0000000FF007F7FFF000000A5005252A50000007F003F3F7F0000004C0026264C000000260013132600003FFF007F9FFF
310
000029A5005267A500001F7F003F4F7F0000134C00262F4C000009260013172600007FFF007FBFFF000052A500527CA500003F7F003F5F7F0000264C0026394C0000132600131C260000BFFF007FDFFF00007CA5005291A500005F7F003F6F7F0000394C0026424C00001C26001321260000FFFF007FFFFF0000A5A50052A5
310
A500007F7F003F7F7F00004C4C00264C4C00002626001326260000FFBF007FFFDF0000A57C0052A59100007F5F003F7F6F00004C3900264C420000261C001326210000FF7F007FFFBF0000A5520052A57C00007F3F003F7F5F00004C2600264C39000026130013261C0000FF3F007FFF9F0000A5290052A56700007F1F003F
310
7F4F00004C1300264C2F00002609001326170000FF00007FFF7F0000A5000052A55200007F00003F7F3F00004C0000264C260000260000132613003FFF00009FFF7F0029A5000067A552001F7F00004F7F3F00134C00002F4C260009260000172613007FFF0000BFFF7F0052A500007CA552003F7F00005F7F3F00264C0000
310
394C2600132600001C261300BFFF0000DFFF7F007CA5000091A552005F7F00006F7F3F00394C0000424C26001C26000021261300FFFF0000FFFF7F00A5A50000A5A552007F7F00007F7F3F004C4C00004C4C26002626000026261300FFBF0000FFDF7F00A57C0000A59152007F5F00007F6F3F004C3900004C422600261C00
310
0026211300FF7F0000FFBF7F00A5520000A57C52007F3F00007F5F3F004C2600004C39260026130000261C1300FF3F0000FF9F7F00A5290000A56752007F1F00007F4F3F004C1300004C2F26002609000026171300FF000000FF7F7F00A5000000A55252007F0000007F3F3F004C0000004C2626002600000026131300FF00
310
3F00FF7F9F00A5002900A55267007F001F007F3F4F004C0013004C262F002600090026131700FF007F00FF7FBF00A5005200A5527C007F003F007F3F5F004C0026004C2639002600130026131C00FF00BF00FF7FDF00A5007C00A55291007F005F007F3F6F004C0039004C26420026001C0026132100FF00FF00FF7FFF00A5
310
00A500A552A5007F007F007F3F7F004C004C004C264C002600260026132600BF00FF00DF7FFF007C00A5009152A5005F007F006F3F7F0039004C0042264C001C002600211326007F00FF00BF7FFF005200A5007C52A5003F007F005F3F7F0026004C0039264C00130026001C1326003F00FF009F7FFF002900A5006752A500
310
1F007F004F3F7F0013004C002F264C000900260017132600000000002D2D2D005B5B5B0089898900B7B7B700B3B3B30000000000000000000000000000000000000000000000000000000000000000000000000000000000000000000000000000000000000000000000000000000000000000000000000000000000000000
310
00000000000000000000000707070707070707070707070707070000000000070707070707000000000000000000000000000000000000000000000000000000000000000000000000000000000000000000000000000000000000000000000000000000000000000000000000000000000000000000000000000000000000
310
00000000000000000000000000000000000000000000000000000000000000000000000000000000000000000000000000000000000000000000000000000000070000000000000000000000000007000000000007000000000700000000000000000000000000000000000000000000000000000000000000000000000000
310
00000000000000000000000000000000000000000000000000000000000000000000000000000000000000000000000000000000000000000000000000000000000000000000000000000000000000000000000000000000000000000000000000000000000000000000000000000000000000000007000000000000000000
310
00000000070000000000070000000007000000000000000000000000000000000000000000000000000000000000000000000000000000000000000000000000000000000000000000000000000000000000000000000000000000000000000000000000000000000000000000000000000000000000000000000000000000
310
00000000000000000000000000000000000000000000000000000000000000000000000000000000000000070000000000000000000000000007000000000007000000000700000000000000000000000000000000000000000000000000000000000000000000000000000000000000000000000000000000000000000000
310
00000000000000000000000000000000000000000000000000000000000000000000000000000000000000000000000000000000000000000000000000000000000000000000000000000000000000000000000000000000000000000000000007000000000000000000000000000700000000000700000000070000000000
310
00000000000000000000000000000000000000000000000000000000000000000000000000000000000000000000000000000000000000000000000000000000000000000000000000000000000000000000000000000000000000000000000000000000000000000000000000000000000000000000000000000000000000
310
00000000000000000000000000000000000000000000070000000000000000000000000007000000000007000000000700000000000000000000000000000000000000000000000000000000000000000000000000000000000000000000000000000000000000000000000000000000000000000000000000000000000000
310
00000000000000000000000000000000000000000000000000000000000000000000000000000000000000000000000000000000000000000000000000000000000000000000000000000007000000000000000000000000000700000000000700000007000000000000000000000000000000000000000000000000000000
310
00000000000000000000000000000000000000000000000000000000000000000000000000000000000000000000000000000000000000000000000000000000000000000000000000000000000000000000000000000000000000000000000000000000000000000000000000000000000000000000000000000000000000
310
00070000000000000000000000000007000000000007000000070000000000000000000000000000000000000000000000000000000000000000000000000000000000000000000000000000000000000000000000000000000000000000000000000000000000000000000000000000000000000000000000000000000000
310
00000000000000000000000000000000000000000000000000000000000000000000000000000000000000000000000000000000000007000000000000000000000000000700000000000700000007000000000000000000000000000000000000000000000000000000000000000000000000000000000000000000000000
310
00000000000000000000000000000000000000000000000000000000000000000000000000000000000000000000000000000000000000000000000000000000000000000000000000000000000000000000000000000000000000000000000000000000000000000000000700000000000000000000000000070000000000
310
07000000070000000000000000000000000000000000000000000000000000000000000000000000000000000000000000000000000000000000000000000000000000000000000000000000000000000000000000000000000000000000000000000000000000000000000000000000000000000000000000000000000000
310
00000000000000000000000000000000000000000000000000000000000000000007000000000000000000000000000700000000000700000007000000000000000000000000000000000000000000000000000000000000000000000000000000000000000000000000000000000000000000000000000000000000000000
310
00000000000000000000000000000000000000000000000000000000000000000000000000000000000000000000000000000000000000000000000000000000000000000000000000000000000000000000000000000700000000000000000000000000070000000000070000000700000000000000000000000000000000
310
00000000000000000000000000000000000000000000000000000000000000000000000000000000000000000000000000000000000000000000000000000000000000000000000000000000000000000000000000000000000000000000000000000000000000000000000000000000000000000000000000000000000000
310
00000000000000000000000007000000000000000000000000000700000000000700000007000000000000000000000000000000000000000000000000000000000000000000000000000000000000000000000000000000000000000000000000000000000000000000000000000000000000000000000000000000000000
310
00000000000000000000000000000000000000000000000000000000000000000000000000000000000000000000000000000000000000000000000000000000000700000000000000000000000000070000000007000000000700000000000000000000000000000000000000000000000000000000000000000000000000
310
00000000000000000000000000000000000000000000000000000000000000000000000000000000000000000000000000000000000000000000000000000000000000000000000000000000000000000000000000000000000000000000000000000000000000000000000000000000000000000000070000000000000000
310
00000000000700000000070000000007000000000000000000000000000000000000000000000000000000000000000000000000000000000000000000000000000000000000000000000000000000000000000000000000000000000000000000000000000000000000000000000000000000000000000000000000000000
310
00000000000000000000000000000000000000000000000000000000000000000000000000000000000000000700000000000000000000000000070000000007000000070000000000000000000000000000000000000000000000000000000000000000000000000000000000000000000000000000000000000000000000
310
00000000000000000000000000000000000000000000000000000000000000000000000000000000000000000000000000000000000000000000000000000000000000000000000000000000000000000000000000000000000000000000000000070000000000000000000000000007000000000700000007000000000000
310
00000000000000000000000000000000000000000000000000000000000000000000000000000000000000000000000000000000000000000000000000000000000000000000000000000000000000000000000000000000000000000000000000000000000000000000000000000000000000000000000000000000000000
310
00000000000000000000000000000000000000000000000700000000000000000000000000070000000007000000070000000000000000000000000000000000000000000000000000000000000000000000000000000000000000000000000000000000000000000000000000000000000000000000000000000000000000
310
00000000000000000000000000000000000000000000000000000000000000000000000000000000000000000000000000000000000000000000000000000000000000000000000000000000070000000000000000000000000007000000000700000007000000000000000000000000000000000000000000000000000000
310
00000000000000000000000000000000000000000000000000000000000000000000000000000000000000000000000000000000000000000000000000000000000000000000000000000000000000000000000000000000000000000000000000000000000000000000000000000000000000000000000000000000000000
310
00000700000000000000000000000000070000000700000000070000000000000000000000000000000000000000000000000000000000000000000000000000000000000000000000000000000000000000000000000000000000000000000000000000000000000000000000000000000000000000000000000000000000
310
00000000000000000000000000000000000000000000000000000000000000000000000000000000000000000000000000000000000000070000000000000000000000000007000000070000000007000000000000000000000000000000000000000000000000000000000000000000000000000000000000000000000000
310
00000000000000000000000000000000000000000000000000000000000000000000000000000000000000000000000000000000000000000000000000000000000000000000000000000000000000000000000000000000000000000000000000000000000000000000000007000000000000000000000000000700000007
310
07070707070000000000000000000000000000000000000000000000000000000000000000000000000000000000000000000000000000000000000000000000000000000000000000000000000000000000000000000000000000000000000000000000000000000000000000000000000000000000000000000000000000
310
00000000000000000000000000000000000000000000000000000000000000000000070000000000000000000000000007000000070000000007070707000000000000000000000000000000000000000000000000000000000000000000000000000000000000000000000000000000000000000000000000000000000000
310
00000000000000000000000000000000000000000000000000000000000000000000000000000000000000000000000000000000000000000000000000000000000000000000000000000000000000000000000000000700000000000000000000000000000700000007000000000000000007070700000000000000000000
310
00000000000000000000000000000000000000000000000000000000000000000000000000000000000000000000000000000000000000000000000000000000000000000000000000000000000000000000000000000000000000000000000000000000000000000000000000000000000000000000000000000000000000
310
00000000000000000000000700000000000000000000000000000007000007000000000000000000000007000000000000000000000000000000000000000000000000000000000000000000000000000000000000000000000000000000000000000000000000000000000000000000000000000000000000000000000000
310
00000000000000000000000000000000000000000000000000000000000000000000000000000000000000000000000000000000000000000007070707070707000000000000000000000000000000000700000700000000000000000000000700000000000000000000000000000000000000000000000000000000000000
310
00000000000000000000000000000000000000000000000000000000000000000000000000000000000000000000000000000000000000000000000000000000000000000000000000000000000000000000000000000000000000000000000000000000000000000707070707070000000000000000000000000000000000
310
00000000000007000707000000000000000000000007000000000000000000000000000000000000000000000000000000000000000000000000000000000000000000000000000000000000000000000000000000000000000000000000000000000000000000000000000000000000000000000000000000000000000000
310
00000000000000000000000000000000000000000000000700070707070700000000000000000000000000000000000000000000000000000000000700070000000000000000000000000700000000000000000000000000000000000000000000000000000000000000000000000000000000000000000000000000000000
310
00000000000000000000000000000000000000000000000000000000000000000000000000000000000000000000000000000000000000000000000000000000000000000000000000000707070700000000000000000000000000000000000000000000000000000000000000000000070700000000000000000000000000
310
07000000000000000000000000000000000000000000000000000000000000000000000000000000000000000000000000000000000000000000000000000000000000000000000000000000000000000000000000000000000000000000000000000000000000000000000000000000000000000000000000000000000007
310
00070700000000000000000000000000000000000000000000000000000000000000000000000707000000000000000000000000000700000000000000000000000000000000000000000000000000000000000000000000000000000000000000000000000000000000000000000000000000000000000000000000000000
310
00000000000000000000000000000000000000000000000000000000000000000000000000000000000000000000000000000707070700000000000000000000000000000000000000000000000000000000000000000000000000070700000000000000000000000000070000000000000000000000000000000000000000
310
00000000000000000000000000000000000000000000000000000000000000000000000000000000000000000000000000000000000000000000000000000000000000000000000000000000000000000000000000000000000000000000000000000000000007070700000000000000000000000000000000000000000000
310
00000000000000000000000000000000000707000000000000000000000000000700000000000000000000000000000000000000000000000000000000000000000000000000000000000000000000000000000000000000000000000000000000000000000000000000000000000000000000000000000000000000000000
310
00000000000000000000000000000000000000000000000000000000000700000000000000000000000000000000000000000000000000000000000000000000000000000000070000000000000000000000000000070000000000000000000000000000000000000000000000000000000000000000000000000000000000
310
00000000000000000000000000000000000000000000000000000000000000000000000000000000000000000000000000000000000000000000000000000000000000000000000000000000000000000707000000000000000000000000000000000000000000000000000000000000000000000000000000000007000000
310
00000000000000000000000700000000000000000000000000000000000000000000000000000000000000000000000000000000000000000000000000000000000000000000000000000000000000000000000000000000000000000000000000000000000000000000000000000000000000000000000000000000000000
310
00000000000007070000000000000000000000000000000000000000000000000000000000000707070707070707070707070000000000000000000000000000070000000000000000000000000000000000000000000000000000000000000000000000000000000000000000000000000000000000000000000000000000
310
00000000000000000000000000000000000000000000000000000000000000000000000000000000000000000000000000000000000000000000000007070707070707070707070707070707070707070707070707070707070707070707070707000000000707070707070000000000000000000007000000000000000000
310
00000000000000000000000000000000000000000000000000000000000000000000000000000000000000000000000000000000000000000000000000000000000000000000000000000000000000000000000000000000000000000000000000000000000000000000000000000000000000000000000000000000000000
310
00000000000000000000000000000700000000000000000707000007070000070707070707000000000000070000000000000000000000000000000000000000000000000000000000000000000000000000000000000000000000000000000000000000000000000000000000000000000000000000000000000000000000
310
00000000000000000000000000000000000000000000000000000000000000000000000000000000000000000000000000000000000000000000000000000000000000070000000000000000000007070707000000000007000007070707000007000000000000000000000000000000000000000000000000000000000000
310
00000000000000000000000000000000000000000000000000000000000000000000000000000000000000000000000000000000000000000000000000000000000000000000000000000000000000000000000000000000000000000000000000000000000000000000000000000000000000000000000007000000000000
310
00000000000707000000000000070000000000000707070000000000000000000000000000000000000000000000000000000000000000000000000000000000000000000000000000000000000000000000000000000000000000000000000000000000000000000000000000000000000000000000000000000000000000
310
00000000000000000000000000000000000000000000000000000000000000000000000000000000000000000000000000000000000000000000000700000000000007000000000000000000000000000000000000000000000000000000000000000000000000000000000000000000000000000000000000000000000000
310
00000000000000000000000000000000000000000000000000000000000000000000000000000000000000000000000000000000000000000000000000000000000000000000000000000000000000000000000000000000000000000000000000000007000000000000000000000000070000000000070000000000000000
310
00000000000000000000000000000000000000000000000000000000000000000000000000000000000000000000000000000000000000000000000000000000000000000000000000000000000000000000000000000000000000000000000000000000000000000000000000000000000000000000000000000000000000
310
00000000000000000000000000000000000000000000000000070000000000000000000000000700000000000700000000000000000000000000000000000000000000000000000000000000000000000000000000000000000000000000000000000000000000000000000000000000000000000000000000000000000000
310
00000000000000000000000000000000000000000000000000000000000000000000000000000000000000000000000000000000000000000000000000000000000000000000000000000000000007000000000000000000000000070000000000070000000000000000000000000000000000000000000000000000000000
310
00000000000000000000000000000000000000000000000000000000000000000000000000000000000000000000000000000000000000000000000000000000000000000000000000000000000000000000000000000000000000000000000000000000000000000000000000000000000000000000000000000000000000
310
00000007070000000000000000000007070000000000000700000000000000000000000000000000000000000000000000000000000000000000000000000000000000000000000000000000000000000000000000000000000000000000000000000000000000000000000000000000000000000000000000000000000000
310
00000000000000000000000000000000000000000000000000000000000000000000000000000000000000000000000000000000000007070700000000000000000007070707000000000000070000000000000000000000000000000000000000000000000000000000000000000000000000000000000000000000000000
310
00000000000000000000000000000000000000000000000000000000000000000000000000000000000000000000000000000000000000000000000000000000000000000000000000000000000000000000000000000000000000000000000000000000000000000007070700000000000000070707070000000700000000
310
00070000000000000000000000000000000000000000000000000000000000000000000000000000000000000000000000000000000000000000000000000000000000000000000000000000000000000000000000000000000000000000000000000000000000000000000000000000000000000000000000000000000000
310
00000000000000000000000000000000000000000000000000000007070707000000000000000007070000000000000007000000000007000000000000000000000000000000000000000000000000000000000000000000000000000000000000000000000000000000000000000000000000000000000000000000000000
310
00000000000000000000000000000000000000000000000000000000000000000000000000000000000000000000000000000000000000000000000000000000000000000000000000000000000007070000000000000707070707000000000000000000070000000000000700000000000000000000000000000000000000
310
00000000000000000000000000000000000000000000000000000000000000000000000000000000000000000000000000000000000000000000000000000000000000000000000000000000000000000000000000000000000000000000000000000000000000000000000000000000000000000000000000000000000000
310
00000707000000000707070700000000000000000000000000000700000000000007000000000000000000000000000000000000000000000000000000000000000000000000000000000000000000000000000000000000000000000000000000000000000000000000000000000000000000000000000000000000000000
310
00000000000000000000000000000000000000000000000000000000000000000000000000000000000000000000000000000000000000070707070707000000000000000000000000000000000000070000000000070000000000000000000000000000000000000000000000000000000000000000000000000000000000
310
00000000000000000000000000000000000000000000000000000000000000000000000000000000000000000000000000000000000000000000000000000000000000000000000000000000000000000000000000000000000000000000000000000000000000000000000000000000000000000000000000000000000000
310
00000000000700000000000700000000000000000000000000000000000000000000000000000000000000000000000000000000000000000000000000000000000000000000000000000000000000000000000000000000000000000000000000000000000000000000000000000000000000000000000000000000000000
310
00000000000000000000000000000000000000000000000000000000000000000000000000000000000000000000000000000000000000000007000000000000070000000000000000000000000000000000000000000000000000000000000000000000000000000000000000000000000000000000000000000000000000
310
00000000000000000000000000000000000000000000000000000000000000000000000000000000000000000000000000000000000000000000000000000000000000000000000000000000000000000000000000000000000000000000000000000000000000000000000000000700000000000007000000000000000000
310
00000000000000000000000000000000000000000000000000000000000000000000000000000000000000000000000000000000000000000000000000000000000000000000000000000000000000000000000000000000000000000000000000000000000000000000000000000000000000000000000000000000000000
310
00000000000000000000000000000000000000000000000000000000000000000000000007000000000007000000000000000000000000000000000000000000000000000000000000000000000000000000000000000000000000000000000000000000000000000000000000000000000000000000000000000000000000
310
00000000000000000000000000000000000000000000000000000000000000000000000000000000000000000000000000000000000000000000000000000000000000000000000000000000000000000000000000000000000700000000000700000000000000000000000000000000000000000000000000000000000000
310
00000000000000000000000000000000000000000000000000000000000000000000000000000000000000000000000000000000000000000000000000000000000000000000000000000000000000000000000000000000000000000000000000000000000000000000000000000000000000000000000000000000000000
310
00000000000000000000000000000007000000000007000000000000000000000000000000000000000000000000000000000000000000000000000000000000000000000000000000000000000000000000000000000000000000000000000000000000000000000000000000000000000000000000000000000000000000
310
00000000000000000000000000000000000000000000000000000000000000000000000000000000000000000000000000000000000000000000000000000000000000070000000000000700000000000000000000000000000000000000000000000000000000000000000000000000000000000000000000000000000000
310
00000000000000000000000000000000000000000000000000000000000000000000000000000000000000000000000000000000000000000000000000000000000000000000000000000000000000000000000000000000000000000000000000000000000000000000000000000000000000000000000007000000000000
310
07000000000000000000000000000000000000000000000000000000000000000000000000000000000000000000000000000000000000000000000000000000000000000000000000000000000000000000000000000000000000000000000000000000000000000000000000000000000000000000000000000000000000
310
00000000000000000000000000000000000000000000000000000000000000000000000000000000000000000000070000000000070000000000000000000000000000000000000000000000000000000000000000000000000000000000000000000000000000000000000000000000000000000000000000000000000000
310
00000000000000000000000000000000000000000000000000000000000000000000000000000000000000000000000000000000000000000000000000000000000000000000000000000000000000000000000000000000000000000000000000000007000000000007000000000000000000000000000000000000000000
310
00000000000000000000000000000000000000000000000000000000000000000000000000000000000000000000000000000000000000000000000000000000000000000000000000000000000000000000000000000000000000000000000000000000000000000000000000000000000000000000000000000000000000
310
00000000000000000000000000000000000000000000000007000000000000070000000000000000000000000000000000000000000000000000000000000000000000000000000000000000000000000000000000000000000000000000000000000000000000000000000000000000000000000000000000000000000000
310
00000000000000000000000000000000000000000000000000000000000000000000000000000000000000000000000000000000000000000000000000000000000000000000000000000000000700000000000007000000000000000000000000000000000000000000000000000000000000000000000000000000000000
310
00000000000000000000000000000000000000000000000000000000000000000000000000000000000000000000000000000000000000000000000000000000000000000000000000000000000000000000000000000000000000000000000000000000000000000000000000000000000000000000000000000000000000
310
00000007000000000007000000000000000000000000000000000000000000000000000000000000000000000000000000000000000000000000000000000000000000000000000000000000000000000000000000000000000000000000000000000000000000000000000000000000000000000000000000000000000000
310
00000000000000000000000000000000000000000000000000000000000000000000000000000000000000000000000000000000000000070000000000000700000000000000000000000000000000000000000000000000000000000000000000000000000000000000000000000000000000000000000000000000000000
310
00000000000000000000000000000000000000000000000000000000000000000000000000000000000000000000000000000000000000000000000000000000000000000000000000000000000000000000000000000000000000000000000000000000000000000000000000070000000000070000000000000000000000
310
00000000000000000000000000000000000000000000000000000000000000000000000000000000000000000000000000000000000000000000000000000000000000000000000000000000000000000000000000000000000000000000000000000000000000000000000000000000000000000000000000000000000000
310
00000000000000000000000000000000000000000000000000000000000000000000070000000000000700000000000000000000000000000000000000000000000000000000000000000000000000000000000000000000000000000000000000000000000000000000000000000000000000000000000000000000000000
310
00000000000000000000000000000000000000000000000000000000000000000000000000000000000000000000000000000000000000000000000000000000000000000000000000000000000000000000000000000007000000000007000000000000000000000000000000000000000000000000000000000000000000
310
00000000000000000000000000000000000000000000000000000000000000000000000000000000000000000000000000000000000000000000000000000000000000000000000000000000000000000000000000000000000000000000000000000000000000000000000000000000000000000000000000000000000000
310
00000000000000000000000000070000000000070000000000000000000000000000000000000000000000000000000000000000000000000000000000000000000000000000000000000000000000000000000000000000000000000000000000000000000000000000000000000000000000000000000000000000000000
310
00000000000000000000000000000000000000000000000000000000000000000000000000000000000000000000000000000000000000000000000000000000000007000000000007000000000000000000000000000000000000000000000000000000000000000000000000000000000000000000000000000000000000
310
00000000000000000000000000000000000000000000000000000000000000000000000000000000000000000000000000000000000000000000000000000000000000000000000000000000000000000000000000000000000000000000000000000000000000000000000000000000000000000000070000000000000700
310
00000000000000000000000000000000000000000000000000000000000000000000000000000000000000000000000000000000000000000000000000000000000000000000000000000000000000000000000000000000000000000000000000000000000000000000000000000000000000000000000000000000000000
310
00000000000000000000000000000000000000000000000000000000000000000000000000000000000007070700000000000700000000000000000000000000000000000000000000000000000000000000000000000000000000000000000000000000000000000000000000000000000000000000000000000000000000
310
00000000000000000000000000000000000000000000000000000000000000000000000000000000000000000000000000000000000000000000000000000000000000000000000000000000000000000000000000000000000000000000000700000000000000070000000000000000000000000000000000000000000000
310
00000000000000000000000000000000000000000000000000000000000000000000000000000000000000000000000000000000000000000000000000000000000000000000000000000000000000000000000000000000000000000000000000000000000000000000000000000000000000000000000000000000000000
310
00000000000000000000000000000000000000000707000000000000000700000000000000000000000000000000000000000000000000000000000000000000000000000000000000000000000000000000000000000000000000000000000000000000000000000000000000000000000000000000000000000000000000
310
00000000000000000000000000000000000000000000000000000000000000000000000000000000000000000000000000000000000000000000000000000000000000000000000000070700000000000000070000000000000000000000000000000000000000000000000000000000000000000000000000000000000000
310
00000000000000000000000000000000000000000000000000000000000000000000000000000000000000000000000000000000000000000000000000000000000000000000000000000000000000000000000000000000000000000000000000000000000000000000000000000000000000000000000000000000000707
310
00000000000000000700000000000000000000000000000000000000000000000000000000000000000000000000000000000000000000000000000000000000000000000000000000000000000000000000000000000000000000000000000000000000000000000000000000000000000000000000000000000000000000
310
00000000000000000000000000000000000000000000000000000000000000000000000000000000000000000000000000000007070000000000000000070000000000000000000000000000000000000000000000000000000000000000000000000000000000000000000000000000000000000000000000000000000000
310
00000000000000000000000000000000000000000000000000000000000000000000000000000000000000000000000000000000000000000000000000000000000000000000000000000000000000000000000000000000000000000000000000000000000000000707000000000000000700000000000000000000000000
310
00000000000000000000000000000000000000000000000000000000000000000000000000000000000000000000000000000000000000000000000000000000000000000000000000000000000000000000000000000000000000000000000000000000000000000000000000000000000000000000000000000000000000
310
00000000000000000000000000000000000000000000000000000000000007070000000000000007000000000000000000000000000000000000000000000000000000000000000000000000000000000000000000000000000000000000000000000000000000000000000000000000000000000000000000000000000000
310
00000000000000000000000000000000000000000000000000000000000000000000000000000000000000000000000000000000000000000000000000000000000000000000000000000000000000000000070700000000000000070700000000000000000000000000000000000000000000000000000000000000000000
310
00000000000000000000000000000000000000000000000000000000000000000000000000000000000000000000000000000000000000000000000000000000000000000000000000000000000000000000000000000000000000000000000000000000000000000000000000000000000000000000000000000000000000
310
00000000000000000707000000000000000700000000000000000000000000000000000000000000000000000000000000000000000000000000000000000000000000000000000000000000000000000000000000000000000000000000000000000000000000000000000000000000000000000000000000000000000000
310
00000000000000000000000000000000000000000000000000000000000000000000000000000000000000000000000000000000000000000000000000070700000000000000070000000000000000000000000000000000000000000000000000000000000000000000000000000000000000000000000000000000000000
310
00000000000000000000000000000000000000000000000000000000000000000000000000000000000000000000000000000000000000000000000000000000000000000000000000000000000000000000000000000000000000000000000000000000000000000000000000000000000000070700000000000707000000
310
00000000000000000000000000000000000000000000000000000000000000000000000000000000000000000000000000000000000000000000000000000000000000000000000000000000000000000000000000000000000000000000000000000000000000000000000000000000000000000000000000000000000000
310
00000000000000000000000000000000000000000000000000000000000000000000000000000000000000070707000007000000000000000000000000000000000000000000000000000000000000000000000000000000000000000000000000000000000000000000000000000000000000000000000000000000000000
310
00000000000000000000000000000000000000000000000000000000000000000000000000000000000000000000000000000000000000000000000000000000000000000000000000000000000000000000000000000000000000000000000000000007070700000000000000000000000000000000000000000000000000
310
00000000000000000000000000000000000000000000000000000000000000000000000000000000000000000000000000000000000000000000000000000000000000000000000000000000000000000000000000000000000000000000000000000000000000000000000000000000000000000000000000000000000000
310
000000000000000000000000000000000000000000000000000000000000000000000000000000000000000000000000000000000000000000000000000000000000000000000000000000000000000000000000000000000000000000000000000000000000000000000000
  0
ENDSEC
  0
EOF
