  0
SECTION
  2
HEADER
  9
$ACADVER
  1
AC1015
  9
$ACADMAINTVER
 70
     6
  9
$DWGCODEPAGE
  3
ANSI_1252
  9
$INSBASE
 10
0.0
 20
0.0
 30
0.0
  9
$EXTMIN
 10
-0.0388
 20
-0.135
 30
0.0
  9
$EXTMAX
 10
48.0388
 20
167.135
 30
0.0
  9
$LIMMIN
 10
0.0
 20
0.0
  9
$LIMMAX
 10
12.0
 20
9.0
  9
$ORTHOMODE
 70
     0
  9
$REGENMODE
 70
     1
  9
$FILLMODE
 70
     1
  9
$QTEXTMODE
 70
     0
  9
$MIRRTEXT
 70
     1
  9
$LTSCALE
 40
1.0
  9
$ATTMODE
 70
     1
  9
$TEXTSIZE
 40
0.2
  9
$TRACEWID
 40
0.05
  9
$TEXTSTYLE
  7
Standard
  9
$CLAYER
  8
0
  9
$CELTYPE
  6
ByBlock
  9
$CECOLOR
 62
   256
  9
$CELTSCALE
 40
1.0
  9
$DISPSILH
 70
     0
  9
$DIMSCALE
 40
1.0
  9
$DIMASZ
 40
0.18
  9
$DIMEXO
 40
0.0625
  9
$DIMDLI
 40
0.38
  9
$DIMRND
 40
0.0
  9
$DIMDLE
 40
0.0
  9
$DIMEXE
 40
0.18
  9
$DIMTP
 40
0.0
  9
$DIMTM
 40
0.0
  9
$DIMTXT
 40
0.18
  9
$DIMCEN
 40
0.09
  9
$DIMTSZ
 40
0.0
  9
$DIMTOL
 70
     0
  9
$DIMLIM
 70
     0
  9
$DIMTIH
 70
     1
  9
$DIMTOH
 70
     1
  9
$DIMSE1
 70
     0
  9
$DIMSE2
 70
     0
  9
$DIMTAD
 70
     0
  9
$DIMZIN
 70
     0
  9
$DIMBLK
  1

  9
$DIMASO
 70
     1
  9
$DIMSHO
 70
     1
  9
$DIMPOST
  1

  9
$DIMAPOST
  1

  9
$DIMALT
 70
     0
  9
$DIMALTD
 70
     2
  9
$DIMALTF
 40
25.4
  9
$DIMLFAC
 40
1.0
  9
$DIMTOFL
 70
     0
  9
$DIMTVP
 40
0.0
  9
$DIMTIX
 70
     0
  9
$DIMSOXD
 70
     0
  9
$DIMSAH
 70
     0
  9
$DIMBLK1
  1

  9
$DIMBLK2
  1

  9
$DIMSTYLE
  2
Standard
  9
$DIMCLRD
 70
     0
  9
$DIMCLRE
 70
     0
  9
$DIMCLRT
 70
     0
  9
$DIMTFAC
 40
1.0
  9
$DIMGAP
 40
0.09
  9
$DIMJUST
 70
     0
  9
$DIMSD1
 70
     0
  9
$DIMSD2
 70
     0
  9
$DIMTOLJ
 70
     1
  9
$DIMTZIN
 70
     0
  9
$DIMALTZ
 70
     0
  9
$DIMALTTZ
 70
     0
  9
$DIMUPT
 70
     0
  9
$DIMDEC
 70
     4
  9
$DIMTDEC
 70
     4
  9
$DIMALTU
 70
     2
  9
$DIMALTTD
 70
     2
  9
$DIMTXSTY
  7
Standard
  9
$DIMAUNIT
 70
     0
  9
$DIMADEC
 70
     0
  9
$DIMALTRND
 40
0.0
  9
$DIMAZIN
 70
     0
  9
$DIMDSEP
 70
    46
  9
$DIMATFIT
 70
     3
  9
$DIMFRAC
 70
     0
  9
$DIMLDRBLK
  1

  9
$DIMLUNIT
 70
     2
  9
$DIMLWD
 70
    -2
  9
$DIMLWE
 70
    -2
  9
$DIMTMOVE
 70
     2
  9
$LUNITS
 70
     2
  9
$LUPREC
 70
     4
  9
$SKETCHINC
 40
0.1
  9
$FILLETRAD
 40
0.5
  9
$AUNITS
 70
     0
  9
$AUPREC
 70
     0
  9
$MENU
  1
.
  9
$ELEVATION
 40
0.0
  9
$PELEVATION
 40
0.0
  9
$THICKNESS
 40
0.0
  9
$LIMCHECK
 70
     0
  9
$CHAMFERA
 40
0.5
  9
$CHAMFERB
 40
0.5
  9
$CHAMFERC
 40
1.0
  9
$CHAMFERD
 40
0.0
  9
$SKPOLY
 70
     0
  9
$TDCREATE
 40
2456645.941438611
  9
$TDUCREATE
 40
2456645.899771945
  9
$TDUPDATE
 40
2456645.954086181
  9
$TDUUPDATE
 40
2456645.912419514
  9
$TDINDWG
 40
0.0126473958
  9
$TDUSRTIMER
 40
0.0126473958
  9
$USRTIMER
 70
     1
  9
$ANGBASE
 50
0.0
  9
$ANGDIR
 70
     0
  9
$PDMODE
 70
     0
  9
$PDSIZE
 40
0.0
  9
$PLINEWID
 40
0.0
  9
$SPLFRAME
 70
     0
  9
$SPLINETYPE
 70
     6
  9
$SPLINESEGS
 70
     8
  9
$HANDSEED
  5
48A
  9
$SURFTAB1
 70
     6
  9
$SURFTAB2
 70
     6
  9
$SURFTYPE
 70
     6
  9
$SURFU
 70
     6
  9
$SURFV
 70
     6
  9
$UCSBASE
  2

  9
$UCSNAME
  2

  9
$UCSORG
 10
0.0
 20
0.0
 30
0.0
  9
$UCSXDIR
 10
1.0
 20
0.0
 30
0.0
  9
$UCSYDIR
 10
0.0
 20
1.0
 30
0.0
  9
$UCSORTHOREF
  2

  9
$UCSORTHOVIEW
 70
     0
  9
$UCSORGTOP
 10
0.0
 20
0.0
 30
0.0
  9
$UCSORGBOTTOM
 10
0.0
 20
0.0
 30
0.0
  9
$UCSORGLEFT
 10
0.0
 20
0.0
 30
0.0
  9
$UCSORGRIGHT
 10
0.0
 20
0.0
 30
0.0
  9
$UCSORGFRONT
 10
0.0
 20
0.0
 30
0.0
  9
$UCSORGBACK
 10
0.0
 20
0.0
 30
0.0
  9
$PUCSBASE
  2

  9
$PUCSNAME
  2

  9
$PUCSORG
 10
0.0
 20
0.0
 30
0.0
  9
$PUCSXDIR
 10
1.0
 20
0.0
 30
0.0
  9
$PUCSYDIR
 10
0.0
 20
1.0
 30
0.0
  9
$PUCSORTHOREF
  2

  9
$PUCSORTHOVIEW
 70
     0
  9
$PUCSORGTOP
 10
0.0
 20
0.0
 30
0.0
  9
$PUCSORGBOTTOM
 10
0.0
 20
0.0
 30
0.0
  9
$PUCSORGLEFT
 10
0.0
 20
0.0
 30
0.0
  9
$PUCSORGRIGHT
 10
0.0
 20
0.0
 30
0.0
  9
$PUCSORGFRONT
 10
0.0
 20
0.0
 30
0.0
  9
$PUCSORGBACK
 10
0.0
 20
0.0
 30
0.0
  9
$USERI1
 70
     0
  9
$USERI2
 70
     0
  9
$USERI3
 70
     0
  9
$USERI4
 70
     0
  9
$USERI5
 70
     0
  9
$USERR1
 40
0.0
  9
$USERR2
 40
0.0
  9
$USERR3
 40
0.0
  9
$USERR4
 40
0.0
  9
$USERR5
 40
0.0
  9
$WORLDVIEW
 70
     1
  9
$SHADEDGE
 70
     3
  9
$SHADEDIF
 70
    70
  9
$TILEMODE
 70
     1
  9
$MAXACTVP
 70
    64
  9
$PINSBASE
 10
0.0
 20
0.0
 30
0.0
  9
$PLIMCHECK
 70
     0
  9
$PEXTMIN
 10
1.000000000000E+20
 20
1.000000000000E+20
 30
1.000000000000E+20
  9
$PEXTMAX
 10
-1.000000000000E+20
 20
-1.000000000000E+20
 30
-1.000000000000E+20
  9
$PLIMMIN
 10
0.0
 20
0.0
  9
$PLIMMAX
 10
12.0
 20
9.0
  9
$UNITMODE
 70
     0
  9
$VISRETAIN
 70
     1
  9
$PLINEGEN
 70
     0
  9
$PSLTSCALE
 70
     1
  9
$TREEDEPTH
 70
  3020
  9
$CMLSTYLE
  2
Standard
  9
$CMLJUST
 70
     0
  9
$CMLSCALE
 40
1.0
  9
$PROXYGRAPHICS
 70
     1
  9
$MEASUREMENT
 70
     0
  9
$CELWEIGHT
370
    -1
  9
$ENDCAPS
280
     0
  9
$JOINSTYLE
280
     0
  9
$LWDISPLAY
290
     0
  9
$INSUNITS
 70
     0
  9
$HYPERLINKBASE
  1

  9
$STYLESHEET
  1

  9
$XEDIT
290
     1
  9
$CEPSNTYPE
380
     0
  9
$PSTYLEMODE
290
     1
  9
$FINGERPRINTGUID
  2
{248BBEB4-3B49-4E21-8498-36931C87E872}
  9
$VERSIONGUID
  2
{FAEB1C32-E019-11D5-929B-00C0DF256EC4}
  9
$EXTNAMES
290
     1
  9
$PSVPSCALE
 40
0.0
  9
$OLESTARTUP
290
     0
  0
ENDSEC
  0
SECTION
  2
CLASSES
  0
CLASS
  1
ACDBDICTIONARYWDFLT
  2
AcDbDictionaryWithDefault
  3
ObjectDBX Classes
 90
        0
280
     0
281
     0
  0
CLASS
  1
SCALE
  2
AcDbScale
  3
ObjectDBX Classes
 90
     1153
280
     0
281
     0
  0
CLASS
  1
DICTIONARYVAR
  2
AcDbDictionaryVar
  3
ObjectDBX Classes
 90
        0
280
     0
281
     0
  0
CLASS
  1
ACDBPLACEHOLDER
  2
AcDbPlaceHolder
  3
ObjectDBX Classes
 90
        0
280
     0
281
     0
  0
CLASS
  1
LAYOUT
  2
AcDbLayout
  3
ObjectDBX Classes
 90
        0
280
     0
281
     0
  0
ENDSEC
  0
SECTION
  2
TABLES
  0
TABLE
  2
VPORT
  5
8
330
0
100
AcDbSymbolTable
 70
     1
  0
VPORT
  5
3EE
330
8
100
AcDbSymbolTableRecord
100
AcDbViewportTableRecord
  2
*Active
 70
     0
 10
0.0
 20
0.0
 11
1.0
 21
1.0
 12
24.0
 22
83.5
 13
0.0
 23
0.0
 14
0.5
 24
0.5
 15
0.5
 25
0.5
 16
0.0
 26
0.0
 36
1.0
 17
0.0
 27
0.0
 37
0.0
 40
170.6154
 41
1.729542302358
 42
50.0
 43
0.0
 44
0.0
 50
0.0
 51
0.0
 71
    16
 72
   100
 73
     1
 74
     3
 75
     0
 76
     0
 77
     0
 78
     0
281
     0
 65
     1
110
0.0
120
0.0
130
0.0
111
1.0
121
0.0
131
0.0
112
0.0
122
1.0
132
0.0
 79
     0
146
0.0
  0
ENDTAB
  0
TABLE
  2
LTYPE
  5
5
330
0
100
AcDbSymbolTable
 70
     1
  0
LTYPE
  5
14
330
5
100
AcDbSymbolTableRecord
100
AcDbLinetypeTableRecord
  2
ByBlock
 70
     0
  3

 72
    65
 73
     0
 40
0.0
  0
LTYPE
  5
15
330
5
100
AcDbSymbolTableRecord
100
AcDbLinetypeTableRecord
  2
ByLayer
 70
     0
  3

 72
    65
 73
     0
 40
0.0
  0
LTYPE
  5
16
330
5
100
AcDbSymbolTableRecord
100
AcDbLinetypeTableRecord
  2
Continuous
 70
     0
  3
Solid line
 72
    65
 73
     0
 40
0.0
  0
ENDTAB
  0
TABLE
  2
LAYER
  5
2
330
0
100
AcDbSymbolTable
 70
     1
  0
LAYER
  5
10
330
2
100
AcDbSymbolTableRecord
100
AcDbLayerTableRecord
  2
0
 70
     0
 62
     7
  6
Continuous
370
    -3
390
F
  0
ENDTAB
  0
TABLE
  2
STYLE
  5
3
330
0
100
AcDbSymbolTable
 70
     1
  0
STYLE
  5
11
330
3
100
AcDbSymbolTableRecord
100
AcDbTextStyleTableRecord
  2
Standard
 70
     0
 40
0.0
 41
1.0
 50
0.0
 71
     0
 42
0.2
  3
txt
  4

  0
ENDTAB
  0
TABLE
  2
VIEW
  5
6
330
0
100
AcDbSymbolTable
 70
     0
  0
ENDTAB
  0
TABLE
  2
UCS
  5
7
330
0
100
AcDbSymbolTable
 70
     0
  0
ENDTAB
  0
TABLE
  2
APPID
  5
9
330
0
100
AcDbSymbolTable
 70
     1
  0
APPID
  5
12
330
9
100
AcDbSymbolTableRecord
100
AcDbRegAppTableRecord
  2
ACAD
 70
     0
  0
ENDTAB
  0
TABLE
  2
DIMSTYLE
  5
A
330
0
100
AcDbSymbolTable
 70
     1
100
AcDbDimStyleTable
  0
DIMSTYLE
105
20
330
A
100
AcDbSymbolTableRecord
100
AcDbDimStyleTableRecord
  2
Standard
 70
     0
340
11
  0
ENDTAB
  0
TABLE
  2
BLOCK_RECORD
  5
1
330
0
100
AcDbSymbolTable
 70
     0
  0
BLOCK_RECORD
  5
1D
330
1
100
AcDbSymbolTableRecord
100
AcDbBlockTableRecord
  2
*Model_Space
340
1E
  0
BLOCK_RECORD
  5
1B
330
1
100
AcDbSymbolTableRecord
100
AcDbBlockTableRecord
  2
*Paper_Space
340
1C
  0
ENDTAB
  0
ENDSEC
  0
SECTION
  2
BLOCKS
  0
BLOCK
  5
3F1
330
1D
100
AcDbEntity
  8
0
100
AcDbBlockBegin
  2
*Model_Space
 70
     0
 10
0.0
 20
0.0
 30
0.0
  3
*Model_Space
  1
*Model_Space
  0
ENDBLK
  5
3F2
330
1D
100
AcDbEntity
  8
0
100
AcDbBlockEnd
  0
BLOCK
  5
3EF
330
1B
100
AcDbEntity
 67
     1
  8
0
100
AcDbBlockBegin
  2
*Paper_Space
 70
     0
 10
0.0
 20
0.0
 30
0.0
  3
*Paper_Space
  1
*Paper_Space
  0
ENDBLK
  5
3F0
330
1B
100
AcDbEntity
 67
     1
  8
0
100
AcDbBlockEnd
  0
ENDSEC
  0
SECTION
  2
ENTITIES
  0
LINE
  5
21
330
1D
100
AcDbEntity
  8
0
100
AcDbLine
 10
11.3003
 20
9.815
 30
0.0
 11
11.3567
 21
9.815
 31
0.0
  0
LINE
  5
22
330
1D
100
AcDbEntity
  8
0
100
AcDbLine
 10
11.3003
 20
9.815
 30
0.0
 11
11.3741
 21
9.815
 31
0.0
  0
LINE
  5
23
330
1D
100
AcDbEntity
  8
0
100
AcDbLine
 10
11.3003
 20
9.815
 30
0.0
 11
11.3144
 21
15.815
 31
0.0
  0
LINE
  5
24
330
1D
100
AcDbEntity
  8
0
100
AcDbLine
 10
11.543
 20
9.815
 30
0.0
 11
11.8573
 21
9.815
 31
0.0
  0
LINE
  5
25
330
1D
100
AcDbEntity
  8
0
100
AcDbLine
 10
11.3741
 20
9.815
 30
0.0
 11
11.5774
 21
9.815
 31
0.0
  0
LINE
  5
26
330
1D
100
AcDbEntity
  8
0
100
AcDbLine
 10
11.5774
 20
9.815
 30
0.0
 11
11.9083
 21
9.815
 31
0.0
  0
LINE
  5
27
330
1D
100
AcDbEntity
  8
0
100
AcDbLine
 10
11.3567
 20
9.815
 30
0.0
 11
11.543
 21
9.815
 31
0.0
  0
LINE
  5
28
330
1D
100
AcDbEntity
  8
0
100
AcDbLine
 10
11.3145
 20
15.815
 30
0.0
 11
11.4296
 21
15.815
 31
0.0
  0
LINE
  5
29
330
1D
100
AcDbEntity
  8
0
100
AcDbLine
 10
11.4296
 20
15.815
 30
0.0
 11
11.6588
 21
15.815
 31
0.0
  0
LINE
  5
2A
330
1D
100
AcDbEntity
  8
0
100
AcDbLine
 10
11.8402
 20
9.815
 30
0.0
 11
12.001521276596
 21
9.815
 31
0.0
  0
LINE
  5
2B
330
1D
100
AcDbEntity
  8
0
100
AcDbLine
 10
11.8034
 20
9.815
 30
0.0
 11
11.9002
 21
9.815
 31
0.0
  0
LINE
  5
2C
330
1D
100
AcDbEntity
  8
0
100
AcDbLine
 10
11.9002
 20
9.815
 30
0.0
 11
12.1297
 21
9.815
 31
0.0
  0
LINE
  5
2D
330
1D
100
AcDbEntity
  8
0
100
AcDbLine
 10
11.8573
 20
9.815
 30
0.0
 11
12.296
 21
9.815
 31
0.0
  0
LINE
  5
2E
330
1D
100
AcDbEntity
  8
0
100
AcDbLine
 10
11.9083
 20
9.815
 30
0.0
 11
12.001521276596
 21
9.815
 31
0.0
  0
LINE
  5
2F
330
1D
100
AcDbEntity
  8
0
100
AcDbLine
 10
11.6588
 20
15.815
 30
0.0
 11
12.0
 21
15.815
 31
0.0
  0
LINE
  5
30
330
1D
100
AcDbEntity
  8
0
100
AcDbLine
 10
12.0
 20
17.915
 30
0.0
 11
12.0
 21
18.238
 31
0.0
  0
LINE
  5
31
330
1D
100
AcDbEntity
  8
0
100
AcDbLine
 10
12.0
 20
18.433
 30
0.0
 11
12.0
 21
18.563
 31
0.0
  0
LINE
  5
32
330
1D
100
AcDbEntity
  8
0
100
AcDbLine
 10
12.0
 20
18.433
 30
0.0
 11
12.0
 21
18.219
 31
0.0
  0
LINE
  5
33
330
1D
100
AcDbEntity
  8
0
100
AcDbLine
 10
12.0
 20
18.563
 30
0.0
 11
12.0
 21
18.614
 31
0.0
  0
LINE
  5
34
330
1D
100
AcDbEntity
  8
0
100
AcDbLine
 10
12.0
 20
18.563
 30
0.0
 11
12.0
 21
18.433
 31
0.0
  0
LINE
  5
35
330
1D
100
AcDbEntity
  8
0
100
AcDbLine
 10
12.0
 20
18.457
 30
0.0
 11
12.0
 21
18.238
 31
0.0
  0
LINE
  5
36
330
1D
100
AcDbEntity
  8
0
100
AcDbLine
 10
12.0
 20
18.457
 30
0.0
 11
12.0
 21
18.581
 31
0.0
  0
LINE
  5
37
330
1D
100
AcDbEntity
  8
0
100
AcDbLine
 10
12.0
 20
18.238
 30
0.0
 11
12.0
 21
17.915
 31
0.0
  0
LINE
  5
38
330
1D
100
AcDbEntity
  8
0
100
AcDbLine
 10
12.0
 20
18.238
 30
0.0
 11
12.0
 21
18.457
 31
0.0
  0
LINE
  5
39
330
1D
100
AcDbEntity
  8
0
100
AcDbLine
 10
2.072040996413
 20
89.445869752803
 30
0.0
 11
2.1105
 21
85.6991
 31
0.0
  0
LINE
  5
3A
330
1D
100
AcDbEntity
  8
0
100
AcDbLine
 10
2.3878
 20
62.2147
 30
0.0
 11
2.6715
 21
42.8116
 31
0.0
  0
LINE
  5
3B
330
1D
100
AcDbEntity
  8
0
100
AcDbLine
 10
2.1527
 20
81.6198
 30
0.0
 11
2.3878
 21
62.2147
 31
0.0
  0
LINE
  5
3C
330
1D
100
AcDbEntity
  8
0
100
AcDbLine
 10
2.1105
 20
85.6991
 30
0.0
 11
2.1527
 21
81.6198
 31
0.0
  0
LINE
  5
3D
330
1D
100
AcDbEntity
  8
0
100
AcDbLine
 10
1.8949
 20
104.683
 30
0.0
 11
1.9316
 21
102.015
 31
0.0
  0
LINE
  5
3E
330
1D
100
AcDbEntity
  8
0
100
AcDbLine
 10
1.9316
 20
102.015
 30
0.0
 11
2.1595
 21
81.6185
 31
0.0
  0
LINE
  5
3F
330
1D
100
AcDbEntity
  8
0
100
AcDbLine
 10
2.072040996413
 20
89.445869752803
 30
0.0
 11
2.1105
 21
85.6991
 31
0.0
  0
LINE
  5
40
330
1D
100
AcDbEntity
  8
0
100
AcDbLine
 10
3.1687
 20
34.3035
 30
0.0
 11
3.2709
 21
33.7071
 31
0.0
  0
LINE
  5
41
330
1D
100
AcDbEntity
  8
0
100
AcDbLine
 10
2.8822
 20
36.5364
 30
0.0
 11
3.1157
 21
34.7093
 31
0.0
  0
LINE
  5
42
330
1D
100
AcDbEntity
  8
0
100
AcDbLine
 10
3.1157
 20
34.7093
 30
0.0
 11
3.1687
 21
34.3035
 31
0.0
  0
LINE
  5
43
330
1D
100
AcDbEntity
  8
0
100
AcDbLine
 10
2.7554
 20
38.4733
 30
0.0
 11
2.8822
 21
36.5364
 31
0.0
  0
LINE
  5
44
330
1D
100
AcDbEntity
  8
0
100
AcDbLine
 10
2.6889
 20
41.0989
 30
0.0
 11
2.7554
 21
38.4733
 31
0.0
  0
LINE
  5
45
330
1D
100
AcDbEntity
  8
0
100
AcDbLine
 10
2.661
 20
42.8131
 30
0.0
 11
2.6889
 21
41.0989
 31
0.0
  0
LINE
  5
46
330
1D
100
AcDbEntity
  8
0
100
AcDbLine
 10
3.2709
 20
33.7071
 30
0.0
 11
3.5141
 21
32.4205
 31
0.0
  0
LINE
  5
47
330
1D
100
AcDbEntity
  8
0
100
AcDbLine
 10
3.9764
 20
30.631
 30
0.0
 11
4.1939
 21
30.0754
 31
0.0
  0
LINE
  5
48
330
1D
100
AcDbEntity
  8
0
100
AcDbLine
 10
5.501
 20
27.4582
 30
0.0
 11
6.4554
 21
26.3492
 31
0.0
  0
LINE
  5
49
330
1D
100
AcDbEntity
  8
0
100
AcDbLine
 10
4.589
 20
29.1206
 30
0.0
 11
4.751
 21
28.6809
 31
0.0
  0
LINE
  5
4A
330
1D
100
AcDbEntity
  8
0
100
AcDbLine
 10
4.751
 20
28.6809
 30
0.0
 11
5.501
 21
27.4582
 31
0.0
  0
LINE
  5
4B
330
1D
100
AcDbEntity
  8
0
100
AcDbLine
 10
4.1939
 20
30.0754
 30
0.0
 11
4.589
 21
29.1206
 31
0.0
  0
LINE
  5
4C
330
1D
100
AcDbEntity
  8
0
100
AcDbLine
 10
3.5141
 20
32.4205
 30
0.0
 11
3.6759
 21
31.7468
 31
0.0
  0
LINE
  5
4D
330
1D
100
AcDbEntity
  8
0
100
AcDbLine
 10
3.6759
 20
31.7468
 30
0.0
 11
3.9764
 21
30.631
 31
0.0
  0
LINE
  5
4E
330
1D
100
AcDbEntity
  8
0
100
AcDbLine
 10
10.1814
 20
24.724
 30
0.0
 11
11.5419
 21
24.6538
 31
0.0
  0
LINE
  5
4F
330
1D
100
AcDbEntity
  8
0
100
AcDbLine
 10
9.9208
 20
24.7531
 30
0.0
 11
10.1814
 21
24.724
 31
0.0
  0
LINE
  5
50
330
1D
100
AcDbEntity
  8
0
100
AcDbLine
 10
9.0241
 20
24.9287
 30
0.0
 11
9.9208
 21
24.7531
 31
0.0
  0
LINE
  5
51
330
1D
100
AcDbEntity
  8
0
100
AcDbLine
 10
7.7558
 20
25.4364
 30
0.0
 11
9.0241
 21
24.9287
 31
0.0
  0
LINE
  5
52
330
1D
100
AcDbEntity
  8
0
100
AcDbLine
 10
7.3005
 20
25.7154
 30
0.0
 11
7.7558
 21
25.4364
 31
0.0
  0
LINE
  5
53
330
1D
100
AcDbEntity
  8
0
100
AcDbLine
 10
6.4554
 20
26.3492
 30
0.0
 11
7.3005
 21
25.7154
 31
0.0
  0
LINE
  5
54
330
1D
100
AcDbEntity
  8
0
100
AcDbLine
 10
11.7932
 20
24.6536
 30
0.0
 11
12.4131
 21
24.6532
 31
0.0
  0
LINE
  5
55
330
1D
100
AcDbEntity
  8
0
100
AcDbLine
 10
11.7828
 20
24.6542
 30
0.0
 11
12.3589
 21
24.6549
 31
0.0
  0
LINE
  5
56
330
1D
100
AcDbEntity
  8
0
100
AcDbLine
 10
11.5419
 20
24.6538
 30
0.0
 11
11.7828
 21
24.6542
 31
0.0
  0
LINE
  5
57
330
1D
100
AcDbEntity
  8
0
100
AcDbLine
 10
11.5153
 20
24.6538
 30
0.0
 11
11.7932
 21
24.6536
 31
0.0
  0
LINE
  5
58
330
1D
100
AcDbEntity
  8
0
100
AcDbLine
 10
4.1332
 20
61.1354
 30
0.0
 11
4.4841
 21
59.3077
 31
0.0
  0
LINE
  5
59
330
1D
100
AcDbEntity
  8
0
100
AcDbLine
 10
4.4841
 20
59.3077
 30
0.0
 11
5.0168
 21
57.6171
 31
0.0
  0
LINE
  5
5A
330
1D
100
AcDbEntity
  8
0
100
AcDbLine
 10
5.0168
 20
57.6171
 30
0.0
 11
5.3619
 21
56.8318
 31
0.0
  0
LINE
  5
5B
330
1D
100
AcDbEntity
  8
0
100
AcDbLine
 10
5.3619
 20
56.8318
 30
0.0
 11
5.7612
 21
56.0952
 31
0.0
  0
LINE
  5
5C
330
1D
100
AcDbEntity
  8
0
100
AcDbLine
 10
6.2104
 20
55.4171
 30
0.0
 11
6.7131
 21
54.7906
 31
0.0
  0
LINE
  5
5D
330
1D
100
AcDbEntity
  8
0
100
AcDbLine
 10
5.7612
 20
56.0952
 30
0.0
 11
6.2104
 21
55.4171
 31
0.0
  0
LINE
  5
5E
330
1D
100
AcDbEntity
  8
0
100
AcDbLine
 10
3.7979
 20
64.9474
 30
0.0
 11
3.9803
 21
62.4058
 31
0.0
  0
LINE
  5
5F
330
1D
100
AcDbEntity
  8
0
100
AcDbLine
 10
3.9803
 20
62.4058
 30
0.0
 11
4.1332
 21
61.1354
 31
0.0
  0
LINE
  5
60
330
1D
100
AcDbEntity
  8
0
100
AcDbLine
 10
6.7278
 20
54.7719
 30
0.0
 11
7.4687
 21
54.0419
 31
0.0
  0
LINE
  5
61
330
1D
100
AcDbEntity
  8
0
100
AcDbLine
 10
7.4687
 20
54.0419
 30
0.0
 11
8.3133
 21
53.3912
 31
0.0
  0
LINE
  5
62
330
1D
100
AcDbEntity
  8
0
100
AcDbLine
 10
8.3133
 20
53.3912
 30
0.0
 11
9.2403
 21
52.839
 31
0.0
  0
LINE
  5
63
330
1D
100
AcDbEntity
  8
0
100
AcDbLine
 10
9.2403
 20
52.839
 30
0.0
 11
9.985
 21
52.4869
 31
0.0
  0
LINE
  5
64
330
1D
100
AcDbEntity
  8
0
100
AcDbLine
 10
9.985
 20
52.4869
 30
0.0
 11
10.7679
 21
52.1848
 31
0.0
  0
LINE
  5
65
330
1D
100
AcDbEntity
  8
0
100
AcDbLine
 10
10.7679
 20
52.1848
 30
0.0
 11
12.4327
 21
51.7146
 31
0.0
  0
LINE
  5
66
330
1D
100
AcDbEntity
  8
0
100
AcDbLine
 10
3.4143
 20
72.4104
 30
0.0
 11
3.7979
 21
64.9474
 31
0.0
  0
LINE
  5
67
330
1D
100
AcDbEntity
  8
0
100
AcDbLine
 10
2.8485
 20
87.18
 30
0.0
 11
3.1098
 21
79.8312
 31
0.0
  0
LINE
  5
68
330
1D
100
AcDbEntity
  8
0
100
AcDbLine
 10
3.1098
 20
79.8312
 30
0.0
 11
3.4143
 21
72.4104
 31
0.0
  0
LINE
  5
69
330
1D
100
AcDbEntity
  8
0
100
AcDbLine
 10
2.6215
 20
94.5212
 30
0.0
 11
2.8485
 21
87.18
 31
0.0
  0
LINE
  5
6A
330
1D
100
AcDbEntity
  8
0
100
AcDbLine
 10
0.3647
 20
120.522
 30
0.0
 11
0.8067
 21
117.413
 31
0.0
  0
LINE
  5
6B
330
1D
100
AcDbEntity
  8
0
100
AcDbLine
 10
0.3647
 20
120.522
 30
0.0
 11
0.8067
 21
117.413
 31
0.0
  0
LINE
  5
71
330
1D
100
AcDbEntity
  8
0
100
AcDbLine
 10
0.8067
 20
117.413
 30
0.0
 11
1.4834
 21
114.347
 31
0.0
  0
LINE
  5
72
330
1D
100
AcDbEntity
  8
0
100
AcDbLine
 10
1.4834
 20
114.347
 30
0.0
 11
1.786979857449
 21
113.372798134716
 31
0.0
  0
LINE
  5
73
330
1D
100
AcDbEntity
  8
0
100
AcDbLine
 10
1.8031
 20
118.148
 30
0.0
 11
1.8947
 21
115.201
 31
0.0
  0
LINE
  5
74
330
1D
100
AcDbEntity
  8
0
100
AcDbLine
 10
1.7282
 20
121.421
 30
0.0
 11
1.8031
 21
118.148
 31
0.0
  0
LINE
  5
75
330
1D
100
AcDbEntity
  8
0
100
AcDbLine
 10
-0.0211
 20
130.248
 30
0.0
 11
0.1199
 21
131.696
 31
0.0
  0
LINE
  5
76
330
1D
100
AcDbEntity
  8
0
100
AcDbLine
 10
-0.0211
 20
130.248
 30
0.0
 11
0.1199
 21
131.696
 31
0.0
  0
LINE
  5
77
330
1D
100
AcDbEntity
  8
0
100
AcDbLine
 10
-0.0388
 20
127.553
 30
0.0
 11
0.0654
 21
124.424
 31
0.0
  0
LINE
  5
78
330
1D
100
AcDbEntity
  8
0
100
AcDbLine
 10
-0.0388
 20
127.553
 30
0.0
 11
-0.0211
 21
130.248
 31
0.0
  0
LINE
  5
79
330
1D
100
AcDbEntity
  8
0
100
AcDbLine
 10
0.1199
 20
131.696
 30
0.0
 11
0.3555
 21
132.875
 31
0.0
  0
LINE
  5
7A
330
1D
100
AcDbEntity
  8
0
100
AcDbLine
 10
0.0654
 20
124.424
 30
0.0
 11
0.3647
 21
120.522
 31
0.0
  0
LINE
  5
7B
330
1D
100
AcDbEntity
  8
0
100
AcDbLine
 10
0.1199
 20
131.696
 30
0.0
 11
0.3555
 21
132.875
 31
0.0
  0
LINE
  5
7D
330
1D
100
AcDbEntity
  8
0
100
AcDbLine
 10
1.6356
 20
125.562
 30
0.0
 11
1.8949
 21
104.683
 31
0.0
  0
LINE
  5
7E
330
1D
100
AcDbEntity
  8
0
100
AcDbLine
 10
0.3555
 20
132.875
 30
0.0
 11
0.7263
 21
134.018
 31
0.0
  0
LINE
  5
7F
330
1D
100
AcDbEntity
  8
0
100
AcDbLine
 10
0.7263
 20
134.018
 30
0.0
 11
1.1782
 21
134.975
 31
0.0
  0
LINE
  5
80
330
1D
100
AcDbEntity
  8
0
100
AcDbLine
 10
0.0654
 20
124.424
 30
0.0
 11
0.3647
 21
120.522
 31
0.0
  0
LINE
  5
81
330
1D
100
AcDbEntity
  8
0
100
AcDbLine
 10
1.1782
 20
134.975
 30
0.0
 11
1.7466
 21
135.867
 31
0.0
  0
LINE
  5
83
330
1D
100
AcDbEntity
  8
0
100
AcDbLine
 10
1.6791
 20
127.219
 30
0.0
 11
1.709740086394
 21
127.787867153342
 31
0.0
  0
LINE
  5
84
330
1D
100
AcDbEntity
  8
0
100
AcDbLine
 10
1.6791
 20
127.219
 30
0.0
 11
1.680283814621
 21
127.049775217623
 31
0.0
  0
LINE
  5
85
330
1D
100
AcDbEntity
  8
0
100
AcDbLine
 10
1.6772
 20
124.422
 30
0.0
 11
1.6833
 21
124.03
 31
0.0
  0
LINE
  5
86
330
1D
100
AcDbEntity
  8
0
100
AcDbLine
 10
1.713850747939
 20
127.864186139582
 30
0.0
 11
1.7865
 21
129.213
 31
0.0
  0
LINE
  5
87
330
1D
100
AcDbEntity
  8
0
100
AcDbLine
 10
1.7865
 20
129.213
 30
0.0
 11
1.9308
 21
130.283
 31
0.0
  0
LINE
  5
89
330
1D
100
AcDbEntity
  8
0
100
AcDbLine
 10
1.7466
 20
135.867
 30
0.0
 11
2.534
 21
136.799
 31
0.0
  0
LINE
  5
8B
330
1D
100
AcDbEntity
  8
0
100
AcDbLine
 10
1.6684
 20
126.752
 30
0.0
 11
1.6772
 21
124.422
 31
0.0
  0
LINE
  5
8C
330
1D
100
AcDbEntity
  8
0
100
AcDbLine
 10
1.6684
 20
126.752
 30
0.0
 11
1.7121
 21
127.847
 31
0.0
  0
LINE
  5
8D
330
1D
100
AcDbEntity
  8
0
100
AcDbLine
 10
1.6833
 20
124.03
 30
0.0
 11
1.7282
 21
121.421
 31
0.0
  0
LINE
  5
8E
330
1D
100
AcDbEntity
  8
0
100
AcDbLine
 10
2.1468
 20
109.406
 30
0.0
 11
2.6215
 21
94.5212
 31
0.0
  0
LINE
  5
8F
330
1D
100
AcDbEntity
  8
0
100
AcDbLine
 10
2.1286
 20
109.315
 30
0.0
 11
2.221282023289
 21
107.070524920475
 31
0.0
  0
LINE
  5
90
330
1D
100
AcDbEntity
  8
0
100
AcDbLine
 10
1.9308
 20
130.283
 30
0.0
 11
2.1386
 21
131.267
 31
0.0
  0
LINE
  5
91
330
1D
100
AcDbEntity
  8
0
100
AcDbLine
 10
2.1386
 20
131.267
 30
0.0
 11
2.4331
 21
132.239
 31
0.0
  0
LINE
  5
93
330
1D
100
AcDbEntity
  8
0
100
AcDbLine
 10
2.4331
 20
132.239
 30
0.0
 11
2.7431
 21
133.006
 31
0.0
  0
LINE
  5
94
330
1D
100
AcDbEntity
  8
0
100
AcDbLine
 10
2.534
 20
136.799
 30
0.0
 11
3.4373
 21
137.618
 31
0.0
  0
LINE
  5
95
330
1D
100
AcDbEntity
  8
0
100
AcDbLine
 10
2.7431
 20
133.006
 30
0.0
 11
3.1232
 21
133.749
 31
0.0
  0
LINE
  5
98
330
1D
100
AcDbEntity
  8
0
100
AcDbLine
 10
3.1232
 20
133.749
 30
0.0
 11
3.5172
 21
134.376
 31
0.0
  0
LINE
  5
99
330
1D
100
AcDbEntity
  8
0
100
AcDbLine
 10
3.9664
 20
134.971
 30
0.0
 11
4.6963
 21
135.752
 31
0.0
  0
LINE
  5
9A
330
1D
100
AcDbEntity
  8
0
100
AcDbLine
 10
4.6963
 20
135.752
 30
0.0
 11
5.5157
 21
136.447
 31
0.0
  0
LINE
  5
9B
330
1D
100
AcDbEntity
  8
0
100
AcDbLine
 10
5.5157
 20
136.447
 30
0.0
 11
6.4181
 21
137.06
 31
0.0
  0
LINE
  5
9C
330
1D
100
AcDbEntity
  8
0
100
AcDbLine
 10
3.4373
 20
137.618
 30
0.0
 11
4.6772
 21
138.484
 31
0.0
  0
LINE
  5
9D
330
1D
100
AcDbEntity
  8
0
100
AcDbLine
 10
4.6772
 20
138.484
 30
0.0
 11
6.0084
 21
139.204
 31
0.0
  0
LINE
  5
9E
330
1D
100
AcDbEntity
  8
0
100
AcDbLine
 10
6.4181
 20
137.06
 30
0.0
 11
7.3733
 21
137.585
 31
0.0
  0
LINE
  5
9F
330
1D
100
AcDbEntity
  8
0
100
AcDbLine
 10
7.3733
 20
137.585
 30
0.0
 11
8.4627
 21
138.073
 31
0.0
  0
LINE
  5
A0
330
1D
100
AcDbEntity
  8
0
100
AcDbLine
 10
3.5172
 20
134.376
 30
0.0
 11
3.9664
 21
134.971
 31
0.0
  0
LINE
  5
A1
330
1D
100
AcDbEntity
  8
0
100
AcDbLine
 10
9.579
 20
138.483
 30
0.0
 11
10.5897
 21
138.799
 31
0.0
  0
LINE
  5
A2
330
1D
100
AcDbEntity
  8
0
100
AcDbLine
 10
8.4627
 20
138.073
 30
0.0
 11
9.579
 21
138.483
 31
0.0
  0
LINE
  5
A3
330
1D
100
AcDbEntity
  8
0
100
AcDbLine
 10
11.9332
 20
141.143
 30
0.0
 11
14.4118
 21
141.613
 31
0.0
  0
LINE
  5
A4
330
1D
100
AcDbEntity
  8
0
100
AcDbLine
 10
9.9997
 20
140.659
 30
0.0
 11
11.9332
 21
141.143
 31
0.0
  0
LINE
  5
A5
330
1D
100
AcDbEntity
  8
0
100
AcDbLine
 10
7.9721
 20
140.017
 30
0.0
 11
9.9997
 21
140.659
 31
0.0
  0
LINE
  5
A6
330
1D
100
AcDbEntity
  8
0
100
AcDbLine
 10
6.0084
 20
139.204
 30
0.0
 11
7.9721
 21
140.017
 31
0.0
  0
LINE
  5
A7
330
1D
100
AcDbEntity
  8
0
100
AcDbLine
 10
10.5897
 20
138.799
 30
0.0
 11
12.0162
 21
139.184
 31
0.0
  0
LINE
  5
AB
330
1D
100
AcDbEntity
  8
0
100
AcDbLine
 10
2.0061
 20
112.261
 30
0.0
 11
2.1286
 21
109.315
 31
0.0
  0
LINE
  5
AC
330
1D
100
AcDbEntity
  8
0
100
AcDbLine
 10
1.8947
 20
115.201
 30
0.0
 11
2.0061
 21
112.261
 31
0.0
  0
LINE
  5
AD
330
1D
100
AcDbEntity
  8
0
100
AcDbLine
 10
12.0
 20
18.614
 30
0.0
 11
12.0
 21
18.563
 31
0.0
  0
LINE
  5
AE
330
1D
100
AcDbEntity
  8
0
100
AcDbLine
 10
12.0
 20
18.614
 30
0.0
 11
12.7099
 21
19.3147
 31
0.0
  0
LINE
  5
AF
330
1D
100
AcDbEntity
  8
0
100
AcDbLine
 10
12.0
 20
18.581
 30
0.0
 11
12.0
 21
18.457
 31
0.0
  0
LINE
  5
B0
330
1D
100
AcDbEntity
  8
0
100
AcDbLine
 10
12.0
 20
17.915
 30
0.0
 11
12.0
 21
18.219
 31
0.0
  0
LINE
  5
B1
330
1D
100
AcDbEntity
  8
0
100
AcDbLine
 10
12.0
 20
17.915
 30
0.0
 11
12.3871
 21
17.915
 31
0.0
  0
LINE
  5
B2
330
1D
100
AcDbEntity
  8
0
100
AcDbLine
 10
12.0
 20
17.915
 30
0.0
 11
12.0
 21
15.815
 31
0.0
  0
LINE
  5
B3
330
1D
100
AcDbEntity
  8
0
100
AcDbLine
 10
12.0
 20
15.815
 30
0.0
 11
12.0
 21
17.915
 31
0.0
  0
LINE
  5
B4
330
1D
100
AcDbEntity
  8
0
100
AcDbLine
 10
12.0125
 20
5.515
 30
0.0
 11
12.1126
 21
5.515
 31
0.0
  0
LINE
  5
B5
330
1D
100
AcDbEntity
  8
0
100
AcDbLine
 10
12.0124
 20
5.515
 30
0.0
 11
12.1126
 21
5.515
 31
0.0
  0
LINE
  5
B6
330
1D
100
AcDbEntity
  8
0
100
AcDbLine
 10
12.001521276596
 20
9.815
 30
0.0
 11
12.012474576271
 21
5.524957627118
 31
0.0
  0
LINE
  5
B7
330
1D
100
AcDbEntity
  8
0
100
AcDbLine
 10
12.001521276596
 20
9.815
 30
0.0
 11
12.012474576271
 21
5.524957627118
 31
0.0
  0
LINE
  5
B8
330
1D
100
AcDbEntity
  8
0
100
AcDbLine
 10
12.1126
 20
5.515
 30
0.0
 11
12.3118
 21
5.515
 31
0.0
  0
LINE
  5
B9
330
1D
100
AcDbEntity
  8
0
100
AcDbLine
 10
12.3118
 20
5.515
 30
0.0
 11
12.6084
 21
5.515
 31
0.0
  0
LINE
  5
BA
330
1D
100
AcDbEntity
  8
0
100
AcDbLine
 10
12.3118
 20
5.515
 30
0.0
 11
12.6083
 21
5.515
 31
0.0
  0
LINE
  5
BB
330
1D
100
AcDbEntity
  8
0
100
AcDbLine
 10
12.1297
 20
9.815
 30
0.0
 11
12.4894
 21
9.815
 31
0.0
  0
LINE
  5
BC
330
1D
100
AcDbEntity
  8
0
100
AcDbLine
 10
12.296
 20
9.815
 30
0.0
 11
12.8547
 21
9.815
 31
0.0
  0
LINE
  5
BD
330
1D
100
AcDbEntity
  8
0
100
AcDbLine
 10
12.6083
 20
5.515
 30
0.0
 11
13.0
 21
5.515
 31
0.0
  0
LINE
  5
BE
330
1D
100
AcDbEntity
  8
0
100
AcDbLine
 10
12.6084
 20
5.515
 30
0.0
 11
13.0
 21
5.515
 31
0.0
  0
LINE
  5
BF
330
1D
100
AcDbEntity
  8
0
100
AcDbLine
 10
12.4894
 20
9.815
 30
0.0
 11
12.975
 21
9.815
 31
0.0
  0
LINE
  5
C0
330
1D
100
AcDbEntity
  8
0
100
AcDbLine
 10
13.0
 20
1.715
 30
0.0
 11
13.283
 21
1.715
 31
0.0
  0
LINE
  5
C1
330
1D
100
AcDbEntity
  8
0
100
AcDbLine
 10
13.0
 20
1.891
 30
0.0
 11
13.0
 21
1.715
 31
0.0
  0
LINE
  5
C2
330
1D
100
AcDbEntity
  8
0
100
AcDbLine
 10
13.0
 20
1.891
 30
0.0
 11
13.0
 21
2.148
 31
0.0
  0
LINE
  5
C3
330
1D
100
AcDbEntity
  8
0
100
AcDbLine
 10
13.0
 20
5.515
 30
0.0
 11
13.0
 21
2.148
 31
0.0
  0
LINE
  5
C4
330
1D
100
AcDbEntity
  8
0
100
AcDbLine
 10
13.0
 20
2.148
 30
0.0
 11
13.5001
 21
2.148
 31
0.0
  0
LINE
  5
C5
330
1D
100
AcDbEntity
  8
0
100
AcDbLine
 10
13.0
 20
2.148
 30
0.0
 11
13.0
 21
1.891
 31
0.0
  0
LINE
  5
C6
330
1D
100
AcDbEntity
  8
0
100
AcDbLine
 10
13.0
 20
2.148
 30
0.0
 11
13.0
 21
5.515
 31
0.0
  0
LINE
  5
C7
330
1D
100
AcDbEntity
  8
0
100
AcDbLine
 10
13.283
 20
1.715
 30
0.0
 11
13.6687
 21
1.715
 31
0.0
  0
LINE
  5
C8
330
1D
100
AcDbEntity
  8
0
100
AcDbLine
 10
13.5001
 20
2.148
 30
0.0
 11
14.0933
 21
2.148
 31
0.0
  0
LINE
  5
C9
330
1D
100
AcDbEntity
  8
0
100
AcDbLine
 10
13.0
 20
1.715
 30
0.0
 11
13.0
 21
1.891
 31
0.0
  0
LINE
  5
CA
330
1D
100
AcDbEntity
  8
0
100
AcDbLine
 10
12.975
 20
9.815
 30
0.0
 11
13.5815
 21
9.815
 31
0.0
  0
LINE
  5
CB
330
1D
100
AcDbEntity
  8
0
100
AcDbLine
 10
12.8547
 20
9.815
 30
0.0
 11
13.5278
 21
9.815
 31
0.0
  0
LINE
  5
CC
330
1D
100
AcDbEntity
  8
0
100
AcDbLine
 10
12.8547
 20
17.915
 30
0.0
 11
13.5209
 21
17.915
 31
0.0
  0
LINE
  5
CD
330
1D
100
AcDbEntity
  8
0
100
AcDbLine
 10
12.3871
 20
17.915
 30
0.0
 11
12.8547
 21
17.915
 31
0.0
  0
LINE
  5
CE
330
1D
100
AcDbEntity
  8
0
100
AcDbLine
 10
13.9527
 20
1.715
 30
0.0
 11
14.0326
 21
1.715
 31
0.0
  0
LINE
  5
CF
330
1D
100
AcDbEntity
  8
0
100
AcDbLine
 10
14.1535
 20
1.715
 30
0.0
 11
14.6593
 21
1.715
 31
0.0
  0
LINE
  5
D0
330
1D
100
AcDbEntity
  8
0
100
AcDbLine
 10
13.9829
 20
1.715
 30
0.0
 11
14.1229
 21
1.715
 31
0.0
  0
LINE
  5
D1
330
1D
100
AcDbEntity
  8
0
100
AcDbLine
 10
14.2216
 20
1.715
 30
0.0
 11
14.5177
 21
1.715
 31
0.0
  0
LINE
  5
D2
330
1D
100
AcDbEntity
  8
0
100
AcDbLine
 10
14.0326
 20
1.715
 30
0.0
 11
14.2216
 21
1.715
 31
0.0
  0
LINE
  5
D3
330
1D
100
AcDbEntity
  8
0
100
AcDbLine
 10
14.1229
 20
1.715
 30
0.0
 11
14.3713
 21
1.715
 31
0.0
  0
LINE
  5
D4
330
1D
100
AcDbEntity
  8
0
100
AcDbLine
 10
13.6687
 20
1.715
 30
0.0
 11
14.1535
 21
1.715
 31
0.0
  0
LINE
  5
D5
330
1D
100
AcDbEntity
  8
0
100
AcDbLine
 10
14.0933
 20
2.148
 30
0.0
 11
14.7744
 21
2.148
 31
0.0
  0
LINE
  5
D6
330
1D
100
AcDbEntity
  8
0
100
AcDbLine
 10
13.5815
 20
9.815
 30
0.0
 11
14.302
 21
9.815
 31
0.0
  0
LINE
  5
D7
330
1D
100
AcDbEntity
  8
0
100
AcDbLine
 10
13.5278
 20
9.815
 30
0.0
 11
14.3087
 21
9.815
 31
0.0
  0
LINE
  5
D8
330
1D
100
AcDbEntity
  8
0
100
AcDbLine
 10
14.7594
 20
1.365
 30
0.0
 11
14.8347
 21
1.365
 31
0.0
  0
LINE
  5
D9
330
1D
100
AcDbEntity
  8
0
100
AcDbLine
 10
14.8347
 20
1.365
 30
0.0
 11
15.0115
 21
1.365
 31
0.0
  0
LINE
  5
DA
330
1D
100
AcDbEntity
  8
0
100
AcDbLine
 10
15.0115
 20
1.365
 30
0.0
 11
15.1
 21
1.365
 31
0.0
  0
LINE
  5
DB
330
1D
100
AcDbEntity
  8
0
100
AcDbLine
 10
14.8349
 20
1.365
 30
0.0
 11
15.0115
 21
1.365
 31
0.0
  0
LINE
  5
DC
330
1D
100
AcDbEntity
  8
0
100
AcDbLine
 10
14.6593
 20
1.465
 30
0.0
 11
14.6729
 21
1.415
 31
0.0
  0
LINE
  5
DD
330
1D
100
AcDbEntity
  8
0
100
AcDbLine
 10
14.6593
 20
1.465
 30
0.0
 11
14.6593
 21
1.715
 31
0.0
  0
LINE
  5
DE
330
1D
100
AcDbEntity
  8
0
100
AcDbLine
 10
14.7095
 20
1.378
 30
0.0
 11
14.7594
 21
1.365
 31
0.0
  0
LINE
  5
DF
330
1D
100
AcDbEntity
  8
0
100
AcDbLine
 10
14.6729
 20
1.415
 30
0.0
 11
14.7095
 21
1.378
 31
0.0
  0
LINE
  5
E0
330
1D
100
AcDbEntity
  8
0
100
AcDbLine
 10
14.3713
 20
1.715
 30
0.0
 11
14.6593
 21
1.715
 31
0.0
  0
LINE
  5
E1
330
1D
100
AcDbEntity
  8
0
100
AcDbLine
 10
14.6593
 20
1.715
 30
0.0
 11
14.6593
 21
1.465
 31
0.0
  0
LINE
  5
E2
330
1D
100
AcDbEntity
  8
0
100
AcDbLine
 10
14.5177
 20
1.715
 30
0.0
 11
14.9178
 21
1.715
 31
0.0
  0
LINE
  5
E9
330
1D
100
AcDbEntity
  8
0
100
AcDbLine
 10
14.9178
 20
1.715
 30
0.0
 11
15.4174
 21
1.715
 31
0.0
  0
LINE
  5
EB
330
1D
100
AcDbEntity
  8
0
100
AcDbLine
 10
14.7744
 20
2.148
 30
0.0
 11
15.5375
 21
2.148
 31
0.0
  0
LINE
  5
ED
330
1D
100
AcDbEntity
  8
0
100
AcDbLine
 10
15.1
 20
1.365
 30
0.0
 11
15.151
 21
1.365
 31
0.0
  0
LINE
  5
EE
330
1D
100
AcDbEntity
  8
0
100
AcDbLine
 10
15.1
 20
1.365
 30
0.0
 11
15.611
 21
-0.135
 31
0.0
  0
LINE
  5
EF
330
1D
100
AcDbEntity
  8
0
100
AcDbLine
 10
14.302
 20
9.815
 30
0.0
 11
15.1287
 21
9.815
 31
0.0
  0
LINE
  5
F0
330
1D
100
AcDbEntity
  8
0
100
AcDbLine
 10
14.3087
 20
9.815
 30
0.0
 11
15.1884
 21
9.815
 31
0.0
  0
LINE
  5
F1
330
1D
100
AcDbEntity
  8
0
100
AcDbLine
 10
15.151
 20
1.365
 30
0.0
 11
15.3033
 21
1.365
 31
0.0
  0
LINE
  5
F2
330
1D
100
AcDbEntity
  8
0
100
AcDbLine
 10
15.1287
 20
9.815
 30
0.0
 11
16.0527
 21
9.815
 31
0.0
  0
LINE
  5
F3
330
1D
100
AcDbEntity
  8
0
100
AcDbLine
 10
13.5209
 20
17.915
 30
0.0
 11
14.2923
 21
17.915
 31
0.0
  0
LINE
  5
F4
330
1D
100
AcDbEntity
  8
0
100
AcDbLine
 10
14.2923
 20
17.915
 30
0.0
 11
15.1613
 21
17.915
 31
0.0
  0
LINE
  5
F5
330
1D
100
AcDbEntity
  8
0
100
AcDbLine
 10
15.3033
 20
1.365
 30
0.0
 11
15.5553
 21
1.365
 31
0.0
  0
LINE
  5
F6
330
1D
100
AcDbEntity
  8
0
100
AcDbLine
 10
15.6155
 20
-0.135
 30
0.0
 11
15.7257
 21
-0.135
 31
0.0
  0
LINE
  5
F7
330
1D
100
AcDbEntity
  8
0
100
AcDbLine
 10
15.611
 20
-0.135
 30
0.0
 11
15.712
 21
-0.135
 31
0.0
  0
LINE
  5
F8
330
1D
100
AcDbEntity
  8
0
100
AcDbLine
 10
15.9397
 20
-0.135
 30
0.0
 11
16.2551
 21
-0.135
 31
0.0
  0
LINE
  5
F9
330
1D
100
AcDbEntity
  8
0
100
AcDbLine
 10
16.1589
 20
-0.135
 30
0.0
 11
16.2966
 21
-0.135
 31
0.0
  0
LINE
  5
FA
330
1D
100
AcDbEntity
  8
0
100
AcDbLine
 10
16.1271
 20
-0.135
 30
0.0
 11
16.2019
 21
-0.135
 31
0.0
  0
LINE
  5
FB
330
1D
100
AcDbEntity
  8
0
100
AcDbLine
 10
15.7257
 20
-0.135
 30
0.0
 11
15.9397
 21
-0.135
 31
0.0
  0
LINE
  5
FC
330
1D
100
AcDbEntity
  8
0
100
AcDbLine
 10
15.712
 20
-0.135
 30
0.0
 11
15.917
 21
-0.135
 31
0.0
  0
LINE
  5
FD
330
1D
100
AcDbEntity
  8
0
100
AcDbLine
 10
15.917
 20
-0.135
 30
0.0
 11
16.2237
 21
-0.135
 31
0.0
  0
LINE
  5
FE
330
1D
100
AcDbEntity
  8
0
100
AcDbLine
 10
15.5553
 20
1.365
 30
0.0
 11
15.9041
 21
1.365
 31
0.0
  0
LINE
  5
FF
330
1D
100
AcDbEntity
  8
0
100
AcDbLine
 10
15.4174
 20
1.715
 30
0.0
 11
16.0109
 21
1.715
 31
0.0
  0
LINE
  5
100
330
1D
100
AcDbEntity
  8
0
100
AcDbLine
 10
15.5375
 20
2.148
 30
0.0
 11
16.3757
 21
2.148
 31
0.0
  0
LINE
  5
101
330
1D
100
AcDbEntity
  8
0
100
AcDbLine
 10
16.0109
 20
1.715
 30
0.0
 11
16.692
 21
1.715
 31
0.0
  0
LINE
  5
102
330
1D
100
AcDbEntity
  8
0
100
AcDbLine
 10
15.9041
 20
1.365
 30
0.0
 11
16.3454
 21
1.365
 31
0.0
  0
LINE
  5
103
330
1D
100
AcDbEntity
  8
0
100
AcDbLine
 10
15.1884
 20
9.815
 30
0.0
 11
16.1592
 21
9.815
 31
0.0
  0
LINE
  5
104
330
1D
100
AcDbEntity
  8
0
100
AcDbLine
 10
16.0527
 20
9.815
 30
0.0
 11
17.0639
 21
9.815
 31
0.0
  0
LINE
  5
105
330
1D
100
AcDbEntity
  8
0
100
AcDbLine
 10
16.2019
 20
-0.135
 30
0.0
 11
16.3824
 21
-0.135
 31
0.0
  0
LINE
  5
106
330
1D
100
AcDbEntity
  8
0
100
AcDbLine
 10
16.2966
 20
-0.135
 30
0.0
 11
16.5385
 21
-0.135
 31
0.0
  0
LINE
  5
107
330
1D
100
AcDbEntity
  8
0
100
AcDbLine
 10
16.5385
 20
-0.135
 30
0.0
 11
16.8812
 21
-0.135
 31
0.0
  0
LINE
  5
108
330
1D
100
AcDbEntity
  8
0
100
AcDbLine
 10
16.3824
 20
-0.135
 30
0.0
 11
16.6655
 21
-0.135
 31
0.0
  0
LINE
  5
109
330
1D
100
AcDbEntity
  8
0
100
AcDbLine
 10
16.2551
 20
-0.135
 30
0.0
 11
16.6681
 21
-0.135
 31
0.0
  0
LINE
  5
10A
330
1D
100
AcDbEntity
  8
0
100
AcDbLine
 10
16.2237
 20
-0.135
 30
0.0
 11
16.6284
 21
-0.135
 31
0.0
  0
LINE
  5
10B
330
1D
100
AcDbEntity
  8
0
100
AcDbLine
 10
16.6655
 20
-0.135
 30
0.0
 11
17.0481
 21
-0.135
 31
0.0
  0
LINE
  5
10C
330
1D
100
AcDbEntity
  8
0
100
AcDbLine
 10
16.6354
 20
1.365
 30
0.0
 11
16.7603
 21
1.365
 31
0.0
  0
LINE
  5
10D
330
1D
100
AcDbEntity
  8
0
100
AcDbLine
 10
16.6681
 20
-0.135
 30
0.0
 11
17.1732
 21
-0.135
 31
0.0
  0
LINE
  5
10E
330
1D
100
AcDbEntity
  8
0
100
AcDbLine
 10
16.6284
 20
-0.135
 30
0.0
 11
17.1256
 21
-0.135
 31
0.0
  0
LINE
  5
10F
330
1D
100
AcDbEntity
  8
0
100
AcDbLine
 10
16.3757
 20
2.148
 30
0.0
 11
17.2815
 21
2.148
 31
0.0
  0
LINE
  5
116
330
1D
100
AcDbEntity
  8
0
100
AcDbLine
 10
16.692
 20
1.715
 30
0.0
 11
17.4534
 21
1.715
 31
0.0
  0
LINE
  5
119
330
1D
100
AcDbEntity
  8
0
100
AcDbLine
 10
16.3454
 20
1.365
 30
0.0
 11
16.8745
 21
1.365
 31
0.0
  0
LINE
  5
11A
330
1D
100
AcDbEntity
  8
0
100
AcDbLine
 10
16.8812
 20
-0.135
 30
0.0
 11
17.3202
 21
-0.135
 31
0.0
  0
LINE
  5
11B
330
1D
100
AcDbEntity
  8
0
100
AcDbLine
 10
17.0481
 20
-0.135
 30
0.0
 11
17.5245
 21
-0.135
 31
0.0
  0
LINE
  5
11E
330
1D
100
AcDbEntity
  8
0
100
AcDbLine
 10
17.1256
 20
-0.135
 30
0.0
 11
17.7093
 21
-0.135
 31
0.0
  0
LINE
  5
11F
330
1D
100
AcDbEntity
  8
0
100
AcDbLine
 10
16.8745
 20
1.365
 30
0.0
 11
17.4853
 21
1.365
 31
0.0
  0
LINE
  5
120
330
1D
100
AcDbEntity
  8
0
100
AcDbLine
 10
17.0639
 20
9.815
 30
0.0
 11
18.151
 21
9.815
 31
0.0
  0
LINE
  5
121
330
1D
100
AcDbEntity
  8
0
100
AcDbLine
 10
16.1592
 20
9.815
 30
0.0
 11
17.21
 21
9.815
 31
0.0
  0
LINE
  5
122
330
1D
100
AcDbEntity
  8
0
100
AcDbLine
 10
15.1613
 20
17.915
 30
0.0
 11
16.1194
 21
17.915
 31
0.0
  0
LINE
  5
123
330
1D
100
AcDbEntity
  8
0
100
AcDbLine
 10
16.1194
 20
17.915
 30
0.0
 11
17.1569
 21
17.915
 31
0.0
  0
LINE
  5
124
330
1D
100
AcDbEntity
  8
0
100
AcDbLine
 10
17.5245
 20
-0.135
 30
0.0
 11
18.0886
 21
-0.135
 31
0.0
  0
LINE
  5
125
330
1D
100
AcDbEntity
  8
0
100
AcDbLine
 10
17.3202
 20
-0.135
 30
0.0
 11
17.8498
 21
-0.135
 31
0.0
  0
LINE
  5
126
330
1D
100
AcDbEntity
  8
0
100
AcDbLine
 10
17.1732
 20
-0.135
 30
0.0
 11
17.7641
 21
-0.135
 31
0.0
  0
LINE
  5
127
330
1D
100
AcDbEntity
  8
0
100
AcDbLine
 10
18.0886
 20
-0.135
 30
0.0
 11
18.7326
 21
-0.135
 31
0.0
  0
LINE
  5
128
330
1D
100
AcDbEntity
  8
0
100
AcDbLine
 10
17.8487
 20
-0.135
 30
0.0
 11
18.0465
 21
-0.135
 31
0.0
  0
LINE
  5
129
330
1D
100
AcDbEntity
  8
0
100
AcDbLine
 10
17.748
 20
-0.135
 30
0.0
 11
17.8487
 21
-0.135
 31
0.0
  0
LINE
  5
12A
330
1D
100
AcDbEntity
  8
0
100
AcDbLine
 10
17.746
 20
-0.135
 30
0.0
 11
17.8426
 21
-0.135
 31
0.0
  0
LINE
  5
12B
330
1D
100
AcDbEntity
  8
0
100
AcDbLine
 10
17.8426
 20
-0.135
 30
0.0
 11
18.0361
 21
-0.135
 31
0.0
  0
LINE
  5
12C
330
1D
100
AcDbEntity
  8
0
100
AcDbLine
 10
18.0465
 20
-0.135
 30
0.0
 11
18.338
 21
-0.135
 31
0.0
  0
LINE
  5
12D
330
1D
100
AcDbEntity
  8
0
100
AcDbLine
 10
18.0361
 20
-0.135
 30
0.0
 11
18.3238
 21
-0.135
 31
0.0
  0
LINE
  5
12E
330
1D
100
AcDbEntity
  8
0
100
AcDbLine
 10
17.8498
 20
-0.135
 30
0.0
 11
18.4622
 21
-0.135
 31
0.0
  0
LINE
  5
12F
330
1D
100
AcDbEntity
  8
0
100
AcDbLine
 10
17.7641
 20
-0.135
 30
0.0
 11
18.4333
 21
-0.135
 31
0.0
  0
LINE
  5
130
330
1D
100
AcDbEntity
  8
0
100
AcDbLine
 10
17.7093
 20
-0.135
 30
0.0
 11
18.3721
 21
-0.135
 31
0.0
  0
LINE
  5
132
330
1D
100
AcDbEntity
  8
0
100
AcDbLine
 10
17.2815
 20
2.148
 30
0.0
 11
18.247
 21
2.148
 31
0.0
  0
LINE
  5
133
330
1D
100
AcDbEntity
  8
0
100
AcDbLine
 10
17.4534
 20
1.715
 30
0.0
 11
18.2862
 21
1.715
 31
0.0
  0
LINE
  5
135
330
1D
100
AcDbEntity
  8
0
100
AcDbLine
 10
17.4853
 20
1.365
 30
0.0
 11
18.1706
 21
1.365
 31
0.0
  0
LINE
  5
136
330
1D
100
AcDbEntity
  8
0
100
AcDbLine
 10
18.3238
 20
-0.135
 30
0.0
 11
18.701
 21
-0.135
 31
0.0
  0
LINE
  5
137
330
1D
100
AcDbEntity
  8
0
100
AcDbLine
 10
18.1706
 20
1.365
 30
0.0
 11
18.923
 21
1.365
 31
0.0
  0
LINE
  5
138
330
1D
100
AcDbEntity
  8
0
100
AcDbLine
 10
18.338
 20
-0.135
 30
0.0
 11
18.719
 21
-0.135
 31
0.0
  0
LINE
  5
139
330
1D
100
AcDbEntity
  8
0
100
AcDbLine
 10
18.3721
 20
-0.135
 30
0.0
 11
19.1056
 21
-0.135
 31
0.0
  0
LINE
  5
13A
330
1D
100
AcDbEntity
  8
0
100
AcDbLine
 10
18.4333
 20
-0.135
 30
0.0
 11
19.1727
 21
-0.135
 31
0.0
  0
LINE
  5
13B
330
1D
100
AcDbEntity
  8
0
100
AcDbLine
 10
18.719
 20
-0.135
 30
0.0
 11
19.1831
 21
-0.135
 31
0.0
  0
LINE
  5
13C
330
1D
100
AcDbEntity
  8
0
100
AcDbLine
 10
18.701
 20
-0.135
 30
0.0
 11
19.1618
 21
-0.135
 31
0.0
  0
LINE
  5
13D
330
1D
100
AcDbEntity
  8
0
100
AcDbLine
 10
18.4622
 20
-0.135
 30
0.0
 11
19.1497
 21
-0.135
 31
0.0
  0
LINE
  5
13E
330
1D
100
AcDbEntity
  8
0
100
AcDbLine
 10
18.7326
 20
-0.135
 30
0.0
 11
19.4477
 21
-0.135
 31
0.0
  0
LINE
  5
13F
330
1D
100
AcDbEntity
  8
0
100
AcDbLine
 10
19.1618
 20
-0.135
 30
0.0
 11
19.699
 21
-0.135
 31
0.0
  0
LINE
  5
140
330
1D
100
AcDbEntity
  8
0
100
AcDbLine
 10
19.1831
 20
-0.135
 30
0.0
 11
19.7232
 21
-0.135
 31
0.0
  0
LINE
  5
141
330
1D
100
AcDbEntity
  8
0
100
AcDbLine
 10
19.1727
 20
-0.135
 30
0.0
 11
19.9728
 21
-0.135
 31
0.0
  0
LINE
  5
142
330
1D
100
AcDbEntity
  8
0
100
AcDbLine
 10
19.1497
 20
-0.135
 30
0.0
 11
19.9027
 21
-0.135
 31
0.0
  0
LINE
  5
143
330
1D
100
AcDbEntity
  8
0
100
AcDbLine
 10
19.1056
 20
-0.135
 30
0.0
 11
19.9008
 21
-0.135
 31
0.0
  0
LINE
  5
144
330
1D
100
AcDbEntity
  8
0
100
AcDbLine
 10
18.923
 20
1.365
 30
0.0
 11
19.7331
 21
1.365
 31
0.0
  0
LINE
  5
145
330
1D
100
AcDbEntity
  8
0
100
AcDbLine
 10
18.4031
 20
1.365
 30
0.0
 11
18.5281
 21
1.365
 31
0.0
  0
LINE
  5
149
330
1D
100
AcDbEntity
  8
0
100
AcDbLine
 10
18.2862
 20
1.715
 30
0.0
 11
19.1819
 21
1.715
 31
0.0
  0
LINE
  5
14B
330
1D
100
AcDbEntity
  8
0
100
AcDbLine
 10
18.247
 20
2.148
 30
0.0
 11
19.3006
 21
2.148
 31
0.0
  0
LINE
  5
14D
330
1D
100
AcDbEntity
  8
0
100
AcDbLine
 10
19.3006
 20
2.148
 30
0.0
 11
20.3994
 21
2.148
 31
0.0
  0
LINE
  5
14F
330
1D
100
AcDbEntity
  8
0
100
AcDbLine
 10
19.1819
 20
1.715
 30
0.0
 11
20.1302
 21
1.715
 31
0.0
  0
LINE
  5
151
330
1D
100
AcDbEntity
  8
0
100
AcDbLine
 10
18.151
 20
9.815
 30
0.0
 11
19.3021
 21
9.815
 31
0.0
  0
LINE
  5
152
330
1D
100
AcDbEntity
  8
0
100
AcDbLine
 10
17.21
 20
9.815
 30
0.0
 11
18.3308
 21
9.815
 31
0.0
  0
LINE
  5
153
330
1D
100
AcDbEntity
  8
0
100
AcDbLine
 10
19.3021
 20
9.815
 30
0.0
 11
20.5047
 21
9.815
 31
0.0
  0
LINE
  5
154
330
1D
100
AcDbEntity
  8
0
100
AcDbLine
 10
18.3308
 20
9.815
 30
0.0
 11
19.5095
 21
9.815
 31
0.0
  0
LINE
  5
155
330
1D
100
AcDbEntity
  8
0
100
AcDbLine
 10
17.1569
 20
17.915
 30
0.0
 11
18.263
 21
17.915
 31
0.0
  0
LINE
  5
156
330
1D
100
AcDbEntity
  8
0
100
AcDbLine
 10
18.263
 20
17.915
 30
0.0
 11
19.4269
 21
17.915
 31
0.0
  0
LINE
  5
157
330
1D
100
AcDbEntity
  8
0
100
AcDbLine
 10
19.4718
 20
-0.135
 30
0.0
 11
19.5384
 21
-0.135
 31
0.0
  0
LINE
  5
158
330
1D
100
AcDbEntity
  8
0
100
AcDbLine
 10
19.5384
 20
-0.135
 30
0.0
 11
19.7045
 21
-0.135
 31
0.0
  0
LINE
  5
159
330
1D
100
AcDbEntity
  8
0
100
AcDbLine
 10
19.5065
 20
-0.135
 30
0.0
 11
19.6416
 21
-0.135
 31
0.0
  0
LINE
  5
15A
330
1D
100
AcDbEntity
  8
0
100
AcDbLine
 10
19.6416
 20
-0.135
 30
0.0
 11
19.8739
 21
-0.135
 31
0.0
  0
LINE
  5
15B
330
1D
100
AcDbEntity
  8
0
100
AcDbLine
 10
19.7045
 20
-0.135
 30
0.0
 11
19.9667
 21
-0.135
 31
0.0
  0
LINE
  5
15C
330
1D
100
AcDbEntity
  8
0
100
AcDbLine
 10
19.8739
 20
-0.135
 30
0.0
 11
20.1985
 21
-0.135
 31
0.0
  0
LINE
  5
15D
330
1D
100
AcDbEntity
  8
0
100
AcDbLine
 10
19.7232
 20
-0.135
 30
0.0
 11
20.3308
 21
-0.135
 31
0.0
  0
LINE
  5
15E
330
1D
100
AcDbEntity
  8
0
100
AcDbLine
 10
19.699
 20
-0.135
 30
0.0
 11
20.3039
 21
-0.135
 31
0.0
  0
LINE
  5
15F
330
1D
100
AcDbEntity
  8
0
100
AcDbLine
 10
19.4477
 20
-0.135
 30
0.0
 11
20.2246
 21
-0.135
 31
0.0
  0
LINE
  5
160
330
1D
100
AcDbEntity
  8
0
100
AcDbLine
 10
20.2246
 20
-0.135
 30
0.0
 11
21.0524
 21
-0.135
 31
0.0
  0
LINE
  5
161
330
1D
100
AcDbEntity
  8
0
100
AcDbLine
 10
19.9728
 20
-0.135
 30
0.0
 11
20.8235
 21
-0.135
 31
0.0
  0
LINE
  5
162
330
1D
100
AcDbEntity
  8
0
100
AcDbLine
 10
19.9667
 20
-0.135
 30
0.0
 11
20.3189
 21
-0.135
 31
0.0
  0
LINE
  5
163
330
1D
100
AcDbEntity
  8
0
100
AcDbLine
 10
20.1985
 20
-0.135
 30
0.0
 11
20.6079
 21
-0.135
 31
0.0
  0
LINE
  5
164
330
1D
100
AcDbEntity
  8
0
100
AcDbLine
 10
20.3189
 20
-0.135
 30
0.0
 11
20.7534
 21
-0.135
 31
0.0
  0
LINE
  5
165
330
1D
100
AcDbEntity
  8
0
100
AcDbLine
 10
20.3039
 20
-0.135
 30
0.0
 11
20.9671
 21
-0.135
 31
0.0
  0
LINE
  5
166
330
1D
100
AcDbEntity
  8
0
100
AcDbLine
 10
19.9027
 20
-0.135
 30
0.0
 11
20.7112
 21
-0.135
 31
0.0
  0
LINE
  5
167
330
1D
100
AcDbEntity
  8
0
100
AcDbLine
 10
20.3994
 20
2.148
 30
0.0
 11
21.5322
 21
2.148
 31
0.0
  0
LINE
  5
168
330
1D
100
AcDbEntity
  8
0
100
AcDbLine
 10
20.1302
 20
1.715
 30
0.0
 11
21.1209
 21
1.715
 31
0.0
  0
LINE
  5
169
330
1D
100
AcDbEntity
  8
0
100
AcDbLine
 10
19.7331
 20
1.365
 30
0.0
 11
20.5343
 21
1.365
 31
0.0
  0
LINE
  5
16A
330
1D
100
AcDbEntity
  8
0
100
AcDbLine
 10
19.9008
 20
-0.135
 30
0.0
 11
20.7474
 21
-0.135
 31
0.0
  0
LINE
  5
16B
330
1D
100
AcDbEntity
  8
0
100
AcDbLine
 10
20.6079
 20
-0.135
 30
0.0
 11
21.0931
 21
-0.135
 31
0.0
  0
LINE
  5
16C
330
1D
100
AcDbEntity
  8
0
100
AcDbLine
 10
20.7534
 20
-0.135
 30
0.0
 11
21.2603
 21
-0.135
 31
0.0
  0
LINE
  5
16D
330
1D
100
AcDbEntity
  8
0
100
AcDbLine
 10
20.9671
 20
-0.135
 30
0.0
 11
21.6781
 21
-0.135
 31
0.0
  0
LINE
  5
16E
330
1D
100
AcDbEntity
  8
0
100
AcDbLine
 10
20.7112
 20
-0.135
 30
0.0
 11
21.5642
 21
-0.135
 31
0.0
  0
LINE
  5
16F
330
1D
100
AcDbEntity
  8
0
100
AcDbLine
 10
20.5343
 20
1.365
 30
0.0
 11
21.3699
 21
1.365
 31
0.0
  0
LINE
  5
170
330
1D
100
AcDbEntity
  8
0
100
AcDbLine
 10
20.7474
 20
-0.135
 30
0.0
 11
21.6351
 21
-0.135
 31
0.0
  0
LINE
  5
171
330
1D
100
AcDbEntity
  8
0
100
AcDbLine
 10
21.2492
 20
-0.135
 30
0.0
 11
21.3152
 21
-0.135
 31
0.0
  0
LINE
  5
172
330
1D
100
AcDbEntity
  8
0
100
AcDbLine
 10
21.0931
 20
-0.135
 30
0.0
 11
21.6433
 21
-0.135
 31
0.0
  0
LINE
  5
173
330
1D
100
AcDbEntity
  8
0
100
AcDbLine
 10
21.3971
 20
-0.135
 30
0.0
 11
21.6061
 21
-0.135
 31
0.0
  0
LINE
  5
174
330
1D
100
AcDbEntity
  8
0
100
AcDbLine
 10
21.2768
 20
-0.135
 30
0.0
 11
21.3971
 21
-0.135
 31
0.0
  0
LINE
  5
175
330
1D
100
AcDbEntity
  8
0
100
AcDbLine
 10
21.3152
 20
-0.135
 30
0.0
 11
21.4727
 21
-0.135
 31
0.0
  0
LINE
  5
176
330
1D
100
AcDbEntity
  8
0
100
AcDbLine
 10
21.6061
 20
-0.135
 30
0.0
 11
21.8966
 21
-0.135
 31
0.0
  0
LINE
  5
177
330
1D
100
AcDbEntity
  8
0
100
AcDbLine
 10
21.4727
 20
-0.135
 30
0.0
 11
21.7162
 21
-0.135
 31
0.0
  0
LINE
  5
178
330
1D
100
AcDbEntity
  8
0
100
AcDbLine
 10
21.5642
 20
-0.135
 30
0.0
 11
22.4501
 21
-0.135
 31
0.0
  0
LINE
  5
179
330
1D
100
AcDbEntity
  8
0
100
AcDbLine
 10
21.0524
 20
-0.135
 30
0.0
 11
21.92
 21
-0.135
 31
0.0
  0
LINE
  5
17A
330
1D
100
AcDbEntity
  8
0
100
AcDbLine
 10
20.8235
 20
-0.135
 30
0.0
 11
21.7141
 21
-0.135
 31
0.0
  0
LINE
  5
17B
330
1D
100
AcDbEntity
  8
0
100
AcDbLine
 10
21.6433
 20
-0.135
 30
0.0
 11
22.2462
 21
-0.135
 31
0.0
  0
LINE
  5
17C
330
1D
100
AcDbEntity
  8
0
100
AcDbLine
 10
21.6781
 20
-0.135
 30
0.0
 11
22.4257
 21
-0.135
 31
0.0
  0
LINE
  5
17D
330
1D
100
AcDbEntity
  8
0
100
AcDbLine
 10
21.7162
 20
-0.135
 30
0.0
 11
22.0375
 21
-0.135
 31
0.0
  0
LINE
  5
17E
330
1D
100
AcDbEntity
  8
0
100
AcDbLine
 10
21.709
 20
-0.135
 30
0.0
 11
22.458
 21
-0.135
 31
0.0
  0
LINE
  5
17F
330
1D
100
AcDbEntity
  8
0
100
AcDbLine
 10
21.7141
 20
-0.135
 30
0.0
 11
22.6335
 21
-0.135
 31
0.0
  0
LINE
  5
180
330
1D
100
AcDbEntity
  8
0
100
AcDbLine
 10
21.6351
 20
-0.135
 30
0.0
 11
22.5525
 21
-0.135
 31
0.0
  0
LINE
  5
181
330
1D
100
AcDbEntity
  8
0
100
AcDbLine
 10
21.5322
 20
2.148
 30
0.0
 11
22.6889
 21
2.148
 31
0.0
  0
LINE
  5
182
330
1D
100
AcDbEntity
  8
0
100
AcDbLine
 10
21.1209
 20
1.715
 30
0.0
 11
22.1431
 21
1.715
 31
0.0
  0
LINE
  5
183
330
1D
100
AcDbEntity
  8
0
100
AcDbLine
 10
21.3699
 20
1.365
 30
0.0
 11
22.232
 21
1.365
 31
0.0
  0
LINE
  5
184
330
1D
100
AcDbEntity
  8
0
100
AcDbLine
 10
20.5047
 20
9.815
 30
0.0
 11
21.7457
 21
9.815
 31
0.0
  0
LINE
  5
185
330
1D
100
AcDbEntity
  8
0
100
AcDbLine
 10
19.5095
 20
9.815
 30
0.0
 11
20.7341
 21
9.815
 31
0.0
  0
LINE
  5
186
330
1D
100
AcDbEntity
  8
0
100
AcDbLine
 10
21.7457
 20
9.815
 30
0.0
 11
23.0115
 21
9.815
 31
0.0
  0
LINE
  5
187
330
1D
100
AcDbEntity
  8
0
100
AcDbLine
 10
20.7341
 20
9.815
 30
0.0
 11
21.9928
 21
9.815
 31
0.0
  0
LINE
  5
188
330
1D
100
AcDbEntity
  8
0
100
AcDbLine
 10
19.4269
 20
17.915
 30
0.0
 11
20.6371
 21
17.915
 31
0.0
  0
LINE
  5
189
330
1D
100
AcDbEntity
  8
0
100
AcDbLine
 10
20.6371
 20
17.915
 30
0.0
 11
21.8808
 21
17.915
 31
0.0
  0
LINE
  5
18A
330
1D
100
AcDbEntity
  8
0
100
AcDbLine
 10
21.8966
 20
-0.135
 30
0.0
 11
22.2588
 21
-0.135
 31
0.0
  0
LINE
  5
18B
330
1D
100
AcDbEntity
  8
0
100
AcDbLine
 10
22.0375
 20
-0.135
 30
0.0
 11
22.4257
 21
-0.135
 31
0.0
  0
LINE
  5
18C
330
1D
100
AcDbEntity
  8
0
100
AcDbLine
 10
21.92
 20
-0.135
 30
0.0
 11
22.8158
 21
-0.135
 31
0.0
  0
LINE
  5
18D
330
1D
100
AcDbEntity
  8
0
100
AcDbLine
 10
22.4257
 20
-0.135
 30
0.0
 11
22.8675
 21
-0.135
 31
0.0
  0
LINE
  5
18E
330
1D
100
AcDbEntity
  8
0
100
AcDbLine
 10
22.2462
 20
-0.135
 30
0.0
 11
22.8882
 21
-0.135
 31
0.0
  0
LINE
  5
18F
330
1D
100
AcDbEntity
  8
0
100
AcDbLine
 10
22.4257
 20
-0.135
 30
0.0
 11
23.1982
 21
-0.135
 31
0.0
  0
LINE
  5
190
330
1D
100
AcDbEntity
  8
0
100
AcDbLine
 10
22.4452
 20
-0.135
 30
0.0
 11
23.0966
 21
-0.135
 31
0.0
  0
LINE
  5
191
330
1D
100
AcDbEntity
  8
0
100
AcDbLine
 10
22.458
 20
-0.135
 30
0.0
 11
23.2313
 21
-0.135
 31
0.0
  0
LINE
  5
192
330
1D
100
AcDbEntity
  8
0
100
AcDbLine
 10
22.4501
 20
-0.135
 30
0.0
 11
23.3567
 21
-0.135
 31
0.0
  0
LINE
  5
193
330
1D
100
AcDbEntity
  8
0
100
AcDbLine
 10
22.8675
 20
-0.135
 30
0.0
 11
23.3478
 21
-0.135
 31
0.0
  0
LINE
  5
194
330
1D
100
AcDbEntity
  8
0
100
AcDbLine
 10
22.8882
 20
-0.135
 30
0.0
 11
23.555
 21
-0.135
 31
0.0
  0
LINE
  5
195
330
1D
100
AcDbEntity
  8
0
100
AcDbLine
 10
22.8158
 20
-0.135
 30
0.0
 11
23.7278
 21
-0.135
 31
0.0
  0
LINE
  5
196
330
1D
100
AcDbEntity
  8
0
100
AcDbLine
 10
22.6335
 20
-0.135
 30
0.0
 11
23.57
 21
-0.135
 31
0.0
  0
LINE
  5
197
330
1D
100
AcDbEntity
  8
0
100
AcDbLine
 10
22.5525
 20
-0.135
 30
0.0
 11
23.4878
 21
-0.135
 31
0.0
  0
LINE
  5
198
330
1D
100
AcDbEntity
  8
0
100
AcDbLine
 10
22.232
 20
1.365
 30
0.0
 11
23.1114
 21
1.365
 31
0.0
  0
LINE
  5
19A
330
1D
100
AcDbEntity
  8
0
100
AcDbLine
 10
22.6889
 20
2.148
 30
0.0
 11
23.8575
 21
2.148
 31
0.0
  0
LINE
  5
19B
330
1D
100
AcDbEntity
  8
0
100
AcDbLine
 10
22.1431
 20
1.715
 30
0.0
 11
23.1858
 21
1.715
 31
0.0
  0
LINE
  5
1A2
330
1D
100
AcDbEntity
  8
0
100
AcDbLine
 10
23.0966
 20
-0.135
 30
0.0
 11
23.7682
 21
-0.135
 31
0.0
  0
LINE
  5
1A3
330
1D
100
AcDbEntity
  8
0
100
AcDbLine
 10
23.1467
 20
-0.135
 30
0.0
 11
23.6421
 21
-0.135
 31
0.0
  0
LINE
  5
1A4
330
1D
100
AcDbEntity
  8
0
100
AcDbLine
 10
23.1982
 20
-0.135
 30
0.0
 11
23.9834
 21
-0.135
 31
0.0
  0
LINE
  5
1A5
330
1D
100
AcDbEntity
  8
0
100
AcDbLine
 10
23.2313
 20
-0.135
 30
0.0
 11
24.0166
 21
-0.135
 31
0.0
  0
LINE
  5
1A6
330
1D
100
AcDbEntity
  8
0
100
AcDbLine
 10
23.1858
 20
1.715
 30
0.0
 11
24.2372
 21
1.715
 31
0.0
  0
LINE
  5
1A7
330
1D
100
AcDbEntity
  8
0
100
AcDbLine
 10
23.1114
 20
1.365
 30
0.0
 11
23.9999
 21
1.365
 31
0.0
  0
LINE
  5
1A8
330
1D
100
AcDbEntity
  8
0
100
AcDbLine
 10
23.0115
 20
9.815
 30
0.0
 11
24.2878
 21
9.815
 31
0.0
  0
LINE
  5
1A9
330
1D
100
AcDbEntity
  8
0
100
AcDbLine
 10
21.9928
 20
9.815
 30
0.0
 11
23.2716
 21
9.815
 31
0.0
  0
LINE
  5
1AA
330
1D
100
AcDbEntity
  8
0
100
AcDbLine
 10
23.3478
 20
-0.135
 30
0.0
 11
23.8503
 21
-0.135
 31
0.0
  0
LINE
  5
1AB
330
1D
100
AcDbEntity
  8
0
100
AcDbLine
 10
23.555
 20
-0.135
 30
0.0
 11
24.2318
 21
-0.135
 31
0.0
  0
LINE
  5
1AC
330
1D
100
AcDbEntity
  8
0
100
AcDbLine
 10
23.3567
 20
-0.135
 30
0.0
 11
24.2723
 21
-0.135
 31
0.0
  0
LINE
  5
1AD
330
1D
100
AcDbEntity
  8
0
100
AcDbLine
 10
23.8503
 20
-0.135
 30
0.0
 11
24.358
 21
-0.135
 31
0.0
  0
LINE
  5
1AE
330
1D
100
AcDbEntity
  8
0
100
AcDbLine
 10
23.6421
 20
-0.135
 30
0.0
 11
24.1498
 21
-0.135
 31
0.0
  0
LINE
  5
1AF
330
1D
100
AcDbEntity
  8
0
100
AcDbLine
 10
23.7682
 20
-0.135
 30
0.0
 11
24.445
 21
-0.135
 31
0.0
  0
LINE
  5
1B0
330
1D
100
AcDbEntity
  8
0
100
AcDbLine
 10
23.9834
 20
-0.135
 30
0.0
 11
24.7687
 21
-0.135
 31
0.0
  0
LINE
  5
1B1
330
1D
100
AcDbEntity
  8
0
100
AcDbLine
 10
23.7278
 20
-0.135
 30
0.0
 11
24.6432
 21
-0.135
 31
0.0
  0
LINE
  5
1B2
330
1D
100
AcDbEntity
  8
0
100
AcDbLine
 10
23.57
 20
-0.135
 30
0.0
 11
24.5122
 21
-0.135
 31
0.0
  0
LINE
  5
1B3
330
1D
100
AcDbEntity
  8
0
100
AcDbLine
 10
23.8575
 20
2.148
 30
0.0
 11
25.028
 21
2.148
 31
0.0
  0
LINE
  5
1B4
330
1D
100
AcDbEntity
  8
0
100
AcDbLine
 10
23.4878
 20
-0.135
 30
0.0
 11
24.43
 21
-0.135
 31
0.0
  0
LINE
  5
1B5
330
1D
100
AcDbEntity
  8
0
100
AcDbLine
 10
23.2716
 20
9.815
 30
0.0
 11
24.5583
 21
9.815
 31
0.0
  0
LINE
  5
1B6
330
1D
100
AcDbEntity
  8
0
100
AcDbLine
 10
21.8808
 20
17.915
 30
0.0
 11
23.1459
 21
17.915
 31
0.0
  0
LINE
  5
1B7
330
1D
100
AcDbEntity
  8
0
100
AcDbLine
 10
12.8726
 20
19.3147
 30
0.0
 11
13.1505
 21
19.3147
 31
0.0
  0
LINE
  5
1B8
330
1D
100
AcDbEntity
  8
0
100
AcDbLine
 10
12.725
 20
19.3147
 30
0.0
 11
12.8726
 21
19.3147
 31
0.0
  0
LINE
  5
1B9
330
1D
100
AcDbEntity
  8
0
100
AcDbLine
 10
14.0833
 20
19.3147
 30
0.0
 11
14.7272
 21
19.3147
 31
0.0
  0
LINE
  5
1BA
330
1D
100
AcDbEntity
  8
0
100
AcDbLine
 10
13.1505
 20
19.3147
 30
0.0
 11
13.5557
 21
19.3147
 31
0.0
  0
LINE
  5
1BB
330
1D
100
AcDbEntity
  8
0
100
AcDbLine
 10
13.5557
 20
19.3147
 30
0.0
 11
14.0833
 21
19.3147
 31
0.0
  0
LINE
  5
1BC
330
1D
100
AcDbEntity
  8
0
100
AcDbLine
 10
14.7272
 20
19.3147
 30
0.0
 11
15.4796
 21
19.3147
 31
0.0
  0
LINE
  5
1BD
330
1D
100
AcDbEntity
  8
0
100
AcDbLine
 10
15.4796
 20
19.3147
 30
0.0
 11
16.3323
 21
19.3147
 31
0.0
  0
LINE
  5
1BE
330
1D
100
AcDbEntity
  8
0
100
AcDbLine
 10
16.3323
 20
19.3147
 30
0.0
 11
17.2746
 21
19.3147
 31
0.0
  0
LINE
  5
1BF
330
1D
100
AcDbEntity
  8
0
100
AcDbLine
 10
17.2746
 20
19.3147
 30
0.0
 11
18.2959
 21
19.3147
 31
0.0
  0
LINE
  5
1C0
330
1D
100
AcDbEntity
  8
0
100
AcDbLine
 10
18.2959
 20
19.3147
 30
0.0
 11
19.3838
 21
19.3147
 31
0.0
  0
LINE
  5
1C1
330
1D
100
AcDbEntity
  8
0
100
AcDbLine
 10
19.3838
 20
19.3147
 30
0.0
 11
20.5261
 21
19.3147
 31
0.0
  0
LINE
  5
1C2
330
1D
100
AcDbEntity
  8
0
100
AcDbLine
 10
20.5261
 20
19.3147
 30
0.0
 11
21.7092
 21
19.3147
 31
0.0
  0
LINE
  5
1C3
330
1D
100
AcDbEntity
  8
0
100
AcDbLine
 10
12.6516
 20
24.6531
 30
0.0
 11
12.709833270161
 21
24.653087146392
 31
0.0
  0
LINE
  5
1C4
330
1D
100
AcDbEntity
  8
0
100
AcDbLine
 10
12.4131
 20
24.6532
 30
0.0
 11
12.6516
 21
24.6531
 31
0.0
  0
LINE
  5
1C5
330
1D
100
AcDbEntity
  8
0
100
AcDbLine
 10
12.3589
 20
24.6549
 30
0.0
 11
13.2323
 21
24.656
 31
0.0
  0
LINE
  5
1C6
330
1D
100
AcDbEntity
  8
0
100
AcDbLine
 10
12.4327
 20
51.7146
 30
0.0
 11
13.6023
 21
51.4844
 31
0.0
  0
LINE
  5
1C7
330
1D
100
AcDbEntity
  8
0
100
AcDbLine
 10
12.0162
 20
139.184
 30
0.0
 11
13.1592
 21
139.446
 31
0.0
  0
LINE
  5
1C8
330
1D
100
AcDbEntity
  8
0
100
AcDbLine
 10
12.709833241975
 20
24.655341981413
 30
0.0
 11
12.7099
 21
19.3147
 31
0.0
  0
LINE
  5
1C9
330
1D
100
AcDbEntity
  8
0
100
AcDbLine
 10
18.0071
 20
24.6662
 30
0.0
 11
20.093
 21
24.6722
 31
0.0
  0
LINE
  5
1CA
330
1D
100
AcDbEntity
  8
0
100
AcDbLine
 10
16.0503
 20
24.6611
 30
0.0
 11
18.0071
 21
24.6662
 31
0.0
  0
LINE
  5
1CB
330
1D
100
AcDbEntity
  8
0
100
AcDbLine
 10
14.3773
 20
24.6577
 30
0.0
 11
16.0503
 21
24.6611
 31
0.0
  0
LINE
  5
1CC
330
1D
100
AcDbEntity
  8
0
100
AcDbLine
 10
13.2323
 20
24.656
 30
0.0
 11
14.3773
 21
24.6577
 31
0.0
  0
LINE
  5
1D1
330
1D
100
AcDbEntity
  8
0
100
AcDbLine
 10
22.0213
 20
24.6767
 30
0.0
 11
23.9999
 21
24.6784
 31
0.0
  0
LINE
  5
1D2
330
1D
100
AcDbEntity
  8
0
100
AcDbLine
 10
20.093
 20
24.6722
 30
0.0
 11
22.0213
 21
24.6767
 31
0.0
  0
LINE
  5
1D3
330
1D
100
AcDbEntity
  8
0
100
AcDbLine
 10
13.1592
 20
139.446
 30
0.0
 11
15.4664
 21
139.869
 31
0.0
  0
LINE
  5
1D4
330
1D
100
AcDbEntity
  8
0
100
AcDbLine
 10
17.524
 20
140.141
 30
0.0
 11
19.5903
 21
140.328
 31
0.0
  0
LINE
  5
1D5
330
1D
100
AcDbEntity
  8
0
100
AcDbLine
 10
15.4664
 20
139.869
 30
0.0
 11
17.524
 21
140.141
 31
0.0
  0
LINE
  5
1D6
330
1D
100
AcDbEntity
  8
0
100
AcDbLine
 10
14.4118
 20
141.613
 30
0.0
 11
16.9129
 21
141.944
 31
0.0
  0
LINE
  5
1D7
330
1D
100
AcDbEntity
  8
0
100
AcDbLine
 10
19.5903
 20
140.328
 30
0.0
 11
21.6617
 21
140.438
 31
0.0
  0
LINE
  5
1D8
330
1D
100
AcDbEntity
  8
0
100
AcDbLine
 10
13.6023
 20
51.4844
 30
0.0
 11
16.0366
 21
51.1634
 31
0.0
  0
LINE
  5
1D9
330
1D
100
AcDbEntity
  8
0
100
AcDbLine
 10
16.0366
 20
51.1634
 30
0.0
 11
20.0131
 21
50.8406
 31
0.0
  0
LINE
  5
1DA
330
1D
100
AcDbEntity
  8
0
100
AcDbLine
 10
22.8015
 20
141.753
 30
0.0
 11
23.2504
 21
141.751
 31
0.0
  0
LINE
  5
1DB
330
1D
100
AcDbEntity
  8
0
100
AcDbLine
 10
22.2896
 20
141.757
 30
0.0
 11
22.8015
 21
141.753
 31
0.0
  0
LINE
  5
1DC
330
1D
100
AcDbEntity
  8
0
100
AcDbLine
 10
21.6617
 20
140.438
 30
0.0
 11
24.0
 21
140.478
 31
0.0
  0
LINE
  5
1DD
330
1D
100
AcDbEntity
  8
0
100
AcDbLine
 10
20.0131
 20
50.8406
 30
0.0
 11
24.0001
 21
50.74
 31
0.0
  0
LINE
  5
1DE
330
1D
100
AcDbEntity
  8
0
100
AcDbLine
 10
21.7092
 20
19.3147
 30
0.0
 11
22.9188
 21
19.3147
 31
0.0
  0
LINE
  5
1DF
330
1D
100
AcDbEntity
  8
0
100
AcDbLine
 10
23.6835
 20
141.751
 30
0.0
 11
23.9999
 21
141.751
 31
0.0
  0
LINE
  5
1E0
330
1D
100
AcDbEntity
  8
0
100
AcDbLine
 10
23.2504
 20
141.751
 30
0.0
 11
23.6835
 21
141.751
 31
0.0
  0
LINE
  5
1E1
330
1D
100
AcDbEntity
  8
0
100
AcDbLine
 10
22.9188
 20
19.3147
 30
0.0
 11
24.1413
 21
19.3147
 31
0.0
  0
LINE
  5
1E2
330
1D
100
AcDbEntity
  8
0
100
AcDbLine
 10
23.1459
 20
17.915
 30
0.0
 11
24.4198
 21
17.915
 31
0.0
  0
LINE
  5
1E3
330
1D
100
AcDbEntity
  8
0
100
AcDbLine
 10
12.0
 20
18.219
 30
0.0
 11
12.0
 21
18.433
 31
0.0
  0
LINE
  5
1E4
330
1D
100
AcDbEntity
  8
0
100
AcDbLine
 10
12.0
 20
18.219
 30
0.0
 11
12.0
 21
17.915
 31
0.0
  0
LINE
  5
1E5
330
1D
100
AcDbEntity
  8
0
100
AcDbLine
 10
16.9129
 20
141.944
 30
0.0
 11
19.4071
 21
142.153
 31
0.0
  0
LINE
  5
1E6
330
1D
100
AcDbEntity
  8
0
100
AcDbLine
 10
19.4071
 20
142.153
 30
0.0
 11
21.8876
 21
142.262
 31
0.0
  0
LINE
  5
1E7
330
1D
100
AcDbEntity
  8
0
100
AcDbLine
 10
21.5007
 20
141.803
 30
0.0
 11
21.6643
 21
141.838
 31
0.0
  0
LINE
  5
1E8
330
1D
100
AcDbEntity
  8
0
100
AcDbLine
 10
21.5007
 20
141.803
 30
0.0
 11
21.5825
 21
141.781
 31
0.0
  0
LINE
  5
1E9
330
1D
100
AcDbEntity
  8
0
100
AcDbLine
 10
21.8876
 20
142.262
 30
0.0
 11
22.0
 21
142.263490080962
 31
0.0
  0
LINE
  5
1EA
330
1D
100
AcDbEntity
  8
0
100
AcDbLine
 10
21.6643
 20
141.838
 30
0.0
 11
22.0
 21
141.869419713366
 31
0.0
  0
LINE
  5
1EB
330
1D
100
AcDbEntity
  8
0
100
AcDbLine
 10
21.9894
 20
141.762
 30
0.0
 11
22.2896
 21
141.757
 31
0.0
  0
LINE
  5
1EC
330
1D
100
AcDbEntity
  8
0
100
AcDbLine
 10
21.5825
 20
141.781
 30
0.0
 11
21.9894
 21
141.762
 31
0.0
  0
LINE
  5
1ED
330
1D
100
AcDbEntity
  8
0
100
AcDbLine
 10
22.0
 20
141.761823451033
 30
0.0
 11
22.0
 21
148.258
 31
0.0
  0
LINE
  5
1EE
330
1D
100
AcDbEntity
  8
0
100
AcDbLine
 10
24.358
 20
-0.135
 30
0.0
 11
24.8534
 21
-0.135
 31
0.0
  0
LINE
  5
1EF
330
1D
100
AcDbEntity
  8
0
100
AcDbLine
 10
24.1498
 20
-0.135
 30
0.0
 11
24.6523
 21
-0.135
 31
0.0
  0
LINE
  5
1F0
330
1D
100
AcDbEntity
  8
0
100
AcDbLine
 10
24.2318
 20
-0.135
 30
0.0
 11
24.9034
 21
-0.135
 31
0.0
  0
LINE
  5
1F1
330
1D
100
AcDbEntity
  8
0
100
AcDbLine
 10
24.0166
 20
-0.135
 30
0.0
 11
24.8018
 21
-0.135
 31
0.0
  0
LINE
  5
1F2
330
1D
100
AcDbEntity
  8
0
100
AcDbLine
 10
24.2372
 20
1.715
 30
0.0
 11
25.2862
 21
1.715
 31
0.0
  0
LINE
  5
1F3
330
1D
100
AcDbEntity
  8
0
100
AcDbLine
 10
24.2723
 20
-0.135
 30
0.0
 11
25.1842
 21
-0.135
 31
0.0
  0
LINE
  5
1F4
330
1D
100
AcDbEntity
  8
0
100
AcDbLine
 10
23.9999
 20
1.365
 30
0.0
 11
24.8885
 21
1.365
 31
0.0
  0
LINE
  5
1F5
330
1D
100
AcDbEntity
  8
0
100
AcDbLine
 10
24.2878
 20
9.815
 30
0.0
 11
25.5613
 21
9.815
 31
0.0
  0
LINE
  5
1F6
330
1D
100
AcDbEntity
  8
0
100
AcDbLine
 10
24.6432
 20
-0.135
 30
0.0
 11
25.55
 21
-0.135
 31
0.0
  0
LINE
  5
1F7
330
1D
100
AcDbEntity
  8
0
100
AcDbLine
 10
24.6523
 20
-0.135
 30
0.0
 11
25.1326
 21
-0.135
 31
0.0
  0
LINE
  5
1F8
330
1D
100
AcDbEntity
  8
0
100
AcDbLine
 10
24.445
 20
-0.135
 30
0.0
 11
25.1118
 21
-0.135
 31
0.0
  0
LINE
  5
1F9
330
1D
100
AcDbEntity
  8
0
100
AcDbLine
 10
25.1326
 20
-0.135
 30
0.0
 11
25.5744
 21
-0.135
 31
0.0
  0
LINE
  5
1FA
330
1D
100
AcDbEntity
  8
0
100
AcDbLine
 10
25.1118
 20
-0.135
 30
0.0
 11
25.7539
 21
-0.135
 31
0.0
  0
LINE
  5
1FB
330
1D
100
AcDbEntity
  8
0
100
AcDbLine
 10
24.8018
 20
-0.135
 30
0.0
 11
25.5743
 21
-0.135
 31
0.0
  0
LINE
  5
1FC
330
1D
100
AcDbEntity
  8
0
100
AcDbLine
 10
24.9034
 20
-0.135
 30
0.0
 11
25.5548
 21
-0.135
 31
0.0
  0
LINE
  5
1FD
330
1D
100
AcDbEntity
  8
0
100
AcDbLine
 10
24.7687
 20
-0.135
 30
0.0
 11
25.542
 21
-0.135
 31
0.0
  0
LINE
  5
1FE
330
1D
100
AcDbEntity
  8
0
100
AcDbLine
 10
25.1842
 20
-0.135
 30
0.0
 11
26.08
 21
-0.135
 31
0.0
  0
LINE
  5
1FF
330
1D
100
AcDbEntity
  8
0
100
AcDbLine
 10
24.5122
 20
-0.135
 30
0.0
 11
25.4475
 21
-0.135
 31
0.0
  0
LINE
  5
200
330
1D
100
AcDbEntity
  8
0
100
AcDbLine
 10
25.55
 20
-0.135
 30
0.0
 11
26.4359
 21
-0.135
 31
0.0
  0
LINE
  5
201
330
1D
100
AcDbEntity
  8
0
100
AcDbLine
 10
25.542
 20
-0.135
 30
0.0
 11
26.291
 21
-0.135
 31
0.0
  0
LINE
  5
202
330
1D
100
AcDbEntity
  8
0
100
AcDbLine
 10
25.4475
 20
-0.135
 30
0.0
 11
26.3649
 21
-0.135
 31
0.0
  0
LINE
  5
203
330
1D
100
AcDbEntity
  8
0
100
AcDbLine
 10
25.3665
 20
-0.135
 30
0.0
 11
26.2859
 21
-0.135
 31
0.0
  0
LINE
  5
204
330
1D
100
AcDbEntity
  8
0
100
AcDbLine
 10
25.028
 20
2.148
 30
0.0
 11
26.1883
 21
2.148
 31
0.0
  0
LINE
  5
208
330
1D
100
AcDbEntity
  8
0
100
AcDbLine
 10
25.2862
 20
1.715
 30
0.0
 11
26.3209
 21
1.715
 31
0.0
  0
LINE
  5
20B
330
1D
100
AcDbEntity
  8
0
100
AcDbLine
 10
24.8885
 20
1.365
 30
0.0
 11
25.768
 21
1.365
 31
0.0
  0
LINE
  5
20C
330
1D
100
AcDbEntity
  8
0
100
AcDbLine
 10
24.43
 20
-0.135
 30
0.0
 11
25.3665
 21
-0.135
 31
0.0
  0
LINE
  5
20D
330
1D
100
AcDbEntity
  8
0
100
AcDbLine
 10
25.5744
 20
-0.135
 30
0.0
 11
25.9626
 21
-0.135
 31
0.0
  0
LINE
  5
20E
330
1D
100
AcDbEntity
  8
0
100
AcDbLine
 10
25.5743
 20
-0.135
 30
0.0
 11
26.3219
 21
-0.135
 31
0.0
  0
LINE
  5
20F
330
1D
100
AcDbEntity
  8
0
100
AcDbLine
 10
25.7413
 20
-0.135
 30
0.0
 11
26.1035
 21
-0.135
 31
0.0
  0
LINE
  5
210
330
1D
100
AcDbEntity
  8
0
100
AcDbLine
 10
25.7539
 20
-0.135
 30
0.0
 11
26.3567
 21
-0.135
 31
0.0
  0
LINE
  5
211
330
1D
100
AcDbEntity
  8
0
100
AcDbLine
 10
25.768
 20
1.365
 30
0.0
 11
26.6301
 21
1.365
 31
0.0
  0
LINE
  5
212
330
1D
100
AcDbEntity
  8
0
100
AcDbLine
 10
25.5613
 20
9.815
 30
0.0
 11
26.8174
 21
9.815
 31
0.0
  0
LINE
  5
213
330
1D
100
AcDbEntity
  8
0
100
AcDbLine
 10
24.5583
 20
9.815
 30
0.0
 11
25.8388
 21
9.815
 31
0.0
  0
LINE
  5
214
330
1D
100
AcDbEntity
  8
0
100
AcDbLine
 10
25.9626
 20
-0.135
 30
0.0
 11
26.2839
 21
-0.135
 31
0.0
  0
LINE
  5
215
330
1D
100
AcDbEntity
  8
0
100
AcDbLine
 10
25.8388
 20
9.815
 30
0.0
 11
27.1006
 21
9.815
 31
0.0
  0
LINE
  5
216
330
1D
100
AcDbEntity
  8
0
100
AcDbLine
 10
25.6892
 20
17.915
 30
0.0
 11
26.9416
 21
17.915
 31
0.0
  0
LINE
  5
219
330
1D
100
AcDbEntity
  8
0
100
AcDbLine
 10
23.9999
 20
24.6784
 30
0.0
 11
25.9787
 21
24.6768
 31
0.0
  0
LINE
  5
21A
330
1D
100
AcDbEntity
  8
0
100
AcDbLine
 10
23.9999
 20
141.751
 30
0.0
 11
24.3165
 21
141.751
 31
0.0
  0
LINE
  5
21B
330
1D
100
AcDbEntity
  8
0
100
AcDbLine
 10
24.0
 20
140.478
 30
0.0
 11
26.9607
 21
140.413
 31
0.0
  0
LINE
  5
21C
330
1D
100
AcDbEntity
  8
0
100
AcDbLine
 10
24.0001
 20
50.74
 30
0.0
 11
27.9871
 21
50.8406
 31
0.0
  0
LINE
  5
21D
330
1D
100
AcDbEntity
  8
0
100
AcDbLine
 10
24.7495
 20
141.751
 30
0.0
 11
25.1482
 21
141.753
 31
0.0
  0
LINE
  5
21E
330
1D
100
AcDbEntity
  8
0
100
AcDbLine
 10
24.3165
 20
141.751
 30
0.0
 11
24.7495
 21
141.751
 31
0.0
  0
LINE
  5
21F
330
1D
100
AcDbEntity
  8
0
100
AcDbLine
 10
25.1482
 20
141.753
 30
0.0
 11
25.5525
 21
141.755
 31
0.0
  0
LINE
  5
220
330
1D
100
AcDbEntity
  8
0
100
AcDbLine
 10
25.5525
 20
141.755
 30
0.0
 11
25.9551
 21
141.761
 31
0.0
  0
LINE
  5
221
330
1D
100
AcDbEntity
  8
0
100
AcDbLine
 10
25.9551
 20
141.761
 30
0.0
 11
26.3125
 21
141.773
 31
0.0
  0
LINE
  5
224
330
1D
100
AcDbEntity
  8
0
100
AcDbLine
 10
25.9787
 20
24.6768
 30
0.0
 11
27.9071
 21
24.6722
 31
0.0
  0
LINE
  5
225
330
1D
100
AcDbEntity
  8
0
100
AcDbLine
 10
25.362
 20
19.3147
 30
0.0
 11
26.5671
 21
19.3147
 31
0.0
  0
LINE
  5
226
330
1D
100
AcDbEntity
  8
0
100
AcDbLine
 10
24.1413
 20
19.3147
 30
0.0
 11
25.362
 21
19.3147
 31
0.0
  0
LINE
  5
227
330
1D
100
AcDbEntity
  8
0
100
AcDbLine
 10
24.4198
 20
17.915
 30
0.0
 11
25.6892
 21
17.915
 31
0.0
  0
LINE
  5
228
330
1D
100
AcDbEntity
  8
0
100
AcDbLine
 10
22.0
 20
149.211
 30
0.0
 11
22.0044
 21
149.466
 31
0.0
  0
LINE
  5
229
330
1D
100
AcDbEntity
  8
0
100
AcDbLine
 10
22.0
 20
149.211
 30
0.0
 11
22.0005
 21
148.886
 31
0.0
  0
LINE
  5
22A
330
1D
100
AcDbEntity
  8
0
100
AcDbLine
 10
22.0005
 20
148.47
 30
0.0
 11
22.0005
 21
148.624
 31
0.0
  0
LINE
  5
22B
330
1D
100
AcDbEntity
  8
0
100
AcDbLine
 10
22.0005
 20
148.886
 30
0.0
 11
22.0005
 21
148.624
 31
0.0
  0
LINE
  5
22C
330
1D
100
AcDbEntity
  8
0
100
AcDbLine
 10
22.0044
 20
149.466
 30
0.0
 11
22.0044
 21
149.872
 31
0.0
  0
LINE
  5
22D
330
1D
100
AcDbEntity
  8
0
100
AcDbLine
 10
22.0044
 20
149.872
 30
0.0
 11
22.0044
 21
149.466
 31
0.0
  0
LINE
  5
22E
330
1D
100
AcDbEntity
  8
0
100
AcDbLine
 10
22.0044
 20
149.872
 30
0.0
 11
22.0044
 21
150.31
 31
0.0
  0
LINE
  5
22F
330
1D
100
AcDbEntity
  8
0
100
AcDbLine
 10
22.0005
 20
148.624
 30
0.0
 11
22.0005
 21
148.886
 31
0.0
  0
LINE
  5
230
330
1D
100
AcDbEntity
  8
0
100
AcDbLine
 10
22.0005
 20
148.624
 30
0.0
 11
22.0005
 21
148.47
 31
0.0
  0
LINE
  5
231
330
1D
100
AcDbEntity
  8
0
100
AcDbLine
 10
25.9956
 20
150.31
 30
0.0
 11
25.9956
 21
149.872
 31
0.0
  0
LINE
  5
232
330
1D
100
AcDbEntity
  8
0
100
AcDbLine
 10
25.9956
 20
149.872
 30
0.0
 11
25.9956
 21
149.466
 31
0.0
  0
LINE
  5
233
330
1D
100
AcDbEntity
  8
0
100
AcDbLine
 10
25.9956
 20
149.872
 30
0.0
 11
25.9956
 21
150.31
 31
0.0
  0
LINE
  5
234
330
1D
100
AcDbEntity
  8
0
100
AcDbLine
 10
22.0044
 20
150.31
 30
0.0
 11
22.006
 21
150.765
 31
0.0
  0
LINE
  5
235
330
1D
100
AcDbEntity
  8
0
100
AcDbLine
 10
22.0044
 20
150.31
 30
0.0
 11
22.0044
 21
149.872
 31
0.0
  0
LINE
  5
236
330
1D
100
AcDbEntity
  8
0
100
AcDbLine
 10
22.0
 20
148.258
 30
0.0
 11
22.0005
 21
148.47
 31
0.0
  0
LINE
  5
237
330
1D
100
AcDbEntity
  8
0
100
AcDbLine
 10
22.0
 20
148.258
 30
0.0
 11
22.0
 21
141.761823451033
 31
0.0
  0
LINE
  5
238
330
1D
100
AcDbEntity
  8
0
100
AcDbLine
 10
25.9995
 20
148.624
 30
0.0
 11
25.9995
 21
148.47
 31
0.0
  0
LINE
  5
239
330
1D
100
AcDbEntity
  8
0
100
AcDbLine
 10
25.9995
 20
148.624
 30
0.0
 11
25.9995
 21
148.886
 31
0.0
  0
LINE
  5
23A
330
1D
100
AcDbEntity
  8
0
100
AcDbLine
 10
25.9995
 20
148.886
 30
0.0
 11
26.0
 21
149.211
 31
0.0
  0
LINE
  5
23B
330
1D
100
AcDbEntity
  8
0
100
AcDbLine
 10
25.9995
 20
148.886
 30
0.0
 11
25.9995
 21
148.624
 31
0.0
  0
LINE
  5
23C
330
1D
100
AcDbEntity
  8
0
100
AcDbLine
 10
25.9956
 20
149.466
 30
0.0
 11
26.0
 21
149.211
 31
0.0
  0
LINE
  5
23D
330
1D
100
AcDbEntity
  8
0
100
AcDbLine
 10
25.9956
 20
149.466
 30
0.0
 11
25.9956
 21
149.872
 31
0.0
  0
LINE
  5
23E
330
1D
100
AcDbEntity
  8
0
100
AcDbLine
 10
21.1564
 20
163.983
 30
0.0
 11
21.229
 21
164.946
 31
0.0
  0
LINE
  5
23F
330
1D
100
AcDbEntity
  8
0
100
AcDbLine
 10
21.1564
 20
163.983
 30
0.0
 11
21.1826
 21
163.023
 31
0.0
  0
LINE
  5
240
330
1D
100
AcDbEntity
  8
0
100
AcDbLine
 10
21.3915
 20
165.892
 30
0.0
 11
21.4738
 21
166.122
 31
0.0
  0
LINE
  5
241
330
1D
100
AcDbEntity
  8
0
100
AcDbLine
 10
21.4738
 20
166.122
 30
0.0
 11
21.6096
 21
166.325
 31
0.0
  0
LINE
  5
242
330
1D
100
AcDbEntity
  8
0
100
AcDbLine
 10
21.5307
 20
157.956
 30
0.0
 11
21.6618
 21
156.164
 31
0.0
  0
LINE
  5
243
330
1D
100
AcDbEntity
  8
0
100
AcDbLine
 10
21.229
 20
164.946
 30
0.0
 11
21.3915
 21
165.892
 31
0.0
  0
LINE
  5
244
330
1D
100
AcDbEntity
  8
0
100
AcDbLine
 10
21.6096
 20
166.325
 30
0.0
 11
21.9364
 21
166.627
 31
0.0
  0
LINE
  5
245
330
1D
100
AcDbEntity
  8
0
100
AcDbLine
 10
21.1826
 20
163.023
 30
0.0
 11
21.5307
 21
157.956
 31
0.0
  0
LINE
  5
246
330
1D
100
AcDbEntity
  8
0
100
AcDbLine
 10
21.6568
 20
156.155
 30
0.0
 11
21.7112
 21
155.447
 31
0.0
  0
LINE
  5
247
330
1D
100
AcDbEntity
  8
0
100
AcDbLine
 10
21.9857
 20
151.913
 30
0.0
 11
21.9981
 21
151.372
 31
0.0
  0
LINE
  5
248
330
1D
100
AcDbEntity
  8
0
100
AcDbLine
 10
21.957
 20
152.478
 30
0.0
 11
21.9857
 21
151.913
 31
0.0
  0
LINE
  5
249
330
1D
100
AcDbEntity
  8
0
100
AcDbLine
 10
21.9116
 20
153.062
 30
0.0
 11
21.957
 21
152.478
 31
0.0
  0
LINE
  5
24A
330
1D
100
AcDbEntity
  8
0
100
AcDbLine
 10
21.8614
 20
153.599
 30
0.0
 11
21.9116
 21
153.062
 31
0.0
  0
LINE
  5
24B
330
1D
100
AcDbEntity
  8
0
100
AcDbLine
 10
21.7596
 20
154.7
 30
0.0
 11
21.8086
 21
154.146
 31
0.0
  0
LINE
  5
24C
330
1D
100
AcDbEntity
  8
0
100
AcDbLine
 10
21.8086
 20
154.146
 30
0.0
 11
21.8614
 21
153.599
 31
0.0
  0
LINE
  5
24D
330
1D
100
AcDbEntity
  8
0
100
AcDbLine
 10
21.9981
 20
151.372
 30
0.0
 11
22.006
 21
150.765
 31
0.0
  0
LINE
  5
24E
330
1D
100
AcDbEntity
  8
0
100
AcDbLine
 10
21.7063
 20
155.458
 30
0.0
 11
21.7195
 21
155.268
 31
0.0
  0
LINE
  5
24F
330
1D
100
AcDbEntity
  8
0
100
AcDbLine
 10
21.9364
 20
166.627
 30
0.0
 11
21.9785
 21
166.656
 31
0.0
  0
LINE
  5
250
330
1D
100
AcDbEntity
  8
0
100
AcDbLine
 10
21.9785
 20
166.656
 30
0.0
 11
22.330786391094
 21
166.853691577494
 31
0.0
  0
LINE
  5
251
330
1D
100
AcDbEntity
  8
0
100
AcDbLine
 10
21.9785
 20
166.656
 30
0.0
 11
22.330786391094
 21
166.853691577494
 31
0.0
  0
LINE
  5
252
330
1D
100
AcDbEntity
  8
0
100
AcDbLine
 10
22.3836
 20
166.887
 30
0.0
 11
22.5802
 21
166.956
 31
0.0
  0
LINE
  5
254
330
1D
100
AcDbEntity
  8
0
100
AcDbLine
 10
23.0026
 20
167.064
 30
0.0
 11
23.8134
 21
167.135
 31
0.0
  0
LINE
  5
255
330
1D
100
AcDbEntity
  8
0
100
AcDbLine
 10
25.1051
 20
167.037
 30
0.0
 11
25.4795
 21
166.933
 31
0.0
  0
LINE
  5
258
330
1D
100
AcDbEntity
  8
0
100
AcDbLine
 10
25.4795
 20
166.933
 30
0.0
 11
25.708
 21
166.824
 31
0.0
  0
LINE
  5
25B
330
1D
100
AcDbEntity
  8
0
100
AcDbLine
 10
22.5802
 20
166.956
 30
0.0
 11
23.0026
 21
167.064
 31
0.0
  0
LINE
  5
25C
330
1D
100
AcDbEntity
  8
0
100
AcDbLine
 10
23.8134
 20
167.135
 30
0.0
 11
24.6278
 21
167.109
 31
0.0
  0
LINE
  5
25D
330
1D
100
AcDbEntity
  8
0
100
AcDbLine
 10
24.6278
 20
167.109
 30
0.0
 11
24.9974
 21
167.064
 31
0.0
  0
LINE
  5
25F
330
1D
100
AcDbEntity
  8
0
100
AcDbLine
 10
24.9974
 20
167.064
 30
0.0
 11
25.1051
 21
167.037
 31
0.0
  0
LINE
  5
261
330
1D
100
AcDbEntity
  8
0
100
AcDbLine
 10
25.708
 20
166.824
 30
0.0
 11
26.0215
 21
166.656
 31
0.0
  0
LINE
  5
263
330
1D
100
AcDbEntity
  8
0
100
AcDbLine
 10
21.7195
 20
155.268
 30
0.0
 11
21.7596
 21
154.7
 31
0.0
  0
LINE
  5
264
330
1D
100
AcDbEntity
  8
0
100
AcDbLine
 10
21.704228632237
 20
155.537730301027
 30
0.0
 11
21.7063
 21
155.458
 31
0.0
  0
LINE
  5
265
330
1D
100
AcDbEntity
  8
0
100
AcDbLine
 10
25.994
 20
150.765
 30
0.0
 11
25.9956
 21
150.31
 31
0.0
  0
LINE
  5
266
330
1D
100
AcDbEntity
  8
0
100
AcDbLine
 10
25.994
 20
150.765
 30
0.0
 11
26.0019
 21
151.372
 31
0.0
  0
LINE
  5
267
330
1D
100
AcDbEntity
  8
0
100
AcDbLine
 10
26.0
 20
142.251661081921
 30
0.0
 11
27.0258
 21
142.232
 31
0.0
  0
LINE
  5
268
330
1D
100
AcDbEntity
  8
0
100
AcDbLine
 10
26.0
 20
141.869286539769
 30
0.0
 11
26.2505
 21
141.848
 31
0.0
  0
LINE
  5
269
330
1D
100
AcDbEntity
  8
0
100
AcDbLine
 10
26.0
 20
148.258
 30
0.0
 11
26.0
 21
141.762507554561
 31
0.0
  0
LINE
  5
26A
330
1D
100
AcDbEntity
  8
0
100
AcDbLine
 10
26.0019
 20
151.372
 30
0.0
 11
26.0143
 21
151.913
 31
0.0
  0
LINE
  5
26B
330
1D
100
AcDbEntity
  8
0
100
AcDbLine
 10
26.0143
 20
151.913
 30
0.0
 11
26.043
 21
152.478
 31
0.0
  0
LINE
  5
26C
330
1D
100
AcDbEntity
  8
0
100
AcDbLine
 10
26.1035
 20
-0.135
 30
0.0
 11
26.394
 21
-0.135
 31
0.0
  0
LINE
  5
26D
330
1D
100
AcDbEntity
  8
0
100
AcDbLine
 10
26.2839
 20
-0.135
 30
0.0
 11
26.5274
 21
-0.135
 31
0.0
  0
LINE
  5
26E
330
1D
100
AcDbEntity
  8
0
100
AcDbLine
 10
26.1883
 20
2.148
 30
0.0
 11
27.3279
 21
2.148
 31
0.0
  0
LINE
  5
26F
330
1D
100
AcDbEntity
  8
0
100
AcDbLine
 10
26.08
 20
-0.135
 30
0.0
 11
26.9476
 21
-0.135
 31
0.0
  0
LINE
  5
270
330
1D
100
AcDbEntity
  8
0
100
AcDbLine
 10
26.3567
 20
-0.135
 30
0.0
 11
26.9069
 21
-0.135
 31
0.0
  0
LINE
  5
271
330
1D
100
AcDbEntity
  8
0
100
AcDbLine
 10
26.3219
 20
-0.135
 30
0.0
 11
27.0329
 21
-0.135
 31
0.0
  0
LINE
  5
272
330
1D
100
AcDbEntity
  8
0
100
AcDbLine
 10
27.0329
 20
-0.135
 30
0.0
 11
27.6961
 21
-0.135
 31
0.0
  0
LINE
  5
273
330
1D
100
AcDbEntity
  8
0
100
AcDbLine
 10
27.2889
 20
-0.135
 30
0.0
 11
28.0974
 21
-0.135
 31
0.0
  0
LINE
  5
274
330
1D
100
AcDbEntity
  8
0
100
AcDbLine
 10
27.2526
 20
-0.135
 30
0.0
 11
28.0992
 21
-0.135
 31
0.0
  0
LINE
  5
275
330
1D
100
AcDbEntity
  8
0
100
AcDbLine
 10
26.394
 20
-0.135
 30
0.0
 11
26.603
 21
-0.135
 31
0.0
  0
LINE
  5
276
330
1D
100
AcDbEntity
  8
0
100
AcDbLine
 10
26.603
 20
-0.135
 30
0.0
 11
26.7233
 21
-0.135
 31
0.0
  0
LINE
  5
277
330
1D
100
AcDbEntity
  8
0
100
AcDbLine
 10
26.6849
 20
-0.135
 30
0.0
 11
26.7509
 21
-0.135
 31
0.0
  0
LINE
  5
278
330
1D
100
AcDbEntity
  8
0
100
AcDbLine
 10
26.5274
 20
-0.135
 30
0.0
 11
26.6849
 21
-0.135
 31
0.0
  0
LINE
  5
279
330
1D
100
AcDbEntity
  8
0
100
AcDbLine
 10
26.7397
 20
-0.135
 30
0.0
 11
27.2467
 21
-0.135
 31
0.0
  0
LINE
  5
27A
330
1D
100
AcDbEntity
  8
0
100
AcDbLine
 10
26.9069
 20
-0.135
 30
0.0
 11
27.3921
 21
-0.135
 31
0.0
  0
LINE
  5
27B
330
1D
100
AcDbEntity
  8
0
100
AcDbLine
 10
26.9476
 20
-0.135
 30
0.0
 11
27.7756
 21
-0.135
 31
0.0
  0
LINE
  5
27C
330
1D
100
AcDbEntity
  8
0
100
AcDbLine
 10
27.2467
 20
-0.135
 30
0.0
 11
27.6811
 21
-0.135
 31
0.0
  0
LINE
  5
27D
330
1D
100
AcDbEntity
  8
0
100
AcDbLine
 10
27.3921
 20
-0.135
 30
0.0
 11
27.8016
 21
-0.135
 31
0.0
  0
LINE
  5
27E
330
1D
100
AcDbEntity
  8
0
100
AcDbLine
 10
27.1765
 20
-0.135
 30
0.0
 11
28.0272
 21
-0.135
 31
0.0
  0
LINE
  5
27F
330
1D
100
AcDbEntity
  8
0
100
AcDbLine
 10
27.4657
 20
1.365
 30
0.0
 11
28.2669
 21
1.365
 31
0.0
  0
LINE
  5
280
330
1D
100
AcDbEntity
  8
0
100
AcDbLine
 10
27.6811
 20
-0.135
 30
0.0
 11
28.0333
 21
-0.135
 31
0.0
  0
LINE
  5
281
330
1D
100
AcDbEntity
  8
0
100
AcDbLine
 10
27.6692
 20
-0.135
 30
0.0
 11
28.2767
 21
-0.135
 31
0.0
  0
LINE
  5
282
330
1D
100
AcDbEntity
  8
0
100
AcDbLine
 10
27.6961
 20
-0.135
 30
0.0
 11
28.301
 21
-0.135
 31
0.0
  0
LINE
  5
283
330
1D
100
AcDbEntity
  8
0
100
AcDbLine
 10
28.0333
 20
-0.135
 30
0.0
 11
28.2955
 21
-0.135
 31
0.0
  0
LINE
  5
284
330
1D
100
AcDbEntity
  8
0
100
AcDbLine
 10
27.8016
 20
-0.135
 30
0.0
 11
28.1262
 21
-0.135
 31
0.0
  0
LINE
  5
285
330
1D
100
AcDbEntity
  8
0
100
AcDbLine
 10
27.7756
 20
-0.135
 30
0.0
 11
28.5523
 21
-0.135
 31
0.0
  0
LINE
  5
286
330
1D
100
AcDbEntity
  8
0
100
AcDbLine
 10
28.0272
 20
-0.135
 30
0.0
 11
28.8273
 21
-0.135
 31
0.0
  0
LINE
  5
287
330
1D
100
AcDbEntity
  8
0
100
AcDbLine
 10
26.4359
 20
-0.135
 30
0.0
 11
27.2889
 21
-0.135
 31
0.0
  0
LINE
  5
288
330
1D
100
AcDbEntity
  8
0
100
AcDbLine
 10
26.3649
 20
-0.135
 30
0.0
 11
27.2526
 21
-0.135
 31
0.0
  0
LINE
  5
289
330
1D
100
AcDbEntity
  8
0
100
AcDbLine
 10
27.3279
 20
2.148
 30
0.0
 11
28.4361
 21
2.148
 31
0.0
  0
LINE
  5
28A
330
1D
100
AcDbEntity
  8
0
100
AcDbLine
 10
27.3303
 20
1.715
 30
0.0
 11
28.3032
 21
1.715
 31
0.0
  0
LINE
  5
28B
330
1D
100
AcDbEntity
  8
0
100
AcDbLine
 10
26.3209
 20
1.715
 30
0.0
 11
27.3303
 21
1.715
 31
0.0
  0
LINE
  5
28C
330
1D
100
AcDbEntity
  8
0
100
AcDbLine
 10
26.6301
 20
1.365
 30
0.0
 11
27.4657
 21
1.365
 31
0.0
  0
LINE
  5
28D
330
1D
100
AcDbEntity
  8
0
100
AcDbLine
 10
26.2859
 20
-0.135
 30
0.0
 11
27.1765
 21
-0.135
 31
0.0
  0
LINE
  5
28E
330
1D
100
AcDbEntity
  8
0
100
AcDbLine
 10
26.8174
 20
9.815
 30
0.0
 11
28.0425
 21
9.815
 31
0.0
  0
LINE
  5
28F
330
1D
100
AcDbEntity
  8
0
100
AcDbLine
 10
28.0974
 20
-0.135
 30
0.0
 11
28.8503
 21
-0.135
 31
0.0
  0
LINE
  5
290
330
1D
100
AcDbEntity
  8
0
100
AcDbLine
 10
28.1262
 20
-0.135
 30
0.0
 11
28.3585
 21
-0.135
 31
0.0
  0
LINE
  5
291
330
1D
100
AcDbEntity
  8
0
100
AcDbLine
 10
28.2955
 20
-0.135
 30
0.0
 11
28.4616
 21
-0.135
 31
0.0
  0
LINE
  5
292
330
1D
100
AcDbEntity
  8
0
100
AcDbLine
 10
28.2767
 20
-0.135
 30
0.0
 11
28.8169
 21
-0.135
 31
0.0
  0
LINE
  5
293
330
1D
100
AcDbEntity
  8
0
100
AcDbLine
 10
28.301
 20
-0.135
 30
0.0
 11
28.8382
 21
-0.135
 31
0.0
  0
LINE
  5
294
330
1D
100
AcDbEntity
  8
0
100
AcDbLine
 10
28.3032
 20
1.715
 30
0.0
 11
29.229
 21
1.715
 31
0.0
  0
LINE
  5
295
330
1D
100
AcDbEntity
  8
0
100
AcDbLine
 10
28.2669
 20
1.365
 30
0.0
 11
29.0772
 21
1.365
 31
0.0
  0
LINE
  5
296
330
1D
100
AcDbEntity
  8
0
100
AcDbLine
 10
28.0992
 20
-0.135
 30
0.0
 11
28.8944
 21
-0.135
 31
0.0
  0
LINE
  5
297
330
1D
100
AcDbEntity
  8
0
100
AcDbLine
 10
28.0425
 20
9.815
 30
0.0
 11
29.2239
 21
9.815
 31
0.0
  0
LINE
  5
298
330
1D
100
AcDbEntity
  8
0
100
AcDbLine
 10
27.1006
 20
9.815
 30
0.0
 11
28.3308
 21
9.815
 31
0.0
  0
LINE
  5
299
330
1D
100
AcDbEntity
  8
0
100
AcDbLine
 10
28.4616
 20
-0.135
 30
0.0
 11
28.5282
 21
-0.135
 31
0.0
  0
LINE
  5
29A
330
1D
100
AcDbEntity
  8
0
100
AcDbLine
 10
28.3585
 20
-0.135
 30
0.0
 11
28.4935
 21
-0.135
 31
0.0
  0
LINE
  5
29B
330
1D
100
AcDbEntity
  8
0
100
AcDbLine
 10
28.8169
 20
-0.135
 30
0.0
 11
29.281
 21
-0.135
 31
0.0
  0
LINE
  5
29C
330
1D
100
AcDbEntity
  8
0
100
AcDbLine
 10
28.4361
 20
2.148
 30
0.0
 11
29.5017
 21
2.148
 31
0.0
  0
LINE
  5
29D
330
1D
100
AcDbEntity
  8
0
100
AcDbLine
 10
28.5523
 20
-0.135
 30
0.0
 11
29.2674
 21
-0.135
 31
0.0
  0
LINE
  5
29E
330
1D
100
AcDbEntity
  8
0
100
AcDbLine
 10
28.8382
 20
-0.135
 30
0.0
 11
29.299
 21
-0.135
 31
0.0
  0
LINE
  5
29F
330
1D
100
AcDbEntity
  8
0
100
AcDbLine
 10
28.8273
 20
-0.135
 30
0.0
 11
29.5666
 21
-0.135
 31
0.0
  0
LINE
  5
2A0
330
1D
100
AcDbEntity
  8
0
100
AcDbLine
 10
28.8503
 20
-0.135
 30
0.0
 11
29.5378
 21
-0.135
 31
0.0
  0
LINE
  5
2A1
330
1D
100
AcDbEntity
  8
0
100
AcDbLine
 10
29.5378
 20
-0.135
 30
0.0
 11
30.1504
 21
-0.135
 31
0.0
  0
LINE
  5
2A2
330
1D
100
AcDbEntity
  8
0
100
AcDbLine
 10
30.2907
 20
-0.135
 30
0.0
 11
30.8744
 21
-0.135
 31
0.0
  0
LINE
  5
2A3
330
1D
100
AcDbEntity
  8
0
100
AcDbLine
 10
29.6619
 20
-0.135
 30
0.0
 11
29.9535
 21
-0.135
 31
0.0
  0
LINE
  5
2A4
330
1D
100
AcDbEntity
  8
0
100
AcDbLine
 10
29.281
 20
-0.135
 30
0.0
 11
29.6619
 21
-0.135
 31
0.0
  0
LINE
  5
2A5
330
1D
100
AcDbEntity
  8
0
100
AcDbLine
 10
29.9535
 20
-0.135
 30
0.0
 11
30.1512
 21
-0.135
 31
0.0
  0
LINE
  5
2A6
330
1D
100
AcDbEntity
  8
0
100
AcDbLine
 10
29.9639
 20
-0.135
 30
0.0
 11
30.1574
 21
-0.135
 31
0.0
  0
LINE
  5
2A7
330
1D
100
AcDbEntity
  8
0
100
AcDbLine
 10
29.6762
 20
-0.135
 30
0.0
 11
29.9639
 21
-0.135
 31
0.0
  0
LINE
  5
2A8
330
1D
100
AcDbEntity
  8
0
100
AcDbLine
 10
29.299
 20
-0.135
 30
0.0
 11
29.6762
 21
-0.135
 31
0.0
  0
LINE
  5
2A9
330
1D
100
AcDbEntity
  8
0
100
AcDbLine
 10
29.2674
 20
-0.135
 30
0.0
 11
29.9114
 21
-0.135
 31
0.0
  0
LINE
  5
2AA
330
1D
100
AcDbEntity
  8
0
100
AcDbLine
 10
29.9114
 20
-0.135
 30
0.0
 11
30.4756
 21
-0.135
 31
0.0
  0
LINE
  5
2AB
330
1D
100
AcDbEntity
  8
0
100
AcDbLine
 10
30.1512
 20
-0.135
 30
0.0
 11
30.252
 21
-0.135
 31
0.0
  0
LINE
  5
2AC
330
1D
100
AcDbEntity
  8
0
100
AcDbLine
 10
30.1574
 20
-0.135
 30
0.0
 11
30.254
 21
-0.135
 31
0.0
  0
LINE
  5
2AD
330
1D
100
AcDbEntity
  8
0
100
AcDbLine
 10
30.1504
 20
-0.135
 30
0.0
 11
30.6798
 21
-0.135
 31
0.0
  0
LINE
  5
2AE
330
1D
100
AcDbEntity
  8
0
100
AcDbLine
 10
29.4719
 20
1.365
 30
0.0
 11
29.5969
 21
1.365
 31
0.0
  0
LINE
  5
2AF
330
1D
100
AcDbEntity
  8
0
100
AcDbLine
 10
29.5017
 20
2.148
 30
0.0
 11
30.5149
 21
2.148
 31
0.0
  0
LINE
  5
2B0
330
1D
100
AcDbEntity
  8
0
100
AcDbLine
 10
29.229
 20
1.715
 30
0.0
 11
30.0975
 21
1.715
 31
0.0
  0
LINE
  5
2BA
330
1D
100
AcDbEntity
  8
0
100
AcDbLine
 10
29.0772
 20
1.365
 30
0.0
 11
29.8294
 21
1.365
 31
0.0
  0
LINE
  5
2BB
330
1D
100
AcDbEntity
  8
0
100
AcDbLine
 10
30.0975
 20
1.715
 30
0.0
 11
30.8991
 21
1.715
 31
0.0
  0
LINE
  5
2BC
330
1D
100
AcDbEntity
  8
0
100
AcDbLine
 10
29.8294
 20
1.365
 30
0.0
 11
30.5147
 21
1.365
 31
0.0
  0
LINE
  5
2BD
330
1D
100
AcDbEntity
  8
0
100
AcDbLine
 10
29.5666
 20
-0.135
 30
0.0
 11
30.2359
 21
-0.135
 31
0.0
  0
LINE
  5
2BE
330
1D
100
AcDbEntity
  8
0
100
AcDbLine
 10
30.4756
 20
-0.135
 30
0.0
 11
30.952
 21
-0.135
 31
0.0
  0
LINE
  5
2C0
330
1D
100
AcDbEntity
  8
0
100
AcDbLine
 10
30.5149
 20
2.148
 30
0.0
 11
31.4661
 21
2.148
 31
0.0
  0
LINE
  5
2C1
330
1D
100
AcDbEntity
  8
0
100
AcDbLine
 10
30.5147
 20
1.365
 30
0.0
 11
31.1255
 21
1.365
 31
0.0
  0
LINE
  5
2C2
330
1D
100
AcDbEntity
  8
0
100
AcDbLine
 10
30.2359
 20
-0.135
 30
0.0
 11
30.8268
 21
-0.135
 31
0.0
  0
LINE
  5
2C3
330
1D
100
AcDbEntity
  8
0
100
AcDbLine
 10
29.6279
 20
-0.135
 30
0.0
 11
30.2907
 21
-0.135
 31
0.0
  0
LINE
  5
2C4
330
1D
100
AcDbEntity
  8
0
100
AcDbLine
 10
28.8944
 20
-0.135
 30
0.0
 11
29.6279
 21
-0.135
 31
0.0
  0
LINE
  5
2C5
330
1D
100
AcDbEntity
  8
0
100
AcDbLine
 10
30.3474
 20
9.815
 30
0.0
 11
31.402
 21
9.815
 31
0.0
  0
LINE
  5
2C6
330
1D
100
AcDbEntity
  8
0
100
AcDbLine
 10
31.1188
 20
-0.135
 30
0.0
 11
31.4615
 21
-0.135
 31
0.0
  0
LINE
  5
2C7
330
1D
100
AcDbEntity
  8
0
100
AcDbLine
 10
30.6798
 20
-0.135
 30
0.0
 11
31.1188
 21
-0.135
 31
0.0
  0
LINE
  5
2C8
330
1D
100
AcDbEntity
  8
0
100
AcDbLine
 10
31.3717
 20
-0.135
 30
0.0
 11
31.7764
 21
-0.135
 31
0.0
  0
LINE
  5
2C9
330
1D
100
AcDbEntity
  8
0
100
AcDbLine
 10
30.952
 20
-0.135
 30
0.0
 11
31.3345
 21
-0.135
 31
0.0
  0
LINE
  5
2CC
330
1D
100
AcDbEntity
  8
0
100
AcDbLine
 10
30.8991
 20
1.715
 30
0.0
 11
31.6252
 21
1.715
 31
0.0
  0
LINE
  5
2D2
330
1D
100
AcDbEntity
  8
0
100
AcDbLine
 10
31.2397
 20
1.365
 30
0.0
 11
31.3647
 21
1.365
 31
0.0
  0
LINE
  5
2D3
330
1D
100
AcDbEntity
  8
0
100
AcDbLine
 10
31.1255
 20
1.365
 30
0.0
 11
31.6545
 21
1.365
 31
0.0
  0
LINE
  5
2D4
330
1D
100
AcDbEntity
  8
0
100
AcDbLine
 10
30.8268
 20
-0.135
 30
0.0
 11
31.3319
 21
-0.135
 31
0.0
  0
LINE
  5
2D5
330
1D
100
AcDbEntity
  8
0
100
AcDbLine
 10
31.3345
 20
-0.135
 30
0.0
 11
31.6178
 21
-0.135
 31
0.0
  0
LINE
  5
2D6
330
1D
100
AcDbEntity
  8
0
100
AcDbLine
 10
31.3319
 20
-0.135
 30
0.0
 11
31.7449
 21
-0.135
 31
0.0
  0
LINE
  5
2D7
330
1D
100
AcDbEntity
  8
0
100
AcDbLine
 10
30.8744
 20
-0.135
 30
0.0
 11
31.3717
 21
-0.135
 31
0.0
  0
LINE
  5
2D8
330
1D
100
AcDbEntity
  8
0
100
AcDbLine
 10
31.4615
 20
-0.135
 30
0.0
 11
31.7034
 21
-0.135
 31
0.0
  0
LINE
  5
2D9
330
1D
100
AcDbEntity
  8
0
100
AcDbLine
 10
31.7034
 20
-0.135
 30
0.0
 11
31.8411
 21
-0.135
 31
0.0
  0
LINE
  5
2DA
330
1D
100
AcDbEntity
  8
0
100
AcDbLine
 10
31.6178
 20
-0.135
 30
0.0
 11
31.7981
 21
-0.135
 31
0.0
  0
LINE
  5
2DB
330
1D
100
AcDbEntity
  8
0
100
AcDbLine
 10
31.7981
 20
-0.135
 30
0.0
 11
31.8729
 21
-0.135
 31
0.0
  0
LINE
  5
2DC
330
1D
100
AcDbEntity
  8
0
100
AcDbLine
 10
31.7449
 20
-0.135
 30
0.0
 11
32.0603
 21
-0.135
 31
0.0
  0
LINE
  5
2DD
330
1D
100
AcDbEntity
  8
0
100
AcDbLine
 10
31.6252
 20
1.715
 30
0.0
 11
32.2677
 21
1.715
 31
0.0
  0
LINE
  5
2DE
330
1D
100
AcDbEntity
  8
0
100
AcDbLine
 10
31.4661
 20
2.148
 30
0.0
 11
32.3463
 21
2.148
 31
0.0
  0
LINE
  5
2E1
330
1D
100
AcDbEntity
  8
0
100
AcDbLine
 10
31.6545
 20
1.365
 30
0.0
 11
32.0959
 21
1.365
 31
0.0
  0
LINE
  5
2E2
330
1D
100
AcDbEntity
  8
0
100
AcDbLine
 10
32.0603
 20
-0.135
 30
0.0
 11
32.2743
 21
-0.135
 31
0.0
  0
LINE
  5
2E3
330
1D
100
AcDbEntity
  8
0
100
AcDbLine
 10
32.3891
 20
-0.135
 30
0.0
 11
32.9
 21
1.365
 31
0.0
  0
LINE
  5
2E4
330
1D
100
AcDbEntity
  8
0
100
AcDbLine
 10
32.2743
 20
-0.135
 30
0.0
 11
32.3845
 21
-0.135
 31
0.0
  0
LINE
  5
2E5
330
1D
100
AcDbEntity
  8
0
100
AcDbLine
 10
32.3463
 20
2.148
 30
0.0
 11
33.1471
 21
2.148
 31
0.0
  0
LINE
  5
2E6
330
1D
100
AcDbEntity
  8
0
100
AcDbLine
 10
32.2677
 20
1.715
 30
0.0
 11
32.8196
 21
1.715
 31
0.0
  0
LINE
  5
2E7
330
1D
100
AcDbEntity
  8
0
100
AcDbLine
 10
32.0959
 20
1.365
 30
0.0
 11
32.4447
 21
1.365
 31
0.0
  0
LINE
  5
2E8
330
1D
100
AcDbEntity
  8
0
100
AcDbLine
 10
32.4447
 20
1.365
 30
0.0
 11
32.6967
 21
1.365
 31
0.0
  0
LINE
  5
2E9
330
1D
100
AcDbEntity
  8
0
100
AcDbLine
 10
32.9
 20
1.365
 30
0.0
 11
32.9885
 21
1.365
 31
0.0
  0
LINE
  5
2EA
330
1D
100
AcDbEntity
  8
0
100
AcDbLine
 10
32.9885
 20
1.365
 30
0.0
 11
33.1653
 21
1.365
 31
0.0
  0
LINE
  5
2EB
330
1D
100
AcDbEntity
  8
0
100
AcDbLine
 10
33.2406
 20
1.365
 30
0.0
 11
33.2905
 21
1.378
 31
0.0
  0
LINE
  5
2EC
330
1D
100
AcDbEntity
  8
0
100
AcDbLine
 10
33.1653
 20
1.365
 30
0.0
 11
33.2406
 21
1.365
 31
0.0
  0
LINE
  5
2EE
330
1D
100
AcDbEntity
  8
0
100
AcDbLine
 10
32.9884
 20
1.365
 30
0.0
 11
33.1653
 21
1.365
 31
0.0
  0
LINE
  5
2F0
330
1D
100
AcDbEntity
  8
0
100
AcDbLine
 10
32.6967
 20
1.365
 30
0.0
 11
32.8491
 21
1.365
 31
0.0
  0
LINE
  5
2F1
330
1D
100
AcDbEntity
  8
0
100
AcDbLine
 10
32.8196
 20
1.715
 30
0.0
 11
33.2752
 21
1.715
 31
0.0
  0
LINE
  5
2F3
330
1D
100
AcDbEntity
  8
0
100
AcDbLine
 10
33.1471
 20
2.148
 30
0.0
 11
33.8607
 21
2.148
 31
0.0
  0
LINE
  5
2F7
330
1D
100
AcDbEntity
  8
0
100
AcDbLine
 10
32.8491
 20
1.365
 30
0.0
 11
32.9
 21
1.365
 31
0.0
  0
LINE
  5
2F8
330
1D
100
AcDbEntity
  8
0
100
AcDbLine
 10
32.3891
 20
-0.135
 30
0.0
 11
32.9
 21
1.365
 31
0.0
  0
LINE
  5
2F9
330
1D
100
AcDbEntity
  8
0
100
AcDbLine
 10
32.288
 20
-0.135
 30
0.0
 11
32.3891
 21
-0.135
 31
0.0
  0
LINE
  5
2FA
330
1D
100
AcDbEntity
  8
0
100
AcDbLine
 10
32.083
 20
-0.135
 30
0.0
 11
32.288
 21
-0.135
 31
0.0
  0
LINE
  5
2FB
330
1D
100
AcDbEntity
  8
0
100
AcDbLine
 10
31.7764
 20
-0.135
 30
0.0
 11
32.083
 21
-0.135
 31
0.0
  0
LINE
  5
2FC
330
1D
100
AcDbEntity
  8
0
100
AcDbLine
 10
31.402
 20
9.815
 30
0.0
 11
32.3752
 21
9.815
 31
0.0
  0
LINE
  5
2FD
330
1D
100
AcDbEntity
  8
0
100
AcDbLine
 10
31.7063
 20
9.815
 30
0.0
 11
32.688
 21
9.815
 31
0.0
  0
LINE
  5
2FE
330
1D
100
AcDbEntity
  8
0
100
AcDbLine
 10
30.6455
 20
9.815
 30
0.0
 11
31.7063
 21
9.815
 31
0.0
  0
LINE
  5
2FF
330
1D
100
AcDbEntity
  8
0
100
AcDbLine
 10
29.2239
 20
9.815
 30
0.0
 11
30.3474
 21
9.815
 31
0.0
  0
LINE
  5
300
330
1D
100
AcDbEntity
  8
0
100
AcDbLine
 10
28.3308
 20
9.815
 30
0.0
 11
29.5165
 21
9.815
 31
0.0
  0
LINE
  5
301
330
1D
100
AcDbEntity
  8
0
100
AcDbLine
 10
32.3752
 20
9.815
 30
0.0
 11
33.2565
 21
9.815
 31
0.0
  0
LINE
  5
303
330
1D
100
AcDbEntity
  8
0
100
AcDbLine
 10
33.3407
 20
1.465
 30
0.0
 11
33.3407
 21
1.715
 31
0.0
  0
LINE
  5
304
330
1D
100
AcDbEntity
  8
0
100
AcDbLine
 10
33.4823
 20
1.715
 30
0.0
 11
33.7784
 21
1.715
 31
0.0
  0
LINE
  5
305
330
1D
100
AcDbEntity
  8
0
100
AcDbLine
 10
33.3407
 20
1.715
 30
0.0
 11
33.3407
 21
1.465
 31
0.0
  0
LINE
  5
306
330
1D
100
AcDbEntity
  8
0
100
AcDbLine
 10
33.2752
 20
1.715
 30
0.0
 11
33.6287
 21
1.715
 31
0.0
  0
LINE
  5
307
330
1D
100
AcDbEntity
  8
0
100
AcDbLine
 10
33.3407
 20
1.715
 30
0.0
 11
33.8848
 21
1.715
 31
0.0
  0
LINE
  5
308
330
1D
100
AcDbEntity
  8
0
100
AcDbLine
 10
33.3407
 20
1.715
 30
0.0
 11
33.4823
 21
1.715
 31
0.0
  0
LINE
  5
30B
330
1D
100
AcDbEntity
  8
0
100
AcDbLine
 10
33.2565
 20
9.815
 30
0.0
 11
34.0363
 21
9.815
 31
0.0
  0
LINE
  5
30C
330
1D
100
AcDbEntity
  8
0
100
AcDbLine
 10
32.688
 20
9.815
 30
0.0
 11
33.5804
 21
9.815
 31
0.0
  0
LINE
  5
30D
330
1D
100
AcDbEntity
  8
0
100
AcDbLine
 10
33.7784
 20
1.715
 30
0.0
 11
33.9674
 21
1.715
 31
0.0
  0
LINE
  5
30E
330
1D
100
AcDbEntity
  8
0
100
AcDbLine
 10
33.8771
 20
1.715
 30
0.0
 11
34.0171
 21
1.715
 31
0.0
  0
LINE
  5
30F
330
1D
100
AcDbEntity
  8
0
100
AcDbLine
 10
33.6287
 20
1.715
 30
0.0
 11
33.8771
 21
1.715
 31
0.0
  0
LINE
  5
310
330
1D
100
AcDbEntity
  8
0
100
AcDbLine
 10
33.9674
 20
1.715
 30
0.0
 11
34.0473
 21
1.715
 31
0.0
  0
LINE
  5
311
330
1D
100
AcDbEntity
  8
0
100
AcDbLine
 10
33.8848
 20
1.715
 30
0.0
 11
34.3521
 21
1.715
 31
0.0
  0
LINE
  5
312
330
1D
100
AcDbEntity
  8
0
100
AcDbLine
 10
33.8607
 20
2.148
 30
0.0
 11
34.4801
 21
2.148
 31
0.0
  0
LINE
  5
313
330
1D
100
AcDbEntity
  8
0
100
AcDbLine
 10
34.725
 20
1.715
 30
0.0
 11
35.0
 21
1.715
 31
0.0
  0
LINE
  5
314
330
1D
100
AcDbEntity
  8
0
100
AcDbLine
 10
34.3521
 20
1.715
 30
0.0
 11
34.725
 21
1.715
 31
0.0
  0
LINE
  5
315
330
1D
100
AcDbEntity
  8
0
100
AcDbLine
 10
34.4801
 20
2.148
 30
0.0
 11
34.9999
 21
2.148
 31
0.0
  0
LINE
  5
316
330
1D
100
AcDbEntity
  8
0
100
AcDbLine
 10
35.0
 20
5.515
 30
0.0
 11
35.3916
 21
5.515
 31
0.0
  0
LINE
  5
317
330
1D
100
AcDbEntity
  8
0
100
AcDbLine
 10
35.0
 20
5.515
 30
0.0
 11
35.3917
 21
5.515
 31
0.0
  0
LINE
  5
318
330
1D
100
AcDbEntity
  8
0
100
AcDbLine
 10
34.9999
 20
2.148
 30
0.0
 11
35.0001
 21
1.891
 31
0.0
  0
LINE
  5
319
330
1D
100
AcDbEntity
  8
0
100
AcDbLine
 10
35.0
 20
1.715
 30
0.0
 11
35.0001
 21
1.891
 31
0.0
  0
LINE
  5
31A
330
1D
100
AcDbEntity
  8
0
100
AcDbLine
 10
34.0363
 20
9.815
 30
0.0
 11
34.7064
 21
9.815
 31
0.0
  0
LINE
  5
31B
330
1D
100
AcDbEntity
  8
0
100
AcDbLine
 10
34.7064
 20
9.815
 30
0.0
 11
35.2591
 21
9.815
 31
0.0
  0
LINE
  5
31C
330
1D
100
AcDbEntity
  8
0
100
AcDbLine
 10
33.5804
 20
9.815
 30
0.0
 11
34.3747
 21
9.815
 31
0.0
  0
LINE
  5
31D
330
1D
100
AcDbEntity
  8
0
100
AcDbLine
 10
34.3747
 20
9.815
 30
0.0
 11
35.0627
 21
9.815
 31
0.0
  0
LINE
  5
31E
330
1D
100
AcDbEntity
  8
0
100
AcDbLine
 10
35.3917
 20
5.515
 30
0.0
 11
35.6883
 21
5.515
 31
0.0
  0
LINE
  5
31F
330
1D
100
AcDbEntity
  8
0
100
AcDbLine
 10
35.3916
 20
5.515
 30
0.0
 11
35.6883
 21
5.515
 31
0.0
  0
LINE
  5
320
330
1D
100
AcDbEntity
  8
0
100
AcDbLine
 10
35.2591
 20
9.815
 30
0.0
 11
35.6885
 21
9.815
 31
0.0
  0
LINE
  5
321
330
1D
100
AcDbEntity
  8
0
100
AcDbLine
 10
35.0627
 20
9.815
 30
0.0
 11
35.637
 21
9.815
 31
0.0
  0
LINE
  5
322
330
1D
100
AcDbEntity
  8
0
100
AcDbLine
 10
29.5165
 20
9.815
 30
0.0
 11
30.6455
 21
9.815
 31
0.0
  0
LINE
  5
323
330
1D
100
AcDbEntity
  8
0
100
AcDbLine
 10
35.9876
 20
5.515
 30
0.0
 11
35.998487234043
 21
9.815
 31
0.0
  0
LINE
  5
324
330
1D
100
AcDbEntity
  8
0
100
AcDbLine
 10
35.8875
 20
5.515
 30
0.0
 11
35.9876
 21
5.515
 31
0.0
  0
LINE
  5
325
330
1D
100
AcDbEntity
  8
0
100
AcDbLine
 10
35.6883
 20
5.515
 30
0.0
 11
35.8875
 21
5.515
 31
0.0
  0
LINE
  5
326
330
1D
100
AcDbEntity
  8
0
100
AcDbLine
 10
35.998487234043
 20
9.815
 30
0.0
 11
36.0998
 21
9.815
 31
0.0
  0
LINE
  5
327
330
1D
100
AcDbEntity
  8
0
100
AcDbLine
 10
35.6885
 20
9.815
 30
0.0
 11
35.9901
 21
9.815
 31
0.0
  0
LINE
  5
328
330
1D
100
AcDbEntity
  8
0
100
AcDbLine
 10
35.9901
 20
9.815
 30
0.0
 11
36.1598
 21
9.815
 31
0.0
  0
LINE
  5
329
330
1D
100
AcDbEntity
  8
0
100
AcDbLine
 10
36.6261
 20
9.815
 30
0.0
 11
36.6997
 21
9.815
 31
0.0
  0
LINE
  5
32A
330
1D
100
AcDbEntity
  8
0
100
AcDbLine
 10
36.1427
 20
9.815
 30
0.0
 11
36.4567
 21
9.815
 31
0.0
  0
LINE
  5
32B
330
1D
100
AcDbEntity
  8
0
100
AcDbLine
 10
36.0998
 20
9.815
 30
0.0
 11
36.1966
 21
9.815
 31
0.0
  0
LINE
  5
32C
330
1D
100
AcDbEntity
  8
0
100
AcDbLine
 10
36.4567
 20
9.815
 30
0.0
 11
36.6433
 21
9.815
 31
0.0
  0
LINE
  5
32D
330
1D
100
AcDbEntity
  8
0
100
AcDbLine
 10
36.6433
 20
9.815
 30
0.0
 11
36.6997
 21
9.815
 31
0.0
  0
LINE
  5
32E
330
1D
100
AcDbEntity
  8
0
100
AcDbLine
 10
36.5704
 20
15.815
 30
0.0
 11
36.6855
 21
15.815
 31
0.0
  0
LINE
  5
32F
330
1D
100
AcDbEntity
  8
0
100
AcDbLine
 10
36.6855
 20
15.815
 30
0.0
 11
36.6997
 21
9.815
 31
0.0
  0
LINE
  5
330
330
1D
100
AcDbEntity
  8
0
100
AcDbLine
 10
36.3413
 20
15.815
 30
0.0
 11
36.5704
 21
15.815
 31
0.0
  0
LINE
  5
331
330
1D
100
AcDbEntity
  8
0
100
AcDbLine
 10
36.4225
 20
9.815
 30
0.0
 11
36.6261
 21
9.815
 31
0.0
  0
LINE
  5
332
330
1D
100
AcDbEntity
  8
0
100
AcDbLine
 10
36.0916
 20
9.815
 30
0.0
 11
36.4225
 21
9.815
 31
0.0
  0
LINE
  5
333
330
1D
100
AcDbEntity
  8
0
100
AcDbLine
 10
35.998487234043
 20
9.815
 30
0.0
 11
36.1427
 21
9.815
 31
0.0
  0
LINE
  5
334
330
1D
100
AcDbEntity
  8
0
100
AcDbLine
 10
35.637
 20
9.815
 30
0.0
 11
36.0916
 21
9.815
 31
0.0
  0
LINE
  5
335
330
1D
100
AcDbEntity
  8
0
100
AcDbLine
 10
28.1645
 20
17.915
 30
0.0
 11
29.3455
 21
17.915
 31
0.0
  0
LINE
  5
336
330
1D
100
AcDbEntity
  8
0
100
AcDbLine
 10
26.9416
 20
17.915
 30
0.0
 11
28.1645
 21
17.915
 31
0.0
  0
LINE
  5
337
330
1D
100
AcDbEntity
  8
0
100
AcDbLine
 10
29.3455
 20
17.915
 30
0.0
 11
30.4728
 21
17.915
 31
0.0
  0
LINE
  5
338
330
1D
100
AcDbEntity
  8
0
100
AcDbLine
 10
30.4728
 20
17.915
 30
0.0
 11
31.5348
 21
17.915
 31
0.0
  0
LINE
  5
339
330
1D
100
AcDbEntity
  8
0
100
AcDbLine
 10
31.5348
 20
17.915
 30
0.0
 11
32.5209
 21
17.915
 31
0.0
  0
LINE
  5
33A
330
1D
100
AcDbEntity
  8
0
100
AcDbLine
 10
32.5209
 20
17.915
 30
0.0
 11
33.4218
 21
17.915
 31
0.0
  0
LINE
  5
33B
330
1D
100
AcDbEntity
  8
0
100
AcDbLine
 10
26.5671
 20
19.3147
 30
0.0
 11
27.7417
 21
19.3147
 31
0.0
  0
LINE
  5
33C
330
1D
100
AcDbEntity
  8
0
100
AcDbLine
 10
27.7417
 20
19.3147
 30
0.0
 11
28.8726
 21
19.3147
 31
0.0
  0
LINE
  5
33D
330
1D
100
AcDbEntity
  8
0
100
AcDbLine
 10
28.8726
 20
19.3147
 30
0.0
 11
29.9463
 21
19.3147
 31
0.0
  0
LINE
  5
33E
330
1D
100
AcDbEntity
  8
0
100
AcDbLine
 10
29.9463
 20
19.3147
 30
0.0
 11
30.9505
 21
19.3147
 31
0.0
  0
LINE
  5
33F
330
1D
100
AcDbEntity
  8
0
100
AcDbLine
 10
30.9505
 20
19.3147
 30
0.0
 11
31.873
 21
19.3147
 31
0.0
  0
LINE
  5
340
330
1D
100
AcDbEntity
  8
0
100
AcDbLine
 10
31.873
 20
19.3147
 30
0.0
 11
32.7034
 21
19.3147
 31
0.0
  0
LINE
  5
341
330
1D
100
AcDbEntity
  8
0
100
AcDbLine
 10
32.7034
 20
19.3147
 30
0.0
 11
33.4315
 21
19.3147
 31
0.0
  0
LINE
  5
342
330
1D
100
AcDbEntity
  8
0
100
AcDbLine
 10
33.4218
 20
17.915
 30
0.0
 11
34.2274
 21
17.915
 31
0.0
  0
LINE
  5
343
330
1D
100
AcDbEntity
  8
0
100
AcDbLine
 10
33.4315
 20
19.3147
 30
0.0
 11
34.0491
 21
19.3147
 31
0.0
  0
LINE
  5
344
330
1D
100
AcDbEntity
  8
0
100
AcDbLine
 10
30.08
 20
24.6659
 30
0.0
 11
32.0262
 21
24.6609
 31
0.0
  0
LINE
  5
345
330
1D
100
AcDbEntity
  8
0
100
AcDbLine
 10
27.9071
 20
24.6722
 30
0.0
 11
30.08
 21
24.6659
 31
0.0
  0
LINE
  5
346
330
1D
100
AcDbEntity
  8
0
100
AcDbLine
 10
26.3125
 20
141.773
 30
0.0
 11
26.4972
 21
141.797
 31
0.0
  0
LINE
  5
347
330
1D
100
AcDbEntity
  8
0
100
AcDbLine
 10
26.4318
 20
141.824
 30
0.0
 11
26.4972
 21
141.797
 31
0.0
  0
LINE
  5
348
330
1D
100
AcDbEntity
  8
0
100
AcDbLine
 10
26.2505
 20
141.848
 30
0.0
 11
26.4318
 21
141.824
 31
0.0
  0
LINE
  5
349
330
1D
100
AcDbEntity
  8
0
100
AcDbLine
 10
27.0258
 20
142.232
 30
0.0
 11
30.2277
 21
142.028
 31
0.0
  0
LINE
  5
34A
330
1D
100
AcDbEntity
  8
0
100
AcDbLine
 10
30.2277
 20
142.028
 30
0.0
 11
33.4444
 21
141.636
 31
0.0
  0
LINE
  5
34B
330
1D
100
AcDbEntity
  8
0
100
AcDbLine
 10
26.9607
 20
140.413
 30
0.0
 11
29.1981
 21
140.266
 31
0.0
  0
LINE
  5
34C
330
1D
100
AcDbEntity
  8
0
100
AcDbLine
 10
29.1981
 20
140.266
 30
0.0
 11
31.4282
 21
140.026
 31
0.0
  0
LINE
  5
34D
330
1D
100
AcDbEntity
  8
0
100
AcDbLine
 10
31.4282
 20
140.026
 30
0.0
 11
33.3173
 21
139.74
 31
0.0
  0
LINE
  5
34E
330
1D
100
AcDbEntity
  8
0
100
AcDbLine
 10
27.9871
 20
50.8406
 30
0.0
 11
31.9639
 21
51.1669
 31
0.0
  0
LINE
  5
34F
330
1D
100
AcDbEntity
  8
0
100
AcDbLine
 10
33.6858
 20
24.6576
 30
0.0
 11
34.8008
 21
24.6559
 31
0.0
  0
LINE
  5
350
330
1D
100
AcDbEntity
  8
0
100
AcDbLine
 10
32.0262
 20
24.6609
 30
0.0
 11
33.6858
 21
24.6576
 31
0.0
  0
LINE
  5
352
330
1D
100
AcDbEntity
  8
0
100
AcDbLine
 10
33.3173
 20
139.74
 30
0.0
 11
35.1921
 21
139.369
 31
0.0
  0
LINE
  5
353
330
1D
100
AcDbEntity
  8
0
100
AcDbLine
 10
31.9639
 20
51.1669
 30
0.0
 11
34.3976
 21
51.4844
 31
0.0
  0
LINE
  5
354
330
1D
100
AcDbEntity
  8
0
100
AcDbLine
 10
34.0491
 20
19.3147
 30
0.0
 11
34.5488
 21
19.3147
 31
0.0
  0
LINE
  5
355
330
1D
100
AcDbEntity
  8
0
100
AcDbLine
 10
34.2274
 20
17.915
 30
0.0
 11
34.9302
 21
17.915
 31
0.0
  0
LINE
  5
356
330
1D
100
AcDbEntity
  8
0
100
AcDbLine
 10
34.9302
 20
17.915
 30
0.0
 11
35.5232
 21
17.915
 31
0.0
  0
LINE
  5
357
330
1D
100
AcDbEntity
  8
0
100
AcDbLine
 10
34.8008
 20
24.6559
 30
0.0
 11
35.6524
 21
24.6549
 31
0.0
  0
LINE
  5
358
330
1D
100
AcDbEntity
  8
0
100
AcDbLine
 10
34.3976
 20
51.4844
 30
0.0
 11
35.5672
 21
51.7145
 31
0.0
  0
LINE
  5
359
330
1D
100
AcDbEntity
  8
0
100
AcDbLine
 10
34.5488
 20
19.3147
 30
0.0
 11
34.9252
 21
19.3147
 31
0.0
  0
LINE
  5
35A
330
1D
100
AcDbEntity
  8
0
100
AcDbLine
 10
35.1731
 20
19.3147
 30
0.0
 11
35.2902
 21
19.3147
 31
0.0
  0
LINE
  5
35C
330
1D
100
AcDbEntity
  8
0
100
AcDbLine
 10
35.2902
 20
24.652993566542
 30
0.0
 11
35.3485
 21
24.653
 31
0.0
  0
LINE
  5
35D
330
1D
100
AcDbEntity
  8
0
100
AcDbLine
 10
35.3485
 20
24.653
 30
0.0
 11
35.5874
 21
24.6533
 31
0.0
  0
LINE
  5
35E
330
1D
100
AcDbEntity
  8
0
100
AcDbLine
 10
35.2902
 20
24.65532531705
 30
0.0
 11
35.2902
 21
19.3147
 31
0.0
  0
LINE
  5
35F
330
1D
100
AcDbEntity
  8
0
100
AcDbLine
 10
35.2902
 20
19.3147
 30
0.0
 11
36.0
 21
18.614
 31
0.0
  0
LINE
  5
360
330
1D
100
AcDbEntity
  8
0
100
AcDbLine
 10
35.2902
 20
19.3147
 30
0.0
 11
35.2902
 21
24.65532531705
 31
0.0
  0
LINE
  5
361
330
1D
100
AcDbEntity
  8
0
100
AcDbLine
 10
34.9252
 20
19.3147
 30
0.0
 11
35.1731
 21
19.3147
 31
0.0
  0
LINE
  5
362
330
1D
100
AcDbEntity
  8
0
100
AcDbLine
 10
36.0
 20
17.915
 30
0.0
 11
36.0
 21
15.815
 31
0.0
  0
LINE
  5
363
330
1D
100
AcDbEntity
  8
0
100
AcDbLine
 10
36.0
 20
17.915
 30
0.0
 11
36.0
 21
18.238
 31
0.0
  0
LINE
  5
368
330
1D
100
AcDbEntity
  8
0
100
AcDbLine
 10
36.0
 20
18.457
 30
0.0
 11
36.0
 21
18.238
 31
0.0
  0
LINE
  5
369
330
1D
100
AcDbEntity
  8
0
100
AcDbLine
 10
36.0
 20
18.457
 30
0.0
 11
36.0
 21
18.581
 31
0.0
  0
LINE
  5
3D4
330
1D
100
AcDbEntity
  8
0
100
AcDbLine
 10
36.0
 20
18.581
 30
0.0
 11
36.0
 21
18.457
 31
0.0
  0
LINE
  5
3D5
330
1D
100
AcDbEntity
  8
0
100
AcDbLine
 10
36.0
 20
18.238
 30
0.0
 11
36.0
 21
17.915
 31
0.0
  0
LINE
  5
3D6
330
1D
100
AcDbEntity
  8
0
100
AcDbLine
 10
36.0
 20
18.238
 30
0.0
 11
36.0
 21
18.457
 31
0.0
  0
LINE
  5
3D7
330
1D
100
AcDbEntity
  8
0
100
AcDbLine
 10
35.5232
 20
17.915
 30
0.0
 11
36.0
 21
17.915
 31
0.0
  0
LINE
  5
3D8
330
1D
100
AcDbEntity
  8
0
100
AcDbLine
 10
36.0
 20
15.815
 30
0.0
 11
36.0
 21
17.915
 31
0.0
  0
LINE
  5
3D9
330
1D
100
AcDbEntity
  8
0
100
AcDbLine
 10
36.0
 20
15.815
 30
0.0
 11
36.3413
 21
15.815
 31
0.0
  0
LINE
  5
3DA
330
1D
100
AcDbEntity
  8
0
100
AcDbLine
 10
26.043
 20
152.478
 30
0.0
 11
26.0884
 21
153.062
 31
0.0
  0
LINE
  5
3DB
330
1D
100
AcDbEntity
  8
0
100
AcDbLine
 10
26.1386
 20
153.599
 30
0.0
 11
26.1914
 21
154.146
 31
0.0
  0
LINE
  5
3DC
330
1D
100
AcDbEntity
  8
0
100
AcDbLine
 10
26.1914
 20
154.146
 30
0.0
 11
26.2404
 21
154.7
 31
0.0
  0
LINE
  5
3DD
330
1D
100
AcDbEntity
  8
0
100
AcDbLine
 10
26.0884
 20
153.062
 30
0.0
 11
26.1386
 21
153.599
 31
0.0
  0
LINE
  5
3DE
330
1D
100
AcDbEntity
  8
0
100
AcDbLine
 10
26.0
 20
141.762507554561
 30
0.0
 11
26.0
 21
148.258
 31
0.0
  0
LINE
  5
3DF
330
1D
100
AcDbEntity
  8
0
100
AcDbLine
 10
26.2805
 20
155.268
 30
0.0
 11
26.2937
 21
155.458
 31
0.0
  0
LINE
  5
3E0
330
1D
100
AcDbEntity
  8
0
100
AcDbLine
 10
26.0636
 20
166.627
 30
0.0
 11
26.3904
 21
166.325
 31
0.0
  0
LINE
  5
3E1
330
1D
100
AcDbEntity
  8
0
100
AcDbLine
 10
26.0215
 20
166.656
 30
0.0
 11
26.0636
 21
166.627
 31
0.0
  0
LINE
  5
3E2
330
1D
100
AcDbEntity
  8
0
100
AcDbLine
 10
26.2888
 20
155.447
 30
0.0
 11
26.3432
 21
156.155
 31
0.0
  0
LINE
  5
3E3
330
1D
100
AcDbEntity
  8
0
100
AcDbLine
 10
26.3904
 20
166.325
 30
0.0
 11
26.5262
 21
166.122
 31
0.0
  0
LINE
  5
3E4
330
1D
100
AcDbEntity
  8
0
100
AcDbLine
 10
26.8174
 20
163.023
 30
0.0
 11
26.8436
 21
163.983
 31
0.0
  0
LINE
  5
3E5
330
1D
100
AcDbEntity
  8
0
100
AcDbLine
 10
26.5262
 20
166.122
 30
0.0
 11
26.6085
 21
165.892
 31
0.0
  0
LINE
  5
3E6
330
1D
100
AcDbEntity
  8
0
100
AcDbLine
 10
26.6085
 20
165.892
 30
0.0
 11
26.771
 21
164.946
 31
0.0
  0
LINE
  5
3E7
330
1D
100
AcDbEntity
  8
0
100
AcDbLine
 10
26.771
 20
164.946
 30
0.0
 11
26.8436
 21
163.983
 31
0.0
  0
LINE
  5
3E8
330
1D
100
AcDbEntity
  8
0
100
AcDbLine
 10
26.4693
 20
157.956
 30
0.0
 11
26.8174
 21
163.023
 31
0.0
  0
LINE
  5
3E9
330
1D
100
AcDbEntity
  8
0
100
AcDbLine
 10
26.3382
 20
156.164
 30
0.0
 11
26.4693
 21
157.956
 31
0.0
  0
LINE
  5
3EA
330
1D
100
AcDbEntity
  8
0
100
AcDbLine
 10
26.2937
 20
155.458
 30
0.0
 11
26.295771367763
 21
155.537730301027
 31
0.0
  0
LINE
  5
3EB
330
1D
100
AcDbEntity
  8
0
100
AcDbLine
 10
26.2404
 20
154.7
 30
0.0
 11
26.2805
 21
155.268
 31
0.0
  0
LINE
  5
3EC
330
1D
100
AcDbEntity
  8
0
100
AcDbLine
 10
25.9995
 20
148.47
 30
0.0
 11
26.0
 21
148.258
 31
0.0
  0
LINE
  5
3ED
330
1D
100
AcDbEntity
  8
0
100
AcDbLine
 10
25.9995
 20
148.47
 30
0.0
 11
25.9995
 21
148.624
 31
0.0
  0
LINE
  5
415
330
1D
100
AcDbEntity
  8
0
100
AcDbLine
 10
35.0
 20
5.515
 30
0.0
 11
35.000246022727
 21
2.148
 31
0.0
  0
LINE
  5
416
330
1D
100
AcDbEntity
  8
0
100
AcDbLine
 10
33.2905
 20
1.378
 30
0.0
 11
33.3407
 21
1.465
 31
0.0
  0
LINE
  5
417
330
1D
100
AcDbEntity
  8
0
100
AcDbLine
 10
45.8895
 20
85.6991
 30
0.0
 11
45.8473
 21
81.6198
 31
0.0
  0
LINE
  5
418
330
1D
100
AcDbEntity
  8
0
100
AcDbLine
 10
46.0684
 20
102.015
 30
0.0
 11
45.8405
 21
81.6185
 31
0.0
  0
LINE
  5
419
330
1D
100
AcDbEntity
  8
0
100
AcDbLine
 10
45.1515
 20
87.18
 30
0.0
 11
44.8902
 21
79.8312
 31
0.0
  0
LINE
  5
41A
330
1D
100
AcDbEntity
  8
0
100
AcDbLine
 10
45.339
 20
42.8131
 30
0.0
 11
45.3111
 21
41.0989
 31
0.0
  0
LINE
  5
41B
330
1D
100
AcDbEntity
  8
0
100
AcDbLine
 10
44.8313
 20
34.3035
 30
0.0
 11
44.7291
 21
33.7071
 31
0.0
  0
LINE
  5
41C
330
1D
100
AcDbEntity
  8
0
100
AcDbLine
 10
45.1178
 20
36.5364
 30
0.0
 11
44.8843
 21
34.7093
 31
0.0
  0
LINE
  5
41D
330
1D
100
AcDbEntity
  8
0
100
AcDbLine
 10
44.8843
 20
34.7093
 30
0.0
 11
44.8313
 21
34.3035
 31
0.0
  0
LINE
  5
41E
330
1D
100
AcDbEntity
  8
0
100
AcDbLine
 10
45.2446
 20
38.4733
 30
0.0
 11
45.1178
 21
36.5364
 31
0.0
  0
LINE
  5
41F
330
1D
100
AcDbEntity
  8
0
100
AcDbLine
 10
45.3111
 20
41.0989
 30
0.0
 11
45.2446
 21
38.4733
 31
0.0
  0
LINE
  5
420
330
1D
100
AcDbEntity
  8
0
100
AcDbLine
 10
44.7291
 20
33.7071
 30
0.0
 11
44.4859
 21
32.4205
 31
0.0
  0
LINE
  5
421
330
1D
100
AcDbEntity
  8
0
100
AcDbLine
 10
44.0236
 20
30.631
 30
0.0
 11
43.8061
 21
30.0754
 31
0.0
  0
LINE
  5
422
330
1D
100
AcDbEntity
  8
0
100
AcDbLine
 10
42.499
 20
27.4582
 30
0.0
 11
41.5446
 21
26.3492
 31
0.0
  0
LINE
  5
423
330
1D
100
AcDbEntity
  8
0
100
AcDbLine
 10
43.411
 20
29.1206
 30
0.0
 11
43.249
 21
28.6809
 31
0.0
  0
LINE
  5
424
330
1D
100
AcDbEntity
  8
0
100
AcDbLine
 10
43.249
 20
28.6809
 30
0.0
 11
42.499
 21
27.4582
 31
0.0
  0
LINE
  5
425
330
1D
100
AcDbEntity
  8
0
100
AcDbLine
 10
43.8061
 20
30.0754
 30
0.0
 11
43.411
 21
29.1206
 31
0.0
  0
LINE
  5
426
330
1D
100
AcDbEntity
  8
0
100
AcDbLine
 10
44.4859
 20
32.4205
 30
0.0
 11
44.3241
 21
31.7468
 31
0.0
  0
LINE
  5
427
330
1D
100
AcDbEntity
  8
0
100
AcDbLine
 10
44.3241
 20
31.7468
 30
0.0
 11
44.0236
 21
30.631
 31
0.0
  0
LINE
  5
428
330
1D
100
AcDbEntity
  8
0
100
AcDbLine
 10
40.6995
 20
25.7154
 30
0.0
 11
40.2442
 21
25.4364
 31
0.0
  0
LINE
  5
429
330
1D
100
AcDbEntity
  8
0
100
AcDbLine
 10
41.5446
 20
26.3492
 30
0.0
 11
40.6995
 21
25.7154
 31
0.0
  0
LINE
  5
42A
330
1D
100
AcDbEntity
  8
0
100
AcDbLine
 10
45.8473
 20
81.6198
 30
0.0
 11
45.6122
 21
62.2147
 31
0.0
  0
LINE
  5
42B
330
1D
100
AcDbEntity
  8
0
100
AcDbLine
 10
44.2021
 20
64.9474
 30
0.0
 11
44.0197
 21
62.4058
 31
0.0
  0
LINE
  5
42C
330
1D
100
AcDbEntity
  8
0
100
AcDbLine
 10
45.6122
 20
62.2147
 30
0.0
 11
45.3285
 21
42.8116
 31
0.0
  0
LINE
  5
42D
330
1D
100
AcDbEntity
  8
0
100
AcDbLine
 10
43.8668
 20
61.1354
 30
0.0
 11
43.5159
 21
59.3077
 31
0.0
  0
LINE
  5
42E
330
1D
100
AcDbEntity
  8
0
100
AcDbLine
 10
43.5159
 20
59.3077
 30
0.0
 11
42.9832
 21
57.6171
 31
0.0
  0
LINE
  5
42F
330
1D
100
AcDbEntity
  8
0
100
AcDbLine
 10
42.9832
 20
57.6171
 30
0.0
 11
42.6381
 21
56.8318
 31
0.0
  0
LINE
  5
430
330
1D
100
AcDbEntity
  8
0
100
AcDbLine
 10
42.6381
 20
56.8318
 30
0.0
 11
42.2388
 21
56.0952
 31
0.0
  0
LINE
  5
431
330
1D
100
AcDbEntity
  8
0
100
AcDbLine
 10
41.7896
 20
55.4171
 30
0.0
 11
41.2869
 21
54.7906
 31
0.0
  0
LINE
  5
432
330
1D
100
AcDbEntity
  8
0
100
AcDbLine
 10
42.2388
 20
56.0952
 30
0.0
 11
41.7896
 21
55.4171
 31
0.0
  0
LINE
  5
433
330
1D
100
AcDbEntity
  8
0
100
AcDbLine
 10
44.0197
 20
62.4058
 30
0.0
 11
43.8668
 21
61.1354
 31
0.0
  0
LINE
  5
434
330
1D
100
AcDbEntity
  8
0
100
AcDbLine
 10
41.2722
 20
54.7719
 30
0.0
 11
40.5313
 21
54.0419
 31
0.0
  0
LINE
  5
435
330
1D
100
AcDbEntity
  8
0
100
AcDbLine
 10
40.5313
 20
54.0419
 30
0.0
 11
39.6867
 21
53.3912
 31
0.0
  0
LINE
  5
436
330
1D
100
AcDbEntity
  8
0
100
AcDbLine
 10
44.5857
 20
72.4104
 30
0.0
 11
44.2021
 21
64.9474
 31
0.0
  0
LINE
  5
437
330
1D
100
AcDbEntity
  8
0
100
AcDbLine
 10
44.8902
 20
79.8312
 30
0.0
 11
44.5857
 21
72.4104
 31
0.0
  0
LINE
  5
438
330
1D
100
AcDbEntity
  8
0
100
AcDbLine
 10
48.0388
 20
127.553
 30
0.0
 11
47.9346
 21
124.424
 31
0.0
  0
LINE
  5
439
330
1D
100
AcDbEntity
  8
0
100
AcDbLine
 10
46.3644
 20
125.562
 30
0.0
 11
46.1051
 21
104.683
 31
0.0
  0
LINE
  5
43A
330
1D
100
AcDbEntity
  8
0
100
AcDbLine
 10
46.3316
 20
126.752
 30
0.0
 11
46.3228
 21
124.422
 31
0.0
  0
LINE
  5
43B
330
1D
100
AcDbEntity
  8
0
100
AcDbLine
 10
46.1051
 20
104.683
 30
0.0
 11
46.0684
 21
102.015
 31
0.0
  0
LINE
  5
43C
330
1D
100
AcDbEntity
  8
0
100
AcDbLine
 10
45.8532
 20
109.406
 30
0.0
 11
45.3785
 21
94.5212
 31
0.0
  0
LINE
  5
43D
330
1D
100
AcDbEntity
  8
0
100
AcDbLine
 10
45.927959003587
 20
89.445869752803
 30
0.0
 11
45.8895
 21
85.6991
 31
0.0
  0
LINE
  5
43E
330
1D
100
AcDbEntity
  8
0
100
AcDbLine
 10
45.927959003587
 20
89.445869752803
 30
0.0
 11
45.8895
 21
85.6991
 31
0.0
  0
LINE
  5
43F
330
1D
100
AcDbEntity
  8
0
100
AcDbLine
 10
45.3785
 20
94.5212
 30
0.0
 11
45.1515
 21
87.18
 31
0.0
  0
LINE
  5
440
330
1D
100
AcDbEntity
  8
0
100
AcDbLine
 10
47.6353
 20
120.522
 30
0.0
 11
47.1933
 21
117.413
 31
0.0
  0
LINE
  5
441
330
1D
100
AcDbEntity
  8
0
100
AcDbLine
 10
47.6353
 20
120.522
 30
0.0
 11
47.1933
 21
117.413
 31
0.0
  0
LINE
  5
447
330
1D
100
AcDbEntity
  8
0
100
AcDbLine
 10
47.1933
 20
117.413
 30
0.0
 11
46.5166
 21
114.347
 31
0.0
  0
LINE
  5
448
330
1D
100
AcDbEntity
  8
0
100
AcDbLine
 10
46.5166
 20
114.347
 30
0.0
 11
46.213020142551
 21
113.372798134716
 31
0.0
  0
LINE
  5
449
330
1D
100
AcDbEntity
  8
0
100
AcDbLine
 10
46.1969
 20
118.148
 30
0.0
 11
46.1053
 21
115.201
 31
0.0
  0
LINE
  5
44A
330
1D
100
AcDbEntity
  8
0
100
AcDbLine
 10
46.2718
 20
121.421
 30
0.0
 11
46.1969
 21
118.148
 31
0.0
  0
LINE
  5
44B
330
1D
100
AcDbEntity
  8
0
100
AcDbLine
 10
47.9346
 20
124.424
 30
0.0
 11
47.6353
 21
120.522
 31
0.0
  0
LINE
  5
44C
330
1D
100
AcDbEntity
  8
0
100
AcDbLine
 10
47.9346
 20
124.424
 30
0.0
 11
47.6353
 21
120.522
 31
0.0
  0
LINE
  5
44D
330
1D
100
AcDbEntity
  8
0
100
AcDbLine
 10
46.3228
 20
124.422
 30
0.0
 11
46.3167
 21
124.03
 31
0.0
  0
LINE
  5
44E
330
1D
100
AcDbEntity
  8
0
100
AcDbLine
 10
46.3167
 20
124.03
 30
0.0
 11
46.2718
 21
121.421
 31
0.0
  0
LINE
  5
44F
330
1D
100
AcDbEntity
  8
0
100
AcDbLine
 10
45.8714
 20
109.315
 30
0.0
 11
45.778717976711
 21
107.070524920475
 31
0.0
  0
LINE
  5
450
330
1D
100
AcDbEntity
  8
0
100
AcDbLine
 10
45.9939
 20
112.261
 30
0.0
 11
45.8714
 21
109.315
 31
0.0
  0
LINE
  5
451
330
1D
100
AcDbEntity
  8
0
100
AcDbLine
 10
46.1053
 20
115.201
 30
0.0
 11
45.9939
 21
112.261
 31
0.0
  0
LINE
  5
452
330
1D
100
AcDbEntity
  8
0
100
AcDbLine
 10
46.8218
 20
134.975
 30
0.0
 11
46.2534
 21
135.867
 31
0.0
  0
LINE
  5
453
330
1D
100
AcDbEntity
  8
0
100
AcDbLine
 10
43.3037
 20
135.752
 30
0.0
 11
42.4843
 21
136.447
 31
0.0
  0
LINE
  5
454
330
1D
100
AcDbEntity
  8
0
100
AcDbLine
 10
48.0211
 20
130.248
 30
0.0
 11
47.8801
 21
131.696
 31
0.0
  0
LINE
  5
455
330
1D
100
AcDbEntity
  8
0
100
AcDbLine
 10
48.0211
 20
130.248
 30
0.0
 11
47.8801
 21
131.696
 31
0.0
  0
LINE
  5
458
330
1D
100
AcDbEntity
  8
0
100
AcDbLine
 10
46.0692
 20
130.283
 30
0.0
 11
45.8614
 21
131.267
 31
0.0
  0
LINE
  5
459
330
1D
100
AcDbEntity
  8
0
100
AcDbLine
 10
48.0388
 20
127.553
 30
0.0
 11
48.0211
 21
130.248
 31
0.0
  0
LINE
  5
45B
330
1D
100
AcDbEntity
  8
0
100
AcDbLine
 10
46.3209
 20
127.219
 30
0.0
 11
46.290259913606
 21
127.787867153342
 31
0.0
  0
LINE
  5
45C
330
1D
100
AcDbEntity
  8
0
100
AcDbLine
 10
46.3209
 20
127.219
 30
0.0
 11
46.319716185379
 21
127.049775217623
 31
0.0
  0
LINE
  5
45D
330
1D
100
AcDbEntity
  8
0
100
AcDbLine
 10
46.286149252061
 20
127.864186139582
 30
0.0
 11
46.2135
 21
129.213
 31
0.0
  0
LINE
  5
45E
330
1D
100
AcDbEntity
  8
0
100
AcDbLine
 10
46.2135
 20
129.213
 30
0.0
 11
46.0692
 21
130.283
 31
0.0
  0
LINE
  5
460
330
1D
100
AcDbEntity
  8
0
100
AcDbLine
 10
46.3316
 20
126.752
 30
0.0
 11
46.2879
 21
127.847
 31
0.0
  0
LINE
  5
461
330
1D
100
AcDbEntity
  8
0
100
AcDbLine
 10
47.8801
 20
131.696
 30
0.0
 11
47.6445
 21
132.875
 31
0.0
  0
LINE
  5
462
330
1D
100
AcDbEntity
  8
0
100
AcDbLine
 10
47.8801
 20
131.696
 30
0.0
 11
47.6445
 21
132.875
 31
0.0
  0
LINE
  5
463
330
1D
100
AcDbEntity
  8
0
100
AcDbLine
 10
47.6445
 20
132.875
 30
0.0
 11
47.2737
 21
134.018
 31
0.0
  0
LINE
  5
464
330
1D
100
AcDbEntity
  8
0
100
AcDbLine
 10
47.2737
 20
134.018
 30
0.0
 11
46.8218
 21
134.975
 31
0.0
  0
LINE
  5
465
330
1D
100
AcDbEntity
  8
0
100
AcDbLine
 10
45.8614
 20
131.267
 30
0.0
 11
45.5669
 21
132.239
 31
0.0
  0
LINE
  5
467
330
1D
100
AcDbEntity
  8
0
100
AcDbLine
 10
45.5669
 20
132.239
 30
0.0
 11
45.2569
 21
133.006
 31
0.0
  0
LINE
  5
468
330
1D
100
AcDbEntity
  8
0
100
AcDbLine
 10
45.2569
 20
133.006
 30
0.0
 11
44.8768
 21
133.749
 31
0.0
  0
LINE
  5
469
330
1D
100
AcDbEntity
  8
0
100
AcDbLine
 10
44.966753753906
 20
133.148278812532
 30
0.0
 11
44.9387
 21
133.214
 31
0.0
  0
LINE
  5
46B
330
1D
100
AcDbEntity
  8
0
100
AcDbLine
 10
44.8768
 20
133.749
 30
0.0
 11
44.4828
 21
134.376
 31
0.0
  0
LINE
  5
46C
330
1D
100
AcDbEntity
  8
0
100
AcDbLine
 10
44.0336
 20
134.971
 30
0.0
 11
43.3037
 21
135.752
 31
0.0
  0
LINE
  5
46D
330
1D
100
AcDbEntity
  8
0
100
AcDbLine
 10
44.4828
 20
134.376
 30
0.0
 11
44.0336
 21
134.971
 31
0.0
  0
LINE
  5
471
330
1D
100
AcDbEntity
  8
0
100
AcDbLine
 10
46.2534
 20
135.867
 30
0.0
 11
45.466
 21
136.799
 31
0.0
  0
LINE
  5
472
330
1D
100
AcDbEntity
  8
0
100
AcDbLine
 10
45.466
 20
136.799
 30
0.0
 11
44.5627
 21
137.618
 31
0.0
  0
LINE
  5
473
330
1D
100
AcDbEntity
  8
0
100
AcDbLine
 10
42.4843
 20
136.447
 30
0.0
 11
41.5819
 21
137.06
 31
0.0
  0
LINE
  5
474
330
1D
100
AcDbEntity
  8
0
100
AcDbLine
 10
44.5627
 20
137.618
 30
0.0
 11
43.3228
 21
138.484
 31
0.0
  0
LINE
  5
475
330
1D
100
AcDbEntity
  8
0
100
AcDbLine
 10
43.3228
 20
138.484
 30
0.0
 11
41.9916
 21
139.204
 31
0.0
  0
LINE
  5
476
330
1D
100
AcDbEntity
  8
0
100
AcDbLine
 10
41.5819
 20
137.06
 30
0.0
 11
40.6267
 21
137.585
 31
0.0
  0
LINE
  5
477
330
1D
100
AcDbEntity
  8
0
100
AcDbLine
 10
40.6267
 20
137.585
 30
0.0
 11
39.5373
 21
138.073
 31
0.0
  0
LINE
  5
478
330
1D
100
AcDbEntity
  8
0
100
AcDbLine
 10
41.9916
 20
139.204
 30
0.0
 11
40.0279
 21
140.017
 31
0.0
  0
LINE
  5
479
330
1D
100
AcDbEntity
  8
0
100
AcDbLine
 10
38.0792
 20
24.7531
 30
0.0
 11
37.8186
 21
24.724
 31
0.0
  0
LINE
  5
47A
330
1D
100
AcDbEntity
  8
0
100
AcDbLine
 10
38.9759
 20
24.9287
 30
0.0
 11
38.0792
 21
24.7531
 31
0.0
  0
LINE
  5
47B
330
1D
100
AcDbEntity
  8
0
100
AcDbLine
 10
40.2442
 20
25.4364
 30
0.0
 11
38.9759
 21
24.9287
 31
0.0
  0
LINE
  5
47C
330
1D
100
AcDbEntity
  8
0
100
AcDbLine
 10
35.6524
 20
24.6549
 30
0.0
 11
37.8186
 21
24.724
 31
0.0
  0
LINE
  5
47D
330
1D
100
AcDbEntity
  8
0
100
AcDbLine
 10
39.6867
 20
53.3912
 30
0.0
 11
37.789463405232
 21
52.340275372038
 31
0.0
  0
LINE
  5
47E
330
1D
100
AcDbEntity
  8
0
100
AcDbLine
 10
37.789463405232
 20
52.340275372038
 30
0.0
 11
35.5672
 21
51.7145
 31
0.0
  0
LINE
  5
47F
330
1D
100
AcDbEntity
  8
0
100
AcDbLine
 10
40.0279
 20
140.017
 30
0.0
 11
37.739809418935
 21
140.678163665659
 31
0.0
  0
LINE
  5
480
330
1D
100
AcDbEntity
  8
0
100
AcDbLine
 10
37.739809418935
 20
140.678163665659
 30
0.0
 11
35.07489885591
 21
141.297910308223
 31
0.0
  0
LINE
  5
481
330
1D
100
AcDbEntity
  8
0
100
AcDbLine
 10
35.07489885591
 20
141.297910308223
 30
0.0
 11
33.4444
 21
141.636
 31
0.0
  0
LINE
  5
482
330
1D
100
AcDbEntity
  8
0
100
AcDbLine
 10
35.1921
 20
139.369
 30
0.0
 11
37.64684742255
 21
138.78793640584
 31
0.0
  0
LINE
  5
483
330
1D
100
AcDbEntity
  8
0
100
AcDbLine
 10
37.64684742255
 20
138.78793640584
 30
0.0
 11
39.5373
 21
138.073
 31
0.0
  0
ENDSEC
  0
SECTION
  2
OBJECTS
  0
DICTIONARY
  5
C
330
0
100
AcDbDictionary
281
     1
  3
ACAD_GROUP
350
D
  3
ACAD_LAYOUT
350
1A
  3
ACAD_MLEADERSTYLE
350
486
  3
ACAD_MLINESTYLE
350
17
  3
ACAD_PLOTSETTINGS
350
19
  3
ACAD_PLOTSTYLENAME
350
E
  3
ACAD_SCALELIST
350
3F3
  3
AcDbVariableDictionary
350
484
  3
DWGPROPS
350
489
  0
DICTIONARY
  5
D
102
{ACAD_REACTORS
330
C
102
}
330
C
100
AcDbDictionary
281
     1
  0
DICTIONARY
  5
1A
102
{ACAD_REACTORS
330
C
102
}
330
C
100
AcDbDictionary
281
     1
  3
Layout1
350
1C
  3
Model
350
1E
  0
DICTIONARY
  5
486
102
{ACAD_REACTORS
330
C
102
}
330
C
100
AcDbDictionary
281
     1
  0
DICTIONARY
  5
17
102
{ACAD_REACTORS
330
C
102
}
330
C
100
AcDbDictionary
281
     1
  3
Standard
350
18
  0
DICTIONARY
  5
19
102
{ACAD_REACTORS
330
C
102
}
330
C
100
AcDbDictionary
281
     1
  0
ACDBDICTIONARYWDFLT
  5
E
102
{ACAD_REACTORS
330
C
102
}
330
C
100
AcDbDictionary
281
     1
  3
Normal
350
F
100
AcDbDictionaryWithDefault
340
F
  0
DICTIONARY
  5
3F3
102
{ACAD_REACTORS
330
C
102
}
330
C
100
AcDbDictionary
281
     1
  3
A0
350
3F4
  3
A1
350
3F5
  3
A2
350
3F6
  3
A3
350
3F7
  3
A4
350
3F8
  3
A5
350
3F9
  3
A6
350
3FA
  3
A7
350
3FB
  3
A8
350
3FC
  3
A9
350
3FD
  3
B0
350
3FE
  3
B1
350
3FF
  3
B2
350
400
  3
B3
350
401
  3
B4
350
402
  3
B5
350
403
  3
B6
350
404
  3
B7
350
405
  3
B8
350
406
  3
B9
350
407
  3
C0
350
408
  3
C1
350
409
  3
C2
350
40A
  3
C3
350
40B
  3
C4
350
40C
  3
C5
350
40D
  3
C6
350
40E
  3
C7
350
40F
  3
C8
350
410
  3
C9
350
411
  3
D0
350
412
  3
D1
350
413
  3
D2
350
414
  0
DICTIONARY
  5
484
102
{ACAD_REACTORS
330
C
102
}
330
C
100
AcDbDictionary
281
     1
  3
CANNOSCALE
350
487
  0
XRECORD
  5
489
102
{ACAD_REACTORS
330
C
102
}
330
C
100
AcDbXrecord
280
     1
  1
DWGPROPS COOKIE
  2

  3

  4

  6

  7

  8
MARTIN
  9

300
=
301
=
302
=
303
=
304
=
305
=
306
=
307
=
308
=
309
=
 40
0.0
 41
2456645.899771945
 42
2456645.912419514
  1

 90
        0
  0
LAYOUT
  5
1C
102
{ACAD_REACTORS
330
1A
102
}
330
1A
100
AcDbPlotSettings
  1

  2
none_device
  4

  6

 40
0.0
 41
0.0
 42
0.0
 43
0.0
 44
0.0
 45
0.0
 46
0.0
 47
0.0
 48
0.0
 49
0.0
140
0.0
141
0.0
142
1.0
143
1.0
 70
   688
 72
     0
 73
     0
 74
     5
  7

 75
    16
147
1.0
148
0.0
149
0.0
100
AcDbLayout
  1
Layout1
 70
     1
 71
     1
 10
0.0
 20
0.0
 11
12.0
 21
9.0
 12
0.0
 22
0.0
 32
0.0
 14
1.000000000000E+20
 24
1.000000000000E+20
 34
1.000000000000E+20
 15
-1.000000000000E+20
 25
-1.000000000000E+20
 35
-1.000000000000E+20
146
0.0
 13
0.0
 23
0.0
 33
0.0
 16
1.0
 26
0.0
 36
0.0
 17
0.0
 27
1.0
 37
0.0
 76
     0
330
1B
  0
LAYOUT
  5
1E
102
{ACAD_REACTORS
330
1A
102
}
330
1A
100
AcDbPlotSettings
  1

  2
none_device
  4

  6

 40
0.0
 41
0.0
 42
0.0
 43
0.0
 44
0.0
 45
0.0
 46
0.0
 47
0.0
 48
0.0
 49
0.0
140
0.0
141
0.0
142
1.0
143
1.0
 70
  1712
 72
     0
 73
     0
 74
     0
  7

 75
     0
147
1.0
148
0.0
149
0.0
100
AcDbLayout
  1
Model
 70
     1
 71
     0
 10
0.0
 20
0.0
 11
12.0
 21
9.0
 12
0.0
 22
0.0
 32
0.0
 14
-0.0388
 24
-0.135
 34
0.0
 15
48.0388
 25
167.135
 35
0.0
146
0.0
 13
0.0
 23
0.0
 33
0.0
 16
1.0
 26
0.0
 36
0.0
 17
0.0
 27
1.0
 37
0.0
 76
     0
330
1D
331
3EE
  0
MLINESTYLE
  5
18
102
{ACAD_REACTORS
330
17
102
}
330
17
100
AcDbMlineStyle
  2
Standard
 70
     0
  3

 62
   256
 51
90.0
 52
90.0
 71
     2
 49
0.5
 62
   256
  6
BYLAYER
 49
-0.5
 62
   256
  6
BYLAYER
  0
ACDBPLACEHOLDER
  5
F
102
{ACAD_REACTORS
330
E
102
}
330
E
  0
SCALE
  5
3F4
102
{ACAD_REACTORS
330
3F3
102
}
330
3F3
100
AcDbScale
 70
     0
300
1:1
140
1.0
141
1.0
290
     1
  0
SCALE
  5
3F5
102
{ACAD_REACTORS
330
3F3
102
}
330
3F3
100
AcDbScale
 70
     0
300
1:2
140
1.0
141
2.0
290
     0
  0
SCALE
  5
3F6
102
{ACAD_REACTORS
330
3F3
102
}
330
3F3
100
AcDbScale
 70
     0
300
1:4
140
1.0
141
4.0
290
     0
  0
SCALE
  5
3F7
102
{ACAD_REACTORS
330
3F3
102
}
330
3F3
100
AcDbScale
 70
     0
300
1:5
140
1.0
141
5.0
290
     0
  0
SCALE
  5
3F8
102
{ACAD_REACTORS
330
3F3
102
}
330
3F3
100
AcDbScale
 70
     0
300
1:8
140
1.0
141
8.0
290
     0
  0
SCALE
  5
3F9
102
{ACAD_REACTORS
330
3F3
102
}
330
3F3
100
AcDbScale
 70
     0
300
1:10
140
1.0
141
10.0
290
     0
  0
SCALE
  5
3FA
102
{ACAD_REACTORS
330
3F3
102
}
330
3F3
100
AcDbScale
 70
     0
300
1:16
140
1.0
141
16.0
290
     0
  0
SCALE
  5
3FB
102
{ACAD_REACTORS
330
3F3
102
}
330
3F3
100
AcDbScale
 70
     0
300
1:20
140
1.0
141
20.0
290
     0
  0
SCALE
  5
3FC
102
{ACAD_REACTORS
330
3F3
102
}
330
3F3
100
AcDbScale
 70
     0
300
1:30
140
1.0
141
30.0
290
     0
  0
SCALE
  5
3FD
102
{ACAD_REACTORS
330
3F3
102
}
330
3F3
100
AcDbScale
 70
     0
300
1:40
140
1.0
141
40.0
290
     0
  0
SCALE
  5
3FE
102
{ACAD_REACTORS
330
3F3
102
}
330
3F3
100
AcDbScale
 70
     0
300
1:50
140
1.0
141
50.0
290
     0
  0
SCALE
  5
3FF
102
{ACAD_REACTORS
330
3F3
102
}
330
3F3
100
AcDbScale
 70
     0
300
1:100
140
1.0
141
100.0
290
     0
  0
SCALE
  5
400
102
{ACAD_REACTORS
330
3F3
102
}
330
3F3
100
AcDbScale
 70
     0
300
2:1
140
2.0
141
1.0
290
     0
  0
SCALE
  5
401
102
{ACAD_REACTORS
330
3F3
102
}
330
3F3
100
AcDbScale
 70
     0
300
4:1
140
4.0
141
1.0
290
     0
  0
SCALE
  5
402
102
{ACAD_REACTORS
330
3F3
102
}
330
3F3
100
AcDbScale
 70
     0
300
8:1
140
8.0
141
1.0
290
     0
  0
SCALE
  5
403
102
{ACAD_REACTORS
330
3F3
102
}
330
3F3
100
AcDbScale
 70
     0
300
10:1
140
10.0
141
1.0
290
     0
  0
SCALE
  5
404
102
{ACAD_REACTORS
330
3F3
102
}
330
3F3
100
AcDbScale
 70
     0
300
100:1
140
100.0
141
1.0
290
     0
  0
SCALE
  5
405
102
{ACAD_REACTORS
330
3F3
102
}
330
3F3
100
AcDbScale
 70
     0
300
1/128" = 1'-0"
140
0.0078125
141
12.0
290
     0
  0
SCALE
  5
406
102
{ACAD_REACTORS
330
3F3
102
}
330
3F3
100
AcDbScale
 70
     0
300
1/64" = 1'-0"
140
0.015625
141
12.0
290
     0
  0
SCALE
  5
407
102
{ACAD_REACTORS
330
3F3
102
}
330
3F3
100
AcDbScale
 70
     0
300
1/32" = 1'-0"
140
0.03125
141
12.0
290
     0
  0
SCALE
  5
408
102
{ACAD_REACTORS
330
3F3
102
}
330
3F3
100
AcDbScale
 70
     0
300
1/16" = 1'-0"
140
0.0625
141
12.0
290
     0
  0
SCALE
  5
409
102
{ACAD_REACTORS
330
3F3
102
}
330
3F3
100
AcDbScale
 70
     0
300
3/32" = 1'-0"
140
0.09375
141
12.0
290
     0
  0
SCALE
  5
40A
102
{ACAD_REACTORS
330
3F3
102
}
330
3F3
100
AcDbScale
 70
     0
300
1/8" = 1'-0"
140
0.125
141
12.0
290
     0
  0
SCALE
  5
40B
102
{ACAD_REACTORS
330
3F3
102
}
330
3F3
100
AcDbScale
 70
     0
300
3/16" = 1'-0"
140
0.1875
141
12.0
290
     0
  0
SCALE
  5
40C
102
{ACAD_REACTORS
330
3F3
102
}
330
3F3
100
AcDbScale
 70
     0
300
1/4" = 1'-0"
140
0.25
141
12.0
290
     0
  0
SCALE
  5
40D
102
{ACAD_REACTORS
330
3F3
102
}
330
3F3
100
AcDbScale
 70
     0
300
3/8" = 1'-0"
140
0.375
141
12.0
290
     0
  0
SCALE
  5
40E
102
{ACAD_REACTORS
330
3F3
102
}
330
3F3
100
AcDbScale
 70
     0
300
1/2" = 1'-0"
140
0.5
141
12.0
290
     0
  0
SCALE
  5
40F
102
{ACAD_REACTORS
330
3F3
102
}
330
3F3
100
AcDbScale
 70
     0
300
3/4" = 1'-0"
140
0.75
141
12.0
290
     0
  0
SCALE
  5
410
102
{ACAD_REACTORS
330
3F3
102
}
330
3F3
100
AcDbScale
 70
     0
300
1" = 1'-0"
140
1.0
141
12.0
290
     0
  0
SCALE
  5
411
102
{ACAD_REACTORS
330
3F3
102
}
330
3F3
100
AcDbScale
 70
     0
300
1-1/2" = 1'-0"
140
1.5
141
12.0
290
     0
  0
SCALE
  5
412
102
{ACAD_REACTORS
330
3F3
102
}
330
3F3
100
AcDbScale
 70
     0
300
3" = 1'-0"
140
3.0
141
12.0
290
     0
  0
SCALE
  5
413
102
{ACAD_REACTORS
330
3F3
102
}
330
3F3
100
AcDbScale
 70
     0
300
6" = 1'-0"
140
6.0
141
12.0
290
     0
  0
SCALE
  5
414
102
{ACAD_REACTORS
330
3F3
102
}
330
3F3
100
AcDbScale
 70
     0
300
1'-0" = 1'-0"
140
12.0
141
12.0
290
     0
  0
DICTIONARYVAR
  5
487
102
{ACAD_REACTORS
330
484
102
}
330
484
100
DictionaryVariables
280
     0
  1
1:1
  0
ENDSEC
  0
SECTION
  2
THUMBNAILIMAGE
 90
    16364
310
28000000B40000005500000001000800000000000000000000000000000000000000000000000000FFFFFF000000FF0000FFFF0000FF0000FFFF0000FF000000FF00FF000000000080808000C0C0C0000000FF007F7FFF000000A5005252A50000007F003F3F7F0000004C0026264C000000260013132600003FFF007F9FFF
310
000029A5005267A500001F7F003F4F7F0000134C00262F4C000009260013172600007FFF007FBFFF000052A500527CA500003F7F003F5F7F0000264C0026394C0000132600131C260000BFFF007FDFFF00007CA5005291A500005F7F003F6F7F0000394C0026424C00001C26001321260000FFFF007FFFFF0000A5A50052A5
310
A500007F7F003F7F7F00004C4C00264C4C00002626001326260000FFBF007FFFDF0000A57C0052A59100007F5F003F7F6F00004C3900264C420000261C001326210000FF7F007FFFBF0000A5520052A57C00007F3F003F7F5F00004C2600264C39000026130013261C0000FF3F007FFF9F0000A5290052A56700007F1F003F
310
7F4F00004C1300264C2F00002609001326170000FF00007FFF7F0000A5000052A55200007F00003F7F3F00004C0000264C260000260000132613003FFF00009FFF7F0029A5000067A552001F7F00004F7F3F00134C00002F4C260009260000172613007FFF0000BFFF7F0052A500007CA552003F7F00005F7F3F00264C0000
310
394C2600132600001C261300BFFF0000DFFF7F007CA5000091A552005F7F00006F7F3F00394C0000424C26001C26000021261300FFFF0000FFFF7F00A5A50000A5A552007F7F00007F7F3F004C4C00004C4C26002626000026261300FFBF0000FFDF7F00A57C0000A59152007F5F00007F6F3F004C3900004C422600261C00
310
0026211300FF7F0000FFBF7F00A5520000A57C52007F3F00007F5F3F004C2600004C39260026130000261C1300FF3F0000FF9F7F00A5290000A56752007F1F00007F4F3F004C1300004C2F26002609000026171300FF000000FF7F7F00A5000000A55252007F0000007F3F3F004C0000004C2626002600000026131300FF00
310
3F00FF7F9F00A5002900A55267007F001F007F3F4F004C0013004C262F002600090026131700FF007F00FF7FBF00A5005200A5527C007F003F007F3F5F004C0026004C2639002600130026131C00FF00BF00FF7FDF00A5007C00A55291007F005F007F3F6F004C0039004C26420026001C0026132100FF00FF00FF7FFF00A5
310
00A500A552A5007F007F007F3F7F004C004C004C264C002600260026132600BF00FF00DF7FFF007C00A5009152A5005F007F006F3F7F0039004C0042264C001C002600211326007F00FF00BF7FFF005200A5007C52A5003F007F005F3F7F0026004C0039264C00130026001C1326003F00FF009F7FFF002900A5006752A500
310
1F007F004F3F7F0013004C002F264C000900260017132600000000002D2D2D005B5B5B0089898900B7B7B700B3B3B30000000000000000000000000000000000000000000000000000000000000000000000000000000000000000000000000000000000000000000000000000000000000000000000000000000000000000
310
00000000000000070707070707070707000000000000000000000000000000000000000000000000000000000000000000000000000000000000000000000000000000000000000000000000000000000000000000000000000000000000000000000000000000000000000000000000000000000000000000000000000000
310
00000000000000000000000000000000000000000000000000000000000000000000000000000000000000000000000000000000000000000000000707070707070707070707000000000000000000000000000000000000000000000000000000000000000000000000000000000000000000000000000000000000000000
310
00000000000000000000000000000000000000000000000000000000000000000000000000000000000000000000000000000000000000000000000000000000000000000000000000000000000000000000000000000000000000000000000000000000000000000000000000000000070000000000000000000700000000
310
00000000000000000000000000000000000000000000000000000000000000000000000000000000000000000000000000000000000000000000000000000000000000000000000000000000000000000000000000000000000000000000000000000000000000000000000000000000000000000000000000000000000000
310
00000000000000000000000000000000000000000000000000000000000000000000000000070700000000000000000007070000000000000000000000000000000000000000000000000000000000000000000000000000000000000000000000000000000000000000000000000000000000000000000000000000000000
310
00000000000000000000000000000000000000000000000000000000000000000000000000000000000000000000000000000000000000000000000000000000000000000000000000000000000000000000000000000000000007000000000000000000000007000000000000000000000000000000000000000000000000
310
00000000000000000000000000000000000000000000000000000000000000000000000000000000000000000000000000000000000000000000000000000000000000000000000000000000000000000000000000000000000000000000000000000000000000000000000000000000000000000000000000000000000000
310
00000000000000000000000000000000070707070707070707070707070000000000000000000000000000000000000000000000000000000000000000000000000000000000000000000000000000000000000000000000000000000000000000000000000000000000000000000000000000000000000000000000000000
310
00000000000000000000000000000000000000000000000000000000000000000000000000000000000000000000000000000000000000000000000000000000000000000007000000000000000000000007000000000000000000000000000000000000000000000000000000000000000000000000000000000000000000
310
00000000000000000000000000000000000000000000000000000000000000000000000000000000000000000000000000000000000000000000000000000000000000000000000000000000000000000000000000000000000000000000000000000000000000000000000000000000000000000000000000000700000000
310
00000000000000070000000000000000000000000000000000000000000000000000000000000000000000000000000000000000000000000000000000000000000000000000000000000000000000000000000000000000000000000000000000000000000000000000000000000000000000000000000000000000000000
310
00000000000000000000000000000000000000000000000000000000000000000000000000000000000000000000000007000000000000000000000007000000000000000000000000000000000000000000000000000000000000000000000000000000000000000000000000000000000000000000000000000000000000
310
00000000000000000000000000000000000000000000000000000000000000000000000000000000000000000000000000000000000000000000000000000000000000000000000000000000000000000000000000000000000000000000000000000000000707070707070707070707070700000000000000000000000000
310
00000000000000000000000000000000000000000000000000000000000000000000000000000000000000000000000000000000000000000000000000000000000000000000000000000000000000000000000000000000000000000000000000000000000000000000000000000000000000000000000000000000000000
310
00000000000000000000000000000000000000000000000000000007070707070707070707070707000000000000000000000000000000000000000000000000000000000000000000000000000000000000000000000000000000000000000000000000000000000000000000000000000000000000000000000000000000
310
00000000000000000000000000000000000000000000000000000000000000000000000000000000000000000000000000000000000000000000000000000000000000000000000000000000000000000700000000000000000000000700000000000000000000000000000000000000000000000000000000000000000000
310
00000000000000000000000000000000000000000000000000000000000000000000000000000000000000000000000000000000000000000000000000000000000000000000000000000000000000000000000000000000000000000000000000000000000000000000000000000000000000000000000000000000000000
310
00000000000707070707070707070707070707070000000000000000000000000000000000000000000000000000000000000000000000000000000000000000000000000000000000000000000000000000000000000000000000000000000000000000000000000000000000000000000000000000000000000000000000
310
00000000000000000000000000000000000000000000000000000000000000000000000000000000000000000000000000000000000000000707000000000000000000000000000000070700000000000000000000000000000000000000000000000000000000000000000000000000000000000000000000000000000000
310
00000000000000000000000000000000000000000000000000000000000000000000000000000000000000000000000000000000000000000000000000000000000000000000000000000000000000000000000000000000000000000000000000000000000000000000000007070000000000000000000000000000000000
310
07070000000000000000000000000000000000000000000000000000000000000000000000000000000000000000000000000000000000000000000000000000000000000000000000000000000000000000000000000000000000000000000000000000000000000000000000000000000000000000000000000000000000
310
00000000000000000000000000000000000000000000000000000000000000000000070000000000000000000000000000000000000007000000000000000000000000000000000000000000000000000000000000000000000000000000000000000000000000000000000000000000000000000000000000000000000000
310
00000000000000000000000000000000000000000000000000000000000000000000000000000000000000000000000000000000000000000000000000000000000000000000000000000000000000000000000000000007000000000000000000000000000000000000000700000000000000000000000000000000000000
310
00000000000000000000000000000000000000000000000000000000000000000000000000000000000000000000000000000000000000000000000000000000000000000000000000000000000000000000000000000000000000000000000000000000000000000000000000000000000000000000000000000000000000
310
00000000000000000000000000070000000000000000000000000000000000000007000000000000000000000000000000000000000000000000000000000000000000000000000000000000000000000000000000000000000000000000000000000000000000000000000000000000000000000000000000000000000000
310
00000000000000000000000000000000000000000000000000000000000000000000000000000000000000000000000000000000000000000000000000000000000700000000000000000000000000000000000000000007000000000000000000000000000000000000000000000000000000000000000000000000000000
310
00000000000000000000000000000000000000000000000000000000000000000000000000000000000000000000000000000000000000000000000000000000000000000000000000000000000000000000000000000000000000000000000000000000000000000000000000000000000000000000070000000000000000
310
00000000000000000000000000070000000000000000000000000000000000000000000000000000000000000000000000000000000000000000000000000000000000000000000000000000000000000000000000000000000000000000000000000000000000000000000000000000000000000000000000000000000000
310
00000000000000000000000000000000000000000000000000000000000000000000000000000000000000000700000000000000000000000000000000000000000007000000000000000000000000000000000000000000000000000000000000000000000000000000000000000000000000000000000000000000000000
310
00000000000000000000000000000000000000000000000000000000000000000000000000000000000000000000000000000000000000000000000000000000000000000000000000000000000000000000000000000000000000000000000000070000000000000000000000000000000000000000000700000000000000
310
00000000000000000000000000000000000000000000000000000000000000000000000000000000000000000000000000000000000000000000000000000000000000000000000000000000000000000000000000000000000000000000000000000000000000000000000000000000000000000000000000000000000000
310
00000000000000000000000000000000000000000000000700000000000000000000000000000000000000000007000000000000000000000000000000000000000000000000000000000000000000000000000000000000000000000000000000000000000000000000000000000000000000000000000000000000000000
310
00000000000000000000000000000000000000000000000000000000000000000000000000000000000000000000000000000000000000000000000000000000000000000000000000000000070000000000000000000000000000000000000000000700000000000000000000000000000000000000000000000000000000
310
00000000000000000000000000000000000000000000000000000000000000000000000000000000000000000000000000000000000000000000000000000000000000000000000000000000000000000000000000000000000000000000000000000000000000000000000000000000000000000000000000000000000000
310
00000700000000000000000000000000000000000000000007000000000000000000000000000000000000000000000000000000000000000000000000000000000000000000000000000000000000000000000000000000000000000000000000000000000000000000000000000000000000000000000000000000000000
310
00000000000000000000000000000000000000000000000000000000000000000000000000000000000000000000000000000000000000070000000000000707070707070707070000000000000700000000000000000000000000000000000000000000000000000000000000000000000000000000000000000000000000
310
00000000000000000000000000000000000000000000000000000000000000000000000000000000000000000000000000000000000000000000000000000000000000000000000000000000000000000000000000000000000000000000000000000000000000000000000007000007070707000000000000000000070007
310
07000007000000000000000000000000000000000000000000000000000000000000000000000000000000000000000000000000000000000000000000000000000000000000000000000000000000000000000000000000000000000000000000000000000000000000000000000000000000000000000000000000000000
310
00000000000000000000000000000000000000000000000000000000000000000000070007070000000000000000000000000000000707000700000000000000000000000000000000000000000000000000000000000000000000000000000000000000000000000000000000000000000000000000000000000000000000
310
00000000000000000000000000000000000000000000000000000000000000000000000000000000000000000000000000000000000000000000000000000000000000000000000000000000000000000000000000000007000700000000000000000000000000000000000700070000000000000000000000000000000000
310
00000000000000000000000000000000000000000000000000000000000000000000000000000000000000000000000000000000000000000000000000000000000000000000000000000000000000000000000000000000000000000000000000000000000000000000000000000000000000000000000000000000000000
310
00000000000000000000000000070707000000000000000000000000000000000007070700000000000000000000000000000000000000000000000000000000000000000000000000000000000000000000000000000000000000000000000000000000000000000000000000000000000000000000000000000000000000
310
00000000000000000000000000000000000000000000000000000000000000000000000000000000000000000000000000000000000000000000000000000000000007070000000000000000000000000000000000000007070000000000000000000000000000000000000000000000000000000000000000000000000000
310
00000000000000000000000000000000000000000000000000000000000000000000000000000000000000000000000000000000000000000000000000000000000000000000000000000000000000000000000000000000000000000000000000000000000000000000000000000000000000000000000707000000000000
310
00000000000000000000000000070700000000000000000000000000000000000000000000000000000000000000000000000000000000000000000000000000000000000000000000000000000000000000000000000000000000000000000000000000000000000000000000000000000000000000000000000000000000
310
00000000000000000000000000000000000000000000000000000000000000000000000000000000000000000007070000000000000000000000000000000000000007070000000000000000000000000000000000000000000000000000000000000000000000000000000000000000000000000000000000000000000000
310
00000000000000000000000000000000000000000000000000000000000000000000000000000000000000000000000000000000000000000000000000000000000000000000000000000000000000000000000000000000000000000000000000000707000000000000000000000000000000000000000707000000000000
310
00000000000000000000000000000000000000000000000000000000000000000000000000000000000000000000000000000000000000000000000000000000000000000000000000000000000000000000000000000000000000000000000000000000000000000000000000000000000000000000000000000000000000
310
00000000000000000000000000000000000000000000000007070000000000000000000000000000000000000007070000000000000000000000000000000000000000000000000000000000000000000000000000000000000000000000000000000000000000000000000000000000000000000000000000000000000000
310
00000000000000000000000000000000000000000000000000000000000000000000000000000000000000000000000000000000000000000000000000000000000000000000000000000000000707000000000000000000000000000000000000000707000000000000000000000000000000000000000000000000000000
310
00000000000000000000000000000000000000000000000000000000000000000000000000000000000000000000000000000000000000000000000000000000000000000000000000000000000000000000000000000000000000000000000000000000000000000000000000000000000000000000000000000000000000
310
00000007070000000000000000000000000000000000000007070000000000000000000000000000000000000000000000000000000000000000000000000000000000000000000000000000000000000000000000000000000000000000000000000000000000000000000000000000000000000000000000000000000000
310
00000000000000000000000000000000000000000000000000000000000000000000000000000000000000000000000000000000000000000707000000000000000000000000000000000000000707000000000000000000000000000000000000000000000000000000000000000000000000000000000000000000000000
310
00000000000000000000000000000000000000000000000000000000000000000000000000000000000000000000000000000000000000000000000000000000000000000000000000000000000000000000000000000000000000000000000000000000000000000000000000070700000000000000000000000000000000
310
00000007070000000000000000000000000000000000000000000000000000000000000000000000000000000000000000000000000000000000000000000000000000000000000000000000000000000000000000000000000000000000000000000000000000000000000000000000000000000000000000000000000000
310
00000000000000000000000000000000000000000000000000000000000000000000000707000000000000000000000000000000000000000707000000000000000000000000000000000000000000000000000000000000000000000000000000000000000000000000000000000000000000000000000000000000000000
310
00000000000000000000000000000000000000000000000000000000000000000000000000000000000000000000000000000000000000000000000000000000000000000000000000000000000000000000000000000000070700000000000000000000000000000000000000070700000000000000000000000000000000
310
00000000000000000000000000000000000000000000000000000000000000000000000000000000000000000000000000000000000000000000000000000000000000000000000000000000000000000000000000000000000000000000000000000000000000000000000000000000000000000000000000000000000000
310
00000000000000000000000000000707000000000000000000000000000000000000000707000000000000000000000000000000000000000000000000000000000000000000000000000000000000000000000000000000000000000000000000000000000000000000000000000000000000000000000000000000000000
310
00000000000000000000000000000000000000000000000000000000000000000000000000000000000000000000000000000000000000000000000000000000000000070000000000000000000000000000000000000000000700000000000000000000000000000000000000000000000000000000000000000000000000
310
00000000000000000000000000000000000000000000000000000000000000000000000000000000000000000000000000000000000000000000000000000000000000000000000000000000000000000000000000000000000000000000000000000000000000000000000000000000000000000000000007000000000000
310
00000000000000000000000000000007000000000000000000000000000000000000000000000000000000000000000000000000000000000000000000000000000000000000000000000000000000000000000000000000000000000000000000000000000000000000000000000000000000000000000000000000000000
310
00000000000000000000000000000000000000000000000000000000000000000000000000000000000000000000070000000000000000000000000000000000000000000700000000000000000000000000000000000000000000000000000000000000000000000000000000000000000000000000000000000000000000
310
00000000000000000000000000000000000000000000000000000000000000000000000000000000000000000000000000000000000000000000000000000000000000000000000000000000000000000000000000000000000000000000000000000007000000000000000000000000000000000000000000070000000000
310
00000000000000000000000000000000000000000000000000000000000000000000000000000000000000000000000000000000000000000000000000000000000000000000000000000000000000000000000000000000000000000000000000000000000000000000000000000000000000000000000000000000000000
310
00000000000000000000000000000000000000000000000000070000000000000000000000000000000000000000000700000000000000000000000000000000000000000000000000000000000000000000000000000000000000000000000000000000000000000000000000000000000000000000000000000000000000
310
00000000000000000000000000000000000000000000000000000000000000000000000000000000000000000000000000000000000000000000000000000000000000000000000000000000000007000000000000000000000000000000000000000000070000000000000000000000000000000000000000000000000000
310
00000000000000000000000000000000000000000000000000000000000000000000000000000000000000000000000000000000000000000000000000000000000000000000000000000000000000000000000000000000000000000000000000000000000000000000000000000000000000000000000000000000000000
310
00000000070000000000000000000000000000000000000000000700000000000000000000000000000000000000000000000000000000000000000000000000000000000000000000000000000000000000000000000000000000000000000000000000000000000000000000000000000000000000000000000000000000
310
00000000000000000000000000000000000000000000000000000000000000000000000000000000000000000000000000000000000000000007000000000000000000000000000000000000000000070000000000000000000000000000000000000000000000000000000000000000000000000000000000000000000000
310
00000000000000000000000000000000000000000000000000000000000000000000000000000000000000000000000000000000000000000000000000000000000000000000000000000000000000000000000000000000000000000000000000000000000000000000000000000700000000000000000000000000000000
310
00000000000700000000000000000000000000000000000000000000000000000000000000000000000000000000000000000000000000000000000000000000000000000000000000000000000000000000000000000000000000000000000000000000000000000000000000000000000000000000000000000000000000
310
00000000000000000000000000000000000000000000000000000000000000000000000007000000000000000000000000000000000000000000070000000000000000000000000000000000000000000000000000000000000000000000000000000000000000000000000000000000000000000000000000000000000000
310
00000000000000000000000000000000000000000000000000000000000000000000000000000000000000000000000000000000000000000000000000000000000000000000000000000000000000000000000000000000000700000000000000000000000000000000000000000007000000000000000000000000000000
310
00000000000000000000000000000000000000000000000000000000000000000000000000000000000000000000000000000000000000000000000000000000000000000000000000000000000000000000000000000000000000000000000000000000000000000000000000000000000000000000000000000000000000
310
00000000000000000000000000000007000000000000000000000000000000000000000000070000000000000000000000000000000000000000000000000000000000000000000000000000000000000000000000000000000000000000000000000000000000000000000000000000000000000000000000000000000000
310
00000000000000000000000000000000000000000000000000000000000000000000000000000000000000000000000000000000000000000000000000000000000000000700000000000000000000000000000000000000000007000000000000000000000000000000000000000000000000000000000000000000000000
310
00000000000000000000000000000000000000000000000000000000000000000000000000000000000000000000000000000000000000000000000000000000000000000000000000000000000000000000000000000000000000000000000000000000000000000000000000000000000000000000000000070000000000
310
00000000000000000000000000000000070000000000000000000000000000000000000000000000000000000000000000000000000000000000000000000000000000000000000000000000000000000000000000000000000000000000000000000000000000000000000000000000000000000000000000000000000000
310
00000000000000000000000000000000000000000000000000000000000000000000000000000000000000000000000700000000000000000000000000000000000000000007000000000000000000000000000000000000000000000000000000000000000000000000000000000000000000000000000000000000000000
310
00000000000000000000000000000000000000000000000000000000000000000000000000000000000000000000000000000000000000000000000000000000000000000000000000000000000000000000000000000000000000000000000000000000070000000000000000000000000000000000000000000700000000
310
00000000000000000000000000000000000000000000000000000000000000000000000000000000000000000000000000000000000000000000000000000000000000000000000000000000000000000000000000000000000000000000000000000000000000000000000000000000000000000000000000000000000000
310
00000000000000000000000000000000000000000000000000070700000000000000000000000000000000000000000007070000000000000000000000000000000000000000000000000000000000000000000000000000000000000000000000000000000000000000000000000000000000000000000000000000000000
310
00000000000000000000000000000000000000000000000000000000000000000000000000000000000000000000000000000000000000000000000000000000000000000000000000000000000007070000000000000000000000000000000000000000000707000000000000000000000000000000000000000000000000
310
00000000000000000000000000000000000000000000000000000000000000000000000000000000000000000000000000000000000000000000000000000000000000000000000000000000000000000000000000000000000000000000000000000000000000000000000000000000000000000000000000000000000000
310
00000000070700000000000000000000000000000000000000000007070000000000000000000000000000000000000000000000000000000000000000000000000000000000000000000000000000000000000000000000000000000000000000000000000000000000000000000000000000000000000000000000000000
310
00000000000000000000000000000000000000000000000000000000000000000000000000000000000000000000000000000000000000000007070000000000000000000000000000000000000000000707000000000000000000000000000000000000000000000000000000000000000000000000000000000000000000
310
00000000000000000000000000000000000000000000000000000000000000000000000000000000000000000000000000000000000000000000000000000000000000000000000000000000000000000000000000000000000000000000000000000000000000000000000000000707000000000000000000000000000000
310
00000000000007070000000000000000000000000000000000000000000000000000000000000000000000000000000000000000000000000000000000000000000000000000000000000000000000000000000000000000000000000000000000000000000000000000000000000000000000000000000000000000000000
310
00000000000000000000000000000000000000000000000000000000000000000000000007070000000000000000000000000000000000000000000707000000000000000000000000000000000000000000000000000000000000000000000000000000000000000000000000000000000000000000000000000000000000
310
00000000000000000000000000000000000000000000000000000000000000000000000000000000000000000000000000000000000000000000000000000000000000000000000000000000000000000000000000000000000707000000000000000000000000000000000000000000070700000000000000000000000000
310
00000000000000000000000000000000000000000000000000000000000000000000000000000000000000000000000000000000000000000000000000000000000000000000000000000000000000000000000000000000000000000000000000000000000000000000000000000000000000000000000000000000000000
310
00000000000000000000000000000007070000000000000000000000000000000000000000000707000000000000000000000000000000000000000000000000000000000000000000000000000000000000000000000000000000000000000000000000000000000000000000000000000000000000000000000000000000
310
00000000000000000000000000000000000000000000000000000000000000000000000000000000000000000000000000000000000000000000000000000000000000000707000000000000000000000000000000000000000007070700000000000000000000000000000000000000000000000000000000000000000000
310
00000000000000000000000000000000000000000000000000000000000000000000000000000000000000000000000000000000000000000000000000000000000000000000000000000000000000000000000000000000000000000000000000000000000000000000000000000000000000000000000000070707000000
310
00000000000000000000000000000000070707000000000000000000000000000000000000000000000000000000000000000000000000000000000000000000000000000000000000000000000000000000000000000000000000000000000000000000000000000000000000000000000000000000000000000000000000
310
00000000000000000000000000000000000000000000000000000000000000000000000000000000000000000000000007070707000000000000000000000000000000070707070000000000000000000000000000000000000000000000000000000000000000000000000000000000000000000000000000000000000000
310
00000000000000000000000000000000000000000000000000000000000000000000000000000000000000000000000000000000000000000000000000000000000000000000000000000000000000000000000000000000000000000000000000000000000007070707070700000000000000000000070700070700000000
310
00000000000000000000000000000000000000000000000000000000000000000000000000000000000000000000000000000000000000000000000000000000000000000000000000000000000000000000000000000000000000000000000000000000000000000000000000000000000000000000000000000000000000
310
00000000000000000000000000000000000000000000000000000000000007070707070707070707070707070707070000000000000000000000000000000000000000000000000000000000000000000000000000000000000000000000000000000000000000000000000000000000000000000000000000000000000000
310
00000000000000000000000000000000000000000000000000000000000000000000000000000000000000000000000000000000000000000000000000000000000000000000000000000000000000000000000000000007070707070707070700000000000000000000000000000000000000000000000000000000000000
310
00000000000000000000000000000000000000000000000000000000000000000000000000000000000000000000000000000000000000000000000000000000000000000000000000000000000000000000000000000000000000000000000000000000000000000000000000000000000000000000000000000000000000
310
00000000000000000000000000000000070007000000000000000000000000000000000000000000000000000000000000000000000000000000000000000000000000000000000000000000000000000000000000000000000000000000000000000000000000000000000000000000000000000000000000000000000000
310
00000000000000000000000000000000000000000000000000000000000000000000000000000000000000000000000000000000000000000000000000000000000000000007000700000000000000000000000000000000000000000000000000000000000000000000000000000000000000000000000000000000000000
310
00000000000000000000000000000000000000000000000000000000000000000000000000000000000000000000000000000000000000000000000000000000000000000000000000000000000000000000000000000000000000000000000000000000000000000000000000000000000000000000000000000700070000
310
00000000000000000000000000000000000000000000000000000000000000000000000000000000000000000000000000000000000000000000000000000000000000000000000000000000000000000000000000000000000000000000000000000000000000000000000000000000000000000000000000000000000000
310
00000000000000000000000000000000000000000000000000000000000000000000000000000000000000000000000007000700000000000000000000000000000000000000000000000000000000000000000000000000000000000000000000000000000000000000000000000000000000000000000000000000000000
310
00000000000000000000000000000000000000000000000000000000000000000000000000000000000000000000000000000000000000000000000000000000000000000000000000000000000000000000000000000000000000000000000000000000000700070000000000000000000000000000000000000000000000
310
00000000000000000000000000000000000000000000000000000000000000000000000000000000000000000000000000000000000000000000000000000000000000000000000000000000000000000000000000000000000000000000000000000000000000000000000000000000000000000000000000000000000000
310
00000000000000000000000000000000000000000000000000000007000700000000000000000000000000000000000000000000000000000000000000000000000000000000000000000000000000000000000000000000000000000000000000000000000000000000000000000000000000000000000000000000000000
310
00000000000000000000000000000000000000000000000000000000000000000000000000000000000000000000000000000000000000000000000000000000000000000000000000000000000000000700070000000000000000000000000000000000000000000000000000000000000000000000000000000000000000
310
00000000000000000000000000000000000000000000000000000000000000000000000000000000000000000000000000000000000000000000000000000000000000000000000000000000000000000000000000000000000000000000000000000000000000000000000000000000000000000000000000000000000000
310
00000000000007000700000000000000000000000000000000000000000000000000000000000000000000000000000000000000000000000000000000000000000000000000000000000000000000000000000000000000000000000000000000000000000000000000000000000000000000000000000000000000000000
310
00000000000000000000000000000000000000000000000000000000000000000000000000000000000000000000000000000000000000000000000700070000000000000000000000000000000000000000000000000000000000000000000000000000000000000000000000000000000000000000000000000000000000
310
00000000000000000000000000000000000000000000000000000000000000000000000000000000000000000000000000000000000000000000000000000000000000000000000000000000000000000000000000000000000000000000000000000000000000000000000000000000070007000000000000000000000000
310
00000000000000000000000000000000000000000000000000000000000000000000000000000000000000000000000000000000000000000000000000000000000000000000000000000000000000000000000000000000000000000000000000000000000000000000000000000000000000000000000000000000000000
310
00000000000000000000000000000000000000000000000000000000000000000000000000000700070000000000000000000000000000000000000000000000000000000000000000000000000000000000000000000000000000000000000000000000000000000000000000000000000000000000000000000000000000
310
00000000000000000000000000000000000000000000000000000000000000000000000000000000000000000000000000000000000000000000000000000000000000000000000000000000000000000000000000000000000000070707000000000000000000000000000000000000000000000000000000000000000000
310
00000000000000000000000000000000000000000000000000000000000000000000000000000000000000000000000000000000000000000000000000000000000000000000000000000000000000000000000000000000000000000000000000000000000000000000000000000000000000000000000000000000000000
310
000000000000000000000000000000000000000000000000000000000000000000000000000000000000000000000000000000000000000000000000000000000000000000000000000000000000000000000000000000000000000000000000000000000000000000000000
  0
ENDSEC
  0
EOF
