  0
SECTION
  2
HEADER
  9
$ACADVER
  1
AC1015
  9
$ACADMAINTVER
 70
     6
  9
$DWGCODEPAGE
  3
ANSI_1252
  9
$INSBASE
 10
0.0
 20
0.0
 30
0.0
  9
$EXTMIN
 10
-0.08455
 20
0.1377425
 30
0.0
  9
$EXTMAX
 10
144.08455
 20
224.8622575
 30
0.0
  9
$LIMMIN
 10
0.0
 20
0.0
  9
$LIMMAX
 10
12.0
 20
9.0
  9
$ORTHOMODE
 70
     0
  9
$REGENMODE
 70
     1
  9
$FILLMODE
 70
     1
  9
$QTEXTMODE
 70
     0
  9
$MIRRTEXT
 70
     1
  9
$LTSCALE
 40
1.0
  9
$ATTMODE
 70
     1
  9
$TEXTSIZE
 40
0.2
  9
$TRACEWID
 40
0.05
  9
$TEXTSTYLE
  7
Standard
  9
$CLAYER
  8
0
  9
$CELTYPE
  6
ByBlock
  9
$CECOLOR
 62
   256
  9
$CELTSCALE
 40
1.0
  9
$DISPSILH
 70
     0
  9
$DIMSCALE
 40
1.0
  9
$DIMASZ
 40
0.18
  9
$DIMEXO
 40
0.0625
  9
$DIMDLI
 40
0.38
  9
$DIMRND
 40
0.0
  9
$DIMDLE
 40
0.0
  9
$DIMEXE
 40
0.18
  9
$DIMTP
 40
0.0
  9
$DIMTM
 40
0.0
  9
$DIMTXT
 40
0.18
  9
$DIMCEN
 40
0.09
  9
$DIMTSZ
 40
0.0
  9
$DIMTOL
 70
     0
  9
$DIMLIM
 70
     0
  9
$DIMTIH
 70
     1
  9
$DIMTOH
 70
     1
  9
$DIMSE1
 70
     0
  9
$DIMSE2
 70
     0
  9
$DIMTAD
 70
     0
  9
$DIMZIN
 70
     0
  9
$DIMBLK
  1

  9
$DIMASO
 70
     1
  9
$DIMSHO
 70
     1
  9
$DIMPOST
  1

  9
$DIMAPOST
  1

  9
$DIMALT
 70
     0
  9
$DIMALTD
 70
     2
  9
$DIMALTF
 40
25.4
  9
$DIMLFAC
 40
1.0
  9
$DIMTOFL
 70
     0
  9
$DIMTVP
 40
0.0
  9
$DIMTIX
 70
     0
  9
$DIMSOXD
 70
     0
  9
$DIMSAH
 70
     0
  9
$DIMBLK1
  1

  9
$DIMBLK2
  1

  9
$DIMSTYLE
  2
Standard
  9
$DIMCLRD
 70
     0
  9
$DIMCLRE
 70
     0
  9
$DIMCLRT
 70
     0
  9
$DIMTFAC
 40
1.0
  9
$DIMGAP
 40
0.09
  9
$DIMJUST
 70
     0
  9
$DIMSD1
 70
     0
  9
$DIMSD2
 70
     0
  9
$DIMTOLJ
 70
     1
  9
$DIMTZIN
 70
     0
  9
$DIMALTZ
 70
     0
  9
$DIMALTTZ
 70
     0
  9
$DIMUPT
 70
     0
  9
$DIMDEC
 70
     4
  9
$DIMTDEC
 70
     4
  9
$DIMALTU
 70
     2
  9
$DIMALTTD
 70
     2
  9
$DIMTXSTY
  7
Standard
  9
$DIMAUNIT
 70
     0
  9
$DIMADEC
 70
     0
  9
$DIMALTRND
 40
0.0
  9
$DIMAZIN
 70
     0
  9
$DIMDSEP
 70
    46
  9
$DIMATFIT
 70
     3
  9
$DIMFRAC
 70
     0
  9
$DIMLDRBLK
  1

  9
$DIMLUNIT
 70
     2
  9
$DIMLWD
 70
    -2
  9
$DIMLWE
 70
    -2
  9
$DIMTMOVE
 70
     2
  9
$LUNITS
 70
     2
  9
$LUPREC
 70
     4
  9
$SKETCHINC
 40
0.1
  9
$FILLETRAD
 40
0.5
  9
$AUNITS
 70
     0
  9
$AUPREC
 70
     0
  9
$MENU
  1
.
  9
$ELEVATION
 40
0.0
  9
$PELEVATION
 40
0.0
  9
$THICKNESS
 40
0.0
  9
$LIMCHECK
 70
     0
  9
$CHAMFERA
 40
0.5
  9
$CHAMFERB
 40
0.5
  9
$CHAMFERC
 40
1.0
  9
$CHAMFERD
 40
0.0
  9
$SKPOLY
 70
     0
  9
$TDCREATE
 40
2456646.389461979
  9
$TDUCREATE
 40
2456646.347795312
  9
$TDUPDATE
 40
2456646.413291192
  9
$TDUUPDATE
 40
2456646.371624526
  9
$TDINDWG
 40
0.0238290394
  9
$TDUSRTIMER
 40
0.0238290394
  9
$USRTIMER
 70
     1
  9
$ANGBASE
 50
0.0
  9
$ANGDIR
 70
     0
  9
$PDMODE
 70
     0
  9
$PDSIZE
 40
0.0
  9
$PLINEWID
 40
0.0
  9
$SPLFRAME
 70
     0
  9
$SPLINETYPE
 70
     6
  9
$SPLINESEGS
 70
     8
  9
$HANDSEED
  5
467
  9
$SURFTAB1
 70
     6
  9
$SURFTAB2
 70
     6
  9
$SURFTYPE
 70
     6
  9
$SURFU
 70
     6
  9
$SURFV
 70
     6
  9
$UCSBASE
  2

  9
$UCSNAME
  2

  9
$UCSORG
 10
0.0
 20
0.0
 30
0.0
  9
$UCSXDIR
 10
1.0
 20
0.0
 30
0.0
  9
$UCSYDIR
 10
0.0
 20
1.0
 30
0.0
  9
$UCSORTHOREF
  2

  9
$UCSORTHOVIEW
 70
     0
  9
$UCSORGTOP
 10
0.0
 20
0.0
 30
0.0
  9
$UCSORGBOTTOM
 10
0.0
 20
0.0
 30
0.0
  9
$UCSORGLEFT
 10
0.0
 20
0.0
 30
0.0
  9
$UCSORGRIGHT
 10
0.0
 20
0.0
 30
0.0
  9
$UCSORGFRONT
 10
0.0
 20
0.0
 30
0.0
  9
$UCSORGBACK
 10
0.0
 20
0.0
 30
0.0
  9
$PUCSBASE
  2

  9
$PUCSNAME
  2

  9
$PUCSORG
 10
0.0
 20
0.0
 30
0.0
  9
$PUCSXDIR
 10
1.0
 20
0.0
 30
0.0
  9
$PUCSYDIR
 10
0.0
 20
1.0
 30
0.0
  9
$PUCSORTHOREF
  2

  9
$PUCSORTHOVIEW
 70
     0
  9
$PUCSORGTOP
 10
0.0
 20
0.0
 30
0.0
  9
$PUCSORGBOTTOM
 10
0.0
 20
0.0
 30
0.0
  9
$PUCSORGLEFT
 10
0.0
 20
0.0
 30
0.0
  9
$PUCSORGRIGHT
 10
0.0
 20
0.0
 30
0.0
  9
$PUCSORGFRONT
 10
0.0
 20
0.0
 30
0.0
  9
$PUCSORGBACK
 10
0.0
 20
0.0
 30
0.0
  9
$USERI1
 70
     0
  9
$USERI2
 70
     0
  9
$USERI3
 70
     0
  9
$USERI4
 70
     0
  9
$USERI5
 70
     0
  9
$USERR1
 40
0.0
  9
$USERR2
 40
0.0
  9
$USERR3
 40
0.0
  9
$USERR4
 40
0.0
  9
$USERR5
 40
0.0
  9
$WORLDVIEW
 70
     1
  9
$SHADEDGE
 70
     3
  9
$SHADEDIF
 70
    70
  9
$TILEMODE
 70
     1
  9
$MAXACTVP
 70
    64
  9
$PINSBASE
 10
0.0
 20
0.0
 30
0.0
  9
$PLIMCHECK
 70
     0
  9
$PEXTMIN
 10
1.000000000000E+20
 20
1.000000000000E+20
 30
1.000000000000E+20
  9
$PEXTMAX
 10
-1.000000000000E+20
 20
-1.000000000000E+20
 30
-1.000000000000E+20
  9
$PLIMMIN
 10
0.0
 20
0.0
  9
$PLIMMAX
 10
12.0
 20
9.0
  9
$UNITMODE
 70
     0
  9
$VISRETAIN
 70
     1
  9
$PLINEGEN
 70
     0
  9
$PSLTSCALE
 70
     1
  9
$TREEDEPTH
 70
  3020
  9
$CMLSTYLE
  2
Standard
  9
$CMLJUST
 70
     0
  9
$CMLSCALE
 40
1.0
  9
$PROXYGRAPHICS
 70
     1
  9
$MEASUREMENT
 70
     0
  9
$CELWEIGHT
370
    -1
  9
$ENDCAPS
280
     0
  9
$JOINSTYLE
280
     0
  9
$LWDISPLAY
290
     0
  9
$INSUNITS
 70
     0
  9
$HYPERLINKBASE
  1

  9
$STYLESHEET
  1

  9
$XEDIT
290
     1
  9
$CEPSNTYPE
380
     0
  9
$PSTYLEMODE
290
     1
  9
$FINGERPRINTGUID
  2
{853101C7-5215-4967-8621-CF2CD816C103}
  9
$VERSIONGUID
  2
{FAEB1C32-E019-11D5-929B-00C0DF256EC4}
  9
$EXTNAMES
290
     1
  9
$PSVPSCALE
 40
0.0
  9
$OLESTARTUP
290
     0
  0
ENDSEC
  0
SECTION
  2
CLASSES
  0
CLASS
  1
ACDBDICTIONARYWDFLT
  2
AcDbDictionaryWithDefault
  3
ObjectDBX Classes
 90
        0
280
     0
281
     0
  0
CLASS
  1
SCALE
  2
AcDbScale
  3
ObjectDBX Classes
 90
     1153
280
     0
281
     0
  0
CLASS
  1
DICTIONARYVAR
  2
AcDbDictionaryVar
  3
ObjectDBX Classes
 90
        0
280
     0
281
     0
  0
CLASS
  1
ACDBPLACEHOLDER
  2
AcDbPlaceHolder
  3
ObjectDBX Classes
 90
        0
280
     0
281
     0
  0
CLASS
  1
LAYOUT
  2
AcDbLayout
  3
ObjectDBX Classes
 90
        0
280
     0
281
     0
  0
ENDSEC
  0
SECTION
  2
TABLES
  0
TABLE
  2
VPORT
  5
8
330
0
100
AcDbSymbolTable
 70
     1
  0
VPORT
  5
42B
330
8
100
AcDbSymbolTableRecord
100
AcDbViewportTableRecord
  2
*Active
 70
     0
 10
0.0
 20
0.0
 11
1.0
 21
1.0
 12
72.0
 22
112.43112875
 13
0.0
 23
0.0
 14
0.5
 24
0.5
 15
0.5
 25
0.5
 16
0.0
 26
0.0
 36
1.0
 17
0.0
 27
0.0
 37
0.0
 40
229.35950265
 41
1.319001386963
 42
50.0
 43
0.0
 44
0.0
 50
0.0
 51
0.0
 71
    16
 72
   100
 73
     1
 74
     3
 75
     0
 76
     0
 77
     0
 78
     0
281
     0
 65
     1
110
0.0
120
0.0
130
0.0
111
1.0
121
0.0
131
0.0
112
0.0
122
1.0
132
0.0
 79
     0
146
0.0
  0
ENDTAB
  0
TABLE
  2
LTYPE
  5
5
330
0
100
AcDbSymbolTable
 70
     1
  0
LTYPE
  5
14
330
5
100
AcDbSymbolTableRecord
100
AcDbLinetypeTableRecord
  2
ByBlock
 70
     0
  3

 72
    65
 73
     0
 40
0.0
  0
LTYPE
  5
15
330
5
100
AcDbSymbolTableRecord
100
AcDbLinetypeTableRecord
  2
ByLayer
 70
     0
  3

 72
    65
 73
     0
 40
0.0
  0
LTYPE
  5
16
330
5
100
AcDbSymbolTableRecord
100
AcDbLinetypeTableRecord
  2
Continuous
 70
     0
  3
Solid line
 72
    65
 73
     0
 40
0.0
  0
ENDTAB
  0
TABLE
  2
LAYER
  5
2
330
0
100
AcDbSymbolTable
 70
     1
  0
LAYER
  5
10
330
2
100
AcDbSymbolTableRecord
100
AcDbLayerTableRecord
  2
0
 70
     0
 62
     7
  6
Continuous
370
    -3
390
F
  0
ENDTAB
  0
TABLE
  2
STYLE
  5
3
330
0
100
AcDbSymbolTable
 70
     1
  0
STYLE
  5
11
330
3
100
AcDbSymbolTableRecord
100
AcDbTextStyleTableRecord
  2
Standard
 70
     0
 40
0.0
 41
1.0
 50
0.0
 71
     0
 42
0.2
  3
txt
  4

  0
ENDTAB
  0
TABLE
  2
VIEW
  5
6
330
0
100
AcDbSymbolTable
 70
     0
  0
ENDTAB
  0
TABLE
  2
UCS
  5
7
330
0
100
AcDbSymbolTable
 70
     0
  0
ENDTAB
  0
TABLE
  2
APPID
  5
9
330
0
100
AcDbSymbolTable
 70
     1
  0
APPID
  5
12
330
9
100
AcDbSymbolTableRecord
100
AcDbRegAppTableRecord
  2
ACAD
 70
     0
  0
ENDTAB
  0
TABLE
  2
DIMSTYLE
  5
A
330
0
100
AcDbSymbolTable
 70
     1
100
AcDbDimStyleTable
  0
DIMSTYLE
105
20
330
A
100
AcDbSymbolTableRecord
100
AcDbDimStyleTableRecord
  2
Standard
 70
     0
340
11
  0
ENDTAB
  0
TABLE
  2
BLOCK_RECORD
  5
1
330
0
100
AcDbSymbolTable
 70
     0
  0
BLOCK_RECORD
  5
1D
330
1
100
AcDbSymbolTableRecord
100
AcDbBlockTableRecord
  2
*Model_Space
340
1E
  0
BLOCK_RECORD
  5
1B
330
1
100
AcDbSymbolTableRecord
100
AcDbBlockTableRecord
  2
*Paper_Space
340
1C
  0
ENDTAB
  0
ENDSEC
  0
SECTION
  2
BLOCKS
  0
BLOCK
  5
42E
330
1D
100
AcDbEntity
  8
0
100
AcDbBlockBegin
  2
*Model_Space
 70
     0
 10
0.0
 20
0.0
 30
0.0
  3
*Model_Space
  1
*Model_Space
  0
ENDBLK
  5
42F
330
1D
100
AcDbEntity
  8
0
100
AcDbBlockEnd
  0
BLOCK
  5
42C
330
1B
100
AcDbEntity
 67
     1
  8
0
100
AcDbBlockBegin
  2
*Paper_Space
 70
     0
 10
0.0
 20
0.0
 30
0.0
  3
*Paper_Space
  1
*Paper_Space
  0
ENDBLK
  5
42D
330
1B
100
AcDbEntity
 67
     1
  8
0
100
AcDbBlockEnd
  0
ENDSEC
  0
SECTION
  2
ENTITIES
  0
LINE
  5
21
330
1D
100
AcDbEntity
  8
0
100
AcDbLine
 10
49.34655
 20
0.1380015
 30
0.0
 11
49.70985
 21
0.1381545
 31
0.0
  0
LINE
  5
22
330
1D
100
AcDbEntity
  8
0
100
AcDbLine
 10
48.29485
 20
3.0951275
 30
0.0
 11
49.22425
 21
0.1381665
 31
0.0
  0
LINE
  5
23
330
1D
100
AcDbEntity
  8
0
100
AcDbLine
 10
48.29485
 20
3.0951275
 30
0.0
 11
49.22425
 21
0.1381665
 31
0.0
  0
LINE
  5
24
330
1D
100
AcDbEntity
  8
0
100
AcDbLine
 10
49.22425
 20
0.1381665
 30
0.0
 11
49.34655
 21
0.1380015
 31
0.0
  0
LINE
  5
25
330
1D
100
AcDbEntity
  8
0
100
AcDbLine
 10
52.80975
 20
0.1377425
 30
0.0
 11
53.49775
 21
0.1377425
 31
0.0
  0
LINE
  5
26
330
1D
100
AcDbEntity
  8
0
100
AcDbLine
 10
55.03555
 20
0.1377425
 30
0.0
 11
55.477531446963
 21
0.137913859237
 31
0.0
  0
LINE
  5
27
330
1D
100
AcDbEntity
  8
0
100
AcDbLine
 10
53.49775
 20
0.1377425
 30
0.0
 11
53.798411815941
 21
0.137789060879
 31
0.0
  0
LINE
  5
28
330
1D
100
AcDbEntity
  8
0
100
AcDbLine
 10
49.70985
 20
0.1381545
 30
0.0
 11
50.31015
 21
0.1381665
 31
0.0
  0
LINE
  5
29
330
1D
100
AcDbEntity
  8
0
100
AcDbLine
 10
50.31015
 20
0.1381665
 30
0.0
 11
51.12975
 21
0.1381665
 31
0.0
  0
LINE
  5
2A
330
1D
100
AcDbEntity
  8
0
100
AcDbLine
 10
52.81255
 20
0.1377425
 30
0.0
 11
53.50335
 21
0.1378195
 31
0.0
  0
LINE
  5
2B
330
1D
100
AcDbEntity
  8
0
100
AcDbLine
 10
53.50335
 20
0.1378195
 30
0.0
 11
54.24975
 21
0.1377425
 31
0.0
  0
LINE
  5
2C
330
1D
100
AcDbEntity
  8
0
100
AcDbLine
 10
54.587906524958
 20
0.137807237173
 30
0.0
 11
55.03555
 21
0.1377425
 31
0.0
  0
LINE
  5
2D
330
1D
100
AcDbEntity
  8
0
100
AcDbLine
 10
55.04895
 20
0.1378955
 30
0.0
 11
56.05275
 21
0.1379385
 31
0.0
  0
LINE
  5
2E
330
1D
100
AcDbEntity
  8
0
100
AcDbLine
 10
54.24975
 20
0.1377425
 30
0.0
 11
55.04895
 21
0.1378955
 31
0.0
  0
LINE
  5
2F
330
1D
100
AcDbEntity
  8
0
100
AcDbLine
 10
52.18895
 20
0.1381665
 30
0.0
 11
52.81255
 21
0.1377425
 31
0.0
  0
LINE
  5
30
330
1D
100
AcDbEntity
  8
0
100
AcDbLine
 10
56.05275
 20
0.1379385
 30
0.0
 11
56.97245
 21
0.1379755
 31
0.0
  0
LINE
  5
31
330
1D
100
AcDbEntity
  8
0
100
AcDbLine
 10
57.267876121965
 20
0.138035006346
 30
0.0
 11
57.71785
 21
0.1380025
 31
0.0
  0
LINE
  5
32
330
1D
100
AcDbEntity
  8
0
100
AcDbLine
 10
57.71785
 20
0.1380025
 30
0.0
 11
58.70405
 21
0.1380705
 31
0.0
  0
LINE
  5
33
330
1D
100
AcDbEntity
  8
0
100
AcDbLine
 10
56.97245
 20
0.1379755
 30
0.0
 11
57.94055
 21
0.1381705
 31
0.0
  0
LINE
  5
34
330
1D
100
AcDbEntity
  8
0
100
AcDbLine
 10
57.94055
 20
0.1381705
 30
0.0
 11
58.95365
 21
0.1380435
 31
0.0
  0
LINE
  5
35
330
1D
100
AcDbEntity
  8
0
100
AcDbLine
 10
59.81715
 20
0.1380705
 30
0.0
 11
60.291495281335
 21
0.138084009445
 31
0.0
  0
LINE
  5
36
330
1D
100
AcDbEntity
  8
0
100
AcDbLine
 10
61.000055582609
 20
0.13810283479
 30
0.0
 11
62.17665
 21
0.1380705
 31
0.0
  0
LINE
  5
37
330
1D
100
AcDbEntity
  8
0
100
AcDbLine
 10
62.17665
 20
0.1380705
 30
0.0
 11
63.41555
 21
0.1380705
 31
0.0
  0
LINE
  5
38
330
1D
100
AcDbEntity
  8
0
100
AcDbLine
 10
63.41555
 20
0.1380705
 30
0.0
 11
64.513136206925
 21
0.1381705
 31
0.0
  0
LINE
  5
39
330
1D
100
AcDbEntity
  8
0
100
AcDbLine
 10
62.70825
 20
0.1381705
 30
0.0
 11
63.77795
 21
0.1381705
 31
0.0
  0
LINE
  5
3A
330
1D
100
AcDbEntity
  8
0
100
AcDbLine
 10
61.66495
 20
0.1381205
 30
0.0
 11
62.70825
 21
0.1381705
 31
0.0
  0
LINE
  5
3B
330
1D
100
AcDbEntity
  8
0
100
AcDbLine
 10
60.00885
 20
0.1380765
 30
0.0
 11
61.66495
 21
0.1381205
 31
0.0
  0
LINE
  5
3C
330
1D
100
AcDbEntity
  8
0
100
AcDbLine
 10
63.77795
 20
0.1381705
 30
0.0
 11
65.98775
 21
0.1381705
 31
0.0
  0
LINE
  5
3D
330
1D
100
AcDbEntity
  8
0
100
AcDbLine
 10
58.95365
 20
0.1380435
 30
0.0
 11
60.00885
 21
0.1380765
 31
0.0
  0
LINE
  5
3E
330
1D
100
AcDbEntity
  8
0
100
AcDbLine
 10
68.94895
 20
0.1381705
 30
0.0
 11
70.46135
 21
0.1381705
 31
0.0
  0
LINE
  5
3F
330
1D
100
AcDbEntity
  8
0
100
AcDbLine
 10
67.45565
 20
0.1382285
 30
0.0
 11
68.94895
 21
0.1381705
 31
0.0
  0
LINE
  5
40
330
1D
100
AcDbEntity
  8
0
100
AcDbLine
 10
65.98775
 20
0.1381705
 30
0.0
 11
67.45565
 21
0.1382285
 31
0.0
  0
LINE
  5
41
330
1D
100
AcDbEntity
  8
0
100
AcDbLine
 10
51.12975
 20
0.1381665
 30
0.0
 11
52.17865
 21
0.1377425
 31
0.0
  0
LINE
  5
42
330
1D
100
AcDbEntity
  8
0
100
AcDbLine
 10
49.65425
 20
0.1381205
 30
0.0
 11
49.725760808689
 21
0.138154818057
 31
0.0
  0
LINE
  5
43
330
1D
100
AcDbEntity
  8
0
100
AcDbLine
 10
0.31935
 20
49.5606575
 30
0.0
 11
32.55975
 21
26.2936575
 31
0.0
  0
LINE
  5
44
330
1D
100
AcDbEntity
  8
0
100
AcDbLine
 10
-0.07245
 20
50.1575575
 30
0.0
 11
0.06835
 21
49.8230575
 31
0.0
  0
LINE
  5
46
330
1D
100
AcDbEntity
  8
0
100
AcDbLine
 10
0.03355
 20
50.8633575
 30
0.0
 11
0.14805
 21
51.0574575
 31
0.0
  0
LINE
  5
48
330
1D
100
AcDbEntity
  8
0
100
AcDbLine
 10
0.03355
 20
50.8633575
 30
0.0
 11
0.14805
 21
51.0574575
 31
0.0
  0
LINE
  5
49
330
1D
100
AcDbEntity
  8
0
100
AcDbLine
 10
-0.08455
 20
50.5201575
 30
0.0
 11
0.03355
 21
50.8633575
 31
0.0
  0
LINE
  5
4A
330
1D
100
AcDbEntity
  8
0
100
AcDbLine
 10
-0.08455
 20
50.5201575
 30
0.0
 11
0.03355
 21
50.8633575
 31
0.0
  0
LINE
  5
4B
330
1D
100
AcDbEntity
  8
0
100
AcDbLine
 10
-0.08455
 20
50.5201575
 30
0.0
 11
-0.07245
 21
50.1575575
 31
0.0
  0
LINE
  5
4C
330
1D
100
AcDbEntity
  8
0
100
AcDbLine
 10
0.14805
 20
51.0574575
 30
0.0
 11
0.95415
 21
52.4211575
 31
0.0
  0
LINE
  5
4D
330
1D
100
AcDbEntity
  8
0
100
AcDbLine
 10
1.333803042468
 20
53.015416180664
 30
0.0
 11
1.81675
 21
53.7713575
 31
0.0
  0
LINE
  5
4E
330
1D
100
AcDbEntity
  8
0
100
AcDbLine
 10
0.95415
 20
52.4211575
 30
0.0
 11
1.333803042468
 21
53.015416180664
 31
0.0
  0
LINE
  5
4F
330
1D
100
AcDbEntity
  8
0
100
AcDbLine
 10
0.95415
 20
52.4211575
 30
0.0
 11
1.333803042468
 21
53.015416180664
 31
0.0
  0
LINE
  5
50
330
1D
100
AcDbEntity
  8
0
100
AcDbLine
 10
1.333803042468
 20
53.015416180664
 30
0.0
 11
1.81675
 21
53.7713575
 31
0.0
  0
LINE
  5
51
330
1D
100
AcDbEntity
  8
0
100
AcDbLine
 10
0.14805
 20
51.0574575
 30
0.0
 11
0.95415
 21
52.4211575
 31
0.0
  0
LINE
  5
54
330
1D
100
AcDbEntity
  8
0
100
AcDbLine
 10
2.791720705951
 20
55.196276567325
 30
0.0
 11
2.99725
 21
55.4966575
 31
0.0
  0
LINE
  5
55
330
1D
100
AcDbEntity
  8
0
100
AcDbLine
 10
2.791720705951
 20
55.196276567325
 30
0.0
 11
2.99725
 21
55.4966575
 31
0.0
  0
LINE
  5
56
330
1D
100
AcDbEntity
  8
0
100
AcDbLine
 10
3.81165
 20
56.6265575
 30
0.0
 11
5.48825
 21
58.8509575
 31
0.0
  0
LINE
  5
57
330
1D
100
AcDbEntity
  8
0
100
AcDbLine
 10
2.99725
 20
55.4966575
 30
0.0
 11
3.81165
 21
56.6265575
 31
0.0
  0
LINE
  5
58
330
1D
100
AcDbEntity
  8
0
100
AcDbLine
 10
5.48825
 20
58.8509575
 30
0.0
 11
5.52975
 21
58.9016575
 31
0.0
  0
LINE
  5
59
330
1D
100
AcDbEntity
  8
0
100
AcDbLine
 10
7.65205
 20
61.5997575
 30
0.0
 11
9.87185
 21
64.3017575
 31
0.0
  0
LINE
  5
5A
330
1D
100
AcDbEntity
  8
0
100
AcDbLine
 10
9.87185
 20
64.3017575
 30
0.0
 11
12.14725
 21
66.9568575
 31
0.0
  0
LINE
  5
5E
330
1D
100
AcDbEntity
  8
0
100
AcDbLine
 10
5.52975
 20
58.9016575
 30
0.0
 11
7.65205
 21
61.5997575
 31
0.0
  0
LINE
  5
61
330
1D
100
AcDbEntity
  8
0
100
AcDbLine
 10
17.34935
 20
72.6008575
 30
0.0
 11
17.643995091417
 21
72.889212149431
 31
0.0
  0
LINE
  5
66
330
1D
100
AcDbEntity
  8
0
100
AcDbLine
 10
16.37815
 20
71.6025575
 30
0.0
 11
17.34935
 21
72.6008575
 31
0.0
  0
LINE
  5
67
330
1D
100
AcDbEntity
  8
0
100
AcDbLine
 10
14.47865
 20
69.5652575
 30
0.0
 11
16.37815
 21
71.6025575
 31
0.0
  0
LINE
  5
6E
330
1D
100
AcDbEntity
  8
0
100
AcDbLine
 10
12.14725
 20
66.9568575
 30
0.0
 11
14.47865
 21
69.5652575
 31
0.0
  0
LINE
  5
6F
330
1D
100
AcDbEntity
  8
0
100
AcDbLine
 10
0.06835
 20
49.8230575
 30
0.0
 11
0.32937368105
 21
49.570193918777
 31
0.0
  0
LINE
  5
70
330
1D
100
AcDbEntity
  8
0
100
AcDbLine
 10
0.31935
 20
49.5606575
 30
0.0
 11
32.55975
 21
26.2936575
 31
0.0
  0
LINE
  5
71
330
1D
100
AcDbEntity
  8
0
100
AcDbLine
 10
33.48095
 20
26.2037575
 30
0.0
 11
34.24705
 21
25.5609575
 31
0.0
  0
LINE
  5
72
330
1D
100
AcDbEntity
  8
0
100
AcDbLine
 10
33.48095
 20
26.2037575
 30
0.0
 11
33.54235
 21
26.2768575
 31
0.0
  0
LINE
  5
73
330
1D
100
AcDbEntity
  8
0
100
AcDbLine
 10
34.11765
 20
25.3074575
 30
0.0
 11
34.13475
 21
25.0553575
 31
0.0
  0
LINE
  5
74
330
1D
100
AcDbEntity
  8
0
100
AcDbLine
 10
34.11765
 20
25.3074575
 30
0.0
 11
34.22585
 21
25.5356575
 31
0.0
  0
LINE
  5
80
330
1D
100
AcDbEntity
  8
0
100
AcDbLine
 10
34.22585
 20
25.5356575
 30
0.0
 11
34.29455
 21
25.6174575
 31
0.0
  0
LINE
  5
81
330
1D
100
AcDbEntity
  8
0
100
AcDbLine
 10
34.13475
 20
25.0553575
 30
0.0
 11
34.27295
 21
24.8437575
 31
0.0
  0
LINE
  5
82
330
1D
100
AcDbEntity
  8
0
100
AcDbLine
 10
34.27295
 20
24.8437575
 30
0.0
 11
36.20925
 21
23.0237575
 31
0.0
  0
LINE
  5
83
330
1D
100
AcDbEntity
  8
0
100
AcDbLine
 10
38.02695
 20
21.1705575
 30
0.0
 11
40.25065
 21
18.6368575
 31
0.0
  0
LINE
  5
84
330
1D
100
AcDbEntity
  8
0
100
AcDbLine
 10
36.20925
 20
23.0237575
 30
0.0
 11
38.02695
 21
21.1705575
 31
0.0
  0
LINE
  5
85
330
1D
100
AcDbEntity
  8
0
100
AcDbLine
 10
40.25065
 20
18.6368575
 30
0.0
 11
42.057713569346
 21
16.254823307665
 31
0.0
  0
LINE
  5
86
330
1D
100
AcDbEntity
  8
0
100
AcDbLine
 10
32.78955
 20
26.2030575
 30
0.0
 11
33.03475
 21
26.2335575
 31
0.0
  0
LINE
  5
88
330
1D
100
AcDbEntity
  8
0
100
AcDbLine
 10
33.54235
 20
26.2768575
 30
0.0
 11
33.68435
 21
26.4460575
 31
0.0
  0
LINE
  5
89
330
1D
100
AcDbEntity
  8
0
100
AcDbLine
 10
33.68435
 20
26.4460575
 30
0.0
 11
33.90625
 21
26.7105575
 31
0.0
  0
LINE
  5
8D
330
1D
100
AcDbEntity
  8
0
100
AcDbLine
 10
33.90625
 20
26.7105575
 30
0.0
 11
34.20585
 21
27.0675575
 31
0.0
  0
LINE
  5
8F
330
1D
100
AcDbEntity
  8
0
100
AcDbLine
 10
33.988122923414
 20
27.274810151075
 30
0.0
 11
34.217940601739
 21
27.081965386275
 31
0.0
  0
LINE
  5
EA
330
1D
100
AcDbEntity
  8
0
100
AcDbLine
 10
33.23535
 20
26.3777575
 30
0.0
 11
33.27705
 21
26.4273575
 31
0.0
  0
LINE
  5
EB
330
1D
100
AcDbEntity
  8
0
100
AcDbLine
 10
33.03475
 20
26.2335575
 30
0.0
 11
33.23535
 21
26.3777575
 31
0.0
  0
LINE
  5
EC
330
1D
100
AcDbEntity
  8
0
100
AcDbLine
 10
32.55975
 20
26.2936575
 30
0.0
 11
32.78955
 21
26.2030575
 31
0.0
  0
LINE
  5
F6
330
1D
100
AcDbEntity
  8
0
100
AcDbLine
 10
45.80075
 20
9.7851175
 30
0.0
 11
46.60045
 21
7.9196675
 31
0.0
  0
LINE
  5
F7
330
1D
100
AcDbEntity
  8
0
100
AcDbLine
 10
47.31245
 20
6.0393475
 30
0.0
 11
48.29485
 21
3.0951275
 31
0.0
  0
LINE
  5
F8
330
1D
100
AcDbEntity
  8
0
100
AcDbLine
 10
46.60045
 20
7.9196675
 30
0.0
 11
47.31245
 21
6.0393475
 31
0.0
  0
LINE
  5
F9
330
1D
100
AcDbEntity
  8
0
100
AcDbLine
 10
44.92825
 20
11.5758575
 30
0.0
 11
45.80075
 21
9.7851175
 31
0.0
  0
LINE
  5
FA
330
1D
100
AcDbEntity
  8
0
100
AcDbLine
 10
43.95225
 20
13.3445575
 30
0.0
 11
44.92825
 21
11.5758575
 31
0.0
  0
LINE
  5
161
330
1D
100
AcDbEntity
  8
0
100
AcDbLine
 10
50.50712422201
 20
46.961386991777
 30
0.0
 11
50.73695
 21
46.7685575
 31
0.0
  0
LINE
  5
167
330
1D
100
AcDbEntity
  8
0
100
AcDbLine
 10
50.70445
 20
46.7298575
 30
0.0
 11
50.73695
 21
46.7685575
 31
0.0
  0
LINE
  5
176
330
1D
100
AcDbEntity
  8
0
100
AcDbLine
 10
22.72995
 20
76.2690575
 30
0.0
 11
51.24235
 21
48.5583575
 31
0.0
  0
LINE
  5
17C
330
1D
100
AcDbEntity
  8
0
100
AcDbLine
 10
52.40185
 20
47.1970575
 30
0.0
 11
52.58235
 21
47.3328575
 31
0.0
  0
LINE
  5
17D
330
1D
100
AcDbEntity
  8
0
100
AcDbLine
 10
51.47385
 20
47.6467575
 30
0.0
 11
52.239907605506
 21
47.00399307131
 31
0.0
  0
LINE
  5
17F
330
1D
100
AcDbEntity
  8
0
100
AcDbLine
 10
52.58235
 20
47.3328575
 30
0.0
 11
52.80415
 21
47.3753575
 31
0.0
  0
LINE
  5
180
330
1D
100
AcDbEntity
  8
0
100
AcDbLine
 10
52.80415
 20
47.3753575
 30
0.0
 11
56.51195
 21
47.2329575
 31
0.0
  0
LINE
  5
181
330
1D
100
AcDbEntity
  8
0
100
AcDbLine
 10
56.51195
 20
47.2329575
 30
0.0
 11
59.23645
 21
47.1281575
 31
0.0
  0
LINE
  5
182
330
1D
100
AcDbEntity
  8
0
100
AcDbLine
 10
61.52625
 20
46.8707575
 30
0.0
 11
62.72345
 21
46.9048575
 31
0.0
  0
LINE
  5
183
330
1D
100
AcDbEntity
  8
0
100
AcDbLine
 10
60.62065
 20
46.8564575
 30
0.0
 11
61.52625
 21
46.8707575
 31
0.0
  0
LINE
  5
184
330
1D
100
AcDbEntity
  8
0
100
AcDbLine
 10
59.98455
 20
46.8859575
 30
0.0
 11
60.62065
 21
46.8564575
 31
0.0
  0
LINE
  5
185
330
1D
100
AcDbEntity
  8
0
100
AcDbLine
 10
64.07075
 20
46.9425575
 30
0.0
 11
65.48955
 21
46.9679575
 31
0.0
  0
LINE
  5
186
330
1D
100
AcDbEntity
  8
0
100
AcDbLine
 10
62.72345
 20
46.9048575
 30
0.0
 11
64.07075
 21
46.9425575
 31
0.0
  0
LINE
  5
187
330
1D
100
AcDbEntity
  8
0
100
AcDbLine
 10
59.522313185226
 20
46.996372292467
 30
0.0
 11
59.572762697031
 21
46.976482642636
 31
0.0
  0
LINE
  5
188
330
1D
100
AcDbEntity
  8
0
100
AcDbLine
 10
59.27245
 20
47.1080575
 30
0.0
 11
59.56105
 21
46.9790575
 31
0.0
  0
LINE
  5
189
330
1D
100
AcDbEntity
  8
0
100
AcDbLine
 10
59.57765
 20
46.975408243802
 30
0.0
 11
59.57765
 21
142.3882575
 31
0.0
  0
LINE
  5
18A
330
1D
100
AcDbEntity
  8
0
100
AcDbLine
 10
59.56105
 20
46.9790575
 30
0.0
 11
59.98455
 21
46.8859575
 31
0.0
  0
LINE
  5
18B
330
1D
100
AcDbEntity
  8
0
100
AcDbLine
 10
65.48955
 20
46.9679575
 30
0.0
 11
67.03645
 21
46.9714575
 31
0.0
  0
LINE
  5
18C
330
1D
100
AcDbEntity
  8
0
100
AcDbLine
 10
67.03645
 20
46.9714575
 30
0.0
 11
68.63245
 21
46.9515575
 31
0.0
  0
LINE
  5
18D
330
1D
100
AcDbEntity
  8
0
100
AcDbLine
 10
68.63245
 20
46.9515575
 30
0.0
 11
70.28695
 21
46.9212575
 31
0.0
  0
LINE
  5
18E
330
1D
100
AcDbEntity
  8
0
100
AcDbLine
 10
58.873516581272
 20
47.123537939343
 30
0.0
 11
59.24215
 21
47.1250575
 31
0.0
  0
LINE
  5
18F
330
1D
100
AcDbEntity
  8
0
100
AcDbLine
 10
59.074535388713
 20
47.127232525344
 30
0.0
 11
59.24215
 21
47.1250575
 31
0.0
  0
LINE
  5
190
330
1D
100
AcDbEntity
  8
0
100
AcDbLine
 10
58.63335
 20
47.1328575
 30
0.0
 11
59.23645
 21
47.1281575
 31
0.0
  0
LINE
  5
191
330
1D
100
AcDbEntity
  8
0
100
AcDbLine
 10
58.816320399738
 20
47.125757412512
 30
0.0
 11
59.23645
 21
47.1281575
 31
0.0
  0
LINE
  5
192
330
1D
100
AcDbEntity
  8
0
100
AcDbLine
 10
57.39845
 20
47.1176575
 30
0.0
 11
58.63335
 21
47.1328575
 31
0.0
  0
LINE
  5
193
330
1D
100
AcDbEntity
  8
0
100
AcDbLine
 10
57.39845
 20
47.1176575
 30
0.0
 11
58.630000865108
 21
47.124693019088
 31
0.0
  0
LINE
  5
194
330
1D
100
AcDbEntity
  8
0
100
AcDbLine
 10
51.37135
 20
48.3478575
 30
0.0
 11
51.38385
 21
48.1011575
 31
0.0
  0
LINE
  5
195
330
1D
100
AcDbEntity
  8
0
100
AcDbLine
 10
51.27675
 20
47.8785575
 30
0.0
 11
51.38385
 21
48.1011575
 31
0.0
  0
LINE
  5
196
330
1D
100
AcDbEntity
  8
0
100
AcDbLine
 10
51.24235
 20
48.5583575
 30
0.0
 11
51.37135
 21
48.3478575
 31
0.0
  0
LINE
  5
199
330
1D
100
AcDbEntity
  8
0
100
AcDbLine
 10
59.48625
 20
148.8422575
 30
0.0
 11
59.48645
 21
166.3332575
 31
0.0
  0
LINE
  5
19A
330
1D
100
AcDbEntity
  8
0
100
AcDbLine
 10
59.48625
 20
148.8422575
 30
0.0
 11
59.55535
 21
148.3072575
 31
0.0
  0
LINE
  5
19B
330
1D
100
AcDbEntity
  8
0
100
AcDbLine
 10
59.48645
 20
166.3332575
 30
0.0
 11
59.54615
 21
166.8682575
 31
0.0
  0
LINE
  5
19C
330
1D
100
AcDbEntity
  8
0
100
AcDbLine
 10
59.55535
 20
148.3072575
 30
0.0
 11
59.59285
 21
148.1352575
 31
0.0
  0
LINE
  5
19D
330
1D
100
AcDbEntity
  8
0
100
AcDbLine
 10
59.54615
 20
166.8682575
 30
0.0
 11
59.73365
 21
167.3972575
 31
0.0
  0
LINE
  5
19E
330
1D
100
AcDbEntity
  8
0
100
AcDbLine
 10
59.57765
 20
148.204974833333
 30
0.0
 11
59.57765
 21
142.3882575
 31
0.0
  0
LINE
  5
19F
330
1D
100
AcDbEntity
  8
0
100
AcDbLine
 10
59.57765
 20
142.3882575
 30
0.0
 11
59.57765
 21
148.204974833333
 31
0.0
  0
LINE
  5
1A0
330
1D
100
AcDbEntity
  8
0
100
AcDbLine
 10
59.57765
 20
142.3882575
 30
0.0
 11
59.57765
 21
46.975408243802
 31
0.0
  0
LINE
  5
1A1
330
1D
100
AcDbEntity
  8
0
100
AcDbLine
 10
59.57765
 20
178.7192575
 30
0.0
 11
59.57765
 21
172.6082575
 31
0.0
  0
LINE
  5
1A2
330
1D
100
AcDbEntity
  8
0
100
AcDbLine
 10
59.57765
 20
178.7192575
 30
0.0
 11
59.57765
 21
184.4902575
 31
0.0
  0
LINE
  5
1A3
330
1D
100
AcDbEntity
  8
0
100
AcDbLine
 10
59.57765
 20
184.4902575
 30
0.0
 11
59.57765
 21
178.7192575
 31
0.0
  0
LINE
  5
1A4
330
1D
100
AcDbEntity
  8
0
100
AcDbLine
 10
59.57765
 20
184.4902575
 30
0.0
 11
59.57765
 21
189.8702575
 31
0.0
  0
LINE
  5
1A5
330
1D
100
AcDbEntity
  8
0
100
AcDbLine
 10
59.57765
 20
168.2042575
 30
0.0
 11
59.57765
 21
166.9571295
 31
0.0
  0
LINE
  5
1A6
330
1D
100
AcDbEntity
  8
0
100
AcDbLine
 10
59.57765
 20
168.2042575
 30
0.0
 11
59.57765
 21
174.2042575
 31
0.0
  0
LINE
  5
1A7
330
1D
100
AcDbEntity
  8
0
100
AcDbLine
 10
59.57765
 20
174.2042575
 30
0.0
 11
59.57765
 21
179.9072575
 31
0.0
  0
LINE
  5
1A8
330
1D
100
AcDbEntity
  8
0
100
AcDbLine
 10
59.57765
 20
174.2042575
 30
0.0
 11
59.57765
 21
168.2042575
 31
0.0
  0
LINE
  5
1A9
330
1D
100
AcDbEntity
  8
0
100
AcDbLine
 10
59.57765
 20
185.2592575
 30
0.0
 11
59.57765
 21
179.9072575
 31
0.0
  0
LINE
  5
1AA
330
1D
100
AcDbEntity
  8
0
100
AcDbLine
 10
59.57765
 20
185.2592575
 30
0.0
 11
59.57765
 21
190.2132575
 31
0.0
  0
LINE
  5
1AB
330
1D
100
AcDbEntity
  8
0
100
AcDbLine
 10
59.57765
 20
179.9072575
 30
0.0
 11
59.57765
 21
185.2592575
 31
0.0
  0
LINE
  5
1AC
330
1D
100
AcDbEntity
  8
0
100
AcDbLine
 10
59.57765
 20
179.9072575
 30
0.0
 11
59.57765
 21
174.2042575
 31
0.0
  0
LINE
  5
1AD
330
1D
100
AcDbEntity
  8
0
100
AcDbLine
 10
59.57765
 20
190.2132575
 30
0.0
 11
59.57765
 21
194.7192575
 31
0.0
  0
LINE
  5
1AE
330
1D
100
AcDbEntity
  8
0
100
AcDbLine
 10
59.57765
 20
190.2132575
 30
0.0
 11
59.57765
 21
185.2592575
 31
0.0
  0
LINE
  5
1AF
330
1D
100
AcDbEntity
  8
0
100
AcDbLine
 10
59.57765
 20
198.7382575
 30
0.0
 11
59.57765
 21
194.7192575
 31
0.0
  0
LINE
  5
1B0
330
1D
100
AcDbEntity
  8
0
100
AcDbLine
 10
59.57765
 20
198.7382575
 30
0.0
 11
59.57765
 21
202.2312575
 31
0.0
  0
LINE
  5
1B1
330
1D
100
AcDbEntity
  8
0
100
AcDbLine
 10
59.57765
 20
194.7192575
 30
0.0
 11
59.57765
 21
198.7382575
 31
0.0
  0
LINE
  5
1B2
330
1D
100
AcDbEntity
  8
0
100
AcDbLine
 10
59.57765
 20
194.7192575
 30
0.0
 11
59.57765
 21
190.2132575
 31
0.0
  0
LINE
  5
1B3
330
1D
100
AcDbEntity
  8
0
100
AcDbLine
 10
59.57765
 20
189.8702575
 30
0.0
 11
59.57765
 21
194.8062575
 31
0.0
  0
LINE
  5
1B4
330
1D
100
AcDbEntity
  8
0
100
AcDbLine
 10
59.57765
 20
189.8702575
 30
0.0
 11
59.57765
 21
184.4902575
 31
0.0
  0
LINE
  5
1B5
330
1D
100
AcDbEntity
  8
0
100
AcDbLine
 10
59.57765
 20
194.8062575
 30
0.0
 11
59.57765
 21
199.2542575
 31
0.0
  0
LINE
  5
1B6
330
1D
100
AcDbEntity
  8
0
100
AcDbLine
 10
59.57765
 20
194.8062575
 30
0.0
 11
59.57765
 21
189.8702575
 31
0.0
  0
LINE
  5
1B7
330
1D
100
AcDbEntity
  8
0
100
AcDbLine
 10
59.57765
 20
202.2312575
 30
0.0
 11
59.57765
 21
205.1662575
 31
0.0
  0
LINE
  5
1B8
330
1D
100
AcDbEntity
  8
0
100
AcDbLine
 10
59.57765
 20
202.2312575
 30
0.0
 11
59.57765
 21
198.7382575
 31
0.0
  0
LINE
  5
1B9
330
1D
100
AcDbEntity
  8
0
100
AcDbLine
 10
59.57765
 20
205.1662575
 30
0.0
 11
59.57765
 21
207.5152575
 31
0.0
  0
LINE
  5
1BA
330
1D
100
AcDbEntity
  8
0
100
AcDbLine
 10
59.57765
 20
205.1662575
 30
0.0
 11
59.57765
 21
202.2312575
 31
0.0
  0
LINE
  5
1BB
330
1D
100
AcDbEntity
  8
0
100
AcDbLine
 10
59.57765
 20
207.5152575
 30
0.0
 11
59.57765
 21
209.2572575
 31
0.0
  0
LINE
  5
1BC
330
1D
100
AcDbEntity
  8
0
100
AcDbLine
 10
59.57765
 20
207.5152575
 30
0.0
 11
59.57765
 21
205.1662575
 31
0.0
  0
LINE
  5
1BD
330
1D
100
AcDbEntity
  8
0
100
AcDbLine
 10
59.57765
 20
206.5202575
 30
0.0
 11
59.57765
 21
203.1702575
 31
0.0
  0
LINE
  5
1BE
330
1D
100
AcDbEntity
  8
0
100
AcDbLine
 10
59.57765
 20
206.5202575
 30
0.0
 11
59.57765
 21
209.2722575
 31
0.0
  0
LINE
  5
1BF
330
1D
100
AcDbEntity
  8
0
100
AcDbLine
 10
59.57765
 20
203.1702575
 30
0.0
 11
59.57765
 21
206.5202575
 31
0.0
  0
LINE
  5
1C0
330
1D
100
AcDbEntity
  8
0
100
AcDbLine
 10
59.57765
 20
203.1702575
 30
0.0
 11
59.57765
 21
199.2542575
 31
0.0
  0
LINE
  5
1C1
330
1D
100
AcDbEntity
  8
0
100
AcDbLine
 10
59.57765
 20
210.8612575
 30
0.0
 11
59.57765
 21
210.3762575
 31
0.0
  0
LINE
  5
1C2
330
1D
100
AcDbEntity
  8
0
100
AcDbLine
 10
59.57765
 20
209.2722575
 30
0.0
 11
59.57765
 21
206.5202575
 31
0.0
  0
LINE
  5
1C3
330
1D
100
AcDbEntity
  8
0
100
AcDbLine
 10
59.57765
 20
209.2722575
 30
0.0
 11
59.57765
 21
211.4002575
 31
0.0
  0
LINE
  5
1C4
330
1D
100
AcDbEntity
  8
0
100
AcDbLine
 10
59.57765
 20
211.4002575
 30
0.0
 11
59.57765
 21
212.8842575
 31
0.0
  0
LINE
  5
1C5
330
1D
100
AcDbEntity
  8
0
100
AcDbLine
 10
59.57765
 20
211.4002575
 30
0.0
 11
59.57765
 21
209.2722575
 31
0.0
  0
LINE
  5
1C6
330
1D
100
AcDbEntity
  8
0
100
AcDbLine
 10
59.57765
 20
212.8842575
 30
0.0
 11
59.57765
 21
213.7112575
 31
0.0
  0
LINE
  5
1C7
330
1D
100
AcDbEntity
  8
0
100
AcDbLine
 10
59.57765
 20
212.8842575
 30
0.0
 11
59.57765
 21
211.4002575
 31
0.0
  0
LINE
  5
1C8
330
1D
100
AcDbEntity
  8
0
100
AcDbLine
 10
59.57765
 20
213.8722575
 30
0.0
 11
59.57765
 21
213.7112575
 31
0.0
  0
LINE
  5
1C9
330
1D
100
AcDbEntity
  8
0
100
AcDbLine
 10
59.57765
 20
213.8722575
 30
0.0
 11
60.29895
 21
216.7982575
 31
0.0
  0
LINE
  5
1CA
330
1D
100
AcDbEntity
  8
0
100
AcDbLine
 10
59.57765
 20
213.7112575
 30
0.0
 11
59.57765
 21
213.8722575
 31
0.0
  0
LINE
  5
1CB
330
1D
100
AcDbEntity
  8
0
100
AcDbLine
 10
59.57765
 20
213.7112575
 30
0.0
 11
59.57765
 21
212.8842575
 31
0.0
  0
LINE
  5
1CC
330
1D
100
AcDbEntity
  8
0
100
AcDbLine
 10
59.57765
 20
209.2572575
 30
0.0
 11
59.57765
 21
210.3762575
 31
0.0
  0
LINE
  5
1CD
330
1D
100
AcDbEntity
  8
0
100
AcDbLine
 10
59.57765
 20
209.2572575
 30
0.0
 11
59.57765
 21
207.5152575
 31
0.0
  0
LINE
  5
1CE
330
1D
100
AcDbEntity
  8
0
100
AcDbLine
 10
59.57765
 20
210.3762575
 30
0.0
 11
59.57765
 21
209.2572575
 31
0.0
  0
LINE
  5
1CF
330
1D
100
AcDbEntity
  8
0
100
AcDbLine
 10
59.57765
 20
210.3762575
 30
0.0
 11
59.57765
 21
210.8612575
 31
0.0
  0
LINE
  5
1D0
330
1D
100
AcDbEntity
  8
0
100
AcDbLine
 10
59.57765
 20
199.2542575
 30
0.0
 11
59.57765
 21
194.8062575
 31
0.0
  0
LINE
  5
1D1
330
1D
100
AcDbEntity
  8
0
100
AcDbLine
 10
59.57765
 20
199.2542575
 30
0.0
 11
59.57765
 21
203.1702575
 31
0.0
  0
LINE
  5
1D2
330
1D
100
AcDbEntity
  8
0
100
AcDbLine
 10
59.57765
 20
172.6082575
 30
0.0
 11
59.57765
 21
167.1702575
 31
0.0
  0
LINE
  5
1D3
330
1D
100
AcDbEntity
  8
0
100
AcDbLine
 10
59.57765
 20
172.6082575
 30
0.0
 11
59.57765
 21
178.7192575
 31
0.0
  0
LINE
  5
1D4
330
1D
100
AcDbEntity
  8
0
100
AcDbLine
 10
59.57765
 20
166.9571295
 30
0.0
 11
59.57765
 21
167.1702575
 31
0.0
  0
LINE
  5
1D5
330
1D
100
AcDbEntity
  8
0
100
AcDbLine
 10
59.57765
 20
166.9571295
 30
0.0
 11
59.57765
 21
168.2042575
 31
0.0
  0
LINE
  5
1D6
330
1D
100
AcDbEntity
  8
0
100
AcDbLine
 10
61.20675
 20
145.9902575
 30
0.0
 11
61.87245
 21
145.5422575
 31
0.0
  0
LINE
  5
1D7
330
1D
100
AcDbEntity
  8
0
100
AcDbLine
 10
60.65145
 20
146.4642575
 30
0.0
 11
61.20675
 21
145.9902575
 31
0.0
  0
LINE
  5
1D8
330
1D
100
AcDbEntity
  8
0
100
AcDbLine
 10
60.21275
 20
146.9592575
 30
0.0
 11
60.65145
 21
146.4642575
 31
0.0
  0
LINE
  5
1D9
330
1D
100
AcDbEntity
  8
0
100
AcDbLine
 10
59.78845
 20
147.6082575
 30
0.0
 11
60.10955
 21
147.0922575
 31
0.0
  0
LINE
  5
1DA
330
1D
100
AcDbEntity
  8
0
100
AcDbLine
 10
60.10955
 20
147.0922575
 30
0.0
 11
60.21275
 21
146.9592575
 31
0.0
  0
LINE
  5
1DB
330
1D
100
AcDbEntity
  8
0
100
AcDbLine
 10
59.59285
 20
148.1352575
 30
0.0
 11
59.78845
 21
147.6082575
 31
0.0
  0
LINE
  5
1DC
330
1D
100
AcDbEntity
  8
0
100
AcDbLine
 10
61.36435
 20
148.2662575
 30
0.0
 11
61.39045
 21
148.7522575
 31
0.0
  0
LINE
  5
1DD
330
1D
100
AcDbEntity
  8
0
100
AcDbLine
 10
61.36435
 20
148.2662575
 30
0.0
 11
61.46305
 21
147.7812575
 31
0.0
  0
LINE
  5
1DE
330
1D
100
AcDbEntity
  8
0
100
AcDbLine
 10
61.87245
 20
145.5422575
 30
0.0
 11
62.64195
 21
145.1252575
 31
0.0
  0
LINE
  5
1DF
330
1D
100
AcDbEntity
  8
0
100
AcDbLine
 10
62.64195
 20
145.1252575
 30
0.0
 11
63.50725
 21
144.7432575
 31
0.0
  0
LINE
  5
1E0
330
1D
100
AcDbEntity
  8
0
100
AcDbLine
 10
63.61865
 20
144.6952575
 30
0.0
 11
64.55845
 21
144.3562575
 31
0.0
  0
LINE
  5
1E1
330
1D
100
AcDbEntity
  8
0
100
AcDbLine
 10
63.50725
 20
144.7432575
 30
0.0
 11
63.61865
 21
144.6952575
 31
0.0
  0
LINE
  5
1E2
330
1D
100
AcDbEntity
  8
0
100
AcDbLine
 10
65.57465
 20
144.0602575
 30
0.0
 11
66.65675
 21
143.8082575
 31
0.0
  0
LINE
  5
1E3
330
1D
100
AcDbEntity
  8
0
100
AcDbLine
 10
64.55845
 20
144.3562575
 30
0.0
 11
65.57465
 21
144.0602575
 31
0.0
  0
LINE
  5
1E4
330
1D
100
AcDbEntity
  8
0
100
AcDbLine
 10
67.79325
 20
143.6042575
 30
0.0
 11
68.97295
 21
143.4492575
 31
0.0
  0
LINE
  5
1E5
330
1D
100
AcDbEntity
  8
0
100
AcDbLine
 10
66.65675
 20
143.8082575
 30
0.0
 11
67.79325
 21
143.6042575
 31
0.0
  0
LINE
  5
1E6
330
1D
100
AcDbEntity
  8
0
100
AcDbLine
 10
68.97295
 20
143.4492575
 30
0.0
 11
70.18345
 21
143.3462575
 31
0.0
  0
LINE
  5
1E7
330
1D
100
AcDbEntity
  8
0
100
AcDbLine
 10
69.46785
 20
144.0442575
 30
0.0
 11
70.59885
 21
143.9542575
 31
0.0
  0
LINE
  5
1E8
330
1D
100
AcDbEntity
  8
0
100
AcDbLine
 10
68.36635
 20
144.1852575
 30
0.0
 11
69.46785
 21
144.0442575
 31
0.0
  0
LINE
  5
1E9
330
1D
100
AcDbEntity
  8
0
100
AcDbLine
 10
67.30715
 20
144.3752575
 30
0.0
 11
68.36635
 21
144.1852575
 31
0.0
  0
LINE
  5
1EA
330
1D
100
AcDbEntity
  8
0
100
AcDbLine
 10
66.30305
 20
144.6122575
 30
0.0
 11
67.30715
 21
144.3752575
 31
0.0
  0
LINE
  5
1EB
330
1D
100
AcDbEntity
  8
0
100
AcDbLine
 10
65.36525
 20
144.8942575
 30
0.0
 11
66.30305
 21
144.6122575
 31
0.0
  0
LINE
  5
1EC
330
1D
100
AcDbEntity
  8
0
100
AcDbLine
 10
64.50535
 20
145.2172575
 30
0.0
 11
65.36525
 21
144.8942575
 31
0.0
  0
LINE
  5
1ED
330
1D
100
AcDbEntity
  8
0
100
AcDbLine
 10
63.73315
 20
145.5782575
 30
0.0
 11
64.50535
 21
145.2172575
 31
0.0
  0
LINE
  5
1EE
330
1D
100
AcDbEntity
  8
0
100
AcDbLine
 10
63.05765
 20
145.9712575
 30
0.0
 11
63.73315
 21
145.5782575
 31
0.0
  0
LINE
  5
1EF
330
1D
100
AcDbEntity
  8
0
100
AcDbLine
 10
62.48705
 20
146.3942575
 30
0.0
 11
63.05765
 21
145.9712575
 31
0.0
  0
LINE
  5
1F0
330
1D
100
AcDbEntity
  8
0
100
AcDbLine
 10
62.02745
 20
146.8402575
 30
0.0
 11
62.48705
 21
146.3942575
 31
0.0
  0
LINE
  5
1F1
330
1D
100
AcDbEntity
  8
0
100
AcDbLine
 10
61.68495
 20
147.3042575
 30
0.0
 11
62.02745
 21
146.8402575
 31
0.0
  0
LINE
  5
1F2
330
1D
100
AcDbEntity
  8
0
100
AcDbLine
 10
61.46305
 20
147.7812575
 30
0.0
 11
61.68495
 21
147.3042575
 31
0.0
  0
LINE
  5
1F4
330
1D
100
AcDbEntity
  8
0
100
AcDbLine
 10
61.39045
 20
148.7522575
 30
0.0
 11
61.54075
 21
149.2342575
 31
0.0
  0
LINE
  5
1F7
330
1D
100
AcDbEntity
  8
0
100
AcDbLine
 10
59.73365
 20
167.3972575
 30
0.0
 11
60.04635
 21
167.9152575
 31
0.0
  0
LINE
  5
1F8
330
1D
100
AcDbEntity
  8
0
100
AcDbLine
 10
60.04635
 20
167.9152575
 30
0.0
 11
60.48195
 21
168.4182575
 31
0.0
  0
LINE
  5
1F9
330
1D
100
AcDbEntity
  8
0
100
AcDbLine
 10
60.48195
 20
168.4182575
 30
0.0
 11
61.03545
 21
168.8992575
 31
0.0
  0
LINE
  5
1FA
330
1D
100
AcDbEntity
  8
0
100
AcDbLine
 10
61.097955924459
 20
168.941947676567
 30
0.0
 11
61.21095
 21
169.0402575
 31
0.0
  0
LINE
  5
1FB
330
1D
100
AcDbEntity
  8
0
100
AcDbLine
 10
61.03545
 20
168.8992575
 30
0.0
 11
61.70165
 21
169.3542575
 31
0.0
  0
LINE
  5
1FC
330
1D
100
AcDbEntity
  8
0
100
AcDbLine
 10
61.03545
 20
168.8992575
 30
0.0
 11
61.21095
 21
169.0402575
 31
0.0
  0
LINE
  5
1FD
330
1D
100
AcDbEntity
  8
0
100
AcDbLine
 10
60.29895
 20
216.7982575
 30
0.0
 11
61.69935
 21
219.4652575
 31
0.0
  0
LINE
  5
1FE
330
1D
100
AcDbEntity
  8
0
100
AcDbLine
 10
61.21095
 20
169.0402575
 30
0.0
 11
61.86615
 21
169.4882575
 31
0.0
  0
LINE
  5
1FF
330
1D
100
AcDbEntity
  8
0
100
AcDbLine
 10
60.29895
 20
168.4072575
 30
0.0
 11
61.69915
 21
169.5342575
 31
0.0
  0
LINE
  5
200
330
1D
100
AcDbEntity
  8
0
100
AcDbLine
 10
61.70165
 20
169.3542575
 30
0.0
 11
62.47285
 21
169.7792575
 31
0.0
  0
LINE
  5
201
330
1D
100
AcDbEntity
  8
0
100
AcDbLine
 10
61.69935
 20
219.4652575
 30
0.0
 11
63.69745
 21
221.7202575
 31
0.0
  0
LINE
  5
202
330
1D
100
AcDbEntity
  8
0
100
AcDbLine
 10
61.69915
 20
169.5342575
 30
0.0
 11
63.69745
 21
170.4882575
 31
0.0
  0
LINE
  5
203
330
1D
100
AcDbEntity
  8
0
100
AcDbLine
 10
61.86615
 20
169.4882575
 30
0.0
 11
62.62505
 21
169.9052575
 31
0.0
  0
LINE
  5
204
330
1D
100
AcDbEntity
  8
0
100
AcDbLine
 10
61.81345
 20
149.7062575
 30
0.0
 11
62.20545
 21
150.1642575
 31
0.0
  0
LINE
  5
205
330
1D
100
AcDbEntity
  8
0
100
AcDbLine
 10
62.20545
 20
150.1642575
 30
0.0
 11
62.71225
 21
150.6002575
 31
0.0
  0
LINE
  5
206
330
1D
100
AcDbEntity
  8
0
100
AcDbLine
 10
62.71225
 20
150.6002575
 30
0.0
 11
63.32745
 21
151.0112575
 31
0.0
  0
LINE
  5
207
330
1D
100
AcDbEntity
  8
0
100
AcDbLine
 10
63.32745
 20
151.0112575
 30
0.0
 11
64.04465
 21
151.3922575
 31
0.0
  0
LINE
  5
208
330
1D
100
AcDbEntity
  8
0
100
AcDbLine
 10
64.04465
 20
151.3922575
 30
0.0
 11
64.85465
 21
151.7372575
 31
0.0
  0
LINE
  5
209
330
1D
100
AcDbEntity
  8
0
100
AcDbLine
 10
64.85465
 20
151.7372575
 30
0.0
 11
65.74805
 21
152.0432575
 31
0.0
  0
LINE
  5
20A
330
1D
100
AcDbEntity
  8
0
100
AcDbLine
 10
65.74805
 20
152.0432575
 30
0.0
 11
66.71485
 21
152.3072575
 31
0.0
  0
LINE
  5
20B
330
1D
100
AcDbEntity
  8
0
100
AcDbLine
 10
66.71485
 20
152.3072575
 30
0.0
 11
67.74355
 21
152.5252575
 31
0.0
  0
LINE
  5
20C
330
1D
100
AcDbEntity
  8
0
100
AcDbLine
 10
67.74355
 20
152.5252575
 30
0.0
 11
68.82185
 21
152.6952575
 31
0.0
  0
LINE
  5
20D
330
1D
100
AcDbEntity
  8
0
100
AcDbLine
 10
68.82185
 20
152.6952575
 30
0.0
 11
69.93735
 21
152.8142575
 31
0.0
  0
LINE
  5
20E
330
1D
100
AcDbEntity
  8
0
100
AcDbLine
 10
62.47285
 20
169.7792575
 30
0.0
 11
63.34215
 21
170.1682575
 31
0.0
  0
LINE
  5
20F
330
1D
100
AcDbEntity
  8
0
100
AcDbLine
 10
63.34215
 20
170.1682575
 30
0.0
 11
64.29985
 21
170.5182575
 31
0.0
  0
LINE
  5
210
330
1D
100
AcDbEntity
  8
0
100
AcDbLine
 10
64.29985
 20
170.5182575
 30
0.0
 11
65.33655
 21
170.8252575
 31
0.0
  0
LINE
  5
211
330
1D
100
AcDbEntity
  8
0
100
AcDbLine
 10
63.69745
 20
221.7202575
 30
0.0
 11
66.17755
 21
223.4312575
 31
0.0
  0
LINE
  5
212
330
1D
100
AcDbEntity
  8
0
100
AcDbLine
 10
63.69745
 20
170.4882575
 30
0.0
 11
66.17755
 21
171.2112575
 31
0.0
  0
LINE
  5
213
330
1D
100
AcDbEntity
  8
0
100
AcDbLine
 10
65.33655
 20
170.8252575
 30
0.0
 11
66.44155
 21
171.0872575
 31
0.0
  0
LINE
  5
214
330
1D
100
AcDbEntity
  8
0
100
AcDbLine
 10
66.44155
 20
171.0872575
 30
0.0
 11
67.60325
 21
171.2992575
 31
0.0
  0
LINE
  5
215
330
1D
100
AcDbEntity
  8
0
100
AcDbLine
 10
66.17755
 20
223.4312575
 30
0.0
 11
68.99505
 21
224.4992575
 31
0.0
  0
LINE
  5
216
330
1D
100
AcDbEntity
  8
0
100
AcDbLine
 10
66.17755
 20
171.2112575
 30
0.0
 11
68.99505
 21
171.6632575
 31
0.0
  0
LINE
  5
217
330
1D
100
AcDbEntity
  8
0
100
AcDbLine
 10
67.60325
 20
171.2992575
 30
0.0
 11
68.81015
 21
171.4622575
 31
0.0
  0
LINE
  5
218
330
1D
100
AcDbEntity
  8
0
100
AcDbLine
 10
68.81015
 20
171.4622575
 30
0.0
 11
70.04955
 21
171.5712575
 31
0.0
  0
LINE
  5
219
330
1D
100
AcDbEntity
  8
0
100
AcDbLine
 10
70.04955
 20
171.5712575
 30
0.0
 11
71.30855
 21
171.6272575
 31
0.0
  0
LINE
  5
21A
330
1D
100
AcDbEntity
  8
0
100
AcDbLine
 10
68.99505
 20
224.4992575
 30
0.0
 11
71.98655
 21
224.8622575
 31
0.0
  0
LINE
  5
21B
330
1D
100
AcDbEntity
  8
0
100
AcDbLine
 10
68.99505
 20
171.6632575
 30
0.0
 11
71.98635
 21
171.8162575
 31
0.0
  0
LINE
  5
21C
330
1D
100
AcDbEntity
  8
0
100
AcDbLine
 10
68.86095
 20
171.5612575
 30
0.0
 11
70.08045
 21
171.6692575
 31
0.0
  0
LINE
  5
21D
330
1D
100
AcDbEntity
  8
0
100
AcDbLine
 10
67.67325
 20
171.4022575
 30
0.0
 11
68.86095
 21
171.5612575
 31
0.0
  0
LINE
  5
21E
330
1D
100
AcDbEntity
  8
0
100
AcDbLine
 10
66.53015
 20
171.1922575
 30
0.0
 11
67.67325
 21
171.4022575
 31
0.0
  0
LINE
  5
21F
330
1D
100
AcDbEntity
  8
0
100
AcDbLine
 10
65.44315
 20
170.9352575
 30
0.0
 11
66.53015
 21
171.1922575
 31
0.0
  0
LINE
  5
220
330
1D
100
AcDbEntity
  8
0
100
AcDbLine
 10
64.42275
 20
170.6332575
 30
0.0
 11
65.44315
 21
170.9352575
 31
0.0
  0
LINE
  5
221
330
1D
100
AcDbEntity
  8
0
100
AcDbLine
 10
63.48015
 20
170.2882575
 30
0.0
 11
64.42275
 21
170.6332575
 31
0.0
  0
LINE
  5
222
330
1D
100
AcDbEntity
  8
0
100
AcDbLine
 10
62.62505
 20
169.9052575
 30
0.0
 11
63.48015
 21
170.2882575
 31
0.0
  0
LINE
  5
223
330
1D
100
AcDbEntity
  8
0
100
AcDbLine
 10
69.93735
 20
152.8142575
 30
0.0
 11
71.07675
 21
152.8822575
 31
0.0
  0
LINE
  5
225
330
1D
100
AcDbEntity
  8
0
100
AcDbLine
 10
61.54075
 20
149.2342575
 30
0.0
 11
61.81345
 21
149.7062575
 31
0.0
  0
LINE
  5
226
330
1D
100
AcDbEntity
  8
0
100
AcDbLine
 10
59.57765
 20
167.1702575
 30
0.0
 11
59.57765
 21
166.9571295
 31
0.0
  0
LINE
  5
227
330
1D
100
AcDbEntity
  8
0
100
AcDbLine
 10
59.57765
 20
167.1702575
 30
0.0
 11
60.29895
 21
168.4072575
 31
0.0
  0
LINE
  5
228
330
1D
100
AcDbEntity
  8
0
100
AcDbLine
 10
59.57765
 20
167.1702575
 30
0.0
 11
59.57765
 21
172.6082575
 31
0.0
  0
LINE
  5
229
330
1D
100
AcDbEntity
  8
0
100
AcDbLine
 10
22.07435
 20
76.5510575
 30
0.0
 11
22.42815
 21
76.4705575
 31
0.0
  0
LINE
  5
22A
330
1D
100
AcDbEntity
  8
0
100
AcDbLine
 10
21.71505
 20
76.5000575
 30
0.0
 11
22.07435
 21
76.5510575
 31
0.0
  0
LINE
  5
22B
330
1D
100
AcDbEntity
  8
0
100
AcDbLine
 10
22.42815
 20
76.4705575
 30
0.0
 11
22.72995
 21
76.2690575
 31
0.0
  0
LINE
  5
22C
330
1D
100
AcDbEntity
  8
0
100
AcDbLine
 10
21.39775
 20
76.3241575
 30
0.0
 11
21.71505
 21
76.5000575
 31
0.0
  0
LINE
  5
22D
330
1D
100
AcDbEntity
  8
0
100
AcDbLine
 10
70.46135
 20
0.1381705
 30
0.0
 11
71.98685
 21
0.1382575
 31
0.0
  0
LINE
  5
22E
330
1D
100
AcDbEntity
  8
0
100
AcDbLine
 10
75.609793511422
 20
0.1382105
 30
0.0
 11
76.65125
 21
0.1381095
 31
0.0
  0
LINE
  5
22F
330
1D
100
AcDbEntity
  8
0
100
AcDbLine
 10
73.65135
 20
0.1381095
 30
0.0
 11
74.922793511485
 21
0.1382105
 31
0.0
  0
LINE
  5
230
330
1D
100
AcDbEntity
  8
0
100
AcDbLine
 10
73.51175
 20
0.1382105
 30
0.0
 11
75.02425
 21
0.1382105
 31
0.0
  0
LINE
  5
232
330
1D
100
AcDbEntity
  8
0
100
AcDbLine
 10
72.974068771896
 20
0.138227072246
 30
0.0
 11
73.65135
 21
0.1381095
 31
0.0
  0
LINE
  5
233
330
1D
100
AcDbEntity
  8
0
100
AcDbLine
 10
71.98685
 20
0.1382575
 30
0.0
 11
73.51175
 21
0.1382105
 31
0.0
  0
LINE
  5
234
330
1D
100
AcDbEntity
  8
0
100
AcDbLine
 10
75.02425
 20
0.1382105
 30
0.0
 11
76.51775
 21
0.1382105
 31
0.0
  0
LINE
  5
235
330
1D
100
AcDbEntity
  8
0
100
AcDbLine
 10
87.92035
 20
0.1377815
 30
0.0
 11
88.92415
 21
0.1378955
 31
0.0
  0
LINE
  5
236
330
1D
100
AcDbEntity
  8
0
100
AcDbLine
 10
88.09145
 20
0.1377815
 30
0.0
 11
88.93775
 21
0.1377815
 31
0.0
  0
LINE
  5
237
330
1D
100
AcDbEntity
  8
0
100
AcDbLine
 10
88.93775
 20
0.1377815
 30
0.0
 11
89.73275
 21
0.1378575
 31
0.0
  0
LINE
  5
238
330
1D
100
AcDbEntity
  8
0
100
AcDbLine
 10
89.73275
 20
0.1378575
 30
0.0
 11
90.212304236287
 21
0.137832957157
 31
0.0
  0
LINE
  5
239
330
1D
100
AcDbEntity
  8
0
100
AcDbLine
 10
89.73275
 20
0.1378575
 30
0.0
 11
90.212304236287
 21
0.137832957157
 31
0.0
  0
LINE
  5
23A
330
1D
100
AcDbEntity
  8
0
100
AcDbLine
 10
91.16335
 20
0.1377815
 30
0.0
 11
91.592680201108
 21
0.138225306588
 31
0.0
  0
LINE
  5
23B
330
1D
100
AcDbEntity
  8
0
100
AcDbLine
 10
91.16025
 20
0.1377815
 30
0.0
 11
91.78415
 21
0.1384265
 31
0.0
  0
LINE
  5
23C
330
1D
100
AcDbEntity
  8
0
100
AcDbLine
 10
90.46975
 20
0.1378195
 30
0.0
 11
91.16025
 21
0.1377815
 31
0.0
  0
LINE
  5
23D
330
1D
100
AcDbEntity
  8
0
100
AcDbLine
 10
89.72365
 20
0.1378585
 30
0.0
 11
90.46975
 21
0.1378195
 31
0.0
  0
LINE
  5
23E
330
1D
100
AcDbEntity
  8
0
100
AcDbLine
 10
88.92415
 20
0.1378955
 30
0.0
 11
89.72365
 21
0.1378585
 31
0.0
  0
LINE
  5
23F
330
1D
100
AcDbEntity
  8
0
100
AcDbLine
 10
86.25525
 20
0.1380025
 30
0.0
 11
86.687193239688
 21
0.138051605319
 31
0.0
  0
LINE
  5
240
330
1D
100
AcDbEntity
  8
0
100
AcDbLine
 10
94.62675
 20
0.1380015
 30
0.0
 11
94.74885
 21
0.1384265
 31
0.0
  0
LINE
  5
241
330
1D
100
AcDbEntity
  8
0
100
AcDbLine
 10
94.629335647059
 20
0.1380105
 30
0.0
 11
94.70315
 21
0.1380105
 31
0.0
  0
LINE
  5
242
330
1D
100
AcDbEntity
  8
0
100
AcDbLine
 10
94.31895
 20
0.1380105
 30
0.0
 11
94.55995
 21
0.1380105
 31
0.0
  0
LINE
  5
243
330
1D
100
AcDbEntity
  8
0
100
AcDbLine
 10
87.00065
 20
0.1379755
 30
0.0
 11
87.92035
 21
0.1377815
 31
0.0
  0
LINE
  5
244
330
1D
100
AcDbEntity
  8
0
100
AcDbLine
 10
85.01945
 20
0.1380435
 30
0.0
 11
86.03275
 21
0.1382105
 31
0.0
  0
LINE
  5
245
330
1D
100
AcDbEntity
  8
0
100
AcDbLine
 10
76.65125
 20
0.1381095
 30
0.0
 11
77.98045
 21
0.1382085
 31
0.0
  0
LINE
  5
246
330
1D
100
AcDbEntity
  8
0
100
AcDbLine
 10
77.98045
 20
0.1382085
 30
0.0
 11
79.28435
 21
0.1381865
 31
0.0
  0
LINE
  5
247
330
1D
100
AcDbEntity
  8
0
100
AcDbLine
 10
79.28435
 20
0.1381865
 30
0.0
 11
80.55765
 21
0.1381615
 31
0.0
  0
LINE
  5
248
330
1D
100
AcDbEntity
  8
0
100
AcDbLine
 10
80.55765
 20
0.1381615
 30
0.0
 11
81.264385979262
 21
0.138145522118
 31
0.0
  0
LINE
  5
249
330
1D
100
AcDbEntity
  8
0
100
AcDbLine
 10
85.360096930857
 20
0.138099641357
 30
0.0
 11
86.25525
 21
0.1380025
 31
0.0
  0
LINE
  5
24A
330
1D
100
AcDbEntity
  8
0
100
AcDbLine
 10
82.30815
 20
0.1381205
 30
0.0
 11
83.96425
 21
0.1380765
 31
0.0
  0
LINE
  5
24B
330
1D
100
AcDbEntity
  8
0
100
AcDbLine
 10
81.26475
 20
0.1381455
 30
0.0
 11
82.30815
 21
0.1381205
 31
0.0
  0
LINE
  5
24C
330
1D
100
AcDbEntity
  8
0
100
AcDbLine
 10
77.98545
 20
0.1382105
 30
0.0
 11
80.19495
 21
0.1382105
 31
0.0
  0
LINE
  5
24D
330
1D
100
AcDbEntity
  8
0
100
AcDbLine
 10
80.19495
 20
0.1382105
 30
0.0
 11
81.26475
 21
0.1381455
 31
0.0
  0
LINE
  5
24E
330
1D
100
AcDbEntity
  8
0
100
AcDbLine
 10
91.620678527132
 20
0.1382575
 30
0.0
 11
91.7930875
 21
0.1382575
 31
0.0
  0
LINE
  5
24F
330
1D
100
AcDbEntity
  8
0
100
AcDbLine
 10
91.991687499999
 20
0.1382575
 30
0.0
 11
92.63635
 21
0.1382575
 31
0.0
  0
LINE
  5
250
330
1D
100
AcDbEntity
  8
0
100
AcDbLine
 10
92.63635
 20
0.1382575
 30
0.0
 11
93.11435
 21
0.1382575
 31
0.0
  0
LINE
  5
251
330
1D
100
AcDbEntity
  8
0
100
AcDbLine
 10
93.11435
 20
0.1382575
 30
0.0
 11
93.23035
 21
0.1382575
 31
0.0
  0
LINE
  5
252
330
1D
100
AcDbEntity
  8
0
100
AcDbLine
 10
92.98375
 20
0.1382575
 30
0.0
 11
93.23035
 21
0.1382575
 31
0.0
  0
LINE
  5
253
330
1D
100
AcDbEntity
  8
0
100
AcDbLine
 10
92.37725
 20
0.1382575
 30
0.0
 11
92.98375
 21
0.1382575
 31
0.0
  0
LINE
  5
254
330
1D
100
AcDbEntity
  8
0
100
AcDbLine
 10
91.991687499994
 20
0.1382575
 30
0.0
 11
92.37725
 21
0.1382575
 31
0.0
  0
LINE
  5
255
330
1D
100
AcDbEntity
  8
0
100
AcDbLine
 10
91.79515
 20
0.1382185
 30
0.0
 11
92.84335
 21
0.1384265
 31
0.0
  0
LINE
  5
256
330
1D
100
AcDbEntity
  8
0
100
AcDbLine
 10
94.26325
 20
0.1381545
 30
0.0
 11
94.62675
 21
0.1380015
 31
0.0
  0
LINE
  5
257
330
1D
100
AcDbEntity
  8
0
100
AcDbLine
 10
93.99795
 20
0.1382745
 30
0.0
 11
94.31895
 21
0.1380105
 31
0.0
  0
LINE
  5
258
330
1D
100
AcDbEntity
  8
0
100
AcDbLine
 10
93.41925
 20
0.1383125
 30
0.0
 11
93.99795
 21
0.1382745
 31
0.0
  0
LINE
  5
259
330
1D
100
AcDbEntity
  8
0
100
AcDbLine
 10
92.84335
 20
0.1384265
 30
0.0
 11
93.66295
 21
0.1384265
 31
0.0
  0
LINE
  5
25A
330
1D
100
AcDbEntity
  8
0
100
AcDbLine
 10
93.66295
 20
0.1384265
 30
0.0
 11
94.26325
 21
0.1381545
 31
0.0
  0
LINE
  5
25B
330
1D
100
AcDbEntity
  8
0
100
AcDbLine
 10
94.74885
 20
0.1384265
 30
0.0
 11
95.67825
 21
3.0949475
 31
0.0
  0
LINE
  5
25C
330
1D
100
AcDbEntity
  8
0
100
AcDbLine
 10
95.67825
 20
3.0949475
 30
0.0
 11
96.66065
 21
6.0395675
 31
0.0
  0
LINE
  5
25D
330
1D
100
AcDbEntity
  8
0
100
AcDbLine
 10
94.74885
 20
0.1384265
 30
0.0
 11
95.67825
 21
3.0949475
 31
0.0
  0
LINE
  5
25E
330
1D
100
AcDbEntity
  8
0
100
AcDbLine
 10
92.792641889464
 20
0.138416437715
 30
0.0
 11
93.41925
 21
0.1383125
 31
0.0
  0
LINE
  5
25F
330
1D
100
AcDbEntity
  8
0
100
AcDbLine
 10
97.37265
 20
7.9194375
 30
0.0
 11
98.17235
 21
9.7852975
 31
0.0
  0
LINE
  5
260
330
1D
100
AcDbEntity
  8
0
100
AcDbLine
 10
96.66065
 20
6.0395675
 30
0.0
 11
97.37265
 21
7.9194375
 31
0.0
  0
LINE
  5
261
330
1D
100
AcDbEntity
  8
0
100
AcDbLine
 10
100.02055
 20
13.3442575
 30
0.0
 11
101.74255
 21
16.0269575
 31
0.0
  0
LINE
  5
262
330
1D
100
AcDbEntity
  8
0
100
AcDbLine
 10
99.04485
 20
11.5760575
 30
0.0
 11
100.02055
 21
13.3442575
 31
0.0
  0
LINE
  5
263
330
1D
100
AcDbEntity
  8
0
100
AcDbLine
 10
103.72255
 20
18.6369575
 30
0.0
 11
105.94655
 21
21.1706575
 31
0.0
  0
LINE
  5
264
330
1D
100
AcDbEntity
  8
0
100
AcDbLine
 10
105.94655
 20
21.1706575
 30
0.0
 11
107.76355
 21
23.0237575
 31
0.0
  0
LINE
  5
265
330
1D
100
AcDbEntity
  8
0
100
AcDbLine
 10
101.74255
 20
16.0269575
 30
0.0
 11
103.72255
 21
18.6369575
 31
0.0
  0
LINE
  5
266
330
1D
100
AcDbEntity
  8
0
100
AcDbLine
 10
98.17235
 20
9.7852975
 30
0.0
 11
99.04485
 21
11.5760575
 31
0.0
  0
LINE
  5
267
330
1D
100
AcDbEntity
  8
0
100
AcDbLine
 10
86.03275
 20
0.1382105
 30
0.0
 11
87.00065
 21
0.1379755
 31
0.0
  0
LINE
  5
268
330
1D
100
AcDbEntity
  8
0
100
AcDbLine
 10
83.96425
 20
0.1380765
 30
0.0
 11
85.01945
 21
0.1380435
 31
0.0
  0
LINE
  5
269
330
1D
100
AcDbEntity
  8
0
100
AcDbLine
 10
76.51775
 20
0.1382105
 30
0.0
 11
77.98545
 21
0.1382105
 31
0.0
  0
LINE
  5
273
330
1D
100
AcDbEntity
  8
0
100
AcDbLine
 10
109.67855
 20
25.6174575
 30
0.0
 11
109.715694053364
 21
25.573422955578
 31
0.0
  0
LINE
  5
274
330
1D
100
AcDbEntity
  8
0
100
AcDbLine
 10
109.73555
 20
25.5492575
 30
0.0
 11
110.50155
 21
26.1920575
 31
0.0
  0
LINE
  5
275
330
1D
100
AcDbEntity
  8
0
100
AcDbLine
 10
110.38055
 20
26.3370575
 30
0.0
 11
110.48155
 21
26.2160575
 31
0.0
  0
LINE
  5
276
330
1D
100
AcDbEntity
  8
0
100
AcDbLine
 10
109.74755
 20
25.5356575
 30
0.0
 11
109.85555
 21
25.3074575
 31
0.0
  0
LINE
  5
277
330
1D
100
AcDbEntity
  8
0
100
AcDbLine
 10
109.83855
 20
25.0553575
 30
0.0
 11
109.85555
 21
25.3074575
 31
0.0
  0
LINE
  5
278
330
1D
100
AcDbEntity
  8
0
100
AcDbLine
 10
109.70055
 20
24.8438575
 30
0.0
 11
109.83855
 21
25.0553575
 31
0.0
  0
LINE
  5
279
330
1D
100
AcDbEntity
  8
0
100
AcDbLine
 10
107.76355
 20
23.0237575
 30
0.0
 11
109.70055
 21
24.8438575
 31
0.0
  0
LINE
  5
27D
330
1D
100
AcDbEntity
  8
0
100
AcDbLine
 10
110.96555
 20
26.2018575
 30
0.0
 11
111.21055
 21
26.1713575
 31
0.0
  0
LINE
  5
297
330
1D
100
AcDbEntity
  8
0
100
AcDbLine
 10
109.764727283189
 20
27.070406279015
 30
0.0
 11
109.99481743809
 21
27.263501781856
 31
0.0
  0
LINE
  5
299
330
1D
100
AcDbEntity
  8
0
100
AcDbLine
 10
109.764727283189
 20
27.070406279015
 30
0.0
 11
109.99481743809
 21
27.263501781856
 31
0.0
  0
LINE
  5
2EA
330
1D
100
AcDbEntity
  8
0
100
AcDbLine
 10
81.24975
 20
46.9048575
 30
0.0
 11
82.44685
 21
46.8707575
 31
0.0
  0
LINE
  5
2EB
330
1D
100
AcDbEntity
  8
0
100
AcDbLine
 10
83.90785
 20
46.8771575
 30
0.0
 11
84.38125
 21
46.9687575
 31
0.0
  0
LINE
  5
2EC
330
1D
100
AcDbEntity
  8
0
100
AcDbLine
 10
83.17585
 20
46.8576575
 30
0.0
 11
83.90785
 21
46.8771575
 31
0.0
  0
LINE
  5
2ED
330
1D
100
AcDbEntity
  8
0
100
AcDbLine
 10
82.44685
 20
46.8707575
 30
0.0
 11
83.17585
 21
46.8576575
 31
0.0
  0
LINE
  5
2EE
330
1D
100
AcDbEntity
  8
0
100
AcDbLine
 10
73.68615
 20
46.9212575
 30
0.0
 11
75.34065
 21
46.9515575
 31
0.0
  0
LINE
  5
2EF
330
1D
100
AcDbEntity
  8
0
100
AcDbLine
 10
71.98655
 20
46.9040575
 30
0.0
 11
73.68615
 21
46.9212575
 31
0.0
  0
LINE
  5
2F0
330
1D
100
AcDbEntity
  8
0
100
AcDbLine
 10
78.48355
 20
46.9679575
 30
0.0
 11
79.90235
 21
46.9425575
 31
0.0
  0
LINE
  5
2F1
330
1D
100
AcDbEntity
  8
0
100
AcDbLine
 10
84.38125
 20
46.9687575
 30
0.0
 11
84.59685
 21
47.0540575
 31
0.0
  0
LINE
  5
2F2
330
1D
100
AcDbEntity
  8
0
100
AcDbLine
 10
79.90235
 20
46.9425575
 30
0.0
 11
81.24975
 21
46.9048575
 31
0.0
  0
LINE
  5
2F3
330
1D
100
AcDbEntity
  8
0
100
AcDbLine
 10
84.39545
 20
46.974375589054
 30
0.0
 11
84.39545
 21
142.3882575
 31
0.0
  0
LINE
  5
2F4
330
1D
100
AcDbEntity
  8
0
100
AcDbLine
 10
84.446828485173
 20
46.99470297674
 30
0.0
 11
84.688593248334
 21
47.102768307467
 31
0.0
  0
LINE
  5
2F5
330
1D
100
AcDbEntity
  8
0
100
AcDbLine
 10
84.59685
 20
47.0540575
 30
0.0
 11
84.73095
 21
47.1252575
 31
0.0
  0
LINE
  5
2F7
330
1D
100
AcDbEntity
  8
0
100
AcDbLine
 10
76.93665
 20
46.9714575
 30
0.0
 11
78.48355
 21
46.9679575
 31
0.0
  0
LINE
  5
2F8
330
1D
100
AcDbEntity
  8
0
100
AcDbLine
 10
75.34065
 20
46.9515575
 30
0.0
 11
76.93665
 21
46.9714575
 31
0.0
  0
LINE
  5
2F9
330
1D
100
AcDbEntity
  8
0
100
AcDbLine
 10
70.28695
 20
46.9212575
 30
0.0
 11
71.98655
 21
46.9040575
 31
0.0
  0
LINE
  5
2FA
330
1D
100
AcDbEntity
  8
0
100
AcDbLine
 10
91.80435
 20
46.9192575
 30
0.0
 11
91.879836988864
 21
46.829257871728
 31
0.0
  0
LINE
  5
2FB
330
1D
100
AcDbEntity
  8
0
100
AcDbLine
 10
91.751773952087
 20
46.981852110789
 30
0.0
 11
91.80435
 21
46.9192575
 31
0.0
  0
LINE
  5
2FC
330
1D
100
AcDbEntity
  8
0
100
AcDbLine
 10
91.742954353878
 20
46.992361153143
 30
0.0
 11
92.50905
 21
47.6351575
 31
0.0
  0
LINE
  5
300
330
1D
100
AcDbEntity
  8
0
100
AcDbLine
 10
84.73665
 20
47.1281575
 30
0.0
 11
84.892112526767
 21
47.127269384368
 31
0.0
  0
LINE
  5
301
330
1D
100
AcDbEntity
  8
0
100
AcDbLine
 10
84.73665
 20
47.1281575
 30
0.0
 11
87.46115
 21
47.2328575
 31
0.0
  0
LINE
  5
302
330
1D
100
AcDbEntity
  8
0
100
AcDbLine
 10
84.73665
 20
47.1281575
 30
0.0
 11
84.89118838703
 21
47.127257847801
 31
0.0
  0
LINE
  5
303
330
1D
100
AcDbEntity
  8
0
100
AcDbLine
 10
84.73665
 20
47.1281575
 30
0.0
 11
84.892112526767
 21
47.127269384368
 31
0.0
  0
LINE
  5
304
330
1D
100
AcDbEntity
  8
0
100
AcDbLine
 10
91.57125
 20
47.1970575
 30
0.0
 11
91.61085
 21
47.1498575
 31
0.0
  0
LINE
  5
305
330
1D
100
AcDbEntity
  8
0
100
AcDbLine
 10
91.16895
 20
47.3753575
 30
0.0
 11
91.39075
 21
47.3328575
 31
0.0
  0
LINE
  5
306
330
1D
100
AcDbEntity
  8
0
100
AcDbLine
 10
91.39075
 20
47.3328575
 30
0.0
 11
91.57125
 21
47.1970575
 31
0.0
  0
LINE
  5
307
330
1D
100
AcDbEntity
  8
0
100
AcDbLine
 10
87.46115
 20
47.2328575
 30
0.0
 11
91.16895
 21
47.3753575
 31
0.0
  0
LINE
  5
309
330
1D
100
AcDbEntity
  8
0
100
AcDbLine
 10
92.57025
 20
47.5621575
 30
0.0
 11
92.71245
 21
47.3927575
 31
0.0
  0
LINE
  5
30A
330
1D
100
AcDbEntity
  8
0
100
AcDbLine
 10
92.50905
 20
47.6351575
 30
0.0
 11
92.57025
 21
47.5621575
 31
0.0
  0
LINE
  5
30C
330
1D
100
AcDbEntity
  8
0
100
AcDbLine
 10
92.61585
 20
48.0694575
 30
0.0
 11
92.72305
 21
47.8467575
 31
0.0
  0
LINE
  5
30D
330
1D
100
AcDbEntity
  8
0
100
AcDbLine
 10
92.61585
 20
48.0694575
 30
0.0
 11
92.62845
 21
48.3161575
 31
0.0
  0
LINE
  5
321
330
1D
100
AcDbEntity
  8
0
100
AcDbLine
 10
93.245988552685
 20
46.756889850355
 30
0.0
 11
93.475742688539
 21
46.949681295354
 31
0.0
  0
LINE
  5
369
330
1D
100
AcDbEntity
  8
0
100
AcDbLine
 10
92.72305
 20
47.8467575
 30
0.0
 11
92.76455
 21
47.7972575
 31
0.0
  0
LINE
  5
36A
330
1D
100
AcDbEntity
  8
0
100
AcDbLine
 10
92.76455
 20
47.7972575
 30
0.0
 11
92.87855
 21
47.6614575
 31
0.0
  0
LINE
  5
36B
330
1D
100
AcDbEntity
  8
0
100
AcDbLine
 10
92.75745
 20
48.5265575
 30
0.0
 11
121.26955
 21
76.2372575
 31
0.0
  0
LINE
  5
36C
330
1D
100
AcDbEntity
  8
0
100
AcDbLine
 10
92.62845
 20
48.3161575
 30
0.0
 11
92.75745
 21
48.5265575
 31
0.0
  0
LINE
  5
370
330
1D
100
AcDbEntity
  8
0
100
AcDbLine
 10
110.68255
 20
26.4432575
 30
0.0
 11
110.74555
 21
26.3678575
 31
0.0
  0
LINE
  5
371
330
1D
100
AcDbEntity
  8
0
100
AcDbLine
 10
110.76455
 20
26.3459575
 30
0.0
 11
110.96555
 21
26.2018575
 31
0.0
  0
LINE
  5
372
330
1D
100
AcDbEntity
  8
0
100
AcDbLine
 10
111.43955
 20
26.2619575
 30
0.0
 11
143.68055
 21
49.5289575
 31
0.0
  0
LINE
  5
373
330
1D
100
AcDbEntity
  8
0
100
AcDbLine
 10
111.21055
 20
26.1713575
 30
0.0
 11
111.43955
 21
26.2619575
 31
0.0
  0
LINE
  5
378
330
1D
100
AcDbEntity
  8
0
100
AcDbLine
 10
143.85155
 20
51.0256575
 30
0.0
 11
143.96655
 21
50.8315575
 31
0.0
  0
LINE
  5
37B
330
1D
100
AcDbEntity
  8
0
100
AcDbLine
 10
138.51155
 20
58.8191575
 30
0.0
 11
140.18855
 21
56.5947575
 31
0.0
  0
LINE
  5
37C
330
1D
100
AcDbEntity
  8
0
100
AcDbLine
 10
138.47055
 20
58.8698575
 30
0.0
 11
138.51155
 21
58.8191575
 31
0.0
  0
LINE
  5
37D
330
1D
100
AcDbEntity
  8
0
100
AcDbLine
 10
138.47055
 20
58.8698575
 30
0.0
 11
138.51155
 21
58.8192575
 31
0.0
  0
LINE
  5
381
330
1D
100
AcDbEntity
  8
0
100
AcDbLine
 10
131.85255
 20
66.9251575
 30
0.0
 11
134.12755
 21
64.2699575
 31
0.0
  0
LINE
  5
382
330
1D
100
AcDbEntity
  8
0
100
AcDbLine
 10
134.12755
 20
64.2699575
 30
0.0
 11
136.34755
 21
61.5679575
 31
0.0
  0
LINE
  5
383
330
1D
100
AcDbEntity
  8
0
100
AcDbLine
 10
134.12755
 20
64.2699575
 30
0.0
 11
136.34755
 21
61.5680575
 31
0.0
  0
LINE
  5
389
330
1D
100
AcDbEntity
  8
0
100
AcDbLine
 10
136.34755
 20
61.5680575
 30
0.0
 11
138.51155
 21
58.8192575
 31
0.0
  0
LINE
  5
38A
330
1D
100
AcDbEntity
  8
0
100
AcDbLine
 10
136.34755
 20
61.5679575
 30
0.0
 11
138.51155
 21
58.8191575
 31
0.0
  0
LINE
  5
38E
330
1D
100
AcDbEntity
  8
0
100
AcDbLine
 10
129.56355
 20
69.4838575
 30
0.0
 11
131.85255
 21
66.9251575
 31
0.0
  0
LINE
  5
38F
330
1D
100
AcDbEntity
  8
0
100
AcDbLine
 10
123.97655
 20
75.1151575
 30
0.0
 11
124.50692992469
 21
74.628017023408
 31
0.0
  0
LINE
  5
391
330
1D
100
AcDbEntity
  8
0
100
AcDbLine
 10
122.77355
 20
76.1458575
 30
0.0
 11
123.97655
 21
75.1151575
 31
0.0
  0
LINE
  5
393
330
1D
100
AcDbEntity
  8
0
100
AcDbLine
 10
126.38747693547
 20
72.826548626013
 30
0.0
 11
126.65055
 21
72.5690575
 31
0.0
  0
LINE
  5
394
330
1D
100
AcDbEntity
  8
0
100
AcDbLine
 10
127.62155
 20
71.5707575
 30
0.0
 11
129.52155
 21
69.5333575
 31
0.0
  0
LINE
  5
395
330
1D
100
AcDbEntity
  8
0
100
AcDbLine
 10
126.65055
 20
72.5690575
 30
0.0
 11
127.62155
 21
71.5707575
 31
0.0
  0
LINE
  5
396
330
1D
100
AcDbEntity
  8
0
100
AcDbLine
 10
129.52155
 20
69.5333575
 30
0.0
 11
129.56355
 21
69.4838575
 31
0.0
  0
LINE
  5
398
330
1D
100
AcDbEntity
  8
0
100
AcDbLine
 10
141.00255
 20
55.4648575
 30
0.0
 11
141.201285484386
 21
55.174528684411
 31
0.0
  0
LINE
  5
39B
330
1D
100
AcDbEntity
  8
0
100
AcDbLine
 10
140.18855
 20
56.5947575
 30
0.0
 11
141.00255
 21
55.4648575
 31
0.0
  0
LINE
  5
3A0
330
1D
100
AcDbEntity
  8
0
100
AcDbLine
 10
143.93155
 20
49.7912575
 30
0.0
 11
144.07255
 21
50.1257575
 31
0.0
  0
LINE
  5
3A1
330
1D
100
AcDbEntity
  8
0
100
AcDbLine
 10
143.862626923077
 20
51.003503653846
 30
0.0
 11
143.96655
 21
50.8315575
 31
0.0
  0
LINE
  5
3A2
330
1D
100
AcDbEntity
  8
0
100
AcDbLine
 10
121.57155
 20
76.4387575
 30
0.0
 11
121.92555
 21
76.5192575
 31
0.0
  0
LINE
  5
3A3
330
1D
100
AcDbEntity
  8
0
100
AcDbLine
 10
71.41235
 20
143.2952575
 30
0.0
 11
72.64735
 21
143.2972575
 31
0.0
  0
LINE
  5
3A4
330
1D
100
AcDbEntity
  8
0
100
AcDbLine
 10
70.18345
 20
143.3462575
 30
0.0
 11
71.41235
 21
143.2952575
 31
0.0
  0
LINE
  5
3A5
330
1D
100
AcDbEntity
  8
0
100
AcDbLine
 10
72.64735
 20
143.2972575
 30
0.0
 11
73.87575
 21
143.3522575
 31
0.0
  0
LINE
  5
3A6
330
1D
100
AcDbEntity
  8
0
100
AcDbLine
 10
73.87575
 20
143.3522575
 30
0.0
 11
75.08435
 21
143.4592575
 31
0.0
  0
LINE
  5
3A7
330
1D
100
AcDbEntity
  8
0
100
AcDbLine
 10
77.39475
 20
143.8242575
 30
0.0
 11
78.47205
 21
144.0792575
 31
0.0
  0
LINE
  5
3A8
330
1D
100
AcDbEntity
  8
0
100
AcDbLine
 10
76.26135
 20
143.6172575
 30
0.0
 11
77.39475
 21
143.8242575
 31
0.0
  0
LINE
  5
3A9
330
1D
100
AcDbEntity
  8
0
100
AcDbLine
 10
75.08435
 20
143.4592575
 30
0.0
 11
76.26135
 21
143.6172575
 31
0.0
  0
LINE
  5
3AA
330
1D
100
AcDbEntity
  8
0
100
AcDbLine
 10
84.39545
 20
142.3882575
 30
0.0
 11
84.39545
 21
148.203052775591
 31
0.0
  0
LINE
  5
3AB
330
1D
100
AcDbEntity
  8
0
100
AcDbLine
 10
84.39545
 20
142.3882575
 30
0.0
 11
84.39545
 21
46.974375589054
 31
0.0
  0
LINE
  5
3AC
330
1D
100
AcDbEntity
  8
0
100
AcDbLine
 10
72.89615
 20
143.9322575
 30
0.0
 11
74.03575
 21
144.0002575
 31
0.0
  0
LINE
  5
3AD
330
1D
100
AcDbEntity
  8
0
100
AcDbLine
 10
71.74605
 20
143.9172575
 30
0.0
 11
72.89615
 21
143.9322575
 31
0.0
  0
LINE
  5
3AE
330
1D
100
AcDbEntity
  8
0
100
AcDbLine
 10
71.30855
 20
171.6272575
 30
0.0
 11
72.57475
 21
171.6292575
 31
0.0
  0
LINE
  5
3AF
330
1D
100
AcDbEntity
  8
0
100
AcDbLine
 10
71.98655
 20
224.8622575
 30
0.0
 11
74.97805
 21
224.4992575
 31
0.0
  0
LINE
  5
3B0
330
1D
100
AcDbEntity
  8
0
100
AcDbLine
 10
71.98635
 20
171.8162575
 30
0.0
 11
74.97805
 21
171.6632575
 31
0.0
  0
LINE
  5
3B1
330
1D
100
AcDbEntity
  8
0
100
AcDbLine
 10
71.31965
 20
171.7242575
 30
0.0
 11
72.56545
 21
171.7262575
 31
0.0
  0
LINE
  5
3B2
330
1D
100
AcDbEntity
  8
0
100
AcDbLine
 10
70.08045
 20
171.6692575
 30
0.0
 11
71.31965
 21
171.7242575
 31
0.0
  0
LINE
  5
3B3
330
1D
100
AcDbEntity
  8
0
100
AcDbLine
 10
71.07675
 20
152.8822575
 30
0.0
 11
72.22705
 21
152.8972575
 31
0.0
  0
LINE
  5
3B4
330
1D
100
AcDbEntity
  8
0
100
AcDbLine
 10
72.57475
 20
171.6292575
 30
0.0
 11
73.83495
 21
171.5772575
 31
0.0
  0
LINE
  5
3B5
330
1D
100
AcDbEntity
  8
0
100
AcDbLine
 10
73.83495
 20
171.5772575
 30
0.0
 11
75.07625
 21
171.4712575
 31
0.0
  0
LINE
  5
3B6
330
1D
100
AcDbEntity
  8
0
100
AcDbLine
 10
73.80545
 20
171.6752575
 30
0.0
 11
75.02705
 21
171.5702575
 31
0.0
  0
LINE
  5
3B7
330
1D
100
AcDbEntity
  8
0
100
AcDbLine
 10
72.56545
 20
171.7262575
 30
0.0
 11
73.80545
 21
171.6752575
 31
0.0
  0
LINE
  5
3B8
330
1D
100
AcDbEntity
  8
0
100
AcDbLine
 10
72.22705
 20
152.8972575
 30
0.0
 11
73.37425
 21
152.8602575
 31
0.0
  0
LINE
  5
3B9
330
1D
100
AcDbEntity
  8
0
100
AcDbLine
 10
73.37425
 20
152.8602575
 30
0.0
 11
74.50535
 21
152.7712575
 31
0.0
  0
LINE
  5
3BA
330
1D
100
AcDbEntity
  8
0
100
AcDbLine
 10
78.47205
 20
144.0792575
 30
0.0
 11
79.48315
 21
144.3792575
 31
0.0
  0
LINE
  5
3BB
330
1D
100
AcDbEntity
  8
0
100
AcDbLine
 10
75.07625
 20
171.4712575
 30
0.0
 11
76.28595
 21
171.3132575
 31
0.0
  0
LINE
  5
3BC
330
1D
100
AcDbEntity
  8
0
100
AcDbLine
 10
76.21705
 20
171.4142575
 30
0.0
 11
77.36385
 21
171.2092575
 31
0.0
  0
LINE
  5
3BD
330
1D
100
AcDbEntity
  8
0
100
AcDbLine
 10
75.02705
 20
171.5702575
 30
0.0
 11
76.21705
 21
171.4142575
 31
0.0
  0
LINE
  5
3BE
330
1D
100
AcDbEntity
  8
0
100
AcDbLine
 10
74.97805
 20
224.4992575
 30
0.0
 11
77.79555
 21
223.4312575
 31
0.0
  0
LINE
  5
3BF
330
1D
100
AcDbEntity
  8
0
100
AcDbLine
 10
74.97805
 20
171.6632575
 30
0.0
 11
77.79555
 21
171.2112575
 31
0.0
  0
LINE
  5
3C0
330
1D
100
AcDbEntity
  8
0
100
AcDbLine
 10
74.50535
 20
152.7712575
 30
0.0
 11
75.60675
 21
152.6302575
 31
0.0
  0
LINE
  5
3C1
330
1D
100
AcDbEntity
  8
0
100
AcDbLine
 10
75.60675
 20
152.6302575
 30
0.0
 11
76.66575
 21
152.4402575
 31
0.0
  0
LINE
  5
3C2
330
1D
100
AcDbEntity
  8
0
100
AcDbLine
 10
79.48315
 20
144.3792575
 30
0.0
 11
80.41725
 21
144.7202575
 31
0.0
  0
LINE
  5
3C3
330
1D
100
AcDbEntity
  8
0
100
AcDbLine
 10
76.28595
 20
171.3132575
 30
0.0
 11
77.45105
 21
171.1032575
 31
0.0
  0
LINE
  5
3C4
330
1D
100
AcDbEntity
  8
0
100
AcDbLine
 10
77.45105
 20
171.1032575
 30
0.0
 11
78.56055
 21
170.8452575
 31
0.0
  0
LINE
  5
3C5
330
1D
100
AcDbEntity
  8
0
100
AcDbLine
 10
77.36385
 20
171.2092575
 30
0.0
 11
78.45535
 21
170.9552575
 31
0.0
  0
LINE
  5
3C6
330
1D
100
AcDbEntity
  8
0
100
AcDbLine
 10
77.79555
 20
223.4312575
 30
0.0
 11
80.27555
 21
221.7202575
 31
0.0
  0
LINE
  5
3C7
330
1D
100
AcDbEntity
  8
0
100
AcDbLine
 10
77.79555
 20
171.2112575
 30
0.0
 11
80.27555
 21
170.4882575
 31
0.0
  0
LINE
  5
3C8
330
1D
100
AcDbEntity
  8
0
100
AcDbLine
 10
76.66575
 20
152.4402575
 30
0.0
 11
77.67005
 21
152.2022575
 31
0.0
  0
LINE
  5
3C9
330
1D
100
AcDbEntity
  8
0
100
AcDbLine
 10
77.67005
 20
152.2022575
 30
0.0
 11
78.60785
 21
151.9202575
 31
0.0
  0
LINE
  5
3CA
330
1D
100
AcDbEntity
  8
0
100
AcDbLine
 10
80.52965
 20
144.7692575
 30
0.0
 11
81.38845
 21
145.1542575
 31
0.0
  0
LINE
  5
3CB
330
1D
100
AcDbEntity
  8
0
100
AcDbLine
 10
80.41725
 20
144.7202575
 30
0.0
 11
80.52965
 21
144.7692575
 31
0.0
  0
LINE
  5
3CC
330
1D
100
AcDbEntity
  8
0
100
AcDbLine
 10
78.56055
 20
170.8452575
 30
0.0
 11
79.60235
 21
170.5412575
 31
0.0
  0
LINE
  5
3CD
330
1D
100
AcDbEntity
  8
0
100
AcDbLine
 10
78.45535
 20
170.9552575
 30
0.0
 11
79.48045
 21
170.6552575
 31
0.0
  0
LINE
  5
3CE
330
1D
100
AcDbEntity
  8
0
100
AcDbLine
 10
79.60235
 20
170.5412575
 30
0.0
 11
80.56605
 21
170.1942575
 31
0.0
  0
LINE
  5
3CF
330
1D
100
AcDbEntity
  8
0
100
AcDbLine
 10
79.48045
 20
170.6552575
 30
0.0
 11
80.42885
 21
170.3142575
 31
0.0
  0
LINE
  5
3D0
330
1D
100
AcDbEntity
  8
0
100
AcDbLine
 10
78.60785
 20
151.9202575
 30
0.0
 11
79.46775
 21
151.5972575
 31
0.0
  0
LINE
  5
3D1
330
1D
100
AcDbEntity
  8
0
100
AcDbLine
 10
79.46775
 20
151.5972575
 30
0.0
 11
80.23995
 21
151.2372575
 31
0.0
  0
LINE
  5
3D2
330
1D
100
AcDbEntity
  8
0
100
AcDbLine
 10
82.15075
 20
145.5732575
 30
0.0
 11
82.80915
 21
146.0232575
 31
0.0
  0
LINE
  5
3D3
330
1D
100
AcDbEntity
  8
0
100
AcDbLine
 10
81.38845
 20
145.1542575
 30
0.0
 11
82.15075
 21
145.5732575
 31
0.0
  0
LINE
  5
3D4
330
1D
100
AcDbEntity
  8
0
100
AcDbLine
 10
81.26075
 20
146.2142575
 30
0.0
 11
81.76745
 21
146.6512575
 31
0.0
  0
LINE
  5
3D5
330
1D
100
AcDbEntity
  8
0
100
AcDbLine
 10
81.76745
 20
146.6512575
 30
0.0
 11
82.15965
 21
147.1082575
 31
0.0
  0
LINE
  5
3D6
330
1D
100
AcDbEntity
  8
0
100
AcDbLine
 10
81.94575
 20
149.9752575
 30
0.0
 11
82.28815
 21
149.5112575
 31
0.0
  0
LINE
  5
3D7
330
1D
100
AcDbEntity
  8
0
100
AcDbLine
 10
81.44165
 20
169.8082575
 30
0.0
 11
82.22055
 21
169.3862575
 31
0.0
  0
LINE
  5
3D8
330
1D
100
AcDbEntity
  8
0
100
AcDbLine
 10
80.56605
 20
170.1942575
 30
0.0
 11
81.44165
 21
169.8082575
 31
0.0
  0
LINE
  5
3D9
330
1D
100
AcDbEntity
  8
0
100
AcDbLine
 10
81.29035
 20
169.9342575
 30
0.0
 11
82.05675
 21
169.5182575
 31
0.0
  0
LINE
  5
3DA
330
1D
100
AcDbEntity
  8
0
100
AcDbLine
 10
80.42885
 20
170.3142575
 30
0.0
 11
81.29035
 21
169.9342575
 31
0.0
  0
LINE
  5
3DB
330
1D
100
AcDbEntity
  8
0
100
AcDbLine
 10
80.27555
 20
221.7202575
 30
0.0
 11
82.27375
 21
219.4652575
 31
0.0
  0
LINE
  5
3DC
330
1D
100
AcDbEntity
  8
0
100
AcDbLine
 10
80.27555
 20
170.4882575
 30
0.0
 11
82.27375
 21
169.5342575
 31
0.0
  0
LINE
  5
3DD
330
1D
100
AcDbEntity
  8
0
100
AcDbLine
 10
80.23995
 20
151.2372575
 30
0.0
 11
80.91545
 21
150.8432575
 31
0.0
  0
LINE
  5
3DE
330
1D
100
AcDbEntity
  8
0
100
AcDbLine
 10
80.91545
 20
150.8432575
 30
0.0
 11
81.48605
 21
150.4212575
 31
0.0
  0
LINE
  5
3DF
330
1D
100
AcDbEntity
  8
0
100
AcDbLine
 10
81.48605
 20
150.4212575
 30
0.0
 11
81.94575
 21
149.9752575
 31
0.0
  0
LINE
  5
3E0
330
1D
100
AcDbEntity
  8
0
100
AcDbLine
 10
82.05675
 20
169.5182575
 30
0.0
 11
82.71965
 21
169.0722575
 31
0.0
  0
LINE
  5
3E3
330
1D
100
AcDbEntity
  8
0
100
AcDbLine
 10
83.89035
 20
147.1282575
 30
0.0
 11
84.20235
 21
147.6452575
 31
0.0
  0
LINE
  5
3E4
330
1D
100
AcDbEntity
  8
0
100
AcDbLine
 10
83.78685
 20
146.9952575
 30
0.0
 11
83.89035
 21
147.1282575
 31
0.0
  0
LINE
  5
3E5
330
1D
100
AcDbEntity
  8
0
100
AcDbLine
 10
83.35605
 20
146.4982575
 30
0.0
 11
83.78685
 21
146.9952575
 31
0.0
  0
LINE
  5
3E6
330
1D
100
AcDbEntity
  8
0
100
AcDbLine
 10
82.80915
 20
146.0232575
 30
0.0
 11
83.35605
 21
146.4982575
 31
0.0
  0
LINE
  5
3E7
330
1D
100
AcDbEntity
  8
0
100
AcDbLine
 10
82.22055
 20
169.3862575
 30
0.0
 11
82.89405
 21
168.9322575
 31
0.0
  0
LINE
  5
3E8
330
1D
100
AcDbEntity
  8
0
100
AcDbLine
 10
82.27375
 20
219.4652575
 30
0.0
 11
83.67415
 21
216.7982575
 31
0.0
  0
LINE
  5
3E9
330
1D
100
AcDbEntity
  8
0
100
AcDbLine
 10
82.27375
 20
169.5342575
 30
0.0
 11
83.67435
 21
168.4072575
 31
0.0
  0
LINE
  5
3EA
330
1D
100
AcDbEntity
  8
0
100
AcDbLine
 10
82.28815
 20
149.5112575
 30
0.0
 11
82.51015
 21
149.0332575
 31
0.0
  0
LINE
  5
3EB
330
1D
100
AcDbEntity
  8
0
100
AcDbLine
 10
82.51015
 20
149.0332575
 30
0.0
 11
82.60875
 21
148.5492575
 31
0.0
  0
LINE
  5
3EC
330
1D
100
AcDbEntity
  8
0
100
AcDbLine
 10
84.38885
 20
148.1732575
 30
0.0
 11
84.42695
 21
148.3452575
 31
0.0
  0
LINE
  5
3ED
330
1D
100
AcDbEntity
  8
0
100
AcDbLine
 10
84.20235
 20
147.6452575
 30
0.0
 11
84.38885
 21
148.1732575
 31
0.0
  0
LINE
  5
3EE
330
1D
100
AcDbEntity
  8
0
100
AcDbLine
 10
83.89965
 20
167.9522575
 30
0.0
 11
84.22155
 21
167.4342575
 31
0.0
  0
LINE
  5
3EF
330
1D
100
AcDbEntity
  8
0
100
AcDbLine
 10
84.22155
 20
167.4342575
 30
0.0
 11
84.41775
 21
166.9052575
 31
0.0
  0
LINE
  5
3F0
330
1D
100
AcDbEntity
  8
0
100
AcDbLine
 10
84.39545
 20
148.203052775591
 30
0.0
 11
84.39545
 21
142.3882575
 31
0.0
  0
LINE
  5
3F1
330
1D
100
AcDbEntity
  8
0
100
AcDbLine
 10
84.39545
 20
167.1702575
 30
0.0
 11
84.39545
 21
172.6082575
 31
0.0
  0
LINE
  5
3F2
330
1D
100
AcDbEntity
  8
0
100
AcDbLine
 10
84.39545
 20
167.1702575
 30
0.0
 11
84.39545
 21
166.965383391947
 31
0.0
  0
LINE
  5
3F3
330
1D
100
AcDbEntity
  8
0
100
AcDbLine
 10
82.89405
 20
168.9322575
 30
0.0
 11
83.45575
 21
168.4532575
 31
0.0
  0
LINE
  5
3F4
330
1D
100
AcDbEntity
  8
0
100
AcDbLine
 10
83.45575
 20
168.4532575
 30
0.0
 11
83.89965
 21
167.9522575
 31
0.0
  0
LINE
  5
3F5
330
1D
100
AcDbEntity
  8
0
100
AcDbLine
 10
84.39545
 20
194.8062575
 30
0.0
 11
84.39545
 21
189.8702575
 31
0.0
  0
LINE
  5
3F6
330
1D
100
AcDbEntity
  8
0
100
AcDbLine
 10
84.39545
 20
194.8062575
 30
0.0
 11
84.39545
 21
199.2542575
 31
0.0
  0
LINE
  5
3F7
330
1D
100
AcDbEntity
  8
0
100
AcDbLine
 10
84.39545
 20
189.8702575
 30
0.0
 11
84.39545
 21
184.4902575
 31
0.0
  0
LINE
  5
3F8
330
1D
100
AcDbEntity
  8
0
100
AcDbLine
 10
84.39545
 20
189.8702575
 30
0.0
 11
84.39545
 21
194.8062575
 31
0.0
  0
LINE
  5
3F9
330
1D
100
AcDbEntity
  8
0
100
AcDbLine
 10
84.39545
 20
178.7192575
 30
0.0
 11
84.39545
 21
172.6082575
 31
0.0
  0
LINE
  5
3FA
330
1D
100
AcDbEntity
  8
0
100
AcDbLine
 10
84.39545
 20
178.7192575
 30
0.0
 11
84.39545
 21
184.4902575
 31
0.0
  0
LINE
  5
3FB
330
1D
100
AcDbEntity
  8
0
100
AcDbLine
 10
84.39545
 20
199.2542575
 30
0.0
 11
84.39545
 21
203.1702575
 31
0.0
  0
LINE
  5
3FC
330
1D
100
AcDbEntity
  8
0
100
AcDbLine
 10
84.39545
 20
199.2542575
 30
0.0
 11
84.39545
 21
194.8062575
 31
0.0
  0
LINE
  5
3FD
330
1D
100
AcDbEntity
  8
0
100
AcDbLine
 10
84.39545
 20
203.1702575
 30
0.0
 11
84.39545
 21
206.5202575
 31
0.0
  0
LINE
  5
3FE
330
1D
100
AcDbEntity
  8
0
100
AcDbLine
 10
84.39545
 20
203.1702575
 30
0.0
 11
84.39545
 21
199.2542575
 31
0.0
  0
LINE
  5
3FF
330
1D
100
AcDbEntity
  8
0
100
AcDbLine
 10
84.39545
 20
206.5202575
 30
0.0
 11
84.39545
 21
209.2722575
 31
0.0
  0
LINE
  5
400
330
1D
100
AcDbEntity
  8
0
100
AcDbLine
 10
84.39545
 20
206.5202575
 30
0.0
 11
84.39545
 21
203.1702575
 31
0.0
  0
LINE
  5
401
330
1D
100
AcDbEntity
  8
0
100
AcDbLine
 10
84.39545
 20
209.2722575
 30
0.0
 11
84.39545
 21
211.4002575
 31
0.0
  0
LINE
  5
402
330
1D
100
AcDbEntity
  8
0
100
AcDbLine
 10
84.39545
 20
209.2722575
 30
0.0
 11
84.39545
 21
206.5202575
 31
0.0
  0
LINE
  5
403
330
1D
100
AcDbEntity
  8
0
100
AcDbLine
 10
84.39545
 20
184.4902575
 30
0.0
 11
84.39545
 21
178.7192575
 31
0.0
  0
LINE
  5
404
330
1D
100
AcDbEntity
  8
0
100
AcDbLine
 10
84.39545
 20
184.4902575
 30
0.0
 11
84.39545
 21
189.8702575
 31
0.0
  0
LINE
  5
405
330
1D
100
AcDbEntity
  8
0
100
AcDbLine
 10
84.39545
 20
213.8722575
 30
0.0
 11
84.39545
 21
213.7112575
 31
0.0
  0
LINE
  5
406
330
1D
100
AcDbEntity
  8
0
100
AcDbLine
 10
83.67415
 20
216.7982575
 30
0.0
 11
84.39545
 21
213.8722575
 31
0.0
  0
LINE
  5
407
330
1D
100
AcDbEntity
  8
0
100
AcDbLine
 10
84.39545
 20
213.7112575
 30
0.0
 11
84.39545
 21
212.8842575
 31
0.0
  0
LINE
  5
408
330
1D
100
AcDbEntity
  8
0
100
AcDbLine
 10
84.39545
 20
213.7112575
 30
0.0
 11
84.39545
 21
213.8722575
 31
0.0
  0
LINE
  5
409
330
1D
100
AcDbEntity
  8
0
100
AcDbLine
 10
84.39545
 20
212.8842575
 30
0.0
 11
84.39545
 21
213.7112575
 31
0.0
  0
LINE
  5
40A
330
1D
100
AcDbEntity
  8
0
100
AcDbLine
 10
84.39545
 20
212.8842575
 30
0.0
 11
84.39545
 21
211.4002575
 31
0.0
  0
LINE
  5
40B
330
1D
100
AcDbEntity
  8
0
100
AcDbLine
 10
84.39545
 20
211.4002575
 30
0.0
 11
84.39545
 21
212.8842575
 31
0.0
  0
LINE
  5
40C
330
1D
100
AcDbEntity
  8
0
100
AcDbLine
 10
84.39545
 20
211.4002575
 30
0.0
 11
84.39545
 21
209.2722575
 31
0.0
  0
LINE
  5
40D
330
1D
100
AcDbEntity
  8
0
100
AcDbLine
 10
84.39545
 20
172.6082575
 30
0.0
 11
84.39545
 21
167.1702575
 31
0.0
  0
LINE
  5
40E
330
1D
100
AcDbEntity
  8
0
100
AcDbLine
 10
84.39545
 20
172.6082575
 30
0.0
 11
84.39545
 21
178.7192575
 31
0.0
  0
LINE
  5
40F
330
1D
100
AcDbEntity
  8
0
100
AcDbLine
 10
82.71965
 20
169.0722575
 30
0.0
 11
82.845319546839
 21
168.965106239028
 31
0.0
  0
LINE
  5
410
330
1D
100
AcDbEntity
  8
0
100
AcDbLine
 10
82.71965
 20
169.0722575
 30
0.0
 11
82.89405
 21
168.9322575
 31
0.0
  0
LINE
  5
411
330
1D
100
AcDbEntity
  8
0
100
AcDbLine
 10
83.67435
 20
168.4072575
 30
0.0
 11
84.39545
 21
167.1702575
 31
0.0
  0
LINE
  5
412
330
1D
100
AcDbEntity
  8
0
100
AcDbLine
 10
82.58265
 20
148.0632575
 30
0.0
 11
82.60875
 21
148.5492575
 31
0.0
  0
LINE
  5
413
330
1D
100
AcDbEntity
  8
0
100
AcDbLine
 10
82.43235
 20
147.5812575
 30
0.0
 11
82.58265
 21
148.0632575
 31
0.0
  0
LINE
  5
414
330
1D
100
AcDbEntity
  8
0
100
AcDbLine
 10
82.15965
 20
147.1082575
 30
0.0
 11
82.43235
 21
147.5812575
 31
0.0
  0
LINE
  5
415
330
1D
100
AcDbEntity
  8
0
100
AcDbLine
 10
80.64565
 20
145.8032575
 30
0.0
 11
81.26075
 21
146.2142575
 31
0.0
  0
LINE
  5
416
330
1D
100
AcDbEntity
  8
0
100
AcDbLine
 10
79.92855
 20
145.4232575
 30
0.0
 11
80.64565
 21
145.8032575
 31
0.0
  0
LINE
  5
417
330
1D
100
AcDbEntity
  8
0
100
AcDbLine
 10
79.11855
 20
145.0782575
 30
0.0
 11
79.92855
 21
145.4232575
 31
0.0
  0
LINE
  5
418
330
1D
100
AcDbEntity
  8
0
100
AcDbLine
 10
78.22505
 20
144.7712575
 30
0.0
 11
79.11855
 21
145.0782575
 31
0.0
  0
LINE
  5
419
330
1D
100
AcDbEntity
  8
0
100
AcDbLine
 10
77.25825
 20
144.5072575
 30
0.0
 11
78.22505
 21
144.7712575
 31
0.0
  0
LINE
  5
41A
330
1D
100
AcDbEntity
  8
0
100
AcDbLine
 10
76.22955
 20
144.2892575
 30
0.0
 11
77.25825
 21
144.5072575
 31
0.0
  0
LINE
  5
41B
330
1D
100
AcDbEntity
  8
0
100
AcDbLine
 10
75.15125
 20
144.1202575
 30
0.0
 11
76.22955
 21
144.2892575
 31
0.0
  0
LINE
  5
41C
330
1D
100
AcDbEntity
  8
0
100
AcDbLine
 10
74.03575
 20
144.0002575
 30
0.0
 11
75.15125
 21
144.1202575
 31
0.0
  0
LINE
  5
41D
330
1D
100
AcDbEntity
  8
0
100
AcDbLine
 10
70.59885
 20
143.9542575
 30
0.0
 11
71.74605
 21
143.9172575
 31
0.0
  0
LINE
  5
41E
330
1D
100
AcDbEntity
  8
0
100
AcDbLine
 10
84.48665
 20
148.8792575
 30
0.0
 11
84.48665
 21
166.3712575
 31
0.0
  0
LINE
  5
41F
330
1D
100
AcDbEntity
  8
0
100
AcDbLine
 10
84.48665
 20
166.3712575
 30
0.0
 11
84.48665
 21
148.8792575
 31
0.0
  0
LINE
  5
420
330
1D
100
AcDbEntity
  8
0
100
AcDbLine
 10
84.42695
 20
148.3452575
 30
0.0
 11
84.48665
 21
148.8792575
 31
0.0
  0
LINE
  5
421
330
1D
100
AcDbEntity
  8
0
100
AcDbLine
 10
84.41775
 20
166.9052575
 30
0.0
 11
84.48665
 21
166.3712575
 31
0.0
  0
LINE
  5
422
330
1D
100
AcDbEntity
  8
0
100
AcDbLine
 10
84.39545
 20
166.965383391947
 30
0.0
 11
84.39545
 21
167.1702575
 31
0.0
  0
LINE
  5
423
330
1D
100
AcDbEntity
  8
0
100
AcDbLine
 10
121.92555
 20
76.5192575
 30
0.0
 11
122.28455
 21
76.4682575
 31
0.0
  0
LINE
  5
424
330
1D
100
AcDbEntity
  8
0
100
AcDbLine
 10
122.60255
 20
76.2923575
 30
0.0
 11
122.77355
 21
76.1458575
 31
0.0
  0
LINE
  5
425
330
1D
100
AcDbEntity
  8
0
100
AcDbLine
 10
122.60255
 20
76.2923575
 30
0.0
 11
122.749223063786
 21
76.164149127611
 31
0.0
  0
LINE
  5
426
330
1D
100
AcDbEntity
  8
0
100
AcDbLine
 10
122.28455
 20
76.4682575
 30
0.0
 11
122.60255
 21
76.2923575
 31
0.0
  0
LINE
  5
427
330
1D
100
AcDbEntity
  8
0
100
AcDbLine
 10
121.26955
 20
76.2372575
 30
0.0
 11
121.57155
 21
76.4387575
 31
0.0
  0
LINE
  5
428
330
1D
100
AcDbEntity
  8
0
100
AcDbLine
 10
144.07255
 20
50.1257575
 30
0.0
 11
144.08455
 21
50.4884575
 31
0.0
  0
LINE
  5
429
330
1D
100
AcDbEntity
  8
0
100
AcDbLine
 10
143.96655
 20
50.8315575
 30
0.0
 11
144.08455
 21
50.4884575
 31
0.0
  0
LINE
  5
42A
330
1D
100
AcDbEntity
  8
0
100
AcDbLine
 10
143.68055
 20
49.5289575
 30
0.0
 11
143.93155
 21
49.7912575
 31
0.0
  0
LINE
  5
452
330
1D
100
AcDbEntity
  8
0
100
AcDbLine
 10
110.68255
 20
26.4432575
 30
0.0
 11
92.87855
 21
47.6614575
 31
0.0
  0
LINE
  5
453
330
1D
100
AcDbEntity
  8
0
100
AcDbLine
 10
92.71245
 20
47.3927575
 30
0.0
 11
110.38055
 21
26.3370575
 31
0.0
  0
LINE
  5
454
330
1D
100
AcDbEntity
  8
0
100
AcDbLine
 10
109.74755
 20
25.5356575
 30
0.0
 11
91.61085
 21
47.1498575
 31
0.0
  0
LINE
  5
455
330
1D
100
AcDbEntity
  8
0
100
AcDbLine
 10
42.057713569346
 20
16.254823307665
 30
0.0
 11
43.95225
 21
13.3445575
 31
0.0
  0
LINE
  5
456
330
1D
100
AcDbEntity
  8
0
100
AcDbLine
 10
51.27675
 20
47.8785575
 30
0.0
 11
33.23535
 21
26.3777575
 31
0.0
  0
LINE
  5
457
330
1D
100
AcDbEntity
  8
0
100
AcDbLine
 10
34.20585
 20
27.0675575
 30
0.0
 11
51.47385
 21
47.6467575
 31
0.0
  0
LINE
  5
458
330
1D
100
AcDbEntity
  8
0
100
AcDbLine
 10
52.40185
 20
47.1970575
 30
0.0
 11
34.29455
 21
25.6174575
 31
0.0
  0
LINE
  5
459
330
1D
100
AcDbEntity
  8
0
100
AcDbLine
 10
17.643995091417
 20
72.889212149431
 30
0.0
 11
20.089467522632
 21
75.286666735055
 31
0.0
  0
LINE
  5
45A
330
1D
100
AcDbEntity
  8
0
100
AcDbLine
 10
20.089467522632
 20
75.286666735055
 30
0.0
 11
21.39775
 21
76.3241575
 31
0.0
  0
LINE
  5
45B
330
1D
100
AcDbEntity
  8
0
100
AcDbLine
 10
1.81675
 20
53.7713575
 30
0.0
 11
2.791720705951
 21
55.196276567325
 31
0.0
  0
LINE
  5
45C
330
1D
100
AcDbEntity
  8
0
100
AcDbLine
 10
141.201285484386
 20
55.174528684411
 30
0.0
 11
142.945458715074
 21
52.500717417424
 31
0.0
  0
LINE
  5
45D
330
1D
100
AcDbEntity
  8
0
100
AcDbLine
 10
142.945458715074
 20
52.500717417424
 30
0.0
 11
143.862626923077
 21
51.003503653846
 31
0.0
  0
LINE
  5
45E
330
1D
100
AcDbEntity
  8
0
100
AcDbLine
 10
124.50692992469
 20
74.628017023408
 30
0.0
 11
126.38747693547
 21
72.826548626013
 31
0.0
  0
ENDSEC
  0
SECTION
  2
OBJECTS
  0
DICTIONARY
  5
C
330
0
100
AcDbDictionary
281
     1
  3
ACAD_GROUP
350
D
  3
ACAD_LAYOUT
350
1A
  3
ACAD_MLEADERSTYLE
350
461
  3
ACAD_MLINESTYLE
350
17
  3
ACAD_PLOTSETTINGS
350
19
  3
ACAD_PLOTSTYLENAME
350
E
  3
ACAD_SCALELIST
350
430
  3
AcDbVariableDictionary
350
45F
  3
DWGPROPS
350
466
  0
DICTIONARY
  5
D
102
{ACAD_REACTORS
330
C
102
}
330
C
100
AcDbDictionary
281
     1
  0
DICTIONARY
  5
1A
102
{ACAD_REACTORS
330
C
102
}
330
C
100
AcDbDictionary
281
     1
  3
Layout1
350
1C
  3
Model
350
1E
  0
DICTIONARY
  5
461
102
{ACAD_REACTORS
330
C
102
}
330
C
100
AcDbDictionary
281
     1
  0
DICTIONARY
  5
17
102
{ACAD_REACTORS
330
C
102
}
330
C
100
AcDbDictionary
281
     1
  3
Standard
350
18
  0
DICTIONARY
  5
19
102
{ACAD_REACTORS
330
C
102
}
330
C
100
AcDbDictionary
281
     1
  0
ACDBDICTIONARYWDFLT
  5
E
102
{ACAD_REACTORS
330
C
102
}
330
C
100
AcDbDictionary
281
     1
  3
Normal
350
F
100
AcDbDictionaryWithDefault
340
F
  0
DICTIONARY
  5
430
102
{ACAD_REACTORS
330
C
102
}
330
C
100
AcDbDictionary
281
     1
  3
A0
350
431
  3
A1
350
432
  3
A2
350
433
  3
A3
350
434
  3
A4
350
435
  3
A5
350
436
  3
A6
350
437
  3
A7
350
438
  3
A8
350
439
  3
A9
350
43A
  3
B0
350
43B
  3
B1
350
43C
  3
B2
350
43D
  3
B3
350
43E
  3
B4
350
43F
  3
B5
350
440
  3
B6
350
441
  3
B7
350
442
  3
B8
350
443
  3
B9
350
444
  3
C0
350
445
  3
C1
350
446
  3
C2
350
447
  3
C3
350
448
  3
C4
350
449
  3
C5
350
44A
  3
C6
350
44B
  3
C7
350
44C
  3
C8
350
44D
  3
C9
350
44E
  3
D0
350
44F
  3
D1
350
450
  3
D2
350
451
  0
DICTIONARY
  5
45F
102
{ACAD_REACTORS
330
C
102
}
330
C
100
AcDbDictionary
281
     1
  3
CANNOSCALE
350
462
  0
XRECORD
  5
466
102
{ACAD_REACTORS
330
C
102
}
330
C
100
AcDbXrecord
280
     1
  1
DWGPROPS COOKIE
  2

  3

  4

  6

  7

  8
MARTIN
  9

300
=
301
=
302
=
303
=
304
=
305
=
306
=
307
=
308
=
309
=
 40
0.0
 41
2456646.347795312
 42
2456646.371624526
  1

 90
        0
  0
LAYOUT
  5
1C
102
{ACAD_REACTORS
330
1A
102
}
330
1A
100
AcDbPlotSettings
  1

  2
none_device
  4

  6

 40
0.0
 41
0.0
 42
0.0
 43
0.0
 44
0.0
 45
0.0
 46
0.0
 47
0.0
 48
0.0
 49
0.0
140
0.0
141
0.0
142
1.0
143
1.0
 70
   688
 72
     0
 73
     0
 74
     5
  7

 75
    16
147
1.0
148
0.0
149
0.0
100
AcDbLayout
  1
Layout1
 70
     1
 71
     1
 10
0.0
 20
0.0
 11
12.0
 21
9.0
 12
0.0
 22
0.0
 32
0.0
 14
1.000000000000E+20
 24
1.000000000000E+20
 34
1.000000000000E+20
 15
-1.000000000000E+20
 25
-1.000000000000E+20
 35
-1.000000000000E+20
146
0.0
 13
0.0
 23
0.0
 33
0.0
 16
1.0
 26
0.0
 36
0.0
 17
0.0
 27
1.0
 37
0.0
 76
     0
330
1B
  0
LAYOUT
  5
1E
102
{ACAD_REACTORS
330
1A
102
}
330
1A
100
AcDbPlotSettings
  1

  2
none_device
  4

  6

 40
0.0
 41
0.0
 42
0.0
 43
0.0
 44
0.0
 45
0.0
 46
0.0
 47
0.0
 48
0.0
 49
0.0
140
0.0
141
0.0
142
1.0
143
1.0
 70
  1712
 72
     0
 73
     0
 74
     0
  7

 75
     0
147
1.0
148
0.0
149
0.0
100
AcDbLayout
  1
Model
 70
     1
 71
     0
 10
0.0
 20
0.0
 11
12.0
 21
9.0
 12
0.0
 22
0.0
 32
0.0
 14
-0.08455
 24
0.1377425
 34
0.0
 15
144.08455
 25
224.8622575
 35
0.0
146
0.0
 13
0.0
 23
0.0
 33
0.0
 16
1.0
 26
0.0
 36
0.0
 17
0.0
 27
1.0
 37
0.0
 76
     0
330
1D
331
42B
  0
MLINESTYLE
  5
18
102
{ACAD_REACTORS
330
17
102
}
330
17
100
AcDbMlineStyle
  2
Standard
 70
     0
  3

 62
   256
 51
90.0
 52
90.0
 71
     2
 49
0.5
 62
   256
  6
BYLAYER
 49
-0.5
 62
   256
  6
BYLAYER
  0
ACDBPLACEHOLDER
  5
F
102
{ACAD_REACTORS
330
E
102
}
330
E
  0
SCALE
  5
431
102
{ACAD_REACTORS
330
430
102
}
330
430
100
AcDbScale
 70
     0
300
1:1
140
1.0
141
1.0
290
     1
  0
SCALE
  5
432
102
{ACAD_REACTORS
330
430
102
}
330
430
100
AcDbScale
 70
     0
300
1:2
140
1.0
141
2.0
290
     0
  0
SCALE
  5
433
102
{ACAD_REACTORS
330
430
102
}
330
430
100
AcDbScale
 70
     0
300
1:4
140
1.0
141
4.0
290
     0
  0
SCALE
  5
434
102
{ACAD_REACTORS
330
430
102
}
330
430
100
AcDbScale
 70
     0
300
1:5
140
1.0
141
5.0
290
     0
  0
SCALE
  5
435
102
{ACAD_REACTORS
330
430
102
}
330
430
100
AcDbScale
 70
     0
300
1:8
140
1.0
141
8.0
290
     0
  0
SCALE
  5
436
102
{ACAD_REACTORS
330
430
102
}
330
430
100
AcDbScale
 70
     0
300
1:10
140
1.0
141
10.0
290
     0
  0
SCALE
  5
437
102
{ACAD_REACTORS
330
430
102
}
330
430
100
AcDbScale
 70
     0
300
1:16
140
1.0
141
16.0
290
     0
  0
SCALE
  5
438
102
{ACAD_REACTORS
330
430
102
}
330
430
100
AcDbScale
 70
     0
300
1:20
140
1.0
141
20.0
290
     0
  0
SCALE
  5
439
102
{ACAD_REACTORS
330
430
102
}
330
430
100
AcDbScale
 70
     0
300
1:30
140
1.0
141
30.0
290
     0
  0
SCALE
  5
43A
102
{ACAD_REACTORS
330
430
102
}
330
430
100
AcDbScale
 70
     0
300
1:40
140
1.0
141
40.0
290
     0
  0
SCALE
  5
43B
102
{ACAD_REACTORS
330
430
102
}
330
430
100
AcDbScale
 70
     0
300
1:50
140
1.0
141
50.0
290
     0
  0
SCALE
  5
43C
102
{ACAD_REACTORS
330
430
102
}
330
430
100
AcDbScale
 70
     0
300
1:100
140
1.0
141
100.0
290
     0
  0
SCALE
  5
43D
102
{ACAD_REACTORS
330
430
102
}
330
430
100
AcDbScale
 70
     0
300
2:1
140
2.0
141
1.0
290
     0
  0
SCALE
  5
43E
102
{ACAD_REACTORS
330
430
102
}
330
430
100
AcDbScale
 70
     0
300
4:1
140
4.0
141
1.0
290
     0
  0
SCALE
  5
43F
102
{ACAD_REACTORS
330
430
102
}
330
430
100
AcDbScale
 70
     0
300
8:1
140
8.0
141
1.0
290
     0
  0
SCALE
  5
440
102
{ACAD_REACTORS
330
430
102
}
330
430
100
AcDbScale
 70
     0
300
10:1
140
10.0
141
1.0
290
     0
  0
SCALE
  5
441
102
{ACAD_REACTORS
330
430
102
}
330
430
100
AcDbScale
 70
     0
300
100:1
140
100.0
141
1.0
290
     0
  0
SCALE
  5
442
102
{ACAD_REACTORS
330
430
102
}
330
430
100
AcDbScale
 70
     0
300
1/128" = 1'-0"
140
0.0078125
141
12.0
290
     0
  0
SCALE
  5
443
102
{ACAD_REACTORS
330
430
102
}
330
430
100
AcDbScale
 70
     0
300
1/64" = 1'-0"
140
0.015625
141
12.0
290
     0
  0
SCALE
  5
444
102
{ACAD_REACTORS
330
430
102
}
330
430
100
AcDbScale
 70
     0
300
1/32" = 1'-0"
140
0.03125
141
12.0
290
     0
  0
SCALE
  5
445
102
{ACAD_REACTORS
330
430
102
}
330
430
100
AcDbScale
 70
     0
300
1/16" = 1'-0"
140
0.0625
141
12.0
290
     0
  0
SCALE
  5
446
102
{ACAD_REACTORS
330
430
102
}
330
430
100
AcDbScale
 70
     0
300
3/32" = 1'-0"
140
0.09375
141
12.0
290
     0
  0
SCALE
  5
447
102
{ACAD_REACTORS
330
430
102
}
330
430
100
AcDbScale
 70
     0
300
1/8" = 1'-0"
140
0.125
141
12.0
290
     0
  0
SCALE
  5
448
102
{ACAD_REACTORS
330
430
102
}
330
430
100
AcDbScale
 70
     0
300
3/16" = 1'-0"
140
0.1875
141
12.0
290
     0
  0
SCALE
  5
449
102
{ACAD_REACTORS
330
430
102
}
330
430
100
AcDbScale
 70
     0
300
1/4" = 1'-0"
140
0.25
141
12.0
290
     0
  0
SCALE
  5
44A
102
{ACAD_REACTORS
330
430
102
}
330
430
100
AcDbScale
 70
     0
300
3/8" = 1'-0"
140
0.375
141
12.0
290
     0
  0
SCALE
  5
44B
102
{ACAD_REACTORS
330
430
102
}
330
430
100
AcDbScale
 70
     0
300
1/2" = 1'-0"
140
0.5
141
12.0
290
     0
  0
SCALE
  5
44C
102
{ACAD_REACTORS
330
430
102
}
330
430
100
AcDbScale
 70
     0
300
3/4" = 1'-0"
140
0.75
141
12.0
290
     0
  0
SCALE
  5
44D
102
{ACAD_REACTORS
330
430
102
}
330
430
100
AcDbScale
 70
     0
300
1" = 1'-0"
140
1.0
141
12.0
290
     0
  0
SCALE
  5
44E
102
{ACAD_REACTORS
330
430
102
}
330
430
100
AcDbScale
 70
     0
300
1-1/2" = 1'-0"
140
1.5
141
12.0
290
     0
  0
SCALE
  5
44F
102
{ACAD_REACTORS
330
430
102
}
330
430
100
AcDbScale
 70
     0
300
3" = 1'-0"
140
3.0
141
12.0
290
     0
  0
SCALE
  5
450
102
{ACAD_REACTORS
330
430
102
}
330
430
100
AcDbScale
 70
     0
300
6" = 1'-0"
140
6.0
141
12.0
290
     0
  0
SCALE
  5
451
102
{ACAD_REACTORS
330
430
102
}
330
430
100
AcDbScale
 70
     0
300
1'-0" = 1'-0"
140
12.0
141
12.0
290
     0
  0
DICTIONARYVAR
  5
462
102
{ACAD_REACTORS
330
45F
102
}
330
45F
100
DictionaryVariables
280
     0
  1
1:1
  0
ENDSEC
  0
SECTION
  2
THUMBNAILIMAGE
 90
    16364
310
28000000B40000005500000001000800000000000000000000000000000000000000000000000000FFFFFF000000FF0000FFFF0000FF0000FFFF0000FF000000FF00FF000000000080808000C0C0C0000000FF007F7FFF000000A5005252A50000007F003F3F7F0000004C0026264C000000260013132600003FFF007F9FFF
310
000029A5005267A500001F7F003F4F7F0000134C00262F4C000009260013172600007FFF007FBFFF000052A500527CA500003F7F003F5F7F0000264C0026394C0000132600131C260000BFFF007FDFFF00007CA5005291A500005F7F003F6F7F0000394C0026424C00001C26001321260000FFFF007FFFFF0000A5A50052A5
310
A500007F7F003F7F7F00004C4C00264C4C00002626001326260000FFBF007FFFDF0000A57C0052A59100007F5F003F7F6F00004C3900264C420000261C001326210000FF7F007FFFBF0000A5520052A57C00007F3F003F7F5F00004C2600264C39000026130013261C0000FF3F007FFF9F0000A5290052A56700007F1F003F
310
7F4F00004C1300264C2F00002609001326170000FF00007FFF7F0000A5000052A55200007F00003F7F3F00004C0000264C260000260000132613003FFF00009FFF7F0029A5000067A552001F7F00004F7F3F00134C00002F4C260009260000172613007FFF0000BFFF7F0052A500007CA552003F7F00005F7F3F00264C0000
310
394C2600132600001C261300BFFF0000DFFF7F007CA5000091A552005F7F00006F7F3F00394C0000424C26001C26000021261300FFFF0000FFFF7F00A5A50000A5A552007F7F00007F7F3F004C4C00004C4C26002626000026261300FFBF0000FFDF7F00A57C0000A59152007F5F00007F6F3F004C3900004C422600261C00
310
0026211300FF7F0000FFBF7F00A5520000A57C52007F3F00007F5F3F004C2600004C39260026130000261C1300FF3F0000FF9F7F00A5290000A56752007F1F00007F4F3F004C1300004C2F26002609000026171300FF000000FF7F7F00A5000000A55252007F0000007F3F3F004C0000004C2626002600000026131300FF00
310
3F00FF7F9F00A5002900A55267007F001F007F3F4F004C0013004C262F002600090026131700FF007F00FF7FBF00A5005200A5527C007F003F007F3F5F004C0026004C2639002600130026131C00FF00BF00FF7FDF00A5007C00A55291007F005F007F3F6F004C0039004C26420026001C0026132100FF00FF00FF7FFF00A5
310
00A500A552A5007F007F007F3F7F004C004C004C264C002600260026132600BF00FF00DF7FFF007C00A5009152A5005F007F006F3F7F0039004C0042264C001C002600211326007F00FF00BF7FFF005200A5007C52A5003F007F005F3F7F0026004C0039264C00130026001C1326003F00FF009F7FFF002900A5006752A500
310
1F007F004F3F7F0013004C002F264C000900260017132600000000002D2D2D005B5B5B0089898900B7B7B700B3B3B30000000000000000000000000000000000000000000000000000000000000000000000000000000000000000000000000000000000000000000000000000000000000000000000000000000000000000
310
00000007070707070707070707070707070707070000000000000000000000000000000000000000000000000000000000000000000000000000000000000000000000000000000000000000000000000000000000000000000000000000000000000000000000000000000000000000000000000000000000000000000000
310
00000000000000000000000000000000000000000000000000000000000000000000000000000000000000000000000000000000000000070000000000000000000000000000000000070000000000000000000000000000000000000000000000000000000000000000000000000000000000000000000000000000000000
310
00000000000000000000000000000000000000000000000000000000000000000000000000000000000000000000000000000000000000000000000000000000000000000000000000000000000000000000000000000000000000000000000000000000000000000000000007000000000000000000000000000000000007
310
00000000000000000000000000000000000000000000000000000000000000000000000000000000000000000000000000000000000000000000000000000000000000000000000000000000000000000000000000000000000000000000000000000000000000000000000000000000000000000000000000000000000000
310
00000000000000000000000000000000000000000000000000000000000000000007070000000000000000000000000000000000070700000000000000000000000000000000000000000000000000000000000000000000000000000000000000000000000000000000000000000000000000000000000000000000000000
310
00000000000000000000000000000000000000000000000000000000000000000000000000000000000000000000000000000000000000000000000000000000000000000000000000000000000000000000000000000700000000000000000000000000000000000000070000000000000000000000000000000000000000
310
00000000000000000000000000000000000000000000000000000000000000000000000000000000000000000000000000000000000000000000000000000000000000000000000000000000000000000000000000000000000000000000000000000000000000000000000000000000000000000000000000000000000000
310
00000000000000000000000007000000000000000000000000000000000000000700000000000000000000000000000000000000000000000000000000000000000000000000000000000000000000000000000000000000000000000000000000000000000000000000000000000000000000000000000000000000000000
310
00000000000000000000000000000000000000000000000000000000000000000000000000000000000000000000000000000000000000000000000000000000070000000000000000000000000000000000000000000700000000000000000000000000000000000000000000000000000000000000000000000000000000
310
00000000000000000000000000000000000000000000000000000000000000000000000000000000000000000000000000000000000000000000000000000000000000000000000000000000000000000000000000000000000000000000000000000000000000000000000000000000000000000700000000000000000000
310
00000000000000000000000000070000000000000000000000000000000000000000000000000000000000000000000000000000000000000000000000000000000000000000000000000000000000000000000000000000000000000000000000000000000000000000000000000000000000000000000000000000000000
310
00000000000000000000000000000000000000000000000000000000000000000000000000000000000700000000000000000000000000000000000000000000000000070000000000000000000000000000000000000000000000000000000000000000000000000000000000000000000000000000000000000000000000
310
00000000000000000000000000000000000000000000000000000000000000000000000000000000000000000000000000000000000000000000000000000000000000000000000000000000000000000000000000000000000000000007000000000000000000000000000000000000000000000000000000070000000000
310
00000000000000000000000000000000000000000000000000000000000000000000000000000000000000000000000000000000000000000000000000000000000000000000000000000000000000000000000000000000000000000000000000000000000000000000000000000000000000000000000000000000000000
310
00000000000000000000000000000000000007070700000000000000000000000000000000000000000000000000070707000000000000000000000000000000000000000000000000000000000000000000000000000000000000000000000000000000000000000000000000000000000000000000000000000000000000
310
00000000000000000000000000000000000000000000000000000000000000000000000000000000000000000000000000000000000000000000000000000000000000000007070000070700000000000000000000000000000000000000000000000707000007070000000000000000000000000000000000000000000000
310
00000000000000000000000000000000000000000000000000000000000000000000000000000000000000000000000000000000000000000000000000000000000000000000000000000000000000000000000000000000000000000000000000000000000000000000000000000000000000000000000000070000000007
310
07070000000000000000000000000000000000000000000707000000000007000000000000000000000000000000000000000000000000000000000000000000000000000000000000000000000000000000000000000000000000000000000000000000000000000000000000000000000000000000000000000000000000
310
00000000000000000000000000000000000000000000000000000000000000000000000000000000000000000007070000000000000707000000000000000000000000000000000000000007070000000000000007070000000000000000000000000000000000000000000000000000000000000000000000000000000000
310
00000000000000000000000000000000000000000000000000000000000000000000000000000000000000000000000000000000000000000000000000000000000000000000000000000000000000000000000000000000000000000000000000070000000000000000000707000000000000000000000000000000000000
310
00070700000000000000000007000000000000000000000000000000000000000000000000000000000000000000000000000000000000000000000000000000000000000000000000000000000000000000000000000000000000000000000000000000000000000000000000000000000000000000000000000000000000
310
00000000000000000000000000000000000000000007070000000000000000000000070700000000000000000000000000000000000707000000000000000000000007070000000000000000000000000000000000000000000000000000000000000000000000000000000000000000000000000000000000000000000000
310
00000000000000000000000000000000000000000000000000000000000000000000000000000000000000000000000000000000000000000000000000000000000000000000000000070000000000000000000000000007070700000000000000000000000000000007070000000000000000000000000000070000000000
310
00000000000000000000000000000000000000000000000000000000000000000000000000000000000000000000000000000000000000000000000000000000000000000000000000000000000000000000000000000000000000000000000000000000000000000000000000000000000000000000000000000000070700
310
00000000000000000000000000000707070707070707070707070707070707070000000000000000000000000000000007070000000000000000000000000000000000000000000000000000000000000000000000000000000000000000000000000000000000000000000000000000000000000000000000000000000000
310
00000000000000000000000000000000000000000000000000000000000000000000000000000000000000000000000000070000000000000000000000000000000000000700000700000000000000000007000007000000000000000000000000000000000000070000000000000000000000000000000000000000000000
310
00000000000000000000000000000000000000000000000000000000000000000000000000000000000000000000000000000000000000000000000000000000000000000000000000000000000000000000000000000000000000000000000000000000000007070000000000000000000000000000000007000000070000
310
00000000000000070000000700000000000000000000000000000000070700000000000000000000000000000000000000000000000000000000000000000000000000000000000000000000000000000000000000000000000000000000000000000000000000000000000000000000000000000000000000000000000000
310
00000000000000000000000000000000000000000000000000000000000700000000000000000000000000000007000000000700000000000000000007000000000700000000000000000000000000000007000000000000000000000000000000000000000000000000000000000000000000000000000000000000000000
310
00000000000000000000000000000000000000000000000000000000000000000000000000000000000000000000000000000000000000000000000000000000000000000000000000000000000000000000000700000000000000000000000000070000000000070000000000000000000700000000000700000000000000
310
00000000000007000000000000000000000000000000000000000000000000000000000000000000000000000000000000000000000000000000000000000000000000000000000000000000000000000000000000000000000000000000000000000000000000000000000000000000000000000000000000000000000000
310
00000000000000000007000000000000000000000000070000000000000700000000000000000007000000000000070000000000000000000000000700000000000000000000000000000000000000000000000000000000000000000000000000000000000000000000000000000000000000000000000000000000000000
310
00000000000000000000000000000000000000000000000000000000000000000000000000000000000000000000000000000000000000000000000000000007000000000000000000000700000000000000070000000000000000000700000000000000070000000000000000000007000000000000000000000000000000
310
00000000000000000000000000000000000000000000000000000000000000000000000000000000000000000000000000000000000000000000000000000000000000000000000000000000000000000000000000000000000000000000000000000000000000000000000000000000000000000007000000000000000007
310
00000000000000000700000000000000000007000000000000000007000000000000000007000000000000000000000000000000000000000000000000000000000000000000000000000000000000000000000000000000000000000000000000000000000000000000000000000000000000000000000000000000000000
310
00000000000000000000000000000000000000000000000000000000000000000000000000000000000000000700000000000007000000000000000000070000000000000000000700000000000000000007000000000000070000000000000000000000000000000000000000000000000000000000000000000000000000
310
00000000000000000000000000000000000000000000000000000000000000000000000000000000000000000000000000000000000000000000000000000000000000000000000000000000000000000000000000000000000000000000000000000700000000070000000000000000000007000000000000000000070000
310
00000000000000000700000000070000000000000000000000000000000000000000000000000000000000000000000000000000000000000000000000000000000000000000000000000000000000000000000000000000000000000000000000000000000000000000000000000000000000000000000000000000000000
310
00000000000000000000000000000000000000000000000000070000070000000000000000000000070000000000000000000700000000000000000000000700070700000000000000000000000000000000000000000000000000000000000000000000000000000000000000000000000000000000000000000000000000
310
00000000000000000000000000000000000000000000000000000000000000000000000000000000000000000000000000000000000000000000000000000000000000000000000000000000000000070700000000000000000000000007000000000000000000070000000000000000000000000707000000000000000000
310
00000000000000000000000000000000000000000000000000000000000000000000000000000000000000000000000000000000000000000000000000000000000000000000000000000000000000000000000000000000000000000000000000000000000000000000000000000000000000000000000000000000000000
310
00000000000000000000000000000000000000070000000000000000000700000000000000000000000000000000000000000000000000000000000000000000000000000000000000000000000000000000000000000000000000000000000000000000000000000000000000000000000000000000000000000000000000
310
00000000000000000000000000000000000000000000000000000000000000000000000000000000000000000000000000000000000000000000000000000000000000000000000007000000000000000000070000000000000000000000000000000000000000000000000000000000000000000000000000000000000000
310
00000000000000000000000000000000000000000000000000000000000000000000000000000000000000000000000000000000000000000000000000000000000000000000000000000000000000000000000000000000000000000000000000000000000000000000000000000000000000000000000000000000000700
310
00000000000000000700000000000000000000000000000000000000000000000000000000000000000000000000000000000000000000000000000000000000000000000000000000000000000000000000000000000000000000000000000000000000000000000000000000000000000000000000000000000000000000
310
00000000000000000000000000000000000000000000000000000000000000000000000000000000000000000000000000000007000000000000000000070000000000000000000000000000000000000000000000000000000000000000000000000000000000000000000000000000000000000000000000000000000000
310
00000000000000000000000000000000000000000000000000000000000000000000000000000000000000000000000000000000000000000000000000000000000000000000000000000000000000000000000000000000000000000000000000000000000000000700000000000000000007000000000000000000000000
310
00000000000000000000000000000000000000000000000000000000000000000000000000000000000000000000000000000000000000000000000000000000000000000000000000000000000000000000000000000000000000000000000000000000000000000000000000000000000000000000000000000000000000
310
00000000000000000000000000000000000000000000000000000000000007000000000000000000070000000000000000000000000000000000000000000000000000000000000000000000000000000000000000000000000000000000000000000000000000000000000000000000000000000000000000000000000000
310
00000000000000000000000000000000000000000000000000000000000000000000000000000000000000000000000000000000000000000000000000000000000000000000000000000000000000000000000700000000000000000007000000000000000000000000000000000000000000000000000000000000000000
310
00000000000000000000000000000000000000000000000000000000000000000000000000000000000000000000000000000000000000000000000000000000000000000000000000000000000000000000000000000000000000000000000000000000000000000000000000000000000000000000000000000000000000
310
00000000000000000007000000000000000000070000000000000000000000000000000000000000000000000000000000000000000000000000000000000000000000000000000000000000000000000000000000000000000000000000000000000000000000000000000000000000000000000000000000000000000000
310
00000000000000000000000000000000000000000000000000000000000000000000000000000000000000000000000000000000000000000000000000000700000000000000000007000000000000000000000000000000000000000000000000000000000000000000000000000000000000000000000000000000000000
310
00000000000000000000000000000000000000000000000000000000000000000000000000000000000000000000000000000000000000000000000000000000000000000000000000000000000000000000000000000000000000000000000000000000000000000000000000000000000000070000000000000000000700
310
00000000000000000000000000000000000000000000000000000000000000000000000000000000000000000000000000000000000000000000000000000000000000000000000000000000000000000000000000000000000000000000000000000000000000000000000000000000000000000000000000000000000000
310
00000000000000000000000000000000000000000000000000000000000000000000000000000000000700000000000000000007000000000000000000000000000000000000000000000000000000000000000000000000000000000000000000000000000000000000000000000000000000000000000000000000000000
310
00000000000000000000000000000000000000000000000000000000000000000000000000000000000000000000000000000000000000000000000000000000000000000000000000000000000000000000000000000000000000000000070000000000000000000700000000000000000000000000000000000000000000
310
00000000000000000000000000000000000000000000000000000000000000000000000000000000000000000000000000000000000000000000000000000000000000000000000000000000000000000000000000000000000000000000000000000000000000000000000000000000000000000000000000000000000000
310
00000000000000000000000000000000000000000700000000000000000007000000000000000000000000000000000000000000000000000000000000000000000000000000000000000000000000000000000000000000000000000000000000000000000000000000000000000000000000000000000000000000000000
310
00000000000000000000000000000000000000000000000000000000000000000000000000000000000000000000000000000000000000000000000000000000000000000000000000070000000000000000000700000000000000000000000000000000000000000000000000000000000000000000000000000000000000
310
00000000000000000000000000000000000000000000000000000000000000000000000000000000000000000000000000000000000000000000000000000000000000000000000000000000000000000000000000000000000000000000000000000000000000000000000000000000000000000000000000000000000007
310
00000000000000000007000000000000000000000000000000000000000000000000000000000000000000000000000000000000000000000000000000000000000000000000000000000000000000000000000000000000000000000000000000000000000000000000000000000000000000000000000000000000000000
310
00000000000000000000000000000000000000000000000000000000000000000000000000000000000000000000000000000000070000000000000000000700000000000000000000000000000000000000000000000000000000000000000000000000000000000000000000000000000000000000000000000000000000
310
00000000000000000000000000000000000000000000000000000000000000000000000000000000000000000000000000000000000000000000000000000000000000000000000000000000000000000000000000000000000000000000000000000000000000000007000000000000000000070000000000000000000000
310
00000000000000000000000000000000000000000000000000000000000000000000000000000000000000000000000000000000000000000000000000000000000000000000000000000000000000000000000000000000000000000000000000000000000000000000000000000000000000000000000000000000000000
310
00000000000000000000000000000000000000000000000000000000000000070000000000000000000700000000000000000000000000000000000000000000000000000000000000000000000000000000000000000000000000000000000000000000000000000000000000000000000000000000000000000000000000
310
00000000000000000000000000000000000000000000000000000000000000000000000000000000000000000000000000000000000000000000000000000000000000000000000000000000000000000000000007000000000000000000070000000000000000000000000000000000000000000000000000000000000000
310
00000000000000000000000000000000000000000000000000000000000000000000000000000000000000000000000000000000000000000000000000000000000000000000000000000000000000000000000000000000000000000000000000000000000000000000000000000000000000000000000000000000000000
310
00000000000000000000070000000000000000000700000000000000000000000000000000000000000000000000000000000000000000000000000000000000000000000000000000000000000000000000000000000000000000000000000000000000000000000000000000000000000000000000000000000000000000
310
00000000000000000000000000000000000000000000000000000000000000000000000000000000000000000000000000000000000000000000000000000007000000000000000000070000000000000000000000000000000000000000000000000000000000000000000000000000000000000000000000000000000000
310
00000000000000000000000000000000000000000000000000000000000000000000000000000000000000000000000000000000000000000000000000000000000000000000000000000000000000000000000000000000000000000000000000000000000000000000000000000000000000000700000000000000000007
310
00000000000000000000000000000000000000000000000000000000000000000000000000000000000000000000000000000000000000000000000000000000000000000000000000000000000000000000000000000000000000000000000000000000000000000000000000000000000000000000000000000000000000
310
00000000000000000000000000000000000000000000000000000000000000000000000000000000000007000000000000000000070000000000000000000000000000000000000000000000000000000000000000000000000000000000000000000000000000000000000000000000000000000000000000000000000000
310
00000000000000000000000000000000000000000000000000000000000000000000000000000000000000000000000000000000000000000000000000000000000000000000000000000000000000000000000000000000000000000000000700000000000000000007000000000000000000000000000000000000000000
310
00000000000000000000000000000000000000000000000000000000000000000000000000000000000000000000000000000000000000000000000000000000000000000000000000000000000000000000000000000000000000000000000000000000000000000000000000000000000000000000000000000000000000
310
00000000000000000000000000000000000000000007000707070707070700070000000000000000000000000000000000000000000000000000000000000000000000000000000000000000000000000000000000000000000000000000000000000000000000000000000000000000000000000000000000000000000000
310
00000000000000000000000000000000000000000000000000000000000000000000000000000000000000000000000000000000000000000000000000000000000000000000000000000707070700000000070707000000000000000000000000000000000000000000000000000000000000000000000000000000000000
310
00000000000000000000000000000000000000000000000000000000000000000000000000000000000000000000000000000000000000000000000000000000000000000000000000000000000000000000000000000000000000000000000000000000000000000000000000000000000000000000000000000000000000
310
07070000000000000007070000000000000000000000000000000000000000000000000000000000000000000000000000000000000000000000000000000000000000000000000000000000000000000000000000000000000000000000000000000000000000000000000000000000000000000000000000000000000000
310
00000000000000000000000000000000000000000000000000000000000000000000000000000000000000000000000000000000000700070707070707070707000000000000000000000000000000000000000000000000000000000000000000000000000000000000000000000000000000000000000000000000000000
310
00000000000000000000000000000000000000000000000000000000000000000000000000000000000000000000000000000000000000000000000000000000000000000000000000000000000000000000000000000000000000000000000000000000000000000000070000000000000000000700000000000000000000
310
00000000000000000000000000000000000000000000000000000000000000000000000000000000000000000000000000000000000000000000000000000000000000000000000000000000000000000000000000000000000000000000000000000000000000000000000000000000000000000000000000000000000000
310
00000000000000000000000000000000000000000000000000000000000000000700000000000000000007000000000000000000000000000000000000000000000000000000000000000000000000000000000000000000000000000000000000000000000000000000000000000000000000000000000000000000000000
310
00000000000000000000000000000000000000000000000000000000000000000000000000000000000000000000000000000000000000000000000000000000000000000000000000000000000000000000000000070000000000000000000700000000000000000000000000000000000000000000000000000000000000
310
00000000000000000000000000000000000000000000000000000000000000000000000000000000000000000000000000000000000000000000000000000000000000000000000000000000000000000000000000000000000000000000000000000000000000000000000000000000000000000000000000000000000000
310
00000000000000000000000700000000000000000007000000000000000000000000000000000000000000000000000000000000000000000000000000000000000000000000000000000000000000000000000000000000000000000000000000000000000000000000000000000000000000000000000000000000000000
310
00000000000000000000000000000000000000000000000000000000000000000000000000000000000000000000000000000000000000000000000000000000070000000000000000000700000000000000000000000000000000000000000000000000000000000000000000000000000000000000000000000000000000
310
00000000000000000000000000000000000000000000000000000000000000000000000000000000000000000000000000000000000000000000000000000000000000000000000000000000000000000000000000000000000000000000000000000000000000000000000000000000000000000007070000000000000007
310
07000000000000000000000000000000000000000000000000000000000000000000000000000000000000000000000000000000000000000000000000000000000000000000000000000000000000000000000000000000000000000000000000000000000000000000000000000000000000000000000000000000000000
310
00000000000000000000000000000000000000000000000000000000000000000000000000000000000000070707070707070707070700000000000000000000000000000000000000000000000000000000000000000000000000000000000000000000000000000000000000000000000000000000000000000000000000
310
00000000000000000000000000000000000000000000000000000000000000000000000000000000000000000000000000000000000000000000000000000000000000000000000000000000000000000000000000000000000000000000000007000000000700000000070000000000000000000000000000000000000000
310
00000000000000000000000000000000000000000000000000000000000000000000000000000000000000000000000000000000000000000000000000000000000000000000000000000000000000000000000000000000000000000000000000000000000000000000000000000000000000000000000000000000000000
310
00000000000000000000000000000000000000000000070000000000000000000700000000000000000000000000000000000000000000000000000000000000000000000000000000000000000000000000000000000000000000000000000000000000000000000000000000000000000000000000000000000000000000
310
00000000000000000000000000000000000000000000000000000000000000000000000000000000000000000000000000000000000000000000000000000000000000000000000000000007000000000000000000070000000000000000000000000000000000000000000000000000000000000000000000000000000000
310
00000000000000000000000000000000000000000000000000000000000000000000000000000000000000000000000000000000000000000000000000000000000000000000000000000000000000000000000000000000000000000000000000000000000000000000000000000000000000000000000000000000000000
310
00070000000000000000000700000000000000000000000000000000000000000000000000000000000000000000000000000000000000000000000000000000000000000000000000000000000000000000000000000000000000000000000000000000000000000000000000000000000000000000000000000000000000
310
00000000000000000000000000000000000000000000000000000000000000000000000000000000000000000000000000000000000007000000000000000000070000000000000000000000000000000000000000000000000000000000000000000000000000000000000000000000000000000000000000000000000000
310
00000000000000000000000000000000000000000000000000000000000000000000000000000000000000000000000000000000000000000000000000000000000000000000000000000000000000000000000000000000000000000000000000000000000000000000000700000000000000000007000000000000000000
310
00000000000000000000000000000000000000000000000000000000000000000000000000000000000000000000000000000000000000000000000000000000000000000000000000000000000000000000000000000000000000000000000000000000000000000000000000000000000000000000000000000000000000
310
00000000000000000000000000000000000000000000000000000000000000000007000000000000000000070000000000000000000000000000000000000000000000000000000000000000000000000000000000000000000000000000000000000000000000000000000000000000000000000000000000000000000000
310
00000000000000000000000000000000000000000000000000000000000000000000000000000000000000000000000000000000000000000000000000000000000000000000000000000000000000000000000000000700000000000000000007000000000000000000000000000000000000000000000000000000000000
310
00000000000000000000000000000000000000000000000000000000000000000000000000000000000000000000000000000000000000000000000000000000000000000000000000000000000000000000000000000000000000000000000000000000000000000000000000000000000000000000000000000000000000
310
00000000000000000000000007000000000000000000070000000000000000000000000000000000000000000000000000000000000000000000000000000000000000000000000000000000000000000000000000000000000000000000000000000000000000000000000000000000000000000000000000000000000000
310
00000000000000000000000000000000000000000000000000000000000000000000000000000000000000000000000000000000000000000000000000000000000700000000000000000007000000000000000000000000000000000000000000000000000000000000000000000000000000000000000000000000000000
310
00000000000000000000000000000000000000000000000000000000000000000000000000000000000000000000000000000000000000000000000000000000000000000000000000000000000000000000000000000000000000000000000000000000000000000000000000000000000000000000070000000000000000
310
00070000000000000000000000000000000000000000000000000000000000000000000000000000000000000000000000000000000000000000000000000000000000000000000000000000000000000000000000000000000000000000000000000000000000000000000000000000000000000000000000000000000000
310
00000000000000000000000000000000000000000000000000000000000000000000000000000000000000000700000000000000000007000000000000000000000000000000000000000000000000000000000000000000000000000000000000000000000000000000000000000000000000000000000000000000000000
310
00000000000000000000000000000000000000000000000000000000000000000000000000000000000000000000000000000000000000000000000000000000000000000000000000000000000000000000000000000000000000000000000000070000000000000000000700000000000000000000000000000000000000
310
00000000000000000000000000000000000000000000000000000000000000000000000000000000000000000000000000000000000000000000000000000000000000000000000000000000000000000000000000000000000000000000000000000000000000000000000000000000000000000000000000000000000000
310
00000000000000000000000000000000000000000000000700000000000000000007000000000000000000000000000000000000000000000000000000000000000000000000000000000000000000000000000000000000000000000000000000000000000000000000000000000000000000000000000000000000000000
310
00000000000000000000000000000000000000000000000000000000000000000000000000000000000000000000000000000000000000000000000000000000000000000000000000000000070000000000000000000700000000000000000000000000000000000000000000000000000000000000000000000000000000
310
00000000000000000000000000000000000000000000000000000000000000000000000000000000000000000000000000000000000000000000000000000000000000000000000000000000000000000000000000000000000000000000000000000000000000000000000000000000000000000000000000000000000000
310
00000700000000000000000007000000000000000000000000000000000000000000000000000000000000000000000000000000000000000000000000000000000000000000000000000000000000000000000000000000000000000000000000000000000000000000000000000000000000000000000000000000000000
310
00000000000000000000000000000000000000000000000000000000000000000000000000000000000000000000000000000000000000000700000000000000070000000000000000000000000000000000000000000000000000000000000000000000000000000000000000000000000000000000000000000000000000
310
00000000000000000000000000000000000000000000000000000000000000000000000000000000000000000000000000000000000000000000000000000000000000000000000000000000000000000000000000000000000000000000000000000000000000000000000000070000000000000007000000000000000000
310
00000000000000000000000000000000000000000000000000000000000000000000000000000000000000000000000000000000000000000000000000000000000000000000000000000000000000000000000000000000000000000000000000000000000000000000000000000000000000000000000000000000000000
310
00000000000000000000000000000000000000000000000000000000000000000000000007000000000007000000000000000000000000000000000000000000000000000000000000000000000000000000000000000000000000000000000000000000000000000000000000000000000000000000000000000000000000
310
00000000000000000000000000000000000000000000000000000000000000000000000000000000000000000000000000000000000000000000000000000000000000000000000000000000000000000000000000000000000007070707070000000000000000000000000000000000000000000000000000000000000000
310
00000000000000000000000000000000000000000000000000000000000000000000000000000000000000000000000000000000000000000000000000000000000000000000000000000000000000000000000000000000000000000000000000000000000000000000000000000000000000000000000000000000000000
310
000000000000000000000000000000000000000000000000000000000000000000000000000000000000000000000000000000000000000000000000000000000000000000000000000000000000000000000000000000000000000000000000000000000000000000000000
  0
ENDSEC
  0
EOF
