  0
SECTION
  2
HEADER
  9
$ACADVER
  1
AC1015
  9
$ACADMAINTVER
 70
     6
  9
$DWGCODEPAGE
  3
ANSI_1252
  9
$INSBASE
 10
0.0
 20
0.0
 30
0.0
  9
$EXTMIN
 10
-0.0298
 20
-0.2356105
 30
0.0
  9
$EXTMAX
 10
48.0205
 20
165.065463022141
 30
0.0
  9
$LIMMIN
 10
0.0
 20
0.0
  9
$LIMMAX
 10
12.0
 20
9.0
  9
$ORTHOMODE
 70
     0
  9
$REGENMODE
 70
     1
  9
$FILLMODE
 70
     1
  9
$QTEXTMODE
 70
     0
  9
$MIRRTEXT
 70
     1
  9
$LTSCALE
 40
1.0
  9
$ATTMODE
 70
     1
  9
$TEXTSIZE
 40
0.2
  9
$TRACEWID
 40
0.05
  9
$TEXTSTYLE
  7
Standard
  9
$CLAYER
  8
0
  9
$CELTYPE
  6
ByBlock
  9
$CECOLOR
 62
   256
  9
$CELTSCALE
 40
1.0
  9
$DISPSILH
 70
     0
  9
$DIMSCALE
 40
1.0
  9
$DIMASZ
 40
0.18
  9
$DIMEXO
 40
0.0625
  9
$DIMDLI
 40
0.38
  9
$DIMRND
 40
0.0
  9
$DIMDLE
 40
0.0
  9
$DIMEXE
 40
0.18
  9
$DIMTP
 40
0.0
  9
$DIMTM
 40
0.0
  9
$DIMTXT
 40
0.18
  9
$DIMCEN
 40
0.09
  9
$DIMTSZ
 40
0.0
  9
$DIMTOL
 70
     0
  9
$DIMLIM
 70
     0
  9
$DIMTIH
 70
     1
  9
$DIMTOH
 70
     1
  9
$DIMSE1
 70
     0
  9
$DIMSE2
 70
     0
  9
$DIMTAD
 70
     0
  9
$DIMZIN
 70
     0
  9
$DIMBLK
  1

  9
$DIMASO
 70
     1
  9
$DIMSHO
 70
     1
  9
$DIMPOST
  1

  9
$DIMAPOST
  1

  9
$DIMALT
 70
     0
  9
$DIMALTD
 70
     2
  9
$DIMALTF
 40
25.4
  9
$DIMLFAC
 40
1.0
  9
$DIMTOFL
 70
     0
  9
$DIMTVP
 40
0.0
  9
$DIMTIX
 70
     0
  9
$DIMSOXD
 70
     0
  9
$DIMSAH
 70
     0
  9
$DIMBLK1
  1

  9
$DIMBLK2
  1

  9
$DIMSTYLE
  2
Standard
  9
$DIMCLRD
 70
     0
  9
$DIMCLRE
 70
     0
  9
$DIMCLRT
 70
     0
  9
$DIMTFAC
 40
1.0
  9
$DIMGAP
 40
0.09
  9
$DIMJUST
 70
     0
  9
$DIMSD1
 70
     0
  9
$DIMSD2
 70
     0
  9
$DIMTOLJ
 70
     1
  9
$DIMTZIN
 70
     0
  9
$DIMALTZ
 70
     0
  9
$DIMALTTZ
 70
     0
  9
$DIMUPT
 70
     0
  9
$DIMDEC
 70
     4
  9
$DIMTDEC
 70
     4
  9
$DIMALTU
 70
     2
  9
$DIMALTTD
 70
     2
  9
$DIMTXSTY
  7
Standard
  9
$DIMAUNIT
 70
     0
  9
$DIMADEC
 70
     0
  9
$DIMALTRND
 40
0.0
  9
$DIMAZIN
 70
     0
  9
$DIMDSEP
 70
    46
  9
$DIMATFIT
 70
     3
  9
$DIMFRAC
 70
     0
  9
$DIMLDRBLK
  1

  9
$DIMLUNIT
 70
     2
  9
$DIMLWD
 70
    -2
  9
$DIMLWE
 70
    -2
  9
$DIMTMOVE
 70
     2
  9
$LUNITS
 70
     2
  9
$LUPREC
 70
     4
  9
$SKETCHINC
 40
0.1
  9
$FILLETRAD
 40
0.5
  9
$AUNITS
 70
     0
  9
$AUPREC
 70
     0
  9
$MENU
  1
.
  9
$ELEVATION
 40
0.0
  9
$PELEVATION
 40
0.0
  9
$THICKNESS
 40
0.0
  9
$LIMCHECK
 70
     0
  9
$CHAMFERA
 40
0.5
  9
$CHAMFERB
 40
0.5
  9
$CHAMFERC
 40
1.0
  9
$CHAMFERD
 40
0.0
  9
$SKPOLY
 70
     0
  9
$TDCREATE
 40
2456645.916667026
  9
$TDUCREATE
 40
2456645.875000359
  9
$TDUPDATE
 40
2456645.921570092
  9
$TDUUPDATE
 40
2456645.879903426
  9
$TDINDWG
 40
0.0049030787
  9
$TDUSRTIMER
 40
0.0049030787
  9
$USRTIMER
 70
     1
  9
$ANGBASE
 50
0.0
  9
$ANGDIR
 70
     0
  9
$PDMODE
 70
     0
  9
$PDSIZE
 40
0.0
  9
$PLINEWID
 40
0.0
  9
$SPLFRAME
 70
     0
  9
$SPLINETYPE
 70
     6
  9
$SPLINESEGS
 70
     8
  9
$HANDSEED
  5
9B9
  9
$SURFTAB1
 70
     6
  9
$SURFTAB2
 70
     6
  9
$SURFTYPE
 70
     6
  9
$SURFU
 70
     6
  9
$SURFV
 70
     6
  9
$UCSBASE
  2

  9
$UCSNAME
  2

  9
$UCSORG
 10
0.0
 20
0.0
 30
0.0
  9
$UCSXDIR
 10
1.0
 20
0.0
 30
0.0
  9
$UCSYDIR
 10
0.0
 20
1.0
 30
0.0
  9
$UCSORTHOREF
  2

  9
$UCSORTHOVIEW
 70
     0
  9
$UCSORGTOP
 10
0.0
 20
0.0
 30
0.0
  9
$UCSORGBOTTOM
 10
0.0
 20
0.0
 30
0.0
  9
$UCSORGLEFT
 10
0.0
 20
0.0
 30
0.0
  9
$UCSORGRIGHT
 10
0.0
 20
0.0
 30
0.0
  9
$UCSORGFRONT
 10
0.0
 20
0.0
 30
0.0
  9
$UCSORGBACK
 10
0.0
 20
0.0
 30
0.0
  9
$PUCSBASE
  2

  9
$PUCSNAME
  2

  9
$PUCSORG
 10
0.0
 20
0.0
 30
0.0
  9
$PUCSXDIR
 10
1.0
 20
0.0
 30
0.0
  9
$PUCSYDIR
 10
0.0
 20
1.0
 30
0.0
  9
$PUCSORTHOREF
  2

  9
$PUCSORTHOVIEW
 70
     0
  9
$PUCSORGTOP
 10
0.0
 20
0.0
 30
0.0
  9
$PUCSORGBOTTOM
 10
0.0
 20
0.0
 30
0.0
  9
$PUCSORGLEFT
 10
0.0
 20
0.0
 30
0.0
  9
$PUCSORGRIGHT
 10
0.0
 20
0.0
 30
0.0
  9
$PUCSORGFRONT
 10
0.0
 20
0.0
 30
0.0
  9
$PUCSORGBACK
 10
0.0
 20
0.0
 30
0.0
  9
$USERI1
 70
     0
  9
$USERI2
 70
     0
  9
$USERI3
 70
     0
  9
$USERI4
 70
     0
  9
$USERI5
 70
     0
  9
$USERR1
 40
0.0
  9
$USERR2
 40
0.0
  9
$USERR3
 40
0.0
  9
$USERR4
 40
0.0
  9
$USERR5
 40
0.0
  9
$WORLDVIEW
 70
     1
  9
$SHADEDGE
 70
     3
  9
$SHADEDIF
 70
    70
  9
$TILEMODE
 70
     1
  9
$MAXACTVP
 70
    64
  9
$PINSBASE
 10
0.0
 20
0.0
 30
0.0
  9
$PLIMCHECK
 70
     0
  9
$PEXTMIN
 10
1.000000000000E+20
 20
1.000000000000E+20
 30
1.000000000000E+20
  9
$PEXTMAX
 10
-1.000000000000E+20
 20
-1.000000000000E+20
 30
-1.000000000000E+20
  9
$PLIMMIN
 10
0.0
 20
0.0
  9
$PLIMMAX
 10
12.0
 20
9.0
  9
$UNITMODE
 70
     0
  9
$VISRETAIN
 70
     1
  9
$PLINEGEN
 70
     0
  9
$PSLTSCALE
 70
     1
  9
$TREEDEPTH
 70
  3020
  9
$CMLSTYLE
  2
Standard
  9
$CMLJUST
 70
     0
  9
$CMLSCALE
 40
1.0
  9
$PROXYGRAPHICS
 70
     1
  9
$MEASUREMENT
 70
     0
  9
$CELWEIGHT
370
    -1
  9
$ENDCAPS
280
     0
  9
$JOINSTYLE
280
     0
  9
$LWDISPLAY
290
     0
  9
$INSUNITS
 70
     0
  9
$HYPERLINKBASE
  1

  9
$STYLESHEET
  1

  9
$XEDIT
290
     1
  9
$CEPSNTYPE
380
     0
  9
$PSTYLEMODE
290
     1
  9
$FINGERPRINTGUID
  2
{DFDF368C-8CEA-40BA-B544-E1D9E8B975EB}
  9
$VERSIONGUID
  2
{FAEB1C32-E019-11D5-929B-00C0DF256EC4}
  9
$EXTNAMES
290
     1
  9
$PSVPSCALE
 40
0.0
  9
$OLESTARTUP
290
     0
  0
ENDSEC
  0
SECTION
  2
CLASSES
  0
CLASS
  1
ACDBDICTIONARYWDFLT
  2
AcDbDictionaryWithDefault
  3
ObjectDBX Classes
 90
        0
280
     0
281
     0
  0
CLASS
  1
SCALE
  2
AcDbScale
  3
ObjectDBX Classes
 90
     1153
280
     0
281
     0
  0
CLASS
  1
DICTIONARYVAR
  2
AcDbDictionaryVar
  3
ObjectDBX Classes
 90
        0
280
     0
281
     0
  0
CLASS
  1
ACDBPLACEHOLDER
  2
AcDbPlaceHolder
  3
ObjectDBX Classes
 90
        0
280
     0
281
     0
  0
CLASS
  1
LAYOUT
  2
AcDbLayout
  3
ObjectDBX Classes
 90
        0
280
     0
281
     0
  0
ENDSEC
  0
SECTION
  2
TABLES
  0
TABLE
  2
VPORT
  5
8
330
0
100
AcDbSymbolTable
 70
     1
  0
VPORT
  5
255
330
8
100
AcDbSymbolTableRecord
100
AcDbViewportTableRecord
  2
*Active
 70
     0
 10
0.0
 20
0.0
 11
1.0
 21
1.0
 12
23.99535
 22
82.41492626107
 13
0.0
 23
0.0
 14
0.5
 24
0.5
 15
0.5
 25
0.5
 16
0.0
 26
0.0
 36
1.0
 17
0.0
 27
0.0
 37
0.0
 40
168.607094992584
 41
1.729542302358
 42
50.0
 43
0.0
 44
0.0
 50
0.0
 51
0.0
 71
    16
 72
   100
 73
     1
 74
     3
 75
     0
 76
     0
 77
     0
 78
     0
281
     0
 65
     1
110
0.0
120
0.0
130
0.0
111
1.0
121
0.0
131
0.0
112
0.0
122
1.0
132
0.0
 79
     0
146
0.0
  0
ENDTAB
  0
TABLE
  2
LTYPE
  5
5
330
0
100
AcDbSymbolTable
 70
     1
  0
LTYPE
  5
14
330
5
100
AcDbSymbolTableRecord
100
AcDbLinetypeTableRecord
  2
ByBlock
 70
     0
  3

 72
    65
 73
     0
 40
0.0
  0
LTYPE
  5
15
330
5
100
AcDbSymbolTableRecord
100
AcDbLinetypeTableRecord
  2
ByLayer
 70
     0
  3

 72
    65
 73
     0
 40
0.0
  0
LTYPE
  5
16
330
5
100
AcDbSymbolTableRecord
100
AcDbLinetypeTableRecord
  2
Continuous
 70
     0
  3
Solid line
 72
    65
 73
     0
 40
0.0
  0
ENDTAB
  0
TABLE
  2
LAYER
  5
2
330
0
100
AcDbSymbolTable
 70
     1
  0
LAYER
  5
10
330
2
100
AcDbSymbolTableRecord
100
AcDbLayerTableRecord
  2
0
 70
     0
 62
     7
  6
Continuous
370
    -3
390
F
  0
ENDTAB
  0
TABLE
  2
STYLE
  5
3
330
0
100
AcDbSymbolTable
 70
     1
  0
STYLE
  5
11
330
3
100
AcDbSymbolTableRecord
100
AcDbTextStyleTableRecord
  2
Standard
 70
     0
 40
0.0
 41
1.0
 50
0.0
 71
     0
 42
0.2
  3
txt
  4

  0
ENDTAB
  0
TABLE
  2
VIEW
  5
6
330
0
100
AcDbSymbolTable
 70
     0
  0
ENDTAB
  0
TABLE
  2
UCS
  5
7
330
0
100
AcDbSymbolTable
 70
     0
  0
ENDTAB
  0
TABLE
  2
APPID
  5
9
330
0
100
AcDbSymbolTable
 70
     1
  0
APPID
  5
12
330
9
100
AcDbSymbolTableRecord
100
AcDbRegAppTableRecord
  2
ACAD
 70
     0
  0
ENDTAB
  0
TABLE
  2
DIMSTYLE
  5
A
330
0
100
AcDbSymbolTable
 70
     1
100
AcDbDimStyleTable
  0
DIMSTYLE
105
20
330
A
100
AcDbSymbolTableRecord
100
AcDbDimStyleTableRecord
  2
Standard
 70
     0
340
11
  0
ENDTAB
  0
TABLE
  2
BLOCK_RECORD
  5
1
330
0
100
AcDbSymbolTable
 70
     2
  0
BLOCK_RECORD
  5
1D
330
1
100
AcDbSymbolTableRecord
100
AcDbBlockTableRecord
  2
*Model_Space
340
1E
  0
BLOCK_RECORD
  5
1B
330
1
100
AcDbSymbolTableRecord
100
AcDbBlockTableRecord
  2
*Paper_Space
340
1C
  0
ENDTAB
  0
ENDSEC
  0
SECTION
  2
BLOCKS
  0
BLOCK
  5
258
330
1D
100
AcDbEntity
  8
0
100
AcDbBlockBegin
  2
*Model_Space
 70
     0
 10
0.0
 20
0.0
 30
0.0
  3
*Model_Space
  1
*Model_Space
  0
ENDBLK
  5
259
330
1D
100
AcDbEntity
  8
0
100
AcDbBlockEnd
  0
BLOCK
  5
256
330
1B
100
AcDbEntity
 67
     1
  8
0
100
AcDbBlockBegin
  2
*Paper_Space
 70
     0
 10
0.0
 20
0.0
 30
0.0
  3
*Paper_Space
  1
*Paper_Space
  0
ENDBLK
  5
257
330
1B
100
AcDbEntity
 67
     1
  8
0
100
AcDbBlockEnd
  0
ENDSEC
  0
SECTION
  2
ENTITIES
  0
LINE
  5
21
330
1D
100
AcDbEntity
  8
0
100
AcDbLine
 10
-0.0298
 20
-0.2353895
 30
0.0
 11
0.0535
 21
-0.2353895
 31
0.0
  0
LINE
  5
22
330
1D
100
AcDbEntity
  8
0
100
AcDbLine
 10
0.0535
 20
-0.2353895
 30
0.0
 11
0.4271
 21
-0.2353895
 31
0.0
  0
LINE
  5
23
330
1D
100
AcDbEntity
  8
0
100
AcDbLine
 10
0.0535
 20
-0.2353895
 30
0.0
 11
0.4271
 21
-0.2353895
 31
0.0
  0
LINE
  5
24
330
1D
100
AcDbEntity
  8
0
100
AcDbLine
 10
0.0023
 20
-0.2353895
 30
0.0
 11
0.2135
 21
-0.2353895
 31
0.0
  0
LINE
  5
25
330
1D
100
AcDbEntity
  8
0
100
AcDbLine
 10
-0.0298
 20
-0.2353895
 30
0.0
 11
0.0535
 21
-0.2353895
 31
0.0
  0
LINE
  5
26
330
1D
100
AcDbEntity
  8
0
100
AcDbLine
 10
0.4271
 20
-0.2353895
 30
0.0
 11
1.0014
 21
-0.2353895
 31
0.0
  0
LINE
  5
27
330
1D
100
AcDbEntity
  8
0
100
AcDbLine
 10
1.5372
 20
-0.2353895
 30
0.0
 11
2.188
 21
-0.2353895
 31
0.0
  0
LINE
  5
28
330
1D
100
AcDbEntity
  8
0
100
AcDbLine
 10
1.0014
 20
-0.2353895
 30
0.0
 11
1.5372
 21
-0.2353895
 31
0.0
  0
LINE
  5
29
330
1D
100
AcDbEntity
  8
0
100
AcDbLine
 10
0.2135
 20
-0.2353895
 30
0.0
 11
0.5561
 21
-0.2353895
 31
0.0
  0
LINE
  5
2B
330
1D
100
AcDbEntity
  8
0
100
AcDbLine
 10
1.1108
 20
-0.2353895
 30
0.0
 11
1.5949
 21
-0.2353895
 31
0.0
  0
LINE
  5
31
330
1D
100
AcDbEntity
  8
0
100
AcDbLine
 10
0.5561
 20
-0.2353895
 30
0.0
 11
1.1108
 21
-0.2353895
 31
0.0
  0
LINE
  5
35
330
1D
100
AcDbEntity
  8
0
100
AcDbLine
 10
1.5949
 20
-0.2353895
 30
0.0
 11
2.7643
 21
-0.2353895
 31
0.0
  0
LINE
  5
36
330
1D
100
AcDbEntity
  8
0
100
AcDbLine
 10
0.0023
 20
-0.2353895
 30
0.0
 11
0.2135
 21
-0.2353895
 31
0.0
  0
LINE
  5
3D
330
1D
100
AcDbEntity
  8
0
100
AcDbLine
 10
2.994
 20
-0.2353895
 30
0.0
 11
3.96
 21
-0.2353895
 31
0.0
  0
LINE
  5
40
330
1D
100
AcDbEntity
  8
0
100
AcDbLine
 10
2.7643
 20
-0.2353895
 30
0.0
 11
3.5625
 21
-0.2353895
 31
0.0
  0
LINE
  5
41
330
1D
100
AcDbEntity
  8
0
100
AcDbLine
 10
3.5625
 20
-0.2353895
 30
0.0
 11
4.4854
 21
-0.2353895
 31
0.0
  0
LINE
  5
46
330
1D
100
AcDbEntity
  8
0
100
AcDbLine
 10
2.188
 20
-0.2353895
 30
0.0
 11
2.994
 21
-0.2353895
 31
0.0
  0
LINE
  5
47
330
1D
100
AcDbEntity
  8
0
100
AcDbLine
 10
3.96
 20
-0.2353895
 30
0.0
 11
5.0024
 21
-0.2353895
 31
0.0
  0
LINE
  5
48
330
1D
100
AcDbEntity
  8
0
100
AcDbLine
 10
5.0024
 20
-0.2353895
 30
0.0
 11
6.318
 21
-0.2353895
 31
0.0
  0
LINE
  5
49
330
1D
100
AcDbEntity
  8
0
100
AcDbLine
 10
4.4854
 20
-0.2353895
 30
0.0
 11
5.7934
 21
-0.2353895
 31
0.0
  0
LINE
  5
4A
330
1D
100
AcDbEntity
  8
0
100
AcDbLine
 10
5.7934
 20
-0.2353895
 30
0.0
 11
7.2908
 21
-0.2353895
 31
0.0
  0
LINE
  5
4B
330
1D
100
AcDbEntity
  8
0
100
AcDbLine
 10
8.1332
 20
-0.2353895
 30
0.0
 11
9.9997
 21
-0.2353895
 31
0.0
  0
LINE
  5
4C
330
1D
100
AcDbEntity
  8
0
100
AcDbLine
 10
9.9997
 20
-0.2353895
 30
0.0
 11
12.7601
 21
-0.2356095
 31
0.0
  0
LINE
  5
4D
330
1D
100
AcDbEntity
  8
0
100
AcDbLine
 10
12.7601
 20
-0.2356095
 30
0.0
 11
14.96
 21
-0.2355765
 31
0.0
  0
LINE
  5
4E
330
1D
100
AcDbEntity
  8
0
100
AcDbLine
 10
7.2908
 20
-0.2353895
 30
0.0
 11
9.2488
 21
-0.2353895
 31
0.0
  0
LINE
  5
4F
330
1D
100
AcDbEntity
  8
0
100
AcDbLine
 10
6.318
 20
-0.2353895
 30
0.0
 11
8.1332
 21
-0.2353895
 31
0.0
  0
LINE
  5
50
330
1D
100
AcDbEntity
  8
0
100
AcDbLine
 10
11.4298
 20
-0.2353895
 30
0.0
 11
13.8064
 21
-0.2353895
 31
0.0
  0
LINE
  5
74
330
1D
100
AcDbEntity
  8
0
100
AcDbLine
 10
9.2488
 20
-0.2353895
 30
0.0
 11
11.4298
 21
-0.2353895
 31
0.0
  0
LINE
  5
B7
330
1D
100
AcDbEntity
  8
0
100
AcDbLine
 10
13.8064
 20
-0.2353895
 30
0.0
 11
15.4787
 21
-0.2353895
 31
0.0
  0
LINE
  5
BA
330
1D
100
AcDbEntity
  8
0
100
AcDbLine
 10
14.96
 20
-0.2355765
 30
0.0
 11
17.1759
 21
-0.2356095
 31
0.0
  0
LINE
  5
D5
330
1D
100
AcDbEntity
  8
0
100
AcDbLine
 10
15.4787
 20
-0.2353895
 30
0.0
 11
17.2093
 21
-0.2353895
 31
0.0
  0
LINE
  5
E4
330
1D
100
AcDbEntity
  8
0
100
AcDbLine
 10
17.1759
 20
-0.2356095
 30
0.0
 11
19.3834
 21
-0.2356095
 31
0.0
  0
LINE
  5
F8
330
1D
100
AcDbEntity
  8
0
100
AcDbLine
 10
18.9861
 20
-0.2353895
 30
0.0
 11
20.7959
 21
-0.2353895
 31
0.0
  0
LINE
  5
FB
330
1D
100
AcDbEntity
  8
0
100
AcDbLine
 10
17.2093
 20
-0.2353895
 30
0.0
 11
18.9861
 21
-0.2353895
 31
0.0
  0
LINE
  5
FD
330
1D
100
AcDbEntity
  8
0
100
AcDbLine
 10
24.0003
 20
-0.2356105
 30
0.0
 11
26.1044
 21
-0.2355265
 31
0.0
  0
LINE
  5
FE
330
1D
100
AcDbEntity
  8
0
100
AcDbLine
 10
21.5843
 20
-0.2356095
 30
0.0
 11
24.0003
 21
-0.2356105
 31
0.0
  0
LINE
  5
FF
330
1D
100
AcDbEntity
  8
0
100
AcDbLine
 10
22.1935
 20
-0.2353895
 30
0.0
 11
24.0
 21
-0.2353895
 31
0.0
  0
LINE
  5
100
330
1D
100
AcDbEntity
  8
0
100
AcDbLine
 10
20.7959
 20
-0.2353895
 30
0.0
 11
22.1935
 21
-0.2353895
 31
0.0
  0
LINE
  5
101
330
1D
100
AcDbEntity
  8
0
100
AcDbLine
 10
25.9687
 20
-0.2353895
 30
0.0
 11
27.4806
 21
-0.2353895
 31
0.0
  0
LINE
  5
102
330
1D
100
AcDbEntity
  8
0
100
AcDbLine
 10
27.4806
 20
-0.2353895
 30
0.0
 11
28.978
 21
-0.2353895
 31
0.0
  0
LINE
  5
103
330
1D
100
AcDbEntity
  8
0
100
AcDbLine
 10
26.1044
 20
-0.2355265
 30
0.0
 11
29.6133
 21
-0.2356105
 31
0.0
  0
LINE
  5
104
330
1D
100
AcDbEntity
  8
0
100
AcDbLine
 10
19.3834
 20
-0.2356095
 30
0.0
 11
21.5843
 21
-0.2356095
 31
0.0
  0
LINE
  5
165
330
1D
100
AcDbEntity
  8
0
100
AcDbLine
 10
24.0
 20
-0.2353895
 30
0.0
 11
25.9687
 21
-0.2353895
 31
0.0
  0
LINE
  5
166
330
1D
100
AcDbEntity
  8
0
100
AcDbLine
 10
29.6133
 20
-0.2356105
 30
0.0
 11
33.1456
 21
-0.2355745
 31
0.0
  0
LINE
  5
167
330
1D
100
AcDbEntity
  8
0
100
AcDbLine
 10
30.4525
 20
-0.2353895
 30
0.0
 11
31.897
 21
-0.2353895
 31
0.0
  0
LINE
  5
192
330
1D
100
AcDbEntity
  8
0
100
AcDbLine
 10
28.978
 20
-0.2353895
 30
0.0
 11
30.4525
 21
-0.2353895
 31
0.0
  0
LINE
  5
1A0
330
1D
100
AcDbEntity
  8
0
100
AcDbLine
 10
33.1456
 20
-0.2355745
 30
0.0
 11
35.5945
 21
-0.2355015
 31
0.0
  0
LINE
  5
1C6
330
1D
100
AcDbEntity
  8
0
100
AcDbLine
 10
33.6889
 20
-0.2353895
 30
0.0
 11
35.4056
 21
-0.2353895
 31
0.0
  0
LINE
  5
1C7
330
1D
100
AcDbEntity
  8
0
100
AcDbLine
 10
31.897
 20
-0.2353895
 30
0.0
 11
33.6889
 21
-0.2353895
 31
0.0
  0
LINE
  5
1DF
330
1D
100
AcDbEntity
  8
0
100
AcDbLine
 10
35.4056
 20
-0.2353895
 30
0.0
 11
37.5848
 21
-0.2353895
 31
0.0
  0
LINE
  5
1E7
330
1D
100
AcDbEntity
  8
0
100
AcDbLine
 10
35.5945
 20
-0.2355015
 30
0.0
 11
38.0002
 21
-0.2356105
 31
0.0
  0
LINE
  5
1E8
330
1D
100
AcDbEntity
  8
0
100
AcDbLine
 10
38.0002
 20
-0.2356105
 30
0.0
 11
40.0086
 21
-0.2353895
 31
0.0
  0
LINE
  5
1E9
330
1D
100
AcDbEntity
  8
0
100
AcDbLine
 10
40.0086
 20
-0.2353895
 30
0.0
 11
41.5485
 21
-0.2353895
 31
0.0
  0
LINE
  5
1EA
330
1D
100
AcDbEntity
  8
0
100
AcDbLine
 10
41.5485
 20
-0.2353895
 30
0.0
 11
42.6212
 21
-0.2353915
 31
0.0
  0
LINE
  5
1EB
330
1D
100
AcDbEntity
  8
0
100
AcDbLine
 10
42.6212
 20
-0.2353915
 30
0.0
 11
43.6503
 21
-0.2353915
 31
0.0
  0
LINE
  5
1EC
330
1D
100
AcDbEntity
  8
0
100
AcDbLine
 10
42.3346
 20
-0.2353895
 30
0.0
 11
43.6841
 21
-0.2353895
 31
0.0
  0
LINE
  5
1EE
330
1D
100
AcDbEntity
  8
0
100
AcDbLine
 10
39.5736
 20
-0.2353895
 30
0.0
 11
41.3519
 21
-0.2353895
 31
0.0
  0
LINE
  5
1F1
330
1D
100
AcDbEntity
  8
0
100
AcDbLine
 10
37.5848
 20
-0.2353895
 30
0.0
 11
39.5736
 21
-0.2353895
 31
0.0
  0
LINE
  5
1F2
330
1D
100
AcDbEntity
  8
0
100
AcDbLine
 10
41.3519
 20
-0.2353895
 30
0.0
 11
42.3346
 21
-0.2353895
 31
0.0
  0
LINE
  5
1F3
330
1D
100
AcDbEntity
  8
0
100
AcDbLine
 10
43.6841
 20
-0.2353895
 30
0.0
 11
44.8234
 21
-0.2353895
 31
0.0
  0
LINE
  5
1F5
330
1D
100
AcDbEntity
  8
0
100
AcDbLine
 10
43.6503
 20
-0.2353915
 30
0.0
 11
44.617
 21
-0.2353915
 31
0.0
  0
LINE
  5
1FC
330
1D
100
AcDbEntity
  8
0
100
AcDbLine
 10
44.617
 20
-0.2353915
 30
0.0
 11
45.4961
 21
-0.2353895
 31
0.0
  0
LINE
  5
203
330
1D
100
AcDbEntity
  8
0
100
AcDbLine
 10
44.8234
 20
-0.2353895
 30
0.0
 11
45.8952
 21
-0.2353895
 31
0.0
  0
LINE
  5
20F
330
1D
100
AcDbEntity
  8
0
100
AcDbLine
 10
45.4961
 20
-0.2353895
 30
0.0
 11
46.3706
 21
-0.2353915
 31
0.0
  0
LINE
  5
211
330
1D
100
AcDbEntity
  8
0
100
AcDbLine
 10
45.8952
 20
-0.2353895
 30
0.0
 11
46.7066
 21
-0.2353895
 31
0.0
  0
LINE
  5
226
330
1D
100
AcDbEntity
  8
0
100
AcDbLine
 10
47.4541
 20
-0.2353915
 30
0.0
 11
47.734
 21
-0.2353915
 31
0.0
  0
LINE
  5
227
330
1D
100
AcDbEntity
  8
0
100
AcDbLine
 10
47.734
 20
-0.2353915
 30
0.0
 11
48.0205
 21
-0.2353895
 31
0.0
  0
LINE
  5
228
330
1D
100
AcDbEntity
  8
0
100
AcDbLine
 10
47.0602
 20
-0.2353895
 30
0.0
 11
47.4541
 21
-0.2353915
 31
0.0
  0
LINE
  5
229
330
1D
100
AcDbEntity
  8
0
100
AcDbLine
 10
46.3706
 20
-0.2353915
 30
0.0
 11
47.0602
 21
-0.2353895
 31
0.0
  0
LINE
  5
22A
330
1D
100
AcDbEntity
  8
0
100
AcDbLine
 10
47.8063
 20
-0.2353895
 30
0.0
 11
48.0161
 21
-0.2353895
 31
0.0
  0
LINE
  5
232
330
1D
100
AcDbEntity
  8
0
100
AcDbLine
 10
47.2362
 20
-0.2353895
 30
0.0
 11
47.6049
 21
-0.2353895
 31
0.0
  0
LINE
  5
233
330
1D
100
AcDbEntity
  8
0
100
AcDbLine
 10
46.7066
 20
-0.2353895
 30
0.0
 11
47.2362
 21
-0.2353895
 31
0.0
  0
LINE
  5
234
330
1D
100
AcDbEntity
  8
0
100
AcDbLine
 10
47.6049
 20
-0.2353895
 30
0.0
 11
47.8063
 21
-0.2353895
 31
0.0
  0
LINE
  5
74F
330
1D
100
AcDbEntity
  8
0
100
AcDbLine
 10
0.0023
 20
-0.2353895
 30
0.0
 11
1.395
 21
78.164463022141
 31
0.0
  0
LINE
  5
751
330
1D
100
AcDbEntity
  8
0
100
AcDbLine
 10
0.0023
 20
-0.2353895
 30
0.0
 11
1.395
 21
78.164463022141
 31
0.0
  0
LINE
  5
76A
330
1D
100
AcDbEntity
  8
0
100
AcDbLine
 10
10.267
 20
87.571463022141
 30
0.0
 11
11.217
 21
86.742463022141
 31
0.0
  0
LINE
  5
76B
330
1D
100
AcDbEntity
  8
0
100
AcDbLine
 10
1.395
 20
78.164463022141
 30
0.0
 11
1.471
 21
90.115463022141
 31
0.0
  0
LINE
  5
76D
330
1D
100
AcDbEntity
  8
0
100
AcDbLine
 10
12.529
 20
85.761463022141
 30
0.0
 11
13.944
 21
84.871463022141
 31
0.0
  0
LINE
  5
76E
330
1D
100
AcDbEntity
  8
0
100
AcDbLine
 10
12.3951
 20
87.467163022141
 30
0.0
 11
12.6887
 21
86.800163022141
 31
0.0
  0
LINE
  5
76F
330
1D
100
AcDbEntity
  8
0
100
AcDbLine
 10
9.953
 20
87.879463022141
 30
0.0
 11
10.267
 21
87.571463022141
 31
0.0
  0
LINE
  5
770
330
1D
100
AcDbEntity
  8
0
100
AcDbLine
 10
9.383
 20
88.455463022141
 30
0.0
 11
9.953
 21
87.879463022141
 31
0.0
  0
LINE
  5
771
330
1D
100
AcDbEntity
  8
0
100
AcDbLine
 10
12.1529
 20
88.308163022141
 30
0.0
 11
12.3416
 21
87.623163022141
 31
0.0
  0
LINE
  5
772
330
1D
100
AcDbEntity
  8
0
100
AcDbLine
 10
12.3416
 20
87.623163022141
 30
0.0
 11
12.3951
 21
87.467163022141
 31
0.0
  0
LINE
  5
775
330
1D
100
AcDbEntity
  8
0
100
AcDbLine
 10
13.5826
 20
85.531163022141
 30
0.0
 11
14.1748
 21
84.942163022141
 31
0.0
  0
LINE
  5
776
330
1D
100
AcDbEntity
  8
0
100
AcDbLine
 10
13.0862
 20
86.152163022141
 30
0.0
 11
13.5826
 21
85.531163022141
 31
0.0
  0
LINE
  5
777
330
1D
100
AcDbEntity
  8
0
100
AcDbLine
 10
12.6887
 20
86.800163022141
 30
0.0
 11
13.0862
 21
86.152163022141
 31
0.0
  0
LINE
  5
778
330
1D
100
AcDbEntity
  8
0
100
AcDbLine
 10
12.0712
 20
89.001163022141
 30
0.0
 11
12.1529
 21
88.308163022141
 31
0.0
  0
LINE
  5
779
330
1D
100
AcDbEntity
  8
0
100
AcDbLine
 10
12.0712
 20
89.001163022141
 30
0.0
 11
12.0712
 21
93.859163022141
 31
0.0
  0
LINE
  5
77A
330
1D
100
AcDbEntity
  8
0
100
AcDbLine
 10
13.851
 20
88.493163022141
 30
0.0
 11
13.963
 21
87.865163022141
 31
0.0
  0
LINE
  5
77B
330
1D
100
AcDbEntity
  8
0
100
AcDbLine
 10
13.906108280255
 20
88.184163022141
 30
0.0
 11
15.323
 21
88.184163022141
 31
0.0
  0
LINE
  5
77C
330
1D
100
AcDbEntity
  8
0
100
AcDbLine
 10
13.918050159919
 20
88.117203196882
 30
0.0
 11
14.081
 21
87.532163022141
 31
0.0
  0
LINE
  5
77D
330
1D
100
AcDbEntity
  8
0
100
AcDbLine
 10
13.847
 20
88.848163022141
 30
0.0
 11
13.851
 21
89.206163022141
 31
0.0
  0
LINE
  5
77E
330
1D
100
AcDbEntity
  8
0
100
AcDbLine
 10
13.847
 20
88.848163022141
 30
0.0
 11
13.851
 21
88.493163022141
 31
0.0
  0
LINE
  5
77F
330
1D
100
AcDbEntity
  8
0
100
AcDbLine
 10
8.678
 20
89.245463022141
 30
0.0
 11
9.383
 21
88.455463022141
 31
0.0
  0
LINE
  5
780
330
1D
100
AcDbEntity
  8
0
100
AcDbLine
 10
11.986
 20
89.626463022141
 30
0.0
 11
12.0712
 21
89.464015022141
 31
0.0
  0
LINE
  5
781
330
1D
100
AcDbEntity
  8
0
100
AcDbLine
 10
8.273
 20
89.721463022141
 30
0.0
 11
8.678
 21
89.245463022141
 31
0.0
  0
LINE
  5
782
330
1D
100
AcDbEntity
  8
0
100
AcDbLine
 10
12.0712
 20
89.344163022141
 30
0.0
 11
12.078
 21
89.172163022141
 31
0.0
  0
LINE
  5
783
330
1D
100
AcDbEntity
  8
0
100
AcDbLine
 10
12.0712
 20
89.344163022141
 30
0.0
 11
12.0712
 21
94.069707232667
 31
0.0
  0
LINE
  5
784
330
1D
100
AcDbEntity
  8
0
100
AcDbLine
 10
13.851
 20
89.206163022141
 30
0.0
 11
13.963
 21
89.832163022141
 31
0.0
  0
LINE
  5
785
330
1D
100
AcDbEntity
  8
0
100
AcDbLine
 10
14.014992146707
 20
84.834213471199
 30
0.0
 11
14.841937338466
 21
84.400315660302
 31
0.0
  0
LINE
  5
786
330
1D
100
AcDbEntity
  8
0
100
AcDbLine
 10
14.014992146707
 20
84.834213471199
 30
0.0
 11
14.841937338466
 21
84.400315660302
 31
0.0
  0
LINE
  5
787
330
1D
100
AcDbEntity
  8
0
100
AcDbLine
 10
14.1748
 20
84.942163022141
 30
0.0
 11
14.8569
 21
84.388163022141
 31
0.0
  0
LINE
  5
788
330
1D
100
AcDbEntity
  8
0
100
AcDbLine
 10
14.1779
 20
87.248163022141
 30
0.0
 11
14.4957
 21
86.649163022141
 31
0.0
  0
LINE
  5
789
330
1D
100
AcDbEntity
  8
0
100
AcDbLine
 10
13.963
 20
87.865163022141
 30
0.0
 11
14.1779
 21
87.248163022141
 31
0.0
  0
LINE
  5
78A
330
1D
100
AcDbEntity
  8
0
100
AcDbLine
 10
14.081
 20
87.532163022141
 30
0.0
 11
14.3736
 21
86.894163022141
 31
0.0
  0
LINE
  5
78C
330
1D
100
AcDbEntity
  8
0
100
AcDbLine
 10
14.8569
 20
84.388163022141
 30
0.0
 11
15.6217
 21
83.876163022141
 31
0.0
  0
LINE
  5
78D
330
1D
100
AcDbEntity
  8
0
100
AcDbLine
 10
14.9104
 20
86.070163022141
 30
0.0
 11
15.4199
 21
85.522163022141
 31
0.0
  0
LINE
  5
78E
330
1D
100
AcDbEntity
  8
0
100
AcDbLine
 10
15.2857
 20
85.695163022141
 30
0.0
 11
15.8931
 21
85.147163022141
 31
0.0
  0
LINE
  5
78F
330
1D
100
AcDbEntity
  8
0
100
AcDbLine
 10
14.4957
 20
86.649163022141
 30
0.0
 11
14.9104
 21
86.070163022141
 31
0.0
  0
LINE
  5
790
330
1D
100
AcDbEntity
  8
0
100
AcDbLine
 10
14.7772
 20
86.280163022141
 30
0.0
 11
15.2857
 21
85.695163022141
 31
0.0
  0
LINE
  5
791
330
1D
100
AcDbEntity
  8
0
100
AcDbLine
 10
14.3736
 20
86.894163022141
 30
0.0
 11
14.7772
 21
86.280163022141
 31
0.0
  0
LINE
  5
792
330
1D
100
AcDbEntity
  8
0
100
AcDbLine
 10
15.323
 20
88.184163022141
 30
0.0
 11
15.323
 21
89.594163022141
 31
0.0
  0
LINE
  5
793
330
1D
100
AcDbEntity
  8
0
100
AcDbLine
 10
15.323
 20
88.184163022141
 30
0.0
 11
15.4915
 21
87.634163022141
 31
0.0
  0
LINE
  5
794
330
1D
100
AcDbEntity
  8
0
100
AcDbLine
 10
13.920418530351
 20
89.594163022141
 30
0.0
 11
15.323
 21
89.594163022141
 31
0.0
  0
LINE
  5
795
330
1D
100
AcDbEntity
  8
0
100
AcDbLine
 10
1.471
 20
90.115463022141
 30
0.0
 11
1.534
 21
102.112463022141
 31
0.0
  0
LINE
  5
796
330
1D
100
AcDbEntity
  8
0
100
AcDbLine
 10
11.676
 20
90.512463022141
 30
0.0
 11
11.986
 21
89.626463022141
 31
0.0
  0
LINE
  5
797
330
1D
100
AcDbEntity
  8
0
100
AcDbLine
 10
13.963
 20
89.832163022141
 30
0.0
 11
14.1779
 21
90.448163022141
 31
0.0
  0
LINE
  5
798
330
1D
100
AcDbEntity
  8
0
100
AcDbLine
 10
14.1779
 20
90.448163022141
 30
0.0
 11
14.4957
 21
91.050163022141
 31
0.0
  0
LINE
  5
799
330
1D
100
AcDbEntity
  8
0
100
AcDbLine
 10
11.504
 20
91.633463022141
 30
0.0
 11
11.588
 21
92.751463022141
 31
0.0
  0
LINE
  5
79A
330
1D
100
AcDbEntity
  8
0
100
AcDbLine
 10
11.504
 20
91.633463022141
 30
0.0
 11
11.676
 21
90.512463022141
 31
0.0
  0
LINE
  5
79B
330
1D
100
AcDbEntity
  8
0
100
AcDbLine
 10
11.959
 20
93.885463022141
 30
0.0
 11
12.624
 21
94.977463022141
 31
0.0
  0
LINE
  5
79C
330
1D
100
AcDbEntity
  8
0
100
AcDbLine
 10
11.588
 20
92.751463022141
 30
0.0
 11
11.959
 21
93.885463022141
 31
0.0
  0
LINE
  5
79D
330
1D
100
AcDbEntity
  8
0
100
AcDbLine
 10
6.447
 20
92.203463022141
 30
0.0
 11
6.949
 21
91.484463022141
 31
0.0
  0
LINE
  5
79E
330
1D
100
AcDbEntity
  8
0
100
AcDbLine
 10
12.0712
 20
93.859163022141
 30
0.0
 11
12.0712
 21
89.001163022141
 31
0.0
  0
LINE
  5
79F
330
1D
100
AcDbEntity
  8
0
100
AcDbLine
 10
1.658
 20
117.736463022141
 30
0.0
 11
1.737
 21
117.991463022141
 31
0.0
  0
LINE
  5
7A0
330
1D
100
AcDbEntity
  8
0
100
AcDbLine
 10
1.617
 20
117.193463022141
 30
0.0
 11
1.658
 21
117.736463022141
 31
0.0
  0
LINE
  5
7A1
330
1D
100
AcDbEntity
  8
0
100
AcDbLine
 10
1.534
 20
102.112463022141
 30
0.0
 11
1.617
 21
117.193463022141
 31
0.0
  0
LINE
  5
7A2
330
1D
100
AcDbEntity
  8
0
100
AcDbLine
 10
1.6791
 20
124.940463022141
 30
0.0
 11
1.7561
 21
138.400463022141
 31
0.0
  0
LINE
  5
7A3
330
1D
100
AcDbEntity
  8
0
100
AcDbLine
 10
1.6791
 20
124.940463022141
 30
0.0
 11
1.6947
 21
123.744463022141
 31
0.0
  0
LINE
  5
7A4
330
1D
100
AcDbEntity
  8
0
100
AcDbLine
 10
1.6684
 20
154.993463022141
 30
0.0
 11
1.6772
 21
155.258463022141
 31
0.0
  0
LINE
  5
7A5
330
1D
100
AcDbEntity
  8
0
100
AcDbLine
 10
1.6684
 20
154.993463022141
 30
0.0
 11
1.7603
 21
150.924463022141
 31
0.0
  0
LINE
  5
7A6
330
1D
100
AcDbEntity
  8
0
100
AcDbLine
 10
1.6947
 20
123.744463022141
 30
0.0
 11
1.7737
 21
122.102463022141
 31
0.0
  0
LINE
  5
7A7
330
1D
100
AcDbEntity
  8
0
100
AcDbLine
 10
1.779
 20
118.120463022141
 30
0.0
 11
1.993
 21
118.440463022141
 31
0.0
  0
LINE
  5
7A8
330
1D
100
AcDbEntity
  8
0
100
AcDbLine
 10
1.737
 20
117.991463022141
 30
0.0
 11
1.779
 21
118.120463022141
 31
0.0
  0
LINE
  5
7A9
330
1D
100
AcDbEntity
  8
0
100
AcDbLine
 10
1.7737
 20
122.102463022141
 30
0.0
 11
1.8387
 21
121.314463022141
 31
0.0
  0
LINE
  5
7AA
330
1D
100
AcDbEntity
  8
0
100
AcDbLine
 10
2.164
 20
118.633463022141
 30
0.0
 11
2.479
 21
118.844463022141
 31
0.0
  0
LINE
  5
7AB
330
1D
100
AcDbEntity
  8
0
100
AcDbLine
 10
1.993
 20
118.440463022141
 30
0.0
 11
2.164
 21
118.633463022141
 31
0.0
  0
LINE
  5
7AC
330
1D
100
AcDbEntity
  8
0
100
AcDbLine
 10
2.479
 20
118.844463022141
 30
0.0
 11
2.825
 21
119.031463022141
 31
0.0
  0
LINE
  5
7AD
330
1D
100
AcDbEntity
  8
0
100
AcDbLine
 10
2.3253
 20
119.585463022141
 30
0.0
 11
2.7417
 21
119.178463022141
 31
0.0
  0
LINE
  5
7AE
330
1D
100
AcDbEntity
  8
0
100
AcDbLine
 10
1.9919
 20
120.133463022141
 30
0.0
 11
2.029
 21
119.944463022141
 31
0.0
  0
LINE
  5
7AF
330
1D
100
AcDbEntity
  8
0
100
AcDbLine
 10
2.029
 20
119.944463022141
 30
0.0
 11
2.1432
 21
119.765463022141
 31
0.0
  0
LINE
  5
7B0
330
1D
100
AcDbEntity
  8
0
100
AcDbLine
 10
2.1432
 20
119.765463022141
 30
0.0
 11
2.3253
 21
119.585463022141
 31
0.0
  0
LINE
  5
7B1
330
1D
100
AcDbEntity
  8
0
100
AcDbLine
 10
1.8387
 20
121.314463022141
 30
0.0
 11
1.9919
 21
120.133463022141
 31
0.0
  0
LINE
  5
7B2
330
1D
100
AcDbEntity
  8
0
100
AcDbLine
 10
1.7603
 20
150.924463022141
 30
0.0
 11
1.771237852983
 21
140.229326888309
 31
0.0
  0
LINE
  5
7B3
330
1D
100
AcDbEntity
  8
0
100
AcDbLine
 10
1.733
 20
155.637463022141
 30
0.0
 11
1.8896
 21
156.484463022141
 31
0.0
  0
LINE
  5
7B4
330
1D
100
AcDbEntity
  8
0
100
AcDbLine
 10
1.799150311891
 20
155.967106589913
 30
0.0
 11
1.8896
 21
156.484463022141
 31
0.0
  0
LINE
  5
7B5
330
1D
100
AcDbEntity
  8
0
100
AcDbLine
 10
1.7282
 20
155.610463022141
 30
0.0
 11
1.8896
 21
156.484463022141
 31
0.0
  0
LINE
  5
7B6
330
1D
100
AcDbEntity
  8
0
100
AcDbLine
 10
2.1467
 20
157.309463022141
 30
0.0
 11
2.6215
 21
158.925463022141
 31
0.0
  0
LINE
  5
7B7
330
1D
100
AcDbEntity
  8
0
100
AcDbLine
 10
1.8896
 20
156.484463022141
 30
0.0
 11
2.1467
 21
157.309463022141
 31
0.0
  0
LINE
  5
7B8
330
1D
100
AcDbEntity
  8
0
100
AcDbLine
 10
3.457
 20
117.454463022141
 30
0.0
 11
3.633
 21
117.860463022141
 31
0.0
  0
LINE
  5
7B9
330
1D
100
AcDbEntity
  8
0
100
AcDbLine
 10
3.457
 20
117.454463022141
 30
0.0
 11
3.58
 21
117.242463022141
 31
0.0
  0
LINE
  5
7BA
330
1D
100
AcDbEntity
  8
0
100
AcDbLine
 10
3.58
 20
117.242463022141
 30
0.0
 11
3.853
 21
117.044463022141
 31
0.0
  0
LINE
  5
7BB
330
1D
100
AcDbEntity
  8
0
100
AcDbLine
 10
5.784
 20
116.496463022141
 30
0.0
 11
6.976
 21
116.327463022141
 31
0.0
  0
LINE
  5
7BC
330
1D
100
AcDbEntity
  8
0
100
AcDbLine
 10
4.813
 20
116.698463022141
 30
0.0
 11
5.784
 21
116.496463022141
 31
0.0
  0
LINE
  5
7BD
330
1D
100
AcDbEntity
  8
0
100
AcDbLine
 10
3.853
 20
117.044463022141
 30
0.0
 11
4.813
 21
116.698463022141
 31
0.0
  0
LINE
  5
7BE
330
1D
100
AcDbEntity
  8
0
100
AcDbLine
 10
3.651184171917
 20
117.19083494141
 30
0.0
 11
3.6897
 21
118.058663022141
 31
0.0
  0
LINE
  5
7BF
330
1D
100
AcDbEntity
  8
0
100
AcDbLine
 10
3.633
 20
117.860463022141
 30
0.0
 11
3.682205599198
 21
117.889801237582
 31
0.0
  0
LINE
  5
7C0
330
1D
100
AcDbEntity
  8
0
100
AcDbLine
 10
3.633
 20
117.860463022141
 30
0.0
 11
3.682205599198
 21
117.889801237582
 31
0.0
  0
LINE
  5
7C1
330
1D
100
AcDbEntity
  8
0
100
AcDbLine
 10
3.6897
 20
118.058663022141
 30
0.0
 11
3.765954338728
 21
118.62615515922
 31
0.0
  0
LINE
  5
7C2
330
1D
100
AcDbEntity
  8
0
100
AcDbLine
 10
2.825
 20
119.031463022141
 30
0.0
 11
2.929075803165
 21
119.065055806133
 31
0.0
  0
LINE
  5
7C3
330
1D
100
AcDbEntity
  8
0
100
AcDbLine
 10
2.7417
 20
119.178463022141
 30
0.0
 11
3.4059
 21
118.776463022141
 31
0.0
  0
LINE
  5
7C4
330
1D
100
AcDbEntity
  8
0
100
AcDbLine
 10
3.4059
 20
118.776463022141
 30
0.0
 11
4.1528
 21
118.464663022141
 31
0.0
  0
LINE
  5
7C5
330
1D
100
AcDbEntity
  8
0
100
AcDbLine
 10
4.1528
 20
118.464663022141
 30
0.0
 11
5.122
 21
118.164763022141
 31
0.0
  0
LINE
  5
7C6
330
1D
100
AcDbEntity
  8
0
100
AcDbLine
 10
5.122
 20
118.164763022141
 30
0.0
 11
6.3289
 21
117.881663022141
 31
0.0
  0
LINE
  5
7C7
330
1D
100
AcDbEntity
  8
0
100
AcDbLine
 10
6.3289
 20
117.881663022141
 30
0.0
 11
6.5368
 21
117.834163022141
 31
0.0
  0
LINE
  5
7C8
330
1D
100
AcDbEntity
  8
0
100
AcDbLine
 10
6.5368
 20
117.834163022141
 30
0.0
 11
7.9784
 21
117.574463022141
 31
0.0
  0
LINE
  5
7C9
330
1D
100
AcDbEntity
  8
0
100
AcDbLine
 10
2.6215
 20
158.925463022141
 30
0.0
 11
2.8717
 21
159.913463022141
 31
0.0
  0
LINE
  5
7CA
330
1D
100
AcDbEntity
  8
0
100
AcDbLine
 10
3.9711
 20
162.858463022141
 30
0.0
 11
4.1524
 21
163.154463022141
 31
0.0
  0
LINE
  5
7CB
330
1D
100
AcDbEntity
  8
0
100
AcDbLine
 10
4.1524
 20
163.154463022141
 30
0.0
 11
4.3094
 21
163.338463022141
 31
0.0
  0
LINE
  5
7CC
330
1D
100
AcDbEntity
  8
0
100
AcDbLine
 10
3.8644
 20
162.650463022141
 30
0.0
 11
3.9711
 21
162.858463022141
 31
0.0
  0
LINE
  5
7CD
330
1D
100
AcDbEntity
  8
0
100
AcDbLine
 10
4.3094
 20
163.338463022141
 30
0.0
 11
4.46
 21
163.487463022141
 31
0.0
  0
LINE
  5
7CE
330
1D
100
AcDbEntity
  8
0
100
AcDbLine
 10
4.6626
 20
163.625463022141
 30
0.0
 11
5.0032
 21
163.842463022141
 31
0.0
  0
LINE
  5
7CF
330
1D
100
AcDbEntity
  8
0
100
AcDbLine
 10
4.46
 20
163.487463022141
 30
0.0
 11
4.6626
 21
163.625463022141
 31
0.0
  0
LINE
  5
7D0
330
1D
100
AcDbEntity
  8
0
100
AcDbLine
 10
3.4669
 20
161.735463022141
 30
0.0
 11
3.8644
 21
162.650463022141
 31
0.0
  0
LINE
  5
7D1
330
1D
100
AcDbEntity
  8
0
100
AcDbLine
 10
5.8442
 20
164.135463022141
 30
0.0
 11
5.9409
 21
164.172463022141
 31
0.0
  0
LINE
  5
7D2
330
1D
100
AcDbEntity
  8
0
100
AcDbLine
 10
5.5145
 20
164.043463022141
 30
0.0
 11
5.8442
 21
164.135463022141
 31
0.0
  0
LINE
  5
7D3
330
1D
100
AcDbEntity
  8
0
100
AcDbLine
 10
5.0032
 20
163.842463022141
 30
0.0
 11
5.5145
 21
164.043463022141
 31
0.0
  0
LINE
  5
7D4
330
1D
100
AcDbEntity
  8
0
100
AcDbLine
 10
3.1296
 20
160.757463022141
 30
0.0
 11
3.4669
 21
161.735463022141
 31
0.0
  0
LINE
  5
7D5
330
1D
100
AcDbEntity
  8
0
100
AcDbLine
 10
2.8717
 20
159.913463022141
 30
0.0
 11
3.1296
 21
160.757463022141
 31
0.0
  0
LINE
  5
7D6
330
1D
100
AcDbEntity
  8
0
100
AcDbLine
 10
1.6833
 20
155.304463022141
 30
0.0
 11
1.7282
 21
155.610463022141
 31
0.0
  0
LINE
  5
7D7
330
1D
100
AcDbEntity
  8
0
100
AcDbLine
 10
5.9409
 20
164.172463022141
 30
0.0
 11
6.5404
 21
164.309463022141
 31
0.0
  0
LINE
  5
7D8
330
1D
100
AcDbEntity
  8
0
100
AcDbLine
 10
6.976
 20
116.327463022141
 30
0.0
 11
8.673
 21
116.163463022141
 31
0.0
  0
LINE
  5
7D9
330
1D
100
AcDbEntity
  8
0
100
AcDbLine
 10
7.9784
 20
117.574463022141
 30
0.0
 11
9.6449
 21
117.342263022141
 31
0.0
  0
LINE
  5
7DA
330
1D
100
AcDbEntity
  8
0
100
AcDbLine
 10
6.5404
 20
164.309463022141
 30
0.0
 11
7.2893
 21
164.430463022141
 31
0.0
  0
LINE
  5
7DB
330
1D
100
AcDbEntity
  8
0
100
AcDbLine
 10
7.2893
 20
164.430463022141
 30
0.0
 11
8.2248
 21
164.537463022141
 31
0.0
  0
LINE
  5
7DC
330
1D
100
AcDbEntity
  8
0
100
AcDbLine
 10
8.673
 20
116.163463022141
 30
0.0
 11
10.652
 21
116.036463022141
 31
0.0
  0
LINE
  5
7DD
330
1D
100
AcDbEntity
  8
0
100
AcDbLine
 10
9.6449
 20
117.342263022141
 30
0.0
 11
11.5101
 21
117.141463022141
 31
0.0
  0
LINE
  5
7DE
330
1D
100
AcDbEntity
  8
0
100
AcDbLine
 10
8.2248
 20
164.537463022141
 30
0.0
 11
9.2151
 21
164.617463022141
 31
0.0
  0
LINE
  5
7DF
330
1D
100
AcDbEntity
  8
0
100
AcDbLine
 10
12.904
 20
115.940463022141
 30
0.0
 11
15.493
 21
115.869463022141
 31
0.0
  0
LINE
  5
7E0
330
1D
100
AcDbEntity
  8
0
100
AcDbLine
 10
12.624
 20
94.977463022141
 30
0.0
 11
13.566
 21
95.995463022141
 31
0.0
  0
LINE
  5
7E1
330
1D
100
AcDbEntity
  8
0
100
AcDbLine
 10
10.652
 20
116.036463022141
 30
0.0
 11
12.904
 21
115.940463022141
 31
0.0
  0
LINE
  5
7E2
330
1D
100
AcDbEntity
  8
0
100
AcDbLine
 10
13.566
 20
95.995463022141
 30
0.0
 11
14.773
 21
96.930463022141
 31
0.0
  0
LINE
  5
7E3
330
1D
100
AcDbEntity
  8
0
100
AcDbLine
 10
13.2595
 20
116.994663022141
 30
0.0
 11
15.1077
 21
116.873663022141
 31
0.0
  0
LINE
  5
7E4
330
1D
100
AcDbEntity
  8
0
100
AcDbLine
 10
11.5101
 20
117.141463022141
 30
0.0
 11
13.2595
 21
116.994663022141
 31
0.0
  0
LINE
  5
7E5
330
1D
100
AcDbEntity
  8
0
100
AcDbLine
 10
10.247949768777
 20
164.676952617516
 30
0.0
 11
10.8992
 21
164.714463022141
 31
0.0
  0
LINE
  5
7E6
330
1D
100
AcDbEntity
  8
0
100
AcDbLine
 10
10.8992
 20
164.714463022141
 30
0.0
 11
11.9906
 21
164.774463022141
 31
0.0
  0
LINE
  5
7E7
330
1D
100
AcDbEntity
  8
0
100
AcDbLine
 10
10.247949768777
 20
164.676952617516
 30
0.0
 11
10.8992
 21
164.714463022141
 31
0.0
  0
LINE
  5
7E8
330
1D
100
AcDbEntity
  8
0
100
AcDbLine
 10
13.178
 20
164.823463022141
 30
0.0
 11
14.3379
 21
164.877463022141
 31
0.0
  0
LINE
  5
7E9
330
1D
100
AcDbEntity
  8
0
100
AcDbLine
 10
11.9906
 20
164.774463022141
 30
0.0
 11
13.178
 21
164.823463022141
 31
0.0
  0
LINE
  5
7EA
330
1D
100
AcDbEntity
  8
0
100
AcDbLine
 10
14.773
 20
96.930463022141
 30
0.0
 11
16.175
 21
97.731463022141
 31
0.0
  0
LINE
  5
7EB
330
1D
100
AcDbEntity
  8
0
100
AcDbLine
 10
14.3379
 20
164.877463022141
 30
0.0
 11
15.4231
 21
164.918463022141
 31
0.0
  0
LINE
  5
7EC
330
1D
100
AcDbEntity
  8
0
100
AcDbLine
 10
12.0712
 20
94.069707232667
 30
0.0
 11
12.0712
 21
89.344163022141
 31
0.0
  0
LINE
  5
7ED
330
1D
100
AcDbEntity
  8
0
100
AcDbLine
 10
14.9104
 20
91.627163022141
 30
0.0
 11
15.4199
 21
92.175163022141
 31
0.0
  0
LINE
  5
7EE
330
1D
100
AcDbEntity
  8
0
100
AcDbLine
 10
14.4957
 20
91.050163022141
 30
0.0
 11
14.9104
 21
91.627163022141
 31
0.0
  0
LINE
  5
7EF
330
1D
100
AcDbEntity
  8
0
100
AcDbLine
 10
15.1077
 20
116.873663022141
 30
0.0
 11
17.0323
 21
116.778563022141
 31
0.0
  0
LINE
  5
7F0
330
1D
100
AcDbEntity
  8
0
100
AcDbLine
 10
13.958169336114
 20
89.805163061494
 30
0.0
 11
13.976340152641
 21
89.870401896162
 31
0.0
  0
LINE
  5
7F1
330
1D
100
AcDbEntity
  8
0
100
AcDbLine
 10
15.4199
 20
85.522163022141
 30
0.0
 11
16.0192
 21
85.007163022141
 31
0.0
  0
LINE
  5
7F4
330
1D
100
AcDbEntity
  8
0
100
AcDbLine
 10
15.6217
 20
83.876163022141
 30
0.0
 11
16.4631
 21
83.411163022141
 31
0.0
  0
LINE
  5
7F5
330
1D
100
AcDbEntity
  8
0
100
AcDbLine
 10
15.8931
 20
85.147163022141
 30
0.0
 11
16.5933
 21
84.640163022141
 31
0.0
  0
LINE
  5
7F6
330
1D
100
AcDbEntity
  8
0
100
AcDbLine
 10
15.7528
 20
87.098163022141
 30
0.0
 11
16.1049
 21
86.581163022141
 31
0.0
  0
LINE
  5
7F7
330
1D
100
AcDbEntity
  8
0
100
AcDbLine
 10
15.4915
 20
87.634163022141
 30
0.0
 11
15.7528
 21
87.098163022141
 31
0.0
  0
LINE
  5
7F8
330
1D
100
AcDbEntity
  8
0
100
AcDbLine
 10
15.47014848241
 20
90.074469641285
 30
0.0
 11
15.6035
 21
89.727163022141
 31
0.0
  0
LINE
  5
7F9
330
1D
100
AcDbEntity
  8
0
100
AcDbLine
 10
15.6035
 20
89.727163022141
 30
0.0
 11
15.9355
 21
89.160163022141
 31
0.0
  0
LINE
  5
800
330
1D
100
AcDbEntity
  8
0
100
AcDbLine
 10
21.5633
 20
81.884163022141
 30
0.0
 11
22.6711
 21
81.770163022141
 31
0.0
  0
LINE
  5
801
330
1D
100
AcDbEntity
  8
0
100
AcDbLine
 10
20.4777
 20
82.060163022141
 30
0.0
 11
21.5633
 21
81.884163022141
 31
0.0
  0
LINE
  5
802
330
1D
100
AcDbEntity
  8
0
100
AcDbLine
 10
19.4254
 20
82.299163022141
 30
0.0
 11
20.4777
 21
82.060163022141
 31
0.0
  0
LINE
  5
803
330
1D
100
AcDbEntity
  8
0
100
AcDbLine
 10
18.4154
 20
82.598163022141
 30
0.0
 11
19.4254
 21
82.299163022141
 31
0.0
  0
LINE
  5
804
330
1D
100
AcDbEntity
  8
0
100
AcDbLine
 10
21.075
 20
82.899163022141
 30
0.0
 11
22.0799
 21
82.745163022141
 31
0.0
  0
LINE
  5
805
330
1D
100
AcDbEntity
  8
0
100
AcDbLine
 10
22.0799
 20
82.745163022141
 30
0.0
 11
23.107
 21
82.654163022141
 31
0.0
  0
LINE
  5
806
330
1D
100
AcDbEntity
  8
0
100
AcDbLine
 10
17.4559
 20
82.953163022141
 30
0.0
 11
18.4154
 21
82.598163022141
 31
0.0
  0
LINE
  5
807
330
1D
100
AcDbEntity
  8
0
100
AcDbLine
 10
16.5569
 20
83.362163022141
 30
0.0
 11
17.4559
 21
82.953163022141
 31
0.0
  0
LINE
  5
808
330
1D
100
AcDbEntity
  8
0
100
AcDbLine
 10
16.4631
 20
83.411163022141
 30
0.0
 11
16.5569
 21
83.362163022141
 31
0.0
  0
LINE
  5
809
330
1D
100
AcDbEntity
  8
0
100
AcDbLine
 10
20.0993
 20
83.114163022141
 30
0.0
 11
21.075
 21
82.899163022141
 31
0.0
  0
LINE
  5
80A
330
1D
100
AcDbEntity
  8
0
100
AcDbLine
 10
19.1651
 20
83.388163022141
 30
0.0
 11
20.0993
 21
83.114163022141
 31
0.0
  0
LINE
  5
80B
330
1D
100
AcDbEntity
  8
0
100
AcDbLine
 10
18.2812
 20
83.717163022141
 30
0.0
 11
19.1651
 21
83.388163022141
 31
0.0
  0
LINE
  5
80C
330
1D
100
AcDbEntity
  8
0
100
AcDbLine
 10
19.1651
 20
83.429163022141
 30
0.0
 11
20.1155
 21
83.151163022141
 31
0.0
  0
LINE
  5
80D
330
1D
100
AcDbEntity
  8
0
100
AcDbLine
 10
20.1155
 20
83.151163022141
 30
0.0
 11
21.1073
 21
82.933163022141
 31
0.0
  0
LINE
  5
80E
330
1D
100
AcDbEntity
  8
0
100
AcDbLine
 10
21.1073
 20
82.933163022141
 30
0.0
 11
22.1303
 21
82.780163022141
 31
0.0
  0
LINE
  5
810
330
1D
100
AcDbEntity
  8
0
100
AcDbLine
 10
22.6711
 20
81.770163022141
 30
0.0
 11
23.7911
 21
81.721163022141
 31
0.0
  0
LINE
  5
811
330
1D
100
AcDbEntity
  8
0
100
AcDbLine
 10
22.1303
 20
82.780163022141
 30
0.0
 11
23.1756
 21
82.691163022141
 31
0.0
  0
LINE
  5
812
330
1D
100
AcDbEntity
  8
0
100
AcDbLine
 10
17.4559
 20
84.100163022141
 30
0.0
 11
18.2812
 21
83.717163022141
 31
0.0
  0
LINE
  5
813
330
1D
100
AcDbEntity
  8
0
100
AcDbLine
 10
17.3782
 20
84.181163022141
 30
0.0
 11
18.2389
 21
83.776163022141
 31
0.0
  0
LINE
  5
814
330
1D
100
AcDbEntity
  8
0
100
AcDbLine
 10
18.2389
 20
83.776163022141
 30
0.0
 11
19.1651
 21
83.429163022141
 31
0.0
  0
LINE
  5
815
330
1D
100
AcDbEntity
  8
0
100
AcDbLine
 10
16.6992
 20
84.531163022141
 30
0.0
 11
17.4559
 21
84.100163022141
 31
0.0
  0
LINE
  5
816
330
1D
100
AcDbEntity
  8
0
100
AcDbLine
 10
16.5933
 20
84.640163022141
 30
0.0
 11
17.3782
 21
84.181163022141
 31
0.0
  0
LINE
  5
817
330
1D
100
AcDbEntity
  8
0
100
AcDbLine
 10
16.0192
 20
85.007163022141
 30
0.0
 11
16.6992
 21
84.531163022141
 31
0.0
  0
LINE
  5
818
330
1D
100
AcDbEntity
  8
0
100
AcDbLine
 10
17.0655
 20
85.628163022141
 30
0.0
 11
17.6617
 21
85.202163022141
 31
0.0
  0
LINE
  5
819
330
1D
100
AcDbEntity
  8
0
100
AcDbLine
 10
17.6617
 20
85.202163022141
 30
0.0
 11
18.3287
 21
84.816163022141
 31
0.0
  0
LINE
  5
81A
330
1D
100
AcDbEntity
  8
0
100
AcDbLine
 10
18.3287
 20
84.816163022141
 30
0.0
 11
19.0581
 21
84.475163022141
 31
0.0
  0
LINE
  5
81B
330
1D
100
AcDbEntity
  8
0
100
AcDbLine
 10
19.0581
 20
84.475163022141
 30
0.0
 11
19.8421
 21
84.181163022141
 31
0.0
  0
LINE
  5
81C
330
1D
100
AcDbEntity
  8
0
100
AcDbLine
 10
19.8421
 20
84.181163022141
 30
0.0
 11
20.7511
 21
83.919163022141
 31
0.0
  0
LINE
  5
81D
330
1D
100
AcDbEntity
  8
0
100
AcDbLine
 10
20.7511
 20
83.919163022141
 30
0.0
 11
21.7036
 21
83.722163022141
 31
0.0
  0
LINE
  5
81E
330
1D
100
AcDbEntity
  8
0
100
AcDbLine
 10
21.7036
 20
83.722163022141
 30
0.0
 11
22.6873
 21
83.592163022141
 31
0.0
  0
LINE
  5
81F
330
1D
100
AcDbEntity
  8
0
100
AcDbLine
 10
23.107
 20
82.654163022141
 30
0.0
 11
24.0712
 21
82.628163022141
 31
0.0
  0
LINE
  5
820
330
1D
100
AcDbEntity
  8
0
100
AcDbLine
 10
23.1756
 20
82.691163022141
 30
0.0
 11
24.0712
 21
82.671163022141
 31
0.0
  0
LINE
  5
821
330
1D
100
AcDbEntity
  8
0
100
AcDbLine
 10
22.6873
 20
83.592163022141
 30
0.0
 11
23.6882
 21
83.530163022141
 31
0.0
  0
LINE
  5
822
330
1D
100
AcDbEntity
  8
0
100
AcDbLine
 10
16.5449
 20
86.089163022141
 30
0.0
 11
17.0655
 21
85.628163022141
 31
0.0
  0
LINE
  5
823
330
1D
100
AcDbEntity
  8
0
100
AcDbLine
 10
19.0016
 20
86.846163022141
 30
0.0
 11
19.8421
 21
86.529163022141
 31
0.0
  0
LINE
  5
824
330
1D
100
AcDbEntity
  8
0
100
AcDbLine
 10
19.8421
 20
86.529163022141
 30
0.0
 11
20.736
 21
86.271163022141
 31
0.0
  0
LINE
  5
825
330
1D
100
AcDbEntity
  8
0
100
AcDbLine
 10
16.1049
 20
86.581163022141
 30
0.0
 11
16.5449
 21
86.089163022141
 31
0.0
  0
LINE
  5
826
330
1D
100
AcDbEntity
  8
0
100
AcDbLine
 10
20.736
 20
86.271163022141
 30
0.0
 11
21.6723
 21
86.075163022141
 31
0.0
  0
LINE
  5
827
330
1D
100
AcDbEntity
  8
0
100
AcDbLine
 10
21.6723
 20
86.075163022141
 30
0.0
 11
22.6389
 21
85.944163022141
 31
0.0
  0
LINE
  5
828
330
1D
100
AcDbEntity
  8
0
100
AcDbLine
 10
22.6389
 20
85.944163022141
 30
0.0
 11
23.6226
 21
85.879163022141
 31
0.0
  0
LINE
  5
82B
330
1D
100
AcDbEntity
  8
0
100
AcDbLine
 10
23.7911
 20
81.721163022141
 30
0.0
 11
24.0712
 21
81.725163022141
 31
0.0
  0
LINE
  5
852
330
1D
100
AcDbEntity
  8
0
100
AcDbLine
 10
23.6882
 20
83.530163022141
 30
0.0
 11
24.0712
 21
83.533163022141
 31
0.0
  0
LINE
  5
853
330
1D
100
AcDbEntity
  8
0
100
AcDbLine
 10
23.6226
 20
85.879163022141
 30
0.0
 11
24.0712
 21
85.881163022141
 31
0.0
  0
LINE
  5
854
330
1D
100
AcDbEntity
  8
0
100
AcDbLine
 10
16.3693
 20
88.620163022141
 30
0.0
 11
16.9
 21
88.112163022141
 31
0.0
  0
LINE
  5
855
330
1D
100
AcDbEntity
  8
0
100
AcDbLine
 10
16.9
 20
88.112163022141
 30
0.0
 11
17.5205
 21
87.643163022141
 31
0.0
  0
LINE
  5
856
330
1D
100
AcDbEntity
  8
0
100
AcDbLine
 10
17.5205
 20
87.643163022141
 30
0.0
 11
18.2237
 21
87.220163022141
 31
0.0
  0
LINE
  5
857
330
1D
100
AcDbEntity
  8
0
100
AcDbLine
 10
18.2237
 20
87.220163022141
 30
0.0
 11
19.0016
 21
86.846163022141
 31
0.0
  0
LINE
  5
858
330
1D
100
AcDbEntity
  8
0
100
AcDbLine
 10
15.9355
 20
89.160163022141
 30
0.0
 11
16.3693
 21
88.620163022141
 31
0.0
  0
LINE
  5
859
330
1D
100
AcDbEntity
  8
0
100
AcDbLine
 10
15.493
 20
115.869463022141
 30
0.0
 11
18.351
 21
115.820463022141
 31
0.0
  0
LINE
  5
85A
330
1D
100
AcDbEntity
  8
0
100
AcDbLine
 10
15.4231
 20
164.918463022141
 30
0.0
 11
17.7693
 21
164.982463022141
 31
0.0
  0
LINE
  5
85B
330
1D
100
AcDbEntity
  8
0
100
AcDbLine
 10
15.4199
 20
92.175163022141
 30
0.0
 11
16.0192
 21
92.691163022141
 31
0.0
  0
LINE
  5
85C
330
1D
100
AcDbEntity
  8
0
100
AcDbLine
 10
16.175
 20
97.731463022141
 30
0.0
 11
18.007
 21
98.475463022141
 31
0.0
  0
LINE
  5
85D
330
1D
100
AcDbEntity
  8
0
100
AcDbLine
 10
16.0192
 20
92.691163022141
 30
0.0
 11
16.6992
 21
93.166163022141
 31
0.0
  0
LINE
  5
85E
330
1D
100
AcDbEntity
  8
0
100
AcDbLine
 10
17.0655
 20
92.150163022141
 30
0.0
 11
17.6617
 21
92.577163022141
 31
0.0
  0
LINE
  5
85F
330
1D
100
AcDbEntity
  8
0
100
AcDbLine
 10
17.6617
 20
92.577163022141
 30
0.0
 11
18.3287
 21
92.962163022141
 31
0.0
  0
LINE
  5
860
330
1D
100
AcDbEntity
  8
0
100
AcDbLine
 10
16.6992
 20
93.166163022141
 30
0.0
 11
17.4559
 21
93.597163022141
 31
0.0
  0
LINE
  5
861
330
1D
100
AcDbEntity
  8
0
100
AcDbLine
 10
17.4559
 20
93.597163022141
 30
0.0
 11
18.2812
 21
93.979163022141
 31
0.0
  0
LINE
  5
862
330
1D
100
AcDbEntity
  8
0
100
AcDbLine
 10
18.3287
 20
92.962163022141
 30
0.0
 11
19.0581
 21
93.304163022141
 31
0.0
  0
LINE
  5
863
330
1D
100
AcDbEntity
  8
0
100
AcDbLine
 10
19.0581
 20
93.304163022141
 30
0.0
 11
19.8421
 21
93.597163022141
 31
0.0
  0
LINE
  5
864
330
1D
100
AcDbEntity
  8
0
100
AcDbLine
 10
18.2812
 20
93.979163022141
 30
0.0
 11
19.1651
 21
94.310163022141
 31
0.0
  0
LINE
  5
865
330
1D
100
AcDbEntity
  8
0
100
AcDbLine
 10
19.8421
 20
93.597163022141
 30
0.0
 11
20.7511
 21
93.860163022141
 31
0.0
  0
LINE
  5
866
330
1D
100
AcDbEntity
  8
0
100
AcDbLine
 10
20.7511
 20
93.860163022141
 30
0.0
 11
21.7036
 21
94.057163022141
 31
0.0
  0
LINE
  5
867
330
1D
100
AcDbEntity
  8
0
100
AcDbLine
 10
21.7036
 20
94.057163022141
 30
0.0
 11
22.6873
 21
94.187163022141
 31
0.0
  0
LINE
  5
868
330
1D
100
AcDbEntity
  8
0
100
AcDbLine
 10
22.6873
 20
94.187163022141
 30
0.0
 11
23.6882
 21
94.249163022141
 31
0.0
  0
LINE
  5
869
330
1D
100
AcDbEntity
  8
0
100
AcDbLine
 10
18.007
 20
98.475463022141
 30
0.0
 11
19.784
 21
98.959463022141
 31
0.0
  0
LINE
  5
86A
330
1D
100
AcDbEntity
  8
0
100
AcDbLine
 10
18.351
 20
115.820463022141
 30
0.0
 11
21.11
 21
115.794463022141
 31
0.0
  0
LINE
  5
86B
330
1D
100
AcDbEntity
  8
0
100
AcDbLine
 10
17.0323
 20
116.778563022141
 30
0.0
 11
19.1538
 21
116.704563022141
 31
0.0
  0
LINE
  5
86C
330
1D
100
AcDbEntity
  8
0
100
AcDbLine
 10
19.1538
 20
116.704563022141
 30
0.0
 11
21.3158
 21
116.658663022141
 31
0.0
  0
LINE
  5
86D
330
1D
100
AcDbEntity
  8
0
100
AcDbLine
 10
17.7693
 20
164.982463022141
 30
0.0
 11
20.8778
 21
165.033463022141
 31
0.0
  0
LINE
  5
86E
330
1D
100
AcDbEntity
  8
0
100
AcDbLine
 10
20.0993
 20
94.583163022141
 30
0.0
 11
21.075
 21
94.798163022141
 31
0.0
  0
LINE
  5
86F
330
1D
100
AcDbEntity
  8
0
100
AcDbLine
 10
21.075
 20
94.798163022141
 30
0.0
 11
22.0799
 21
94.953163022141
 31
0.0
  0
LINE
  5
870
330
1D
100
AcDbEntity
  8
0
100
AcDbLine
 10
22.0799
 20
94.953163022141
 30
0.0
 11
23.107
 21
95.044163022141
 31
0.0
  0
LINE
  5
871
330
1D
100
AcDbEntity
  8
0
100
AcDbLine
 10
21.11
 20
115.794463022141
 30
0.0
 11
23.999
 21
115.785463022141
 31
0.0
  0
LINE
  5
872
330
1D
100
AcDbEntity
  8
0
100
AcDbLine
 10
19.784
 20
98.959463022141
 30
0.0
 11
21.666
 21
99.270463022141
 31
0.0
  0
LINE
  5
873
330
1D
100
AcDbEntity
  8
0
100
AcDbLine
 10
21.3002
 20
125.909463022141
 30
0.0
 11
21.313
 21
126.230463022141
 31
0.0
  0
LINE
  5
874
330
1D
100
AcDbEntity
  8
0
100
AcDbLine
 10
21.3002
 20
125.909463022141
 30
0.0
 11
21.3204
 21
125.589463022141
 31
0.0
  0
LINE
  5
875
330
1D
100
AcDbEntity
  8
0
100
AcDbLine
 10
21.313
 20
126.230463022141
 30
0.0
 11
21.3587
 21
126.547463022141
 31
0.0
  0
LINE
  5
876
330
1D
100
AcDbEntity
  8
0
100
AcDbLine
 10
21.3204
 20
125.589463022141
 30
0.0
 11
21.3736
 21
125.273463022141
 31
0.0
  0
LINE
  5
877
330
1D
100
AcDbEntity
  8
0
100
AcDbLine
 10
21.3587
 20
126.547463022141
 30
0.0
 11
21.4371
 21
126.859463022141
 31
0.0
  0
LINE
  5
878
330
1D
100
AcDbEntity
  8
0
100
AcDbLine
 10
21.3158
 20
116.658663022141
 30
0.0
 11
24.0
 21
116.639063022141
 31
0.0
  0
LINE
  5
879
330
1D
100
AcDbEntity
  8
0
100
AcDbLine
 10
20.8778
 20
165.033463022141
 30
0.0
 11
21.6234
 21
165.045463022141
 31
0.0
  0
LINE
  5
87A
330
1D
100
AcDbEntity
  8
0
100
AcDbLine
 10
21.666
 20
99.270463022141
 30
0.0
 11
24.0
 21
99.403463022141
 31
0.0
  0
LINE
  5
87B
330
1D
100
AcDbEntity
  8
0
100
AcDbLine
 10
21.4371
 20
126.859463022141
 30
0.0
 11
21.5285
 21
127.114463022141
 31
0.0
  0
LINE
  5
87C
330
1D
100
AcDbEntity
  8
0
100
AcDbLine
 10
21.5285
 20
127.114463022141
 30
0.0
 11
21.6428
 21
127.361463022141
 31
0.0
  0
LINE
  5
87D
330
1D
100
AcDbEntity
  8
0
100
AcDbLine
 10
21.6234
 20
165.045463022141
 30
0.0
 11
24.0
 21
165.065463022141
 31
0.0
  0
LINE
  5
87E
330
1D
100
AcDbEntity
  8
0
100
AcDbLine
 10
21.459
 20
124.953463022141
 30
0.0
 11
21.5445
 21
124.720463022141
 31
0.0
  0
LINE
  5
87F
330
1D
100
AcDbEntity
  8
0
100
AcDbLine
 10
21.5445
 20
124.720463022141
 30
0.0
 11
21.6492
 21
124.494463022141
 31
0.0
  0
LINE
  5
880
330
1D
100
AcDbEntity
  8
0
100
AcDbLine
 10
21.6492
 20
124.494463022141
 30
0.0
 11
21.7726
 21
124.278463022141
 31
0.0
  0
LINE
  5
881
330
1D
100
AcDbEntity
  8
0
100
AcDbLine
 10
21.7726
 20
124.278463022141
 30
0.0
 11
21.9145
 21
124.072463022141
 31
0.0
  0
LINE
  5
882
330
1D
100
AcDbEntity
  8
0
100
AcDbLine
 10
21.9145
 20
124.072463022141
 30
0.0
 11
22.0678
 21
123.886463022141
 31
0.0
  0
LINE
  5
883
330
1D
100
AcDbEntity
  8
0
100
AcDbLine
 10
22.0678
 20
123.886463022141
 30
0.0
 11
22.212623183324
 21
123.738212071164
 31
0.0
  0
LINE
  5
884
330
1D
100
AcDbEntity
  8
0
100
AcDbLine
 10
22.6476
 20
123.396463022141
 30
0.0
 11
22.8828
 21
123.263463022141
 31
0.0
  0
LINE
  5
885
330
1D
100
AcDbEntity
  8
0
100
AcDbLine
 10
22.8828
 20
123.263463022141
 30
0.0
 11
23.1316
 21
123.154463022141
 31
0.0
  0
LINE
  5
886
330
1D
100
AcDbEntity
  8
0
100
AcDbLine
 10
23.1316
 20
123.154463022141
 30
0.0
 11
23.3913
 21
123.073463022141
 31
0.0
  0
LINE
  5
887
330
1D
100
AcDbEntity
  8
0
100
AcDbLine
 10
23.3913
 20
123.073463022141
 30
0.0
 11
23.6588
 21
123.021463022141
 31
0.0
  0
LINE
  5
888
330
1D
100
AcDbEntity
  8
0
100
AcDbLine
 10
23.6588
 20
123.021463022141
 30
0.0
 11
23.8864
 21
122.999463022141
 31
0.0
  0
LINE
  5
889
330
1D
100
AcDbEntity
  8
0
100
AcDbLine
 10
23.8864
 20
122.999463022141
 30
0.0
 11
24.1151
 21
123.000463022141
 31
0.0
  0
LINE
  5
88A
330
1D
100
AcDbEntity
  8
0
100
AcDbLine
 10
21.9376
 20
127.819463022141
 30
0.0
 11
22.1047
 21
128.013463022141
 31
0.0
  0
LINE
  5
88B
330
1D
100
AcDbEntity
  8
0
100
AcDbLine
 10
22.1047
 20
128.013463022141
 30
0.0
 11
22.2892
 21
128.191463022141
 31
0.0
  0
LINE
  5
88C
330
1D
100
AcDbEntity
  8
0
100
AcDbLine
 10
22.2892
 20
128.191463022141
 30
0.0
 11
22.49
 21
128.351463022141
 31
0.0
  0
LINE
  5
88D
330
1D
100
AcDbEntity
  8
0
100
AcDbLine
 10
22.7055
 20
128.492463022141
 30
0.0
 11
22.9436
 21
128.616463022141
 31
0.0
  0
LINE
  5
88E
330
1D
100
AcDbEntity
  8
0
100
AcDbLine
 10
22.9436
 20
128.616463022141
 30
0.0
 11
23.1936
 21
128.715463022141
 31
0.0
  0
LINE
  5
88F
330
1D
100
AcDbEntity
  8
0
100
AcDbLine
 10
23.1936
 20
128.715463022141
 30
0.0
 11
23.453
 21
128.788463022141
 31
0.0
  0
LINE
  5
890
330
1D
100
AcDbEntity
  8
0
100
AcDbLine
 10
23.453
 20
128.788463022141
 30
0.0
 11
23.7188
 21
128.832463022141
 31
0.0
  0
LINE
  5
891
330
1D
100
AcDbEntity
  8
0
100
AcDbLine
 10
23.7188
 20
128.832463022141
 30
0.0
 11
23.951
 21
128.847463022141
 31
0.0
  0
LINE
  5
892
330
1D
100
AcDbEntity
  8
0
100
AcDbLine
 10
22.49
 20
128.351463022141
 30
0.0
 11
22.7055
 21
128.492463022141
 31
0.0
  0
LINE
  5
893
330
1D
100
AcDbEntity
  8
0
100
AcDbLine
 10
21.7793
 20
127.596463022141
 30
0.0
 11
21.9376
 21
127.819463022141
 31
0.0
  0
LINE
  5
894
330
1D
100
AcDbEntity
  8
0
100
AcDbLine
 10
21.6428
 20
127.361463022141
 30
0.0
 11
21.7793
 21
127.596463022141
 31
0.0
  0
LINE
  5
895
330
1D
100
AcDbEntity
  8
0
100
AcDbLine
 10
21.3736
 20
125.273463022141
 30
0.0
 11
21.459
 21
124.953463022141
 31
0.0
  0
LINE
  5
896
330
1D
100
AcDbEntity
  8
0
100
AcDbLine
 10
21.3736
 20
125.273463022141
 30
0.0
 11
21.420636831174
 21
125.103516429321
 31
0.0
  0
LINE
  5
897
330
1D
100
AcDbEntity
  8
0
100
AcDbLine
 10
23.107
 20
95.044163022141
 30
0.0
 11
24.0712
 21
95.069163022141
 31
0.0
  0
LINE
  5
898
330
1D
100
AcDbEntity
  8
0
100
AcDbLine
 10
19.1651
 20
94.310163022141
 30
0.0
 11
20.0993
 21
94.583163022141
 31
0.0
  0
LINE
  5
899
330
1D
100
AcDbEntity
  8
0
100
AcDbLine
 10
23.6882
 20
94.249163022141
 30
0.0
 11
24.0712
 21
94.245163022141
 31
0.0
  0
LINE
  5
89A
330
1D
100
AcDbEntity
  8
0
100
AcDbLine
 10
16.5449
 20
91.689163022141
 30
0.0
 11
17.0655
 21
92.150163022141
 31
0.0
  0
LINE
  5
89B
330
1D
100
AcDbEntity
  8
0
100
AcDbLine
 10
16.1049
 20
91.198163022141
 30
0.0
 11
16.5449
 21
91.689163022141
 31
0.0
  0
LINE
  5
89C
330
1D
100
AcDbEntity
  8
0
100
AcDbLine
 10
15.7528
 20
90.681163022141
 30
0.0
 11
16.1049
 21
91.198163022141
 31
0.0
  0
LINE
  5
89D
330
1D
100
AcDbEntity
  8
0
100
AcDbLine
 10
15.4915
 20
90.144163022141
 30
0.0
 11
15.7528
 21
90.681163022141
 31
0.0
  0
LINE
  5
89E
330
1D
100
AcDbEntity
  8
0
100
AcDbLine
 10
15.323
 20
89.594163022141
 30
0.0
 11
15.4915
 21
90.144163022141
 31
0.0
  0
LINE
  5
89F
330
1D
100
AcDbEntity
  8
0
100
AcDbLine
 10
15.323
 20
89.594163022141
 30
0.0
 11
15.323
 21
88.184163022141
 31
0.0
  0
LINE
  5
8A0
330
1D
100
AcDbEntity
  8
0
100
AcDbLine
 10
12.529
 20
85.761463022141
 30
0.0
 11
11.217
 21
86.742463022141
 31
0.0
  0
LINE
  5
8A1
330
1D
100
AcDbEntity
  8
0
100
AcDbLine
 10
8.273
 20
89.721463022141
 30
0.0
 11
6.949
 21
91.484463022141
 31
0.0
  0
LINE
  5
8A2
330
1D
100
AcDbEntity
  8
0
100
AcDbLine
 10
6.447
 20
92.203463022141
 30
0.0
 11
4.563995925794
 21
95.644715216195
 31
0.0
  0
LINE
  5
8A3
330
1D
100
AcDbEntity
  8
0
100
AcDbLine
 10
4.563995925794
 20
95.644715216195
 30
0.0
 11
2.706080410512
 21
100.379403142237
 31
0.0
  0
LINE
  5
8A4
330
1D
100
AcDbEntity
  8
0
100
AcDbLine
 10
22.6476
 20
123.396463022141
 30
0.0
 11
22.212623183324
 21
123.738212071164
 31
0.0
  0
LINE
  5
8A5
330
1D
100
AcDbEntity
  8
0
100
AcDbLine
 10
1.7561
 20
138.400463022141
 30
0.0
 11
1.771237852983
 21
140.229326888309
 31
0.0
  0
LINE
  5
8A6
330
1D
100
AcDbEntity
  8
0
100
AcDbLine
 10
9.2151
 20
164.617463022141
 30
0.0
 11
10.247949768777
 21
164.676952617516
 31
0.0
  0
LINE
  5
8A7
330
1D
100
AcDbEntity
  8
0
100
AcDbLine
 10
46.605
 20
78.164463022141
 30
0.0
 11
46.529
 21
90.115463022141
 31
0.0
  0
LINE
  5
8A8
330
1D
100
AcDbEntity
  8
0
100
AcDbLine
 10
38.617
 20
88.455463022141
 30
0.0
 11
38.047
 21
87.879463022141
 31
0.0
  0
LINE
  5
8A9
330
1D
100
AcDbEntity
  8
0
100
AcDbLine
 10
35.8471
 20
88.308163022141
 30
0.0
 11
35.6584
 21
87.623163022141
 31
0.0
  0
LINE
  5
8AA
330
1D
100
AcDbEntity
  8
0
100
AcDbLine
 10
34.149
 20
88.493163022141
 30
0.0
 11
34.037
 21
87.865163022141
 31
0.0
  0
LINE
  5
8AB
330
1D
100
AcDbEntity
  8
0
100
AcDbLine
 10
34.081949840081
 20
88.117203196882
 30
0.0
 11
33.919
 21
87.532163022141
 31
0.0
  0
LINE
  5
8AC
330
1D
100
AcDbEntity
  8
0
100
AcDbLine
 10
32.677
 20
88.184163022141
 30
0.0
 11
32.5085
 21
87.634163022141
 31
0.0
  0
LINE
  5
8AD
330
1D
100
AcDbEntity
  8
0
100
AcDbLine
 10
31.1
 20
88.112163022141
 30
0.0
 11
30.4795
 21
87.643163022141
 31
0.0
  0
LINE
  5
8AE
330
1D
100
AcDbEntity
  8
0
100
AcDbLine
 10
48.0205
 20
-0.2353895
 30
0.0
 11
46.605
 21
78.164463022141
 31
0.0
  0
LINE
  5
8AF
330
1D
100
AcDbEntity
  8
0
100
AcDbLine
 10
48.0205
 20
-0.2353895
 30
0.0
 11
46.605
 21
78.164463022141
 31
0.0
  0
LINE
  5
8B0
330
1D
100
AcDbEntity
  8
0
100
AcDbLine
 10
30.5441
 20
82.953163022141
 30
0.0
 11
29.5846
 21
82.598163022141
 31
0.0
  0
LINE
  5
8B1
330
1D
100
AcDbEntity
  8
0
100
AcDbLine
 10
29.7188
 20
83.717163022141
 30
0.0
 11
28.8349
 21
83.388163022141
 31
0.0
  0
LINE
  5
8B2
330
1D
100
AcDbEntity
  8
0
100
AcDbLine
 10
29.7611
 20
83.776163022141
 30
0.0
 11
28.8349
 21
83.429163022141
 31
0.0
  0
LINE
  5
8B3
330
1D
100
AcDbEntity
  8
0
100
AcDbLine
 10
29.6713
 20
84.816163022141
 30
0.0
 11
28.9419
 21
84.475163022141
 31
0.0
  0
LINE
  5
8B4
330
1D
100
AcDbEntity
  8
0
100
AcDbLine
 10
29.7763
 20
87.220163022141
 30
0.0
 11
28.9984
 21
86.846163022141
 31
0.0
  0
LINE
  5
8B5
330
1D
100
AcDbEntity
  8
0
100
AcDbLine
 10
34.4174
 20
85.531163022141
 30
0.0
 11
33.8252
 21
84.942163022141
 31
0.0
  0
LINE
  5
8B6
330
1D
100
AcDbEntity
  8
0
100
AcDbLine
 10
33.985007853293
 20
84.834213471199
 30
0.0
 11
33.158062661534
 21
84.400315660302
 31
0.0
  0
LINE
  5
8B7
330
1D
100
AcDbEntity
  8
0
100
AcDbLine
 10
33.985007853293
 20
84.834213471199
 30
0.0
 11
33.158062661534
 21
84.400315660302
 31
0.0
  0
LINE
  5
8B8
330
1D
100
AcDbEntity
  8
0
100
AcDbLine
 10
34.037
 20
87.865163022141
 30
0.0
 11
33.8221
 21
87.248163022141
 31
0.0
  0
LINE
  5
8B9
330
1D
100
AcDbEntity
  8
0
100
AcDbLine
 10
37.733
 20
87.571463022141
 30
0.0
 11
36.783
 21
86.742463022141
 31
0.0
  0
LINE
  5
8BA
330
1D
100
AcDbEntity
  8
0
100
AcDbLine
 10
35.471
 20
85.761463022141
 30
0.0
 11
34.056
 21
84.871463022141
 31
0.0
  0
LINE
  5
8BB
330
1D
100
AcDbEntity
  8
0
100
AcDbLine
 10
35.6049
 20
87.467163022141
 30
0.0
 11
35.3113
 21
86.800163022141
 31
0.0
  0
LINE
  5
8BC
330
1D
100
AcDbEntity
  8
0
100
AcDbLine
 10
38.047
 20
87.879463022141
 30
0.0
 11
37.733
 21
87.571463022141
 31
0.0
  0
LINE
  5
8BD
330
1D
100
AcDbEntity
  8
0
100
AcDbLine
 10
35.6584
 20
87.623163022141
 30
0.0
 11
35.6049
 21
87.467163022141
 31
0.0
  0
LINE
  5
8BE
330
1D
100
AcDbEntity
  8
0
100
AcDbLine
 10
34.9138
 20
86.152163022141
 30
0.0
 11
34.4174
 21
85.531163022141
 31
0.0
  0
LINE
  5
8BF
330
1D
100
AcDbEntity
  8
0
100
AcDbLine
 10
35.3113
 20
86.800163022141
 30
0.0
 11
34.9138
 21
86.152163022141
 31
0.0
  0
LINE
  5
8C0
330
1D
100
AcDbEntity
  8
0
100
AcDbLine
 10
35.471
 20
85.761463022141
 30
0.0
 11
36.783
 21
86.742463022141
 31
0.0
  0
LINE
  5
8C1
330
1D
100
AcDbEntity
  8
0
100
AcDbLine
 10
32.3783
 20
83.876163022141
 30
0.0
 11
31.5369
 21
83.411163022141
 31
0.0
  0
LINE
  5
8C2
330
1D
100
AcDbEntity
  8
0
100
AcDbLine
 10
31.4431
 20
83.362163022141
 30
0.0
 11
30.5441
 21
82.953163022141
 31
0.0
  0
LINE
  5
8C3
330
1D
100
AcDbEntity
  8
0
100
AcDbLine
 10
31.5369
 20
83.411163022141
 30
0.0
 11
31.4431
 21
83.362163022141
 31
0.0
  0
LINE
  5
8C4
330
1D
100
AcDbEntity
  8
0
100
AcDbLine
 10
32.1069
 20
85.147163022141
 30
0.0
 11
31.4067
 21
84.640163022141
 31
0.0
  0
LINE
  5
8C5
330
1D
100
AcDbEntity
  8
0
100
AcDbLine
 10
31.9808
 20
85.007163022141
 30
0.0
 11
31.3008
 21
84.531163022141
 31
0.0
  0
LINE
  5
8C6
330
1D
100
AcDbEntity
  8
0
100
AcDbLine
 10
31.8951
 20
86.581163022141
 30
0.0
 11
31.4551
 21
86.089163022141
 31
0.0
  0
LINE
  5
8C7
330
1D
100
AcDbEntity
  8
0
100
AcDbLine
 10
33.8252
 20
84.942163022141
 30
0.0
 11
33.1431
 21
84.388163022141
 31
0.0
  0
LINE
  5
8C8
330
1D
100
AcDbEntity
  8
0
100
AcDbLine
 10
33.8221
 20
87.248163022141
 30
0.0
 11
33.5043
 21
86.649163022141
 31
0.0
  0
LINE
  5
8C9
330
1D
100
AcDbEntity
  8
0
100
AcDbLine
 10
33.919
 20
87.532163022141
 30
0.0
 11
33.6264
 21
86.894163022141
 31
0.0
  0
LINE
  5
8CA
330
1D
100
AcDbEntity
  8
0
100
AcDbLine
 10
33.1431
 20
84.388163022141
 30
0.0
 11
32.3783
 21
83.876163022141
 31
0.0
  0
LINE
  5
8CB
330
1D
100
AcDbEntity
  8
0
100
AcDbLine
 10
33.0896
 20
86.070163022141
 30
0.0
 11
32.5801
 21
85.522163022141
 31
0.0
  0
LINE
  5
8CC
330
1D
100
AcDbEntity
  8
0
100
AcDbLine
 10
32.7143
 20
85.695163022141
 30
0.0
 11
32.1069
 21
85.147163022141
 31
0.0
  0
LINE
  5
8CD
330
1D
100
AcDbEntity
  8
0
100
AcDbLine
 10
33.5043
 20
86.649163022141
 30
0.0
 11
33.0896
 21
86.070163022141
 31
0.0
  0
LINE
  5
8CE
330
1D
100
AcDbEntity
  8
0
100
AcDbLine
 10
33.2228
 20
86.280163022141
 30
0.0
 11
32.7143
 21
85.695163022141
 31
0.0
  0
LINE
  5
8CF
330
1D
100
AcDbEntity
  8
0
100
AcDbLine
 10
33.6264
 20
86.894163022141
 30
0.0
 11
33.2228
 21
86.280163022141
 31
0.0
  0
LINE
  5
8D0
330
1D
100
AcDbEntity
  8
0
100
AcDbLine
 10
32.5801
 20
85.522163022141
 30
0.0
 11
31.9808
 21
85.007163022141
 31
0.0
  0
LINE
  5
8D1
330
1D
100
AcDbEntity
  8
0
100
AcDbLine
 10
32.2472
 20
87.098163022141
 30
0.0
 11
31.8951
 21
86.581163022141
 31
0.0
  0
LINE
  5
8D2
330
1D
100
AcDbEntity
  8
0
100
AcDbLine
 10
32.5085
 20
87.634163022141
 30
0.0
 11
32.2472
 21
87.098163022141
 31
0.0
  0
LINE
  5
8D3
330
1D
100
AcDbEntity
  8
0
100
AcDbLine
 10
30.5441
 20
84.100163022141
 30
0.0
 11
29.7188
 21
83.717163022141
 31
0.0
  0
LINE
  5
8D4
330
1D
100
AcDbEntity
  8
0
100
AcDbLine
 10
30.6218
 20
84.181163022141
 30
0.0
 11
29.7611
 21
83.776163022141
 31
0.0
  0
LINE
  5
8D5
330
1D
100
AcDbEntity
  8
0
100
AcDbLine
 10
31.3008
 20
84.531163022141
 30
0.0
 11
30.5441
 21
84.100163022141
 31
0.0
  0
LINE
  5
8D6
330
1D
100
AcDbEntity
  8
0
100
AcDbLine
 10
31.4067
 20
84.640163022141
 30
0.0
 11
30.6218
 21
84.181163022141
 31
0.0
  0
LINE
  5
8D7
330
1D
100
AcDbEntity
  8
0
100
AcDbLine
 10
30.9345
 20
85.628163022141
 30
0.0
 11
30.3383
 21
85.202163022141
 31
0.0
  0
LINE
  5
8D8
330
1D
100
AcDbEntity
  8
0
100
AcDbLine
 10
30.3383
 20
85.202163022141
 30
0.0
 11
29.6713
 21
84.816163022141
 31
0.0
  0
LINE
  5
8D9
330
1D
100
AcDbEntity
  8
0
100
AcDbLine
 10
31.4551
 20
86.089163022141
 30
0.0
 11
30.9345
 21
85.628163022141
 31
0.0
  0
LINE
  5
8DA
330
1D
100
AcDbEntity
  8
0
100
AcDbLine
 10
30.4795
 20
87.643163022141
 30
0.0
 11
29.7763
 21
87.220163022141
 31
0.0
  0
LINE
  5
8DB
330
1D
100
AcDbEntity
  8
0
100
AcDbLine
 10
26.4367
 20
81.884163022141
 30
0.0
 11
25.3289
 21
81.770163022141
 31
0.0
  0
LINE
  5
8DC
330
1D
100
AcDbEntity
  8
0
100
AcDbLine
 10
25.9201
 20
82.745163022141
 30
0.0
 11
24.893
 21
82.654163022141
 31
0.0
  0
LINE
  5
8DD
330
1D
100
AcDbEntity
  8
0
100
AcDbLine
 10
25.8697
 20
82.780163022141
 30
0.0
 11
24.8244
 21
82.691163022141
 31
0.0
  0
LINE
  5
8DE
330
1D
100
AcDbEntity
  8
0
100
AcDbLine
 10
26.2964
 20
83.722163022141
 30
0.0
 11
25.3127
 21
83.592163022141
 31
0.0
  0
LINE
  5
8DF
330
1D
100
AcDbEntity
  8
0
100
AcDbLine
 10
25.3611
 20
85.944163022141
 30
0.0
 11
24.3774
 21
85.879163022141
 31
0.0
  0
LINE
  5
8E0
330
1D
100
AcDbEntity
  8
0
100
AcDbLine
 10
27.5223
 20
82.060163022141
 30
0.0
 11
26.4367
 21
81.884163022141
 31
0.0
  0
LINE
  5
8E1
330
1D
100
AcDbEntity
  8
0
100
AcDbLine
 10
28.5746
 20
82.299163022141
 30
0.0
 11
27.5223
 21
82.060163022141
 31
0.0
  0
LINE
  5
8E2
330
1D
100
AcDbEntity
  8
0
100
AcDbLine
 10
29.5846
 20
82.598163022141
 30
0.0
 11
28.5746
 21
82.299163022141
 31
0.0
  0
LINE
  5
8E3
330
1D
100
AcDbEntity
  8
0
100
AcDbLine
 10
26.925
 20
82.899163022141
 30
0.0
 11
25.9201
 21
82.745163022141
 31
0.0
  0
LINE
  5
8E4
330
1D
100
AcDbEntity
  8
0
100
AcDbLine
 10
27.9007
 20
83.114163022141
 30
0.0
 11
26.925
 21
82.899163022141
 31
0.0
  0
LINE
  5
8E5
330
1D
100
AcDbEntity
  8
0
100
AcDbLine
 10
28.8349
 20
83.388163022141
 30
0.0
 11
27.9007
 21
83.114163022141
 31
0.0
  0
LINE
  5
8E6
330
1D
100
AcDbEntity
  8
0
100
AcDbLine
 10
28.8349
 20
83.429163022141
 30
0.0
 11
27.8845
 21
83.151163022141
 31
0.0
  0
LINE
  5
8E7
330
1D
100
AcDbEntity
  8
0
100
AcDbLine
 10
27.8845
 20
83.151163022141
 30
0.0
 11
26.8927
 21
82.933163022141
 31
0.0
  0
LINE
  5
8E8
330
1D
100
AcDbEntity
  8
0
100
AcDbLine
 10
26.8927
 20
82.933163022141
 30
0.0
 11
25.8697
 21
82.780163022141
 31
0.0
  0
LINE
  5
8E9
330
1D
100
AcDbEntity
  8
0
100
AcDbLine
 10
28.9419
 20
84.475163022141
 30
0.0
 11
28.1579
 21
84.181163022141
 31
0.0
  0
LINE
  5
8EA
330
1D
100
AcDbEntity
  8
0
100
AcDbLine
 10
28.1579
 20
84.181163022141
 30
0.0
 11
27.2489
 21
83.919163022141
 31
0.0
  0
LINE
  5
8EB
330
1D
100
AcDbEntity
  8
0
100
AcDbLine
 10
27.2489
 20
83.919163022141
 30
0.0
 11
26.2964
 21
83.722163022141
 31
0.0
  0
LINE
  5
8EC
330
1D
100
AcDbEntity
  8
0
100
AcDbLine
 10
28.9984
 20
86.846163022141
 30
0.0
 11
28.1579
 21
86.529163022141
 31
0.0
  0
LINE
  5
8ED
330
1D
100
AcDbEntity
  8
0
100
AcDbLine
 10
28.1579
 20
86.529163022141
 30
0.0
 11
27.264
 21
86.271163022141
 31
0.0
  0
LINE
  5
8EE
330
1D
100
AcDbEntity
  8
0
100
AcDbLine
 10
27.264
 20
86.271163022141
 30
0.0
 11
26.3277
 21
86.075163022141
 31
0.0
  0
LINE
  5
8EF
330
1D
100
AcDbEntity
  8
0
100
AcDbLine
 10
26.3277
 20
86.075163022141
 30
0.0
 11
25.3611
 21
85.944163022141
 31
0.0
  0
LINE
  5
8F0
330
1D
100
AcDbEntity
  8
0
100
AcDbLine
 10
25.3127
 20
83.592163022141
 30
0.0
 11
24.3118
 21
83.530163022141
 31
0.0
  0
LINE
  5
8F1
330
1D
100
AcDbEntity
  8
0
100
AcDbLine
 10
25.3289
 20
81.770163022141
 30
0.0
 11
24.2089
 21
81.721163022141
 31
0.0
  0
LINE
  5
8F2
330
1D
100
AcDbEntity
  8
0
100
AcDbLine
 10
24.893
 20
82.654163022141
 30
0.0
 11
23.9288
 21
82.628163022141
 31
0.0
  0
LINE
  5
8F3
330
1D
100
AcDbEntity
  8
0
100
AcDbLine
 10
24.8244
 20
82.691163022141
 30
0.0
 11
23.9288
 21
82.671163022141
 31
0.0
  0
LINE
  5
8F4
330
1D
100
AcDbEntity
  8
0
100
AcDbLine
 10
24.2089
 20
81.721163022141
 30
0.0
 11
23.9288
 21
81.725163022141
 31
0.0
  0
LINE
  5
8F5
330
1D
100
AcDbEntity
  8
0
100
AcDbLine
 10
24.3118
 20
83.530163022141
 30
0.0
 11
23.9288
 21
83.533163022141
 31
0.0
  0
LINE
  5
8F6
330
1D
100
AcDbEntity
  8
0
100
AcDbLine
 10
24.3774
 20
85.879163022141
 30
0.0
 11
23.9288
 21
85.881163022141
 31
0.0
  0
LINE
  5
8F7
330
1D
100
AcDbEntity
  8
0
100
AcDbLine
 10
46.3053
 20
123.744463022141
 30
0.0
 11
46.2263
 21
122.102463022141
 31
0.0
  0
LINE
  5
8F8
330
1D
100
AcDbEntity
  8
0
100
AcDbLine
 10
32.507
 20
115.869463022141
 30
0.0
 11
29.649
 21
115.820463022141
 31
0.0
  0
LINE
  5
8F9
330
1D
100
AcDbEntity
  8
0
100
AcDbLine
 10
29.6713
 20
92.962163022141
 30
0.0
 11
28.9419
 21
93.304163022141
 31
0.0
  0
LINE
  5
8FA
330
1D
100
AcDbEntity
  8
0
100
AcDbLine
 10
29.7188
 20
93.979163022141
 30
0.0
 11
28.8349
 21
94.310163022141
 31
0.0
  0
LINE
  5
8FB
330
1D
100
AcDbEntity
  8
0
100
AcDbLine
 10
29.993
 20
98.475463022141
 30
0.0
 11
28.216
 21
98.959463022141
 31
0.0
  0
LINE
  5
8FC
330
1D
100
AcDbEntity
  8
0
100
AcDbLine
 10
30.9677
 20
116.778563022141
 30
0.0
 11
28.8462
 21
116.704563022141
 31
0.0
  0
LINE
  5
8FD
330
1D
100
AcDbEntity
  8
0
100
AcDbLine
 10
46.466
 20
102.112463022141
 30
0.0
 11
46.383
 21
117.193463022141
 31
0.0
  0
LINE
  5
8FE
330
1D
100
AcDbEntity
  8
0
100
AcDbLine
 10
39.322
 20
89.245463022141
 30
0.0
 11
38.617
 21
88.455463022141
 31
0.0
  0
LINE
  5
8FF
330
1D
100
AcDbEntity
  8
0
100
AcDbLine
 10
39.727
 20
89.721463022141
 30
0.0
 11
39.322
 21
89.245463022141
 31
0.0
  0
LINE
  5
900
330
1D
100
AcDbEntity
  8
0
100
AcDbLine
 10
46.529
 20
90.115463022141
 30
0.0
 11
46.466
 21
102.112463022141
 31
0.0
  0
LINE
  5
901
330
1D
100
AcDbEntity
  8
0
100
AcDbLine
 10
41.553
 20
92.203463022141
 30
0.0
 11
41.051
 21
91.484463022141
 31
0.0
  0
LINE
  5
902
330
1D
100
AcDbEntity
  8
0
100
AcDbLine
 10
39.727
 20
89.721463022141
 30
0.0
 11
41.051
 21
91.484463022141
 31
0.0
  0
LINE
  5
903
330
1D
100
AcDbEntity
  8
0
100
AcDbLine
 10
41.553
 20
92.203463022141
 30
0.0
 11
43.436004074206
 21
95.644715216195
 31
0.0
  0
LINE
  5
904
330
1D
100
AcDbEntity
  8
0
100
AcDbLine
 10
43.436004074206
 20
95.644715216195
 30
0.0
 11
45.293919589488
 21
100.379403142237
 31
0.0
  0
LINE
  5
905
330
1D
100
AcDbEntity
  8
0
100
AcDbLine
 10
34.434
 20
95.995463022141
 30
0.0
 11
33.227
 21
96.930463022141
 31
0.0
  0
LINE
  5
906
330
1D
100
AcDbEntity
  8
0
100
AcDbLine
 10
34.093891719745
 20
88.184163022141
 30
0.0
 11
32.677
 21
88.184163022141
 31
0.0
  0
LINE
  5
907
330
1D
100
AcDbEntity
  8
0
100
AcDbLine
 10
34.079581469649
 20
89.594163022141
 30
0.0
 11
32.677
 21
89.594163022141
 31
0.0
  0
LINE
  5
908
330
1D
100
AcDbEntity
  8
0
100
AcDbLine
 10
34.037
 20
89.832163022141
 30
0.0
 11
33.8221
 21
90.448163022141
 31
0.0
  0
LINE
  5
909
330
1D
100
AcDbEntity
  8
0
100
AcDbLine
 10
35.9288
 20
89.001163022141
 30
0.0
 11
35.9288
 21
93.859163022141
 31
0.0
  0
LINE
  5
90A
330
1D
100
AcDbEntity
  8
0
100
AcDbLine
 10
35.9288
 20
89.344163022141
 30
0.0
 11
35.9288
 21
94.069707232667
 31
0.0
  0
LINE
  5
90B
330
1D
100
AcDbEntity
  8
0
100
AcDbLine
 10
36.496
 20
91.633463022141
 30
0.0
 11
36.412
 21
92.751463022141
 31
0.0
  0
LINE
  5
90C
330
1D
100
AcDbEntity
  8
0
100
AcDbLine
 10
35.9288
 20
93.859163022141
 30
0.0
 11
35.9288
 21
89.001163022141
 31
0.0
  0
LINE
  5
90D
330
1D
100
AcDbEntity
  8
0
100
AcDbLine
 10
35.9288
 20
94.069707232667
 30
0.0
 11
35.9288
 21
89.344163022141
 31
0.0
  0
LINE
  5
90E
330
1D
100
AcDbEntity
  8
0
100
AcDbLine
 10
35.9288
 20
89.001163022141
 30
0.0
 11
35.8471
 21
88.308163022141
 31
0.0
  0
LINE
  5
90F
330
1D
100
AcDbEntity
  8
0
100
AcDbLine
 10
34.153
 20
88.848163022141
 30
0.0
 11
34.149
 21
89.206163022141
 31
0.0
  0
LINE
  5
910
330
1D
100
AcDbEntity
  8
0
100
AcDbLine
 10
34.153
 20
88.848163022141
 30
0.0
 11
34.149
 21
88.493163022141
 31
0.0
  0
LINE
  5
911
330
1D
100
AcDbEntity
  8
0
100
AcDbLine
 10
36.014
 20
89.626463022141
 30
0.0
 11
35.9288
 21
89.464015022141
 31
0.0
  0
LINE
  5
912
330
1D
100
AcDbEntity
  8
0
100
AcDbLine
 10
35.9288
 20
89.344163022141
 30
0.0
 11
35.922
 21
89.172163022141
 31
0.0
  0
LINE
  5
913
330
1D
100
AcDbEntity
  8
0
100
AcDbLine
 10
34.149
 20
89.206163022141
 30
0.0
 11
34.037
 21
89.832163022141
 31
0.0
  0
LINE
  5
914
330
1D
100
AcDbEntity
  8
0
100
AcDbLine
 10
36.324
 20
90.512463022141
 30
0.0
 11
36.014
 21
89.626463022141
 31
0.0
  0
LINE
  5
915
330
1D
100
AcDbEntity
  8
0
100
AcDbLine
 10
36.496
 20
91.633463022141
 30
0.0
 11
36.324
 21
90.512463022141
 31
0.0
  0
LINE
  5
916
330
1D
100
AcDbEntity
  8
0
100
AcDbLine
 10
34.041830663886
 20
89.805163061494
 30
0.0
 11
34.023659847359
 21
89.870401896162
 31
0.0
  0
LINE
  5
917
330
1D
100
AcDbEntity
  8
0
100
AcDbLine
 10
36.041
 20
93.885463022141
 30
0.0
 11
35.376
 21
94.977463022141
 31
0.0
  0
LINE
  5
918
330
1D
100
AcDbEntity
  8
0
100
AcDbLine
 10
36.412
 20
92.751463022141
 30
0.0
 11
36.041
 21
93.885463022141
 31
0.0
  0
LINE
  5
919
330
1D
100
AcDbEntity
  8
0
100
AcDbLine
 10
35.376
 20
94.977463022141
 30
0.0
 11
34.434
 21
95.995463022141
 31
0.0
  0
LINE
  5
91A
330
1D
100
AcDbEntity
  8
0
100
AcDbLine
 10
32.677
 20
88.184163022141
 30
0.0
 11
32.677
 21
89.594163022141
 31
0.0
  0
LINE
  5
91B
330
1D
100
AcDbEntity
  8
0
100
AcDbLine
 10
33.8221
 20
90.448163022141
 30
0.0
 11
33.5043
 21
91.050163022141
 31
0.0
  0
LINE
  5
91C
330
1D
100
AcDbEntity
  8
0
100
AcDbLine
 10
33.0896
 20
91.627163022141
 30
0.0
 11
32.5801
 21
92.175163022141
 31
0.0
  0
LINE
  5
91D
330
1D
100
AcDbEntity
  8
0
100
AcDbLine
 10
33.5043
 20
91.050163022141
 30
0.0
 11
33.0896
 21
91.627163022141
 31
0.0
  0
LINE
  5
91E
330
1D
100
AcDbEntity
  8
0
100
AcDbLine
 10
32.529851517589
 20
90.074469641285
 30
0.0
 11
32.3965
 21
89.727163022141
 31
0.0
  0
LINE
  5
91F
330
1D
100
AcDbEntity
  8
0
100
AcDbLine
 10
32.3965
 20
89.727163022141
 30
0.0
 11
32.0645
 21
89.160163022141
 31
0.0
  0
LINE
  5
920
330
1D
100
AcDbEntity
  8
0
100
AcDbLine
 10
31.6307
 20
88.620163022141
 30
0.0
 11
31.1
 21
88.112163022141
 31
0.0
  0
LINE
  5
921
330
1D
100
AcDbEntity
  8
0
100
AcDbLine
 10
32.0645
 20
89.160163022141
 30
0.0
 11
31.6307
 21
88.620163022141
 31
0.0
  0
LINE
  5
922
330
1D
100
AcDbEntity
  8
0
100
AcDbLine
 10
32.5801
 20
92.175163022141
 30
0.0
 11
31.9808
 21
92.691163022141
 31
0.0
  0
LINE
  5
923
330
1D
100
AcDbEntity
  8
0
100
AcDbLine
 10
31.9808
 20
92.691163022141
 30
0.0
 11
31.3008
 21
93.166163022141
 31
0.0
  0
LINE
  5
924
330
1D
100
AcDbEntity
  8
0
100
AcDbLine
 10
30.9345
 20
92.150163022141
 30
0.0
 11
30.3383
 21
92.577163022141
 31
0.0
  0
LINE
  5
925
330
1D
100
AcDbEntity
  8
0
100
AcDbLine
 10
30.3383
 20
92.577163022141
 30
0.0
 11
29.6713
 21
92.962163022141
 31
0.0
  0
LINE
  5
926
330
1D
100
AcDbEntity
  8
0
100
AcDbLine
 10
31.3008
 20
93.166163022141
 30
0.0
 11
30.5441
 21
93.597163022141
 31
0.0
  0
LINE
  5
927
330
1D
100
AcDbEntity
  8
0
100
AcDbLine
 10
30.5441
 20
93.597163022141
 30
0.0
 11
29.7188
 21
93.979163022141
 31
0.0
  0
LINE
  5
928
330
1D
100
AcDbEntity
  8
0
100
AcDbLine
 10
31.4551
 20
91.689163022141
 30
0.0
 11
30.9345
 21
92.150163022141
 31
0.0
  0
LINE
  5
929
330
1D
100
AcDbEntity
  8
0
100
AcDbLine
 10
31.8951
 20
91.198163022141
 30
0.0
 11
31.4551
 21
91.689163022141
 31
0.0
  0
LINE
  5
92A
330
1D
100
AcDbEntity
  8
0
100
AcDbLine
 10
32.2472
 20
90.681163022141
 30
0.0
 11
31.8951
 21
91.198163022141
 31
0.0
  0
LINE
  5
92B
330
1D
100
AcDbEntity
  8
0
100
AcDbLine
 10
32.5085
 20
90.144163022141
 30
0.0
 11
32.2472
 21
90.681163022141
 31
0.0
  0
LINE
  5
92C
330
1D
100
AcDbEntity
  8
0
100
AcDbLine
 10
32.677
 20
89.594163022141
 30
0.0
 11
32.5085
 21
90.144163022141
 31
0.0
  0
LINE
  5
92D
330
1D
100
AcDbEntity
  8
0
100
AcDbLine
 10
32.677
 20
89.594163022141
 30
0.0
 11
32.677
 21
88.184163022141
 31
0.0
  0
LINE
  5
92E
330
1D
100
AcDbEntity
  8
0
100
AcDbLine
 10
33.227
 20
96.930463022141
 30
0.0
 11
31.825
 21
97.731463022141
 31
0.0
  0
LINE
  5
92F
330
1D
100
AcDbEntity
  8
0
100
AcDbLine
 10
31.825
 20
97.731463022141
 30
0.0
 11
29.993
 21
98.475463022141
 31
0.0
  0
LINE
  5
930
330
1D
100
AcDbEntity
  8
0
100
AcDbLine
 10
39.327
 20
116.163463022141
 30
0.0
 11
37.348
 21
116.036463022141
 31
0.0
  0
LINE
  5
931
330
1D
100
AcDbEntity
  8
0
100
AcDbLine
 10
38.3551
 20
117.342263022141
 30
0.0
 11
36.4899
 21
117.141463022141
 31
0.0
  0
LINE
  5
932
330
1D
100
AcDbEntity
  8
0
100
AcDbLine
 10
43.187
 20
116.698463022141
 30
0.0
 11
42.216
 21
116.496463022141
 31
0.0
  0
LINE
  5
933
330
1D
100
AcDbEntity
  8
0
100
AcDbLine
 10
42.878
 20
118.164763022141
 30
0.0
 11
41.6711
 21
117.881663022141
 31
0.0
  0
LINE
  5
934
330
1D
100
AcDbEntity
  8
0
100
AcDbLine
 10
46.221
 20
118.120463022141
 30
0.0
 11
46.007
 21
118.440463022141
 31
0.0
  0
LINE
  5
935
330
1D
100
AcDbEntity
  8
0
100
AcDbLine
 10
44.3103
 20
118.058663022141
 30
0.0
 11
44.234045661272
 21
118.62615515922
 31
0.0
  0
LINE
  5
936
330
1D
100
AcDbEntity
  8
0
100
AcDbLine
 10
46.342
 20
117.736463022141
 30
0.0
 11
46.263
 21
117.991463022141
 31
0.0
  0
LINE
  5
937
330
1D
100
AcDbEntity
  8
0
100
AcDbLine
 10
46.383
 20
117.193463022141
 30
0.0
 11
46.342
 21
117.736463022141
 31
0.0
  0
LINE
  5
938
330
1D
100
AcDbEntity
  8
0
100
AcDbLine
 10
46.263
 20
117.991463022141
 30
0.0
 11
46.221
 21
118.120463022141
 31
0.0
  0
LINE
  5
939
330
1D
100
AcDbEntity
  8
0
100
AcDbLine
 10
44.543
 20
117.454463022141
 30
0.0
 11
44.367
 21
117.860463022141
 31
0.0
  0
LINE
  5
93A
330
1D
100
AcDbEntity
  8
0
100
AcDbLine
 10
44.543
 20
117.454463022141
 30
0.0
 11
44.42
 21
117.242463022141
 31
0.0
  0
LINE
  5
93B
330
1D
100
AcDbEntity
  8
0
100
AcDbLine
 10
44.42
 20
117.242463022141
 30
0.0
 11
44.147
 21
117.044463022141
 31
0.0
  0
LINE
  5
93C
330
1D
100
AcDbEntity
  8
0
100
AcDbLine
 10
44.147
 20
117.044463022141
 30
0.0
 11
43.187
 21
116.698463022141
 31
0.0
  0
LINE
  5
93D
330
1D
100
AcDbEntity
  8
0
100
AcDbLine
 10
44.348815828083
 20
117.19083494141
 30
0.0
 11
44.3103
 21
118.058663022141
 31
0.0
  0
LINE
  5
93E
330
1D
100
AcDbEntity
  8
0
100
AcDbLine
 10
44.367
 20
117.860463022141
 30
0.0
 11
44.317794400802
 21
117.889801237582
 31
0.0
  0
LINE
  5
93F
330
1D
100
AcDbEntity
  8
0
100
AcDbLine
 10
44.367
 20
117.860463022141
 30
0.0
 11
44.317794400802
 21
117.889801237582
 31
0.0
  0
LINE
  5
940
330
1D
100
AcDbEntity
  8
0
100
AcDbLine
 10
46.2263
 20
122.102463022141
 30
0.0
 11
46.1613
 21
121.314463022141
 31
0.0
  0
LINE
  5
941
330
1D
100
AcDbEntity
  8
0
100
AcDbLine
 10
45.836
 20
118.633463022141
 30
0.0
 11
45.521
 21
118.844463022141
 31
0.0
  0
LINE
  5
942
330
1D
100
AcDbEntity
  8
0
100
AcDbLine
 10
46.007
 20
118.440463022141
 30
0.0
 11
45.836
 21
118.633463022141
 31
0.0
  0
LINE
  5
943
330
1D
100
AcDbEntity
  8
0
100
AcDbLine
 10
45.521
 20
118.844463022141
 30
0.0
 11
45.175
 21
119.031463022141
 31
0.0
  0
LINE
  5
944
330
1D
100
AcDbEntity
  8
0
100
AcDbLine
 10
45.6747
 20
119.585463022141
 30
0.0
 11
45.2583
 21
119.178463022141
 31
0.0
  0
LINE
  5
945
330
1D
100
AcDbEntity
  8
0
100
AcDbLine
 10
46.0081
 20
120.133463022141
 30
0.0
 11
45.971
 21
119.944463022141
 31
0.0
  0
LINE
  5
946
330
1D
100
AcDbEntity
  8
0
100
AcDbLine
 10
45.971
 20
119.944463022141
 30
0.0
 11
45.8568
 21
119.765463022141
 31
0.0
  0
LINE
  5
947
330
1D
100
AcDbEntity
  8
0
100
AcDbLine
 10
45.8568
 20
119.765463022141
 30
0.0
 11
45.6747
 21
119.585463022141
 31
0.0
  0
LINE
  5
948
330
1D
100
AcDbEntity
  8
0
100
AcDbLine
 10
46.1613
 20
121.314463022141
 30
0.0
 11
46.0081
 21
120.133463022141
 31
0.0
  0
LINE
  5
949
330
1D
100
AcDbEntity
  8
0
100
AcDbLine
 10
45.175
 20
119.031463022141
 30
0.0
 11
45.070924196835
 21
119.065055806133
 31
0.0
  0
LINE
  5
94A
330
1D
100
AcDbEntity
  8
0
100
AcDbLine
 10
45.2583
 20
119.178463022141
 30
0.0
 11
44.5941
 21
118.776463022141
 31
0.0
  0
LINE
  5
94B
330
1D
100
AcDbEntity
  8
0
100
AcDbLine
 10
44.5941
 20
118.776463022141
 30
0.0
 11
43.8472
 21
118.464663022141
 31
0.0
  0
LINE
  5
94C
330
1D
100
AcDbEntity
  8
0
100
AcDbLine
 10
43.8472
 20
118.464663022141
 30
0.0
 11
42.878
 21
118.164763022141
 31
0.0
  0
LINE
  5
94D
330
1D
100
AcDbEntity
  8
0
100
AcDbLine
 10
42.216
 20
116.496463022141
 30
0.0
 11
41.024
 21
116.327463022141
 31
0.0
  0
LINE
  5
94E
330
1D
100
AcDbEntity
  8
0
100
AcDbLine
 10
41.6711
 20
117.881663022141
 30
0.0
 11
41.4632
 21
117.834163022141
 31
0.0
  0
LINE
  5
94F
330
1D
100
AcDbEntity
  8
0
100
AcDbLine
 10
41.4632
 20
117.834163022141
 30
0.0
 11
40.0216
 21
117.574463022141
 31
0.0
  0
LINE
  5
950
330
1D
100
AcDbEntity
  8
0
100
AcDbLine
 10
41.024
 20
116.327463022141
 30
0.0
 11
39.327
 21
116.163463022141
 31
0.0
  0
LINE
  5
951
330
1D
100
AcDbEntity
  8
0
100
AcDbLine
 10
40.0216
 20
117.574463022141
 30
0.0
 11
38.3551
 21
117.342263022141
 31
0.0
  0
LINE
  5
952
330
1D
100
AcDbEntity
  8
0
100
AcDbLine
 10
35.096
 20
115.940463022141
 30
0.0
 11
32.507
 21
115.869463022141
 31
0.0
  0
LINE
  5
953
330
1D
100
AcDbEntity
  8
0
100
AcDbLine
 10
37.348
 20
116.036463022141
 30
0.0
 11
35.096
 21
115.940463022141
 31
0.0
  0
LINE
  5
954
330
1D
100
AcDbEntity
  8
0
100
AcDbLine
 10
34.7405
 20
116.994663022141
 30
0.0
 11
32.8923
 21
116.873663022141
 31
0.0
  0
LINE
  5
955
330
1D
100
AcDbEntity
  8
0
100
AcDbLine
 10
36.4899
 20
117.141463022141
 30
0.0
 11
34.7405
 21
116.994663022141
 31
0.0
  0
LINE
  5
956
330
1D
100
AcDbEntity
  8
0
100
AcDbLine
 10
32.8923
 20
116.873663022141
 30
0.0
 11
30.9677
 21
116.778563022141
 31
0.0
  0
LINE
  5
957
330
1D
100
AcDbEntity
  8
0
100
AcDbLine
 10
26.2964
 20
94.057163022141
 30
0.0
 11
25.3127
 21
94.187163022141
 31
0.0
  0
LINE
  5
958
330
1D
100
AcDbEntity
  8
0
100
AcDbLine
 10
25.9201
 20
94.953163022141
 30
0.0
 11
24.893
 21
95.044163022141
 31
0.0
  0
LINE
  5
959
330
1D
100
AcDbEntity
  8
0
100
AcDbLine
 10
28.9419
 20
93.304163022141
 30
0.0
 11
28.1579
 21
93.597163022141
 31
0.0
  0
LINE
  5
95A
330
1D
100
AcDbEntity
  8
0
100
AcDbLine
 10
28.1579
 20
93.597163022141
 30
0.0
 11
27.2489
 21
93.860163022141
 31
0.0
  0
LINE
  5
95B
330
1D
100
AcDbEntity
  8
0
100
AcDbLine
 10
27.2489
 20
93.860163022141
 30
0.0
 11
26.2964
 21
94.057163022141
 31
0.0
  0
LINE
  5
95C
330
1D
100
AcDbEntity
  8
0
100
AcDbLine
 10
27.9007
 20
94.583163022141
 30
0.0
 11
26.925
 21
94.798163022141
 31
0.0
  0
LINE
  5
95D
330
1D
100
AcDbEntity
  8
0
100
AcDbLine
 10
26.925
 20
94.798163022141
 30
0.0
 11
25.9201
 21
94.953163022141
 31
0.0
  0
LINE
  5
95E
330
1D
100
AcDbEntity
  8
0
100
AcDbLine
 10
28.8349
 20
94.310163022141
 30
0.0
 11
27.9007
 21
94.583163022141
 31
0.0
  0
LINE
  5
95F
330
1D
100
AcDbEntity
  8
0
100
AcDbLine
 10
25.3127
 20
94.187163022141
 30
0.0
 11
24.3118
 21
94.249163022141
 31
0.0
  0
LINE
  5
960
330
1D
100
AcDbEntity
  8
0
100
AcDbLine
 10
24.893
 20
95.044163022141
 30
0.0
 11
23.9288
 21
95.069163022141
 31
0.0
  0
LINE
  5
961
330
1D
100
AcDbEntity
  8
0
100
AcDbLine
 10
24.3118
 20
94.249163022141
 30
0.0
 11
23.9288
 21
94.245163022141
 31
0.0
  0
LINE
  5
962
330
1D
100
AcDbEntity
  8
0
100
AcDbLine
 10
28.216
 20
98.959463022141
 30
0.0
 11
26.334
 21
99.270463022141
 31
0.0
  0
LINE
  5
963
330
1D
100
AcDbEntity
  8
0
100
AcDbLine
 10
26.334
 20
99.270463022141
 30
0.0
 11
24.0
 21
99.403463022141
 31
0.0
  0
LINE
  5
964
330
1D
100
AcDbEntity
  8
0
100
AcDbLine
 10
29.649
 20
115.820463022141
 30
0.0
 11
26.89
 21
115.794463022141
 31
0.0
  0
LINE
  5
965
330
1D
100
AcDbEntity
  8
0
100
AcDbLine
 10
28.8462
 20
116.704563022141
 30
0.0
 11
26.6842
 21
116.658663022141
 31
0.0
  0
LINE
  5
966
330
1D
100
AcDbEntity
  8
0
100
AcDbLine
 10
26.89
 20
115.794463022141
 30
0.0
 11
24.001
 21
115.785463022141
 31
0.0
  0
LINE
  5
967
330
1D
100
AcDbEntity
  8
0
100
AcDbLine
 10
26.6842
 20
116.658663022141
 30
0.0
 11
24.0
 21
116.639063022141
 31
0.0
  0
LINE
  5
968
330
1D
100
AcDbEntity
  8
0
100
AcDbLine
 10
30.2307
 20
164.982463022141
 30
0.0
 11
27.1222
 21
165.033463022141
 31
0.0
  0
LINE
  5
969
330
1D
100
AcDbEntity
  8
0
100
AcDbLine
 10
46.2439
 20
138.400463022141
 30
0.0
 11
46.228762147017
 21
140.229326888309
 31
0.0
  0
LINE
  5
96A
330
1D
100
AcDbEntity
  8
0
100
AcDbLine
 10
46.3209
 20
124.940463022141
 30
0.0
 11
46.2439
 21
138.400463022141
 31
0.0
  0
LINE
  5
96B
330
1D
100
AcDbEntity
  8
0
100
AcDbLine
 10
46.3209
 20
124.940463022141
 30
0.0
 11
46.3053
 21
123.744463022141
 31
0.0
  0
LINE
  5
96C
330
1D
100
AcDbEntity
  8
0
100
AcDbLine
 10
38.7849
 20
164.617463022141
 30
0.0
 11
37.752050231223
 21
164.676952617516
 31
0.0
  0
LINE
  5
96D
330
1D
100
AcDbEntity
  8
0
100
AcDbLine
 10
46.267
 20
155.637463022141
 30
0.0
 11
46.1104
 21
156.484463022141
 31
0.0
  0
LINE
  5
96E
330
1D
100
AcDbEntity
  8
0
100
AcDbLine
 10
46.200849688109
 20
155.967106589913
 30
0.0
 11
46.1104
 21
156.484463022141
 31
0.0
  0
LINE
  5
96F
330
1D
100
AcDbEntity
  8
0
100
AcDbLine
 10
46.2718
 20
155.610463022141
 30
0.0
 11
46.1104
 21
156.484463022141
 31
0.0
  0
LINE
  5
970
330
1D
100
AcDbEntity
  8
0
100
AcDbLine
 10
46.3316
 20
154.993463022141
 30
0.0
 11
46.3228
 21
155.258463022141
 31
0.0
  0
LINE
  5
971
330
1D
100
AcDbEntity
  8
0
100
AcDbLine
 10
46.3316
 20
154.993463022141
 30
0.0
 11
46.2397
 21
150.924463022141
 31
0.0
  0
LINE
  5
972
330
1D
100
AcDbEntity
  8
0
100
AcDbLine
 10
46.2397
 20
150.924463022141
 30
0.0
 11
46.228762147017
 21
140.229326888309
 31
0.0
  0
LINE
  5
973
330
1D
100
AcDbEntity
  8
0
100
AcDbLine
 10
46.3167
 20
155.304463022141
 30
0.0
 11
46.2718
 21
155.610463022141
 31
0.0
  0
LINE
  5
974
330
1D
100
AcDbEntity
  8
0
100
AcDbLine
 10
45.8533
 20
157.309463022141
 30
0.0
 11
45.3785
 21
158.925463022141
 31
0.0
  0
LINE
  5
975
330
1D
100
AcDbEntity
  8
0
100
AcDbLine
 10
46.1104
 20
156.484463022141
 30
0.0
 11
45.8533
 21
157.309463022141
 31
0.0
  0
LINE
  5
976
330
1D
100
AcDbEntity
  8
0
100
AcDbLine
 10
45.3785
 20
158.925463022141
 30
0.0
 11
45.1283
 21
159.913463022141
 31
0.0
  0
LINE
  5
977
330
1D
100
AcDbEntity
  8
0
100
AcDbLine
 10
44.0289
 20
162.858463022141
 30
0.0
 11
43.8476
 21
163.154463022141
 31
0.0
  0
LINE
  5
978
330
1D
100
AcDbEntity
  8
0
100
AcDbLine
 10
43.8476
 20
163.154463022141
 30
0.0
 11
43.6906
 21
163.338463022141
 31
0.0
  0
LINE
  5
979
330
1D
100
AcDbEntity
  8
0
100
AcDbLine
 10
44.1356
 20
162.650463022141
 30
0.0
 11
44.0289
 21
162.858463022141
 31
0.0
  0
LINE
  5
97A
330
1D
100
AcDbEntity
  8
0
100
AcDbLine
 10
43.6906
 20
163.338463022141
 30
0.0
 11
43.54
 21
163.487463022141
 31
0.0
  0
LINE
  5
97B
330
1D
100
AcDbEntity
  8
0
100
AcDbLine
 10
43.3374
 20
163.625463022141
 30
0.0
 11
42.9968
 21
163.842463022141
 31
0.0
  0
LINE
  5
97C
330
1D
100
AcDbEntity
  8
0
100
AcDbLine
 10
43.54
 20
163.487463022141
 30
0.0
 11
43.3374
 21
163.625463022141
 31
0.0
  0
LINE
  5
97D
330
1D
100
AcDbEntity
  8
0
100
AcDbLine
 10
44.5331
 20
161.735463022141
 30
0.0
 11
44.1356
 21
162.650463022141
 31
0.0
  0
LINE
  5
97E
330
1D
100
AcDbEntity
  8
0
100
AcDbLine
 10
42.1558
 20
164.135463022141
 30
0.0
 11
42.0591
 21
164.172463022141
 31
0.0
  0
LINE
  5
97F
330
1D
100
AcDbEntity
  8
0
100
AcDbLine
 10
42.4855
 20
164.043463022141
 30
0.0
 11
42.1558
 21
164.135463022141
 31
0.0
  0
LINE
  5
980
330
1D
100
AcDbEntity
  8
0
100
AcDbLine
 10
42.9968
 20
163.842463022141
 30
0.0
 11
42.4855
 21
164.043463022141
 31
0.0
  0
LINE
  5
981
330
1D
100
AcDbEntity
  8
0
100
AcDbLine
 10
44.8704
 20
160.757463022141
 30
0.0
 11
44.5331
 21
161.735463022141
 31
0.0
  0
LINE
  5
982
330
1D
100
AcDbEntity
  8
0
100
AcDbLine
 10
45.1283
 20
159.913463022141
 30
0.0
 11
44.8704
 21
160.757463022141
 31
0.0
  0
LINE
  5
983
330
1D
100
AcDbEntity
  8
0
100
AcDbLine
 10
42.0591
 20
164.172463022141
 30
0.0
 11
41.4596
 21
164.309463022141
 31
0.0
  0
LINE
  5
984
330
1D
100
AcDbEntity
  8
0
100
AcDbLine
 10
41.4596
 20
164.309463022141
 30
0.0
 11
40.7107
 21
164.430463022141
 31
0.0
  0
LINE
  5
985
330
1D
100
AcDbEntity
  8
0
100
AcDbLine
 10
40.7107
 20
164.430463022141
 30
0.0
 11
39.7752
 21
164.537463022141
 31
0.0
  0
LINE
  5
986
330
1D
100
AcDbEntity
  8
0
100
AcDbLine
 10
39.7752
 20
164.537463022141
 30
0.0
 11
38.7849
 21
164.617463022141
 31
0.0
  0
LINE
  5
987
330
1D
100
AcDbEntity
  8
0
100
AcDbLine
 10
37.752050231223
 20
164.676952617516
 30
0.0
 11
37.1008
 21
164.714463022141
 31
0.0
  0
LINE
  5
988
330
1D
100
AcDbEntity
  8
0
100
AcDbLine
 10
37.1008
 20
164.714463022141
 30
0.0
 11
36.0094
 21
164.774463022141
 31
0.0
  0
LINE
  5
989
330
1D
100
AcDbEntity
  8
0
100
AcDbLine
 10
37.752050231223
 20
164.676952617516
 30
0.0
 11
37.1008
 21
164.714463022141
 31
0.0
  0
LINE
  5
98A
330
1D
100
AcDbEntity
  8
0
100
AcDbLine
 10
34.822
 20
164.823463022141
 30
0.0
 11
33.6621
 21
164.877463022141
 31
0.0
  0
LINE
  5
98B
330
1D
100
AcDbEntity
  8
0
100
AcDbLine
 10
36.0094
 20
164.774463022141
 30
0.0
 11
34.822
 21
164.823463022141
 31
0.0
  0
LINE
  5
98C
330
1D
100
AcDbEntity
  8
0
100
AcDbLine
 10
33.6621
 20
164.877463022141
 30
0.0
 11
32.5769
 21
164.918463022141
 31
0.0
  0
LINE
  5
98D
330
1D
100
AcDbEntity
  8
0
100
AcDbLine
 10
32.5769
 20
164.918463022141
 30
0.0
 11
30.2307
 21
164.982463022141
 31
0.0
  0
LINE
  5
98E
330
1D
100
AcDbEntity
  8
0
100
AcDbLine
 10
25.3524
 20
123.396463022141
 30
0.0
 11
25.1172
 21
123.263463022141
 31
0.0
  0
LINE
  5
98F
330
1D
100
AcDbEntity
  8
0
100
AcDbLine
 10
25.51
 20
128.351463022141
 30
0.0
 11
25.2945
 21
128.492463022141
 31
0.0
  0
LINE
  5
990
330
1D
100
AcDbEntity
  8
0
100
AcDbLine
 10
26.6413
 20
126.547463022141
 30
0.0
 11
26.5629
 21
126.859463022141
 31
0.0
  0
LINE
  5
991
330
1D
100
AcDbEntity
  8
0
100
AcDbLine
 10
26.6998
 20
125.909463022141
 30
0.0
 11
26.687
 21
126.230463022141
 31
0.0
  0
LINE
  5
992
330
1D
100
AcDbEntity
  8
0
100
AcDbLine
 10
26.6998
 20
125.909463022141
 30
0.0
 11
26.6796
 21
125.589463022141
 31
0.0
  0
LINE
  5
993
330
1D
100
AcDbEntity
  8
0
100
AcDbLine
 10
26.687
 20
126.230463022141
 30
0.0
 11
26.6413
 21
126.547463022141
 31
0.0
  0
LINE
  5
994
330
1D
100
AcDbEntity
  8
0
100
AcDbLine
 10
26.6796
 20
125.589463022141
 30
0.0
 11
26.6264
 21
125.273463022141
 31
0.0
  0
LINE
  5
995
330
1D
100
AcDbEntity
  8
0
100
AcDbLine
 10
26.541
 20
124.953463022141
 30
0.0
 11
26.4555
 21
124.720463022141
 31
0.0
  0
LINE
  5
996
330
1D
100
AcDbEntity
  8
0
100
AcDbLine
 10
26.4555
 20
124.720463022141
 30
0.0
 11
26.3508
 21
124.494463022141
 31
0.0
  0
LINE
  5
997
330
1D
100
AcDbEntity
  8
0
100
AcDbLine
 10
26.3508
 20
124.494463022141
 30
0.0
 11
26.2274
 21
124.278463022141
 31
0.0
  0
LINE
  5
998
330
1D
100
AcDbEntity
  8
0
100
AcDbLine
 10
26.2274
 20
124.278463022141
 30
0.0
 11
26.0855
 21
124.072463022141
 31
0.0
  0
LINE
  5
999
330
1D
100
AcDbEntity
  8
0
100
AcDbLine
 10
26.0855
 20
124.072463022141
 30
0.0
 11
25.9322
 21
123.886463022141
 31
0.0
  0
LINE
  5
99A
330
1D
100
AcDbEntity
  8
0
100
AcDbLine
 10
25.9322
 20
123.886463022141
 30
0.0
 11
25.787376816676
 21
123.738212071164
 31
0.0
  0
LINE
  5
99B
330
1D
100
AcDbEntity
  8
0
100
AcDbLine
 10
26.6264
 20
125.273463022141
 30
0.0
 11
26.541
 21
124.953463022141
 31
0.0
  0
LINE
  5
99C
330
1D
100
AcDbEntity
  8
0
100
AcDbLine
 10
26.6264
 20
125.273463022141
 30
0.0
 11
26.579363168826
 21
125.103516429321
 31
0.0
  0
LINE
  5
99D
330
1D
100
AcDbEntity
  8
0
100
AcDbLine
 10
25.3524
 20
123.396463022141
 30
0.0
 11
25.787376816676
 21
123.738212071164
 31
0.0
  0
LINE
  5
99E
330
1D
100
AcDbEntity
  8
0
100
AcDbLine
 10
26.5629
 20
126.859463022141
 30
0.0
 11
26.4715
 21
127.114463022141
 31
0.0
  0
LINE
  5
99F
330
1D
100
AcDbEntity
  8
0
100
AcDbLine
 10
26.4715
 20
127.114463022141
 30
0.0
 11
26.3572
 21
127.361463022141
 31
0.0
  0
LINE
  5
9A0
330
1D
100
AcDbEntity
  8
0
100
AcDbLine
 10
26.0624
 20
127.819463022141
 30
0.0
 11
25.8953
 21
128.013463022141
 31
0.0
  0
LINE
  5
9A1
330
1D
100
AcDbEntity
  8
0
100
AcDbLine
 10
25.8953
 20
128.013463022141
 30
0.0
 11
25.7108
 21
128.191463022141
 31
0.0
  0
LINE
  5
9A2
330
1D
100
AcDbEntity
  8
0
100
AcDbLine
 10
25.7108
 20
128.191463022141
 30
0.0
 11
25.51
 21
128.351463022141
 31
0.0
  0
LINE
  5
9A3
330
1D
100
AcDbEntity
  8
0
100
AcDbLine
 10
26.2207
 20
127.596463022141
 30
0.0
 11
26.0624
 21
127.819463022141
 31
0.0
  0
LINE
  5
9A4
330
1D
100
AcDbEntity
  8
0
100
AcDbLine
 10
26.3572
 20
127.361463022141
 30
0.0
 11
26.2207
 21
127.596463022141
 31
0.0
  0
LINE
  5
9A5
330
1D
100
AcDbEntity
  8
0
100
AcDbLine
 10
25.1172
 20
123.263463022141
 30
0.0
 11
24.8684
 21
123.154463022141
 31
0.0
  0
LINE
  5
9A6
330
1D
100
AcDbEntity
  8
0
100
AcDbLine
 10
24.8684
 20
123.154463022141
 30
0.0
 11
24.6087
 21
123.073463022141
 31
0.0
  0
LINE
  5
9A7
330
1D
100
AcDbEntity
  8
0
100
AcDbLine
 10
24.6087
 20
123.073463022141
 30
0.0
 11
24.3412
 21
123.021463022141
 31
0.0
  0
LINE
  5
9A8
330
1D
100
AcDbEntity
  8
0
100
AcDbLine
 10
24.3412
 20
123.021463022141
 30
0.0
 11
24.1136
 21
122.999463022141
 31
0.0
  0
LINE
  5
9AA
330
1D
100
AcDbEntity
  8
0
100
AcDbLine
 10
25.2945
 20
128.492463022141
 30
0.0
 11
25.0564
 21
128.616463022141
 31
0.0
  0
LINE
  5
9AB
330
1D
100
AcDbEntity
  8
0
100
AcDbLine
 10
25.0564
 20
128.616463022141
 30
0.0
 11
24.8064
 21
128.715463022141
 31
0.0
  0
LINE
  5
9AC
330
1D
100
AcDbEntity
  8
0
100
AcDbLine
 10
24.8064
 20
128.715463022141
 30
0.0
 11
24.547
 21
128.788463022141
 31
0.0
  0
LINE
  5
9AD
330
1D
100
AcDbEntity
  8
0
100
AcDbLine
 10
24.547
 20
128.788463022141
 30
0.0
 11
24.2812
 21
128.832463022141
 31
0.0
  0
LINE
  5
9AE
330
1D
100
AcDbEntity
  8
0
100
AcDbLine
 10
24.2812
 20
128.832463022141
 30
0.0
 11
24.049
 21
128.847463022141
 31
0.0
  0
LINE
  5
9AF
330
1D
100
AcDbEntity
  8
0
100
AcDbLine
 10
27.1222
 20
165.033463022141
 30
0.0
 11
26.3766
 21
165.045463022141
 31
0.0
  0
LINE
  5
9B0
330
1D
100
AcDbEntity
  8
0
100
AcDbLine
 10
26.3766
 20
165.045463022141
 30
0.0
 11
24.0
 21
165.065463022141
 31
0.0
  0
ENDSEC
  0
SECTION
  2
OBJECTS
  0
DICTIONARY
  5
C
330
0
100
AcDbDictionary
281
     1
  3
ACAD_GROUP
350
D
  3
ACAD_LAYOUT
350
1A
  3
ACAD_MLEADERSTYLE
350
9B3
  3
ACAD_MLINESTYLE
350
17
  3
ACAD_PLOTSETTINGS
350
19
  3
ACAD_PLOTSTYLENAME
350
E
  3
ACAD_SCALELIST
350
25A
  3
AcDbVariableDictionary
350
9B1
  3
DWGPROPS
350
9B8
  0
DICTIONARY
  5
D
102
{ACAD_REACTORS
330
C
102
}
330
C
100
AcDbDictionary
281
     1
  0
DICTIONARY
  5
1A
102
{ACAD_REACTORS
330
C
102
}
330
C
100
AcDbDictionary
281
     1
  3
Layout1
350
1C
  3
Model
350
1E
  0
DICTIONARY
  5
9B3
102
{ACAD_REACTORS
330
C
102
}
330
C
100
AcDbDictionary
281
     1
  0
DICTIONARY
  5
17
102
{ACAD_REACTORS
330
C
102
}
330
C
100
AcDbDictionary
281
     1
  3
Standard
350
18
  0
DICTIONARY
  5
19
102
{ACAD_REACTORS
330
C
102
}
330
C
100
AcDbDictionary
281
     1
  0
ACDBDICTIONARYWDFLT
  5
E
102
{ACAD_REACTORS
330
C
102
}
330
C
100
AcDbDictionary
281
     1
  3
Normal
350
F
100
AcDbDictionaryWithDefault
340
F
  0
DICTIONARY
  5
25A
102
{ACAD_REACTORS
330
C
102
}
330
C
100
AcDbDictionary
281
     1
  3
A0
350
25B
  3
A1
350
25C
  3
A2
350
25D
  3
A3
350
25E
  3
A4
350
25F
  3
A5
350
260
  3
A6
350
261
  3
A7
350
262
  3
A8
350
263
  3
A9
350
264
  3
B0
350
265
  3
B1
350
266
  3
B2
350
267
  3
B3
350
268
  3
B4
350
269
  3
B5
350
26A
  3
B6
350
26B
  3
B7
350
26C
  3
B8
350
26D
  3
B9
350
26E
  3
C0
350
26F
  3
C1
350
270
  3
C2
350
271
  3
C3
350
272
  3
C4
350
273
  3
C5
350
274
  3
C6
350
275
  3
C7
350
276
  3
C8
350
277
  3
C9
350
278
  3
D0
350
279
  3
D1
350
27A
  3
D2
350
27B
  0
DICTIONARY
  5
9B1
102
{ACAD_REACTORS
330
C
102
}
330
C
100
AcDbDictionary
281
     1
  3
CANNOSCALE
350
9B4
  0
XRECORD
  5
9B8
102
{ACAD_REACTORS
330
C
102
}
330
C
100
AcDbXrecord
280
     1
  1
DWGPROPS COOKIE
  2

  3

  4

  6

  7

  8
MARTIN
  9

300
=
301
=
302
=
303
=
304
=
305
=
306
=
307
=
308
=
309
=
 40
0.0
 41
2456645.875000359
 42
2456645.879903426
  1

 90
        0
  0
LAYOUT
  5
1C
102
{ACAD_REACTORS
330
1A
102
}
330
1A
100
AcDbPlotSettings
  1

  2
none_device
  4

  6

 40
0.0
 41
0.0
 42
0.0
 43
0.0
 44
0.0
 45
0.0
 46
0.0
 47
0.0
 48
0.0
 49
0.0
140
0.0
141
0.0
142
1.0
143
1.0
 70
   688
 72
     0
 73
     0
 74
     5
  7

 75
    16
147
1.0
148
0.0
149
0.0
100
AcDbLayout
  1
Layout1
 70
     1
 71
     1
 10
0.0
 20
0.0
 11
12.0
 21
9.0
 12
0.0
 22
0.0
 32
0.0
 14
1.000000000000E+20
 24
1.000000000000E+20
 34
1.000000000000E+20
 15
-1.000000000000E+20
 25
-1.000000000000E+20
 35
-1.000000000000E+20
146
0.0
 13
0.0
 23
0.0
 33
0.0
 16
1.0
 26
0.0
 36
0.0
 17
0.0
 27
1.0
 37
0.0
 76
     0
330
1B
  0
LAYOUT
  5
1E
102
{ACAD_REACTORS
330
1A
102
}
330
1A
100
AcDbPlotSettings
  1

  2
none_device
  4

  6

 40
0.0
 41
0.0
 42
0.0
 43
0.0
 44
0.0
 45
0.0
 46
0.0
 47
0.0
 48
0.0
 49
0.0
140
0.0
141
0.0
142
1.0
143
1.0
 70
  1712
 72
     0
 73
     0
 74
     0
  7

 75
     0
147
1.0
148
0.0
149
0.0
100
AcDbLayout
  1
Model
 70
     1
 71
     0
 10
0.0
 20
0.0
 11
12.0
 21
9.0
 12
0.0
 22
0.0
 32
0.0
 14
-0.0298
 24
-0.2356105
 34
0.0
 15
48.0205
 25
165.065463022141
 35
0.0
146
0.0
 13
0.0
 23
0.0
 33
0.0
 16
1.0
 26
0.0
 36
0.0
 17
0.0
 27
1.0
 37
0.0
 76
     0
330
1D
331
255
  0
MLINESTYLE
  5
18
102
{ACAD_REACTORS
330
17
102
}
330
17
100
AcDbMlineStyle
  2
Standard
 70
     0
  3

 62
   256
 51
90.0
 52
90.0
 71
     2
 49
0.5
 62
   256
  6
BYLAYER
 49
-0.5
 62
   256
  6
BYLAYER
  0
ACDBPLACEHOLDER
  5
F
102
{ACAD_REACTORS
330
E
102
}
330
E
  0
SCALE
  5
25B
102
{ACAD_REACTORS
330
25A
102
}
330
25A
100
AcDbScale
 70
     0
300
1:1
140
1.0
141
1.0
290
     1
  0
SCALE
  5
25C
102
{ACAD_REACTORS
330
25A
102
}
330
25A
100
AcDbScale
 70
     0
300
1:2
140
1.0
141
2.0
290
     0
  0
SCALE
  5
25D
102
{ACAD_REACTORS
330
25A
102
}
330
25A
100
AcDbScale
 70
     0
300
1:4
140
1.0
141
4.0
290
     0
  0
SCALE
  5
25E
102
{ACAD_REACTORS
330
25A
102
}
330
25A
100
AcDbScale
 70
     0
300
1:5
140
1.0
141
5.0
290
     0
  0
SCALE
  5
25F
102
{ACAD_REACTORS
330
25A
102
}
330
25A
100
AcDbScale
 70
     0
300
1:8
140
1.0
141
8.0
290
     0
  0
SCALE
  5
260
102
{ACAD_REACTORS
330
25A
102
}
330
25A
100
AcDbScale
 70
     0
300
1:10
140
1.0
141
10.0
290
     0
  0
SCALE
  5
261
102
{ACAD_REACTORS
330
25A
102
}
330
25A
100
AcDbScale
 70
     0
300
1:16
140
1.0
141
16.0
290
     0
  0
SCALE
  5
262
102
{ACAD_REACTORS
330
25A
102
}
330
25A
100
AcDbScale
 70
     0
300
1:20
140
1.0
141
20.0
290
     0
  0
SCALE
  5
263
102
{ACAD_REACTORS
330
25A
102
}
330
25A
100
AcDbScale
 70
     0
300
1:30
140
1.0
141
30.0
290
     0
  0
SCALE
  5
264
102
{ACAD_REACTORS
330
25A
102
}
330
25A
100
AcDbScale
 70
     0
300
1:40
140
1.0
141
40.0
290
     0
  0
SCALE
  5
265
102
{ACAD_REACTORS
330
25A
102
}
330
25A
100
AcDbScale
 70
     0
300
1:50
140
1.0
141
50.0
290
     0
  0
SCALE
  5
266
102
{ACAD_REACTORS
330
25A
102
}
330
25A
100
AcDbScale
 70
     0
300
1:100
140
1.0
141
100.0
290
     0
  0
SCALE
  5
267
102
{ACAD_REACTORS
330
25A
102
}
330
25A
100
AcDbScale
 70
     0
300
2:1
140
2.0
141
1.0
290
     0
  0
SCALE
  5
268
102
{ACAD_REACTORS
330
25A
102
}
330
25A
100
AcDbScale
 70
     0
300
4:1
140
4.0
141
1.0
290
     0
  0
SCALE
  5
269
102
{ACAD_REACTORS
330
25A
102
}
330
25A
100
AcDbScale
 70
     0
300
8:1
140
8.0
141
1.0
290
     0
  0
SCALE
  5
26A
102
{ACAD_REACTORS
330
25A
102
}
330
25A
100
AcDbScale
 70
     0
300
10:1
140
10.0
141
1.0
290
     0
  0
SCALE
  5
26B
102
{ACAD_REACTORS
330
25A
102
}
330
25A
100
AcDbScale
 70
     0
300
100:1
140
100.0
141
1.0
290
     0
  0
SCALE
  5
26C
102
{ACAD_REACTORS
330
25A
102
}
330
25A
100
AcDbScale
 70
     0
300
1/128" = 1'-0"
140
0.0078125
141
12.0
290
     0
  0
SCALE
  5
26D
102
{ACAD_REACTORS
330
25A
102
}
330
25A
100
AcDbScale
 70
     0
300
1/64" = 1'-0"
140
0.015625
141
12.0
290
     0
  0
SCALE
  5
26E
102
{ACAD_REACTORS
330
25A
102
}
330
25A
100
AcDbScale
 70
     0
300
1/32" = 1'-0"
140
0.03125
141
12.0
290
     0
  0
SCALE
  5
26F
102
{ACAD_REACTORS
330
25A
102
}
330
25A
100
AcDbScale
 70
     0
300
1/16" = 1'-0"
140
0.0625
141
12.0
290
     0
  0
SCALE
  5
270
102
{ACAD_REACTORS
330
25A
102
}
330
25A
100
AcDbScale
 70
     0
300
3/32" = 1'-0"
140
0.09375
141
12.0
290
     0
  0
SCALE
  5
271
102
{ACAD_REACTORS
330
25A
102
}
330
25A
100
AcDbScale
 70
     0
300
1/8" = 1'-0"
140
0.125
141
12.0
290
     0
  0
SCALE
  5
272
102
{ACAD_REACTORS
330
25A
102
}
330
25A
100
AcDbScale
 70
     0
300
3/16" = 1'-0"
140
0.1875
141
12.0
290
     0
  0
SCALE
  5
273
102
{ACAD_REACTORS
330
25A
102
}
330
25A
100
AcDbScale
 70
     0
300
1/4" = 1'-0"
140
0.25
141
12.0
290
     0
  0
SCALE
  5
274
102
{ACAD_REACTORS
330
25A
102
}
330
25A
100
AcDbScale
 70
     0
300
3/8" = 1'-0"
140
0.375
141
12.0
290
     0
  0
SCALE
  5
275
102
{ACAD_REACTORS
330
25A
102
}
330
25A
100
AcDbScale
 70
     0
300
1/2" = 1'-0"
140
0.5
141
12.0
290
     0
  0
SCALE
  5
276
102
{ACAD_REACTORS
330
25A
102
}
330
25A
100
AcDbScale
 70
     0
300
3/4" = 1'-0"
140
0.75
141
12.0
290
     0
  0
SCALE
  5
277
102
{ACAD_REACTORS
330
25A
102
}
330
25A
100
AcDbScale
 70
     0
300
1" = 1'-0"
140
1.0
141
12.0
290
     0
  0
SCALE
  5
278
102
{ACAD_REACTORS
330
25A
102
}
330
25A
100
AcDbScale
 70
     0
300
1-1/2" = 1'-0"
140
1.5
141
12.0
290
     0
  0
SCALE
  5
279
102
{ACAD_REACTORS
330
25A
102
}
330
25A
100
AcDbScale
 70
     0
300
3" = 1'-0"
140
3.0
141
12.0
290
     0
  0
SCALE
  5
27A
102
{ACAD_REACTORS
330
25A
102
}
330
25A
100
AcDbScale
 70
     0
300
6" = 1'-0"
140
6.0
141
12.0
290
     0
  0
SCALE
  5
27B
102
{ACAD_REACTORS
330
25A
102
}
330
25A
100
AcDbScale
 70
     0
300
1'-0" = 1'-0"
140
12.0
141
12.0
290
     0
  0
DICTIONARYVAR
  5
9B4
102
{ACAD_REACTORS
330
9B1
102
}
330
9B1
100
DictionaryVariables
280
     0
  1
1:1
  0
ENDSEC
  0
SECTION
  2
THUMBNAILIMAGE
 90
    16364
310
28000000B40000005500000001000800000000000000000000000000000000000000000000000000FFFFFF000000FF0000FFFF0000FF0000FFFF0000FF000000FF00FF000000000080808000C0C0C0000000FF007F7FFF000000A5005252A50000007F003F3F7F0000004C0026264C000000260013132600003FFF007F9FFF
310
000029A5005267A500001F7F003F4F7F0000134C00262F4C000009260013172600007FFF007FBFFF000052A500527CA500003F7F003F5F7F0000264C0026394C0000132600131C260000BFFF007FDFFF00007CA5005291A500005F7F003F6F7F0000394C0026424C00001C26001321260000FFFF007FFFFF0000A5A50052A5
310
A500007F7F003F7F7F00004C4C00264C4C00002626001326260000FFBF007FFFDF0000A57C0052A59100007F5F003F7F6F00004C3900264C420000261C001326210000FF7F007FFFBF0000A5520052A57C00007F3F003F7F5F00004C2600264C39000026130013261C0000FF3F007FFF9F0000A5290052A56700007F1F003F
310
7F4F00004C1300264C2F00002609001326170000FF00007FFF7F0000A5000052A55200007F00003F7F3F00004C0000264C260000260000132613003FFF00009FFF7F0029A5000067A552001F7F00004F7F3F00134C00002F4C260009260000172613007FFF0000BFFF7F0052A500007CA552003F7F00005F7F3F00264C0000
310
394C2600132600001C261300BFFF0000DFFF7F007CA5000091A552005F7F00006F7F3F00394C0000424C26001C26000021261300FFFF0000FFFF7F00A5A50000A5A552007F7F00007F7F3F004C4C00004C4C26002626000026261300FFBF0000FFDF7F00A57C0000A59152007F5F00007F6F3F004C3900004C422600261C00
310
0026211300FF7F0000FFBF7F00A5520000A57C52007F3F00007F5F3F004C2600004C39260026130000261C1300FF3F0000FF9F7F00A5290000A56752007F1F00007F4F3F004C1300004C2F26002609000026171300FF000000FF7F7F00A5000000A55252007F0000007F3F3F004C0000004C2626002600000026131300FF00
310
3F00FF7F9F00A5002900A55267007F001F007F3F4F004C0013004C262F002600090026131700FF007F00FF7FBF00A5005200A5527C007F003F007F3F5F004C0026004C2639002600130026131C00FF00BF00FF7FDF00A5007C00A55291007F005F007F3F6F004C0039004C26420026001C0026132100FF00FF00FF7FFF00A5
310
00A500A552A5007F007F007F3F7F004C004C004C264C002600260026132600BF00FF00DF7FFF007C00A5009152A5005F007F006F3F7F0039004C0042264C001C002600211326007F00FF00BF7FFF005200A5007C52A5003F007F005F3F7F0026004C0039264C00130026001C1326003F00FF009F7FFF002900A5006752A500
310
1F007F004F3F7F0013004C002F264C000900260017132600000000002D2D2D005B5B5B0089898900B7B7B700B3B3B30000000000000000000000000000000000000000000000000000000000000000000000000000000000000000000000000000000000000000000000000000000000000000000000000000000000000007
310
07070707070707070707070707070707070707070707070700000000000000000000000000000000000000000000000000000000000000000000000000000000000000000000000000000000000000000000000000000000000000000000000000000000000000000000000000000000000000000000000000000000000000
310
00000000000000000000000000000000000000000000000000000000000000000000000000000000000000000000000000000000070000000000000000000000000000000000000000000000070000000000000000000000000000000000000000000000000000000000000000000000000000000000000000000000000000
310
00000000000000000000000000000000000000000000000000000000000000000000000000000000000000000000000000000000000000000000000000000000000000000000000000000000000000000000000000000000000000000000000000000000000000000007000000000000000000000000000000000000000000
310
00000700000000000000000000000000000000000000000000000000000000000000000000000000000000000000000000000000000000000000000000000000000000000000000000000000000000000000000000000000000000000000000000000000000000000000000000000000000000000000000000000000000000
310
00000000000000000000000000000000000000000000000000000000000000070000000000000000000000000000000000000000000000070000000000000000000000000000000000000000000000000000000000000000000000000000000000000000000000000000000000000000000000000000000000000000000000
310
00000000000000000000000000000000000000000000000000000000000000000000000000000000000000000000000000000000000000000000000000000000000000000000000000000000000000000000000007000000000000000000000000000000000000000000000007000000000000000000000000000000000000
310
00000000000000000000000000000000000000000000000000000000000000000000000000000000000000000000000000000000000000000000000000000000000000000000000000000000000000000000000000000000000000000000000000000000000000000000000000000000000000000000000000000000000000
310
00000000000000000000070000000000000000000000000000000000000000000000070000000000000000000000000000000000000000000000000000000000000000000000000000000000000000000000000000000000000000000000000000000000000000000000000000000000000000000000000000000000000000
310
00000000000000000000000000000000000000000000000000000000000000000000000000000000000000000000000000000000000000000000000000000007000000000000000000000000000000000000000000000007000000000000000000000000000000000000000000000000000000000000000000000000000000
310
00000000000000000000000000000000000000000000000000000000000000000000000000000000000000000000000000000000000000000000000000000000000000000000000000000000000000000000000000000000000000000000000000000000000000000000000000000000000000000700000000000000000000
310
00000000000000000000000000070000000000000000000000000000000000000000000000000000000000000000000000000000000000000000000000000000000000000000000000000000000000000000000000000000000000000000000000000000000000000000000000000000000000000000000000000000000000
310
00000000000000000000000000000000000000000000000000000000000000000000000000000000000007000000000000000000000000000000000000000000000007000000000000000000000000000000000000000000000000000000000000000000000000000000000000000000000000000000000000000000000000
310
00000000000000000000000000000000000000000000000000000000000000000000000000000000000000000000000000000000000000000000000000000000000000000000000000000000000000000000000000000000000000000000000700000000000000000000000000000000000000000000000700000000000000
310
00000000000000000000000000000000000000000000000000000000000000000000000000000000000000000000000000000000000000000000000000000000000000000000000000000000000000000000000000000000000000000000000000000000000000000000000000000000000000000000000000000000000000
310
00000000000000000000000000000000000000000007000000000000000000000000000000000000000000000007000000000000000000000000000000000000000000000000000000000000000000000000000000000000000000000000000000000000000000000000000000000000000000000000000000000000000000
310
00000000000000000000000000000000000000000000000000000000000000000000000000000000000000000000000000000000000000000000000000000000000000000000000000000700000000000000000000000000000000000000000000000700000000000000000000000000000000000000000000000000000000
310
00000000000000000000000000000000000000000000000000000000000000000000000000000000000000000000000000000000000000000000000000000000000000000000000000000000000000000000000000000000000000000000000000000000000000000000000000000000000000000000000000000000000000
310
07000000000000000000000000000000000000000000000007000000000000000000000000000000000000000000000000000000000000000000000000000000000000000000000000000000000000000000000000000000000000000000000000000000000000000000000000000000000000000000000000000000000000
310
00000000000000000000000000000000000000000000000000000000000000000000000000000000000000000000000000000000000700000000000000000000000000000000000000000000000700000000000000000000000000000000000000000000000000000000000000000000000000000000000000000000000000
310
00000000000000000000000000000000000000000000000000000000000000000000000000000000000000000000000000000000000000000000000000000000000000000000000000000000000000000000000000000000000000000000000000000000000000000000070000000000000000000000000000000000000000
310
00000007000000000000000000000000000000000000000000000000000000000000000000000000000000000000000000000000000000000000000000000000000000000000000000000000000000000000000000000000000000000000000000000000000000000000000000000000000000000000000000000000000000
310
00000000000000000000000000000000000000000000000000000000000000000700000000000000000000000000000000000000000000000700000000000000000000000000000000000000000000000000000000000000000000000000000000000000000000000000000000000000000000000000000000000000000000
310
00000000000000000000000000000000000000000000000000000000000000000000000000000000000000000000000000000000000000000000000000000000000000000000000000000000000000000000000000070000000000000000000000000000000000000000000000070000000000000000000000000000000000
310
00000000000000000000000000000000000000000000000000000000000000000000000000000000000000000000000000000000000000000000000000000000000000000000000000000000000000000000000000000000000000000000000000000000000000000000000000000000000000000000000000000000000000
310
00000000000000000000000700000000000000000000000000000000000000000000000700000000000000000000000000000000000000000000000000000000000000000000000000000000000000000000000000000000000000000000000000000000000000000000000000000000000000000000000000000000000000
310
00000000000000000000000000000000000000000000000000000000000000000000000000000000000000000000000000000000000000000000000000000000070000000000000000000000000000000000000000000000070000000000000000000000000000000000000000000000000000000000000000000000000000
310
00000000000000000000000000000000000000000000000000000000000000000000000000000000000000000000000000000000000000000000000000000000000000000000000000000000000000000000000000000000000000000000000000000000000000000000000000000000000000000007000000000000000000
310
00000000000000000000000000000700000000000000000000000000000000000000000000000000000000000000000000000000000000000000000000000000000000000000000000000000000000000000000000000000000000000000000000000000000000000000000000000000000000000000000000000000000000
310
00000000000000000000000000000000000000000000000000000000000000000000000000000000000000000700000000000000000000000000000000000000000007000000000000000000000000000000000000000000000000000000000000000000000000000000000000000000000000000000000000000000000000
310
00000000000000000000000000000000000000000000000000000000000000000000000000000000000000000000000000000000000000000000000000000000000000000000000000000000000000000000000000000000000000000000000000070000000000000000000000000000000000000000000700000000000000
310
00000000000000000000000000000000000000000000000000000000000000000000000000000000000000000000000000000000000000000000000000000000000000000000000000000000000000000000000000000000000000000000000000000000000000000000000000000000000000000000000000000000000000
310
00000000000000000000000000000000000000000000000700000000000000000000000000000000000000000007000000000000000000000000000000000000000000000000000000000000000000000000000000000000000000000000000000000000000000000000000000000000000000000000000000000000000000
310
00000000000000000000000000000000000000000000000000000000000000000000000000000000000000000000000000000000000000000000000000000000000000000000000000000000070000000000000000000000000000000000000000000700000000000000000000000000000000000000000000000000000000
310
00000000000000000000000000000000000000000000000000000000000000000000000000000000000000000000000000000000000000000000000000000000000000000000000000000000000000000000000000000000000000000000000000000000000000000000000000000000000000000000000000000000000000
310
00000700000000000000000000000000000000000000000007000000000000000000000000000000000000000000000000000000000000000000000000000000000000000000000000000000000000000000000000000000000000000000000000000000000000000000000000000000000000000000000000000000000000
310
00000000000000000000000000000000000000000000000000000000000000000000000000000000000000000000000000000000000000070000000000000000000000000000000000000000000700000000000000000000000000000000000000000000000000000000000000000000000000000000000000000000000000
310
00000000000000000000000000000000000000000000000000000000000000000000000000000000000000000000000000000000000000000000000000000000000000000000000000000000000000000000000000000000000000000000000000000000000000000000000007000000000000000000000000000000000000
310
00000007000000000000000000000000000000000000000000000000000000000000000000000000000000000000000000000000000000000000000000000000000000000000000000000000000000000000000000000000000000000000000000000000000000000000000000000000000000000000000000000000000000
310
00000000000000000000000000000000000000000000000000000000000000000000070000000000000000000000000000000000000000000700000000000000000000000000000000000000000000000000000000000000000000000000000000000000000000000000000000000000000000000000000000000000000000
310
00000000000000000000000000000000000000000000000000000000000000000000000000000000000000000000000000000000000000000000000000000000000000000000000000000000000000000000000000000007000000000000000000000000000000000000000000070000000000000000000000000000000000
310
00000000000000000000000000000000000000000000000000000000000000000000000000000000000000000000000000000000000000000000000000000000000000000000000000000000000000000000000000000000000000000000000000000000000000000000000000000000000000000000000000000000000000
310
00000000000000000000000000070000000000000000000000000000000000000000000700000000000000000000000000000000000000000000000000000000000000000000000000000000000000000000000000000000000000000000000000000000000000000000000000000000000000000000000000000000000000
310
00000000000000000000000000000000000000000000000000000000000000000000000000000000000000000000000000000000000000000000000000000000000007000000000000000000000000000000000000000000070000000000000000000000000000000000000000000000000000000000000000000000000000
310
00000000000000000000000000000000000000000000000000000000000000000000000000000000000000000000000000000000000000000000000000000000000000000000000000000000000000000000000000000000000000000000000000000000000000000000000000000000000000000000000700000000000000
310
00000000000000000000000000000700000000000000000000000000000000000000000000000000000000000000000000000000000000000000000000000000000000000000000000000000000000000000000000000000000000000000000000000000000000000000000000000000000000000000000000000000000000
310
00000000000000000000000000000000000000000000000000000000000000000000000000000000000000000007000000000000000000000000000000000000000000070000000000000000000000000000000000000000000000000000000000000000000000000000000000000000000000000000000000000000000000
310
00000000000000000000000000000000000000000000000000000000000000000000000000000000000000000000000000000000000000000000000000000000000000000000000000000000000000000000000000000000000000000000000000000700000000000000000000000000000000000000000007000000000000
310
00000000000000000000000000000000000000000000000000000000000000000000000000000000000000000000000000000000000000000000000000000000000000000000000000000000000000000000000000000000000000000000000000000000000000000000000000000000000000000000000000000000000000
310
00000000000000000000000000000000000000000000000007000000000000000000000000000000000000000000070000000000000000000000000000000000000000000000000000000000000000000000000000000000000000000000000000000000000000000000000000000000000000000000000000000000000000
310
00000000000000000000000000000000000000000000000000000000000000000000000000000000000000000000000000000000000000000000000000000000000000000000000000000000000700000000000000000000000000000000000000000007000000000000000000000000000000000000000000000000000000
310
00000000000000000000000000000000000000000000000000000000000000000000000000000000000000000000000000000000000000000000000000000000000000000000000000000000000000000000000000000000000000000000000000000000000000000000000000000000000000000000000000000000000000
310
00000007000000000000000000000000000000000000000000070000000000000000000000000000000000000000000000000000000000000000000000000000000000000000000000000000000000000000000000000000000000000000000000000000000000000000000000000000000000000000000000000000000000
310
00000000000000000000000000000000000000000000000000000000000000000000000000000000000000000000000000000000000000000700000000000000000000000000000000000000000007000000000000000000000000000000000000000000000000000000000000000000000000000000000000000000000000
310
00000000000000000000000000000000000000000000000000000000000000000000000000000000000000000000000000000000000000000000000000000000000000000000000000000000000000000000000000000000000000000000000000000000000000000000000000070000000000000000000000000000000000
310
00000000070000000000000000000000000000000000000000000000000000000000000000000000000000000000000000000000000000000000000000000000000000000000000000000000000000000000000000000000000000000000000000000000000000000000000000000000000000000000000000000000000000
310
00000000000000000000000000000000000000000000000000000000000000000000000700000000000000000000000000000000000000000007000000000000000000000000000000000000000000000000000000000000000000000000000000000000000000000000000000000000000000000000000000000000000000
310
00000000000000000000000000000000000000000000000000000000000000000000000000000000000000000000000000000000000000000000000000000000000000000000000000000000000000000000000000000000070000000000000000000000000000000000000000000700000000000000000000000000000000
310
00000000000000000000000000000000000000000000000000000000000000000000000000000000000000000000000000000000000000000000000000000000000000000000000000000000000000000000000000000000000000000000000000000000000000000000000000000000000000000000000000000000000000
310
00000000000000000000000000000700000000000000000707070707000000000000000007000000000000000000000000000000000000000000000000000000000000000000000000000000000000000000000000000000000000000000000000000000000000000000000000000000000000000000000000000000000000
310
00000000000000000000000000000000000000000000000000000000000000000000000000000000000000000000000000000000000000000000000000000000000000070000000000070707070707070707070700000000000700000000000000000000000000000000000000000000000000000000000000000000000000
310
00000000000000000000000000000000000000000000000000000000000000000000000000000000000000000000000000000000000000000000000000000000000000000000000000000000000000000000000000000000000000000000000000000000000000000000000000000000000000000000000007000000000707
310
07070707070707070707070000000007000000000000000000000000000000000000000000000000000000000000000000000000000000000000000000000000000000000000000000000000000000000000000000000000000000000000000000000000000000000000000000000000000000000000000000000000000000
310
00000000000000000000000000000000000000000000000000000000000000000000000000000000000000000000070000000707070707070000000707070707070000000700000000000000000000000000000000000000000000000000000000000000000000000000000000000000000000000000000000000000000000
310
00000000000000000000000000000000000000000000000000000000000000000000000000000000000000000000000000000000000000000000000000000000000000000000000000000000000000000000000000000000000000000000000000000007000007070707070000000000000007070707070000070000000000
310
00000000000000000000000000000000000000000000000000000000000000000000000000000000000000000000000000000000000000000000000000000000000000000000000000000000000000000000000000000000000000000000000000000000000000000000000000000000000000000000000000000000000000
310
00000000000000000000000000000000000000000000000000070007000007070707000000000007070707000007000700000000000000000000000000000000000000000000000000000000000000000000000000000000000000000000000000000000000000000000000000000000000000000000000000000000000000
310
00000000000000000000000000000000000000000000000000000000000000000000000000000000000000000000000000000000000000000000000000000000000000000000000000000000000007070000000700070707070707070707000700000700070000000000000000000000000000000000000000000000000000
310
00000000000000000000000000000000000000000000000000000000000000000000000000000000000000000000000000000000000000000000000000000000000000000000000000000000000000000000000000000000000000000000000000000000000000000000000000000000000000000000000000000000000000
310
00000000070700000007070000070707070700000707000000070700000000000000000000000000000000000000000000000000000000000000000000000000000000000000000000000000000000000000000000000000000000000000000000000000000000000000000000000000000000000000000000000000000000
310
00000000000000000000000000000000000000000000000000000000000000000000000000000000000000000000000000000000000000000007070000000007070000000000000007070000000007070000000000000000000000000000000000000000000000000000000000000000000000000000000000000000000000
310
00000000000000000000000000000000000000000000000000000000000000000000000000000000000000000000000000000000000000000000000000000000000000000000000000000000000000000000000000000000000000000000000000000000000000000000000000000700000000000000070707000707070000
310
00000000000700000000000000000000000000000000000000000000000000000000000000000000000000000000000000000000000000000000000000000000000000000000000000000000000000000000000000000000000000000000000000000000000000000000000000000000000000000000000000000000000000
310
00000000000000000000000000000000000000000000000000000000000000000000000007000000000000000000000000000000000000000000070000000000000000000000000000000000000000000000000000000000000000000000000000000000000000000000000000000000000000000000000000000000000000
310
00000000000000000000000000000000000000000000000000000000000000000000000000000000000000000000000000000000000000000000000000000000000000000000000000000000000000000000000000000000000700000000000000000000000000000000000000000007000000000000000000000000000000
310
00000000000000000000000000000000000000000000000000000000000000000000000000000000000000000000000000000000000000000000000000000000000000000000000000000000000000000000000000000000000000000000000000000000000000000000000000000000000000000000000000000000000000
310
00000000000000000000000000000007000000000000000000000000000000000000000000070000000000000000000000000000000000000000000000000000000000000000000000000000000000000000000000000000000000000000000000000000000000000000000000000000000000000000000000000000000000
310
00000000000000000000000000000000000000000000000000000000000000000000000000000000000000000000000000000000000000000000000000000000000000000700000000000000000000000000000000000000000007000000000000000000000000000000000000000000000000000000000000000000000000
310
00000000000000000000000000000000000000000000000000000000000000000000000000000000000000000000000000000000000000000000000000000000000000000000000000000000000000000000000000000000000000000000000000000000000000000000000000000000000000000000000000070000000000
310
00000000000000000000000000000000070000000000000000000000000000000000000000000000000000000000000000000000000000000000000000000000000000000000000000000000000000000000000000000000000000000000000000000000000000000000000000000000000000000000000000000000000000
310
00000000000000000000000000000000000000000000000000000000000000000000000000000000000000000000000700000000000000000000000000000000000000000007000000000000000000000000000000000000000000000000000000000000000000000000000000000000000000000000000000000000000000
310
00000000000000000000000000000000000000000000000000000000000000000000000000000000000000000000000000000000000000000000000000000000000000000000000000000000000000000000000000000000000000000000000000000000070000000000000000000000000000000000000000000700000000
310
00000000000000000000000000000000000000000000000000000000000000000000000000000000000000000000000000000000000000000000000000000000000000000000000000000000000000000000000000000000000000000000000000000000000000000000000000000000000000000000000000000000000000
310
00000000000000000000000000000000000000000000000000000700000007070707070707000707070707070700000007000000000000000000000000000000000000000000000000000000000000000000000000000000000000000000000000000000000000000000000000000000000000000000000000000000000000
310
00000000000000000000000000000000000000000000000000000000000000000000000000000000000000000000000000000000000000000000000000000000000000000000000000000000000000070707070707070707070700070707070707070707070700000000000000000000000000000000000000000000000000
310
00000000000000000000000000000000000000000000000000000000000000000000000000000000000000000000000000000000000000000000000000000000000000000000000000000000000000000000000000000000000000000000000000000000000000000000000000000000000000000000000000000000000000
310
00000000000707000000000000000000000000000000000000000707000000000000000000000000000000000000000000000000000000000000000000000000000000000000000000000000000000000000000000000000000000000000000000000000000000000000000000000000000000000000000000000000000000
310
00000000000000000000000000000000000000000000000000000000000000000000000000000000000000000000000000000000000000000000070000000000000000000000000000000000000000000700000000000000000000000000000000000000000000000000000000000000000000000000000000000000000000
310
00000000000000000000000000000000000000000000000000000000000000000000000000000000000000000000000000000000000000000000000000000000000000000000000000000000000000000000000000000000000000000000000000000000000000000000000000000007000000000000000000070707000000
310
00000000000007000000000000000000000000000000000000000000000000000000000000000000000000000000000000000000000000000000000000000000000000000000000000000000000000000000000000000000000000000000000000000000000000000000000000000000000000000000000000000000000000
310
00000000000000000000000000000000000000000000000000000000000000000000000000070000000000000000000700070000000000000000000700000000000000000000000000000000000000000000000000000000000000000000000000000000000000000000000000000000000000000000000000000000000000
310
00000000000000000000000000000000000000000000000000000000000000000000000000000000000000000000000000000000000000000000000000000000000000000000000000000000000000000000000000000000000007000000000000000000070007000000000000000000070000000000000000000000000000
310
00000000000000000000000000000000000000000000000000000000000000000000000000000000000000000000000000000000000000000000000000000000000000000000000000000000000000000000000000000000000000000000000000000000000000000000000000000000000000000000000000000000000000
310
00000000000000000000000000000000070000000000000000000707070000000000000000000700000000000000000000000000000000000000000000000000000000000000000000000000000000000000000000000000000000000000000000000000000000000000000000000000000000000000000000000000000000
310
00000000000000000000000000000000000000000000000000000000000000000000000000000000000000000000000000000000000000000000000000000000000000000007000000000000000000000000000000000000000000070000000000000000000000000000000000000000000000000000000000000000000000
310
00000000000000000000000000000000000000000000000000000000000000000000000000000000000000000000000000000000000000000000000000000000000000000000000000000000000000000000000000000000000000000000000000000000000000000000000000000000000000000000000000000700000000
310
00000000000000000000000000000000000700000000000000000000000000000000000000000000000000000000000000000000000000000000000000000000000000000000000000000000000000000000000000000000000000000000000000000000000000000000000000000000000000000000000000000000000000
310
00000000000000000000000000000000000000000000000000000000000000000000000000000000000000000000000007000000000000000000000000000000000000000000070000000000000000000000000000000000000000000000000000000000000000000000000000000000000000000000000000000000000000
310
00000000000000000000000000000000000000000000000000000000000000000000000000000000000000000000000000000000000000000000000000000000000000000000000000000000000000000000000000000000000000000000000000000000000700000000000000000000000000000000000000000007000000
310
00000000000000000000000000000000000000000000000000000000000000000000000000000000000000000000000000000000000000000000000000000000000000000000000000000000000000000000000000000000000000000000000000000000000000000000000000000000000000000000000000000000000000
310
00000000000000000000000000000000000000000000000000000007000000000000000000000000000000000000000000070000000000000000000000000000000000000000000000000000000000000000000000000000000000000000000000000000000000000000000000000000000000000000000000000000000000
310
00000000000000000000000000000000000000000000000000000000000000000000000000000000000000000000000000000000000000000000000000000000000000000000000000000000000000000000000000000000000000000000000000000000000000000000000000000000000000000000000000000000000000
310
00000000000000000000000000000000000000000000000000000000000000000000000000000000000000000000000000000000000000000000000000000000000000000000000000000000000000000000000000000000000000000000000000000000000000000000000000000000000000000000000000000000000000
310
00000000000007000000000000000000000000000000000000000000070000000000000000000000000000000000000000000000000000000000000000000000000000000000000000000000000000000000000000000000000000000000000000000000000000000000000000000000000000000000000000000000000000
310
00000000000000000000000000000000000000000000000000000000000000000000000000000000000000000000000000000000000000000000000700000000000000000000000000000000000000000007000000000000000000000000000000000000000000000000000000000000000000000000000000000000000000
310
00000000000000000000000000000000000000000000000000000000000000000000000000000000000000000000000000000000000000000000000000000000000000000000000000000000000000000000000000000000000000000000000000000000000000000000000000000000070000000000000000000000000000
310
00000000000000070000000000000000000000000000000000000000000000000000000000000000000000000000000000000000000000000000000000000000000000000000000000000000000000000000000000000000000000000000000000000000000000000000000000000000000000000000000000000000000000
310
00000000000000000000000000000000000000000000000000000000000000000000000000000700000000000000000000000000000000000000000007000000000000000000000000000000000000000000000000000000000000000000000000000000000000000000000000000000000000000000000000000000000000
310
00000000000000000000000000000000000000000000000000000000000000000000000000000000000000000000000000000000000000000000000000000000000000000000000000000000000000000000000000000000000000070000000000000000000000000000000000000000000700000000000000000000000000
310
00000000000000000000000000000000000000000000000000000000000000000000000000000000000000000000000000000000000000000000000000000000000000000000000000000000000000000000000000000000000000000000000000000000000000000000000000000000000000000000000000000000000000
310
00000000000000000000000000000000000700000000000000000000000000000000000000000007000000000000000000000000000000000000000000000000000000000000000000000000000000000000000000000000000000000000000000000000000000000000000000000000000000000000000000000000000000
310
00000000000000000000000000000000000000000000000000000000000000000000000000000000000000000000000000000000000000000000000000000000000000000000070000000000000000000000000000000000000000000700000000000000000000000000000000000000000000000000000000000000000000
310
00000000000000000000000000000000000000000000000000000000000000000000000000000000000000000000000000000000000000000000000000000000000000000000000000000000000000000000000000000000000000000000000000000000000000000000000000000000000000000000000000000007000000
310
00000000000000000000000000000000000007000000000000000000000000000000000000000000000000000000000000000000000000000000000000000000000000000000000000000000000000000000000000000000000000000000000000000000000000000000000000000000000000000000000000000000000000
310
00000000000000000000000000000000000000000000000000000000000000000000000000000000000000000000000000070000000000000000000000000000000000000000000700000000000000000000000000000000000000000000000000000000000000000000000000000000000000000000000000000000000000
310
00000000000000000000000000000000000000000000000000000000000000000000000000000000000000000000000000000000000000000000000000000000000000000000000000000000000000000000000000000000000000000000000000000000000007070000000000000000000000000000000000000007070000
310
00000000000000000000000000000000000000000000000000000000000000000000000000000000000000000000000000000000000000000000000000000000000000000000000000000000000000000000000000000000000000000000000000000000000000000000000000000000000000000000000000000000000000
310
00000000000000000000000000000000000000000000000000000000000700000000000000000000000000000000000000070000000000000000000000000000000000000000000000000000000000000000000000000000000000000000000000000000000000000000000000000000000000000000000000000000000000
310
00000000000000000000000000000000000000000000000000000000000000000000000000000000000000000000000000000000000000000000000000000000000000000000000000000000000000000000070707070707070707070007070707070707070707000000000000000000000000000000000000000000000000
310
00000000000000000000000000000000000000000000000000000000000000000000000000000000000000000000000000000000000000000000000000000000000000000000000000000000000000000000000000000000000000000000000000000000000000000000000000000000000000000000000000000000000000
310
000000000000000000000000000000000000000000000000000000000000000000000000000000000000000000000000000000000000000000000000000000000000000000000000000000000000000000000000000000000000000000000000000000000000000000000000
  0
ENDSEC
  0
EOF
