  0
SECTION
  2
HEADER
  9
$ACADVER
  1
AC1015
  9
$ACADMAINTVER
 70
     6
  9
$DWGCODEPAGE
  3
ANSI_1252
  9
$INSBASE
 10
0.0
 20
0.0
 30
0.0
  9
$EXTMIN
 10
-0.14405
 20
0.000017
 30
0.0
  9
$EXTMAX
 10
56.14405
 20
177.003983
 30
0.0
  9
$LIMMIN
 10
0.0
 20
0.0
  9
$LIMMAX
 10
12.0
 20
9.0
  9
$ORTHOMODE
 70
     0
  9
$REGENMODE
 70
     1
  9
$FILLMODE
 70
     1
  9
$QTEXTMODE
 70
     0
  9
$MIRRTEXT
 70
     1
  9
$LTSCALE
 40
1.0
  9
$ATTMODE
 70
     1
  9
$TEXTSIZE
 40
0.2
  9
$TRACEWID
 40
0.05
  9
$TEXTSTYLE
  7
Standard
  9
$CLAYER
  8
0
  9
$CELTYPE
  6
ByBlock
  9
$CECOLOR
 62
   256
  9
$CELTSCALE
 40
1.0
  9
$DISPSILH
 70
     0
  9
$DIMSCALE
 40
1.0
  9
$DIMASZ
 40
0.18
  9
$DIMEXO
 40
0.0625
  9
$DIMDLI
 40
0.38
  9
$DIMRND
 40
0.0
  9
$DIMDLE
 40
0.0
  9
$DIMEXE
 40
0.18
  9
$DIMTP
 40
0.0
  9
$DIMTM
 40
0.0
  9
$DIMTXT
 40
0.18
  9
$DIMCEN
 40
0.09
  9
$DIMTSZ
 40
0.0
  9
$DIMTOL
 70
     0
  9
$DIMLIM
 70
     0
  9
$DIMTIH
 70
     1
  9
$DIMTOH
 70
     1
  9
$DIMSE1
 70
     0
  9
$DIMSE2
 70
     0
  9
$DIMTAD
 70
     0
  9
$DIMZIN
 70
     0
  9
$DIMBLK
  1

  9
$DIMASO
 70
     1
  9
$DIMSHO
 70
     1
  9
$DIMPOST
  1

  9
$DIMAPOST
  1

  9
$DIMALT
 70
     0
  9
$DIMALTD
 70
     2
  9
$DIMALTF
 40
25.4
  9
$DIMLFAC
 40
1.0
  9
$DIMTOFL
 70
     0
  9
$DIMTVP
 40
0.0
  9
$DIMTIX
 70
     0
  9
$DIMSOXD
 70
     0
  9
$DIMSAH
 70
     0
  9
$DIMBLK1
  1

  9
$DIMBLK2
  1

  9
$DIMSTYLE
  2
Standard
  9
$DIMCLRD
 70
     0
  9
$DIMCLRE
 70
     0
  9
$DIMCLRT
 70
     0
  9
$DIMTFAC
 40
1.0
  9
$DIMGAP
 40
0.09
  9
$DIMJUST
 70
     0
  9
$DIMSD1
 70
     0
  9
$DIMSD2
 70
     0
  9
$DIMTOLJ
 70
     1
  9
$DIMTZIN
 70
     0
  9
$DIMALTZ
 70
     0
  9
$DIMALTTZ
 70
     0
  9
$DIMUPT
 70
     0
  9
$DIMDEC
 70
     4
  9
$DIMTDEC
 70
     4
  9
$DIMALTU
 70
     2
  9
$DIMALTTD
 70
     2
  9
$DIMTXSTY
  7
Standard
  9
$DIMAUNIT
 70
     0
  9
$DIMADEC
 70
     0
  9
$DIMALTRND
 40
0.0
  9
$DIMAZIN
 70
     0
  9
$DIMDSEP
 70
    46
  9
$DIMATFIT
 70
     3
  9
$DIMFRAC
 70
     0
  9
$DIMLDRBLK
  1

  9
$DIMLUNIT
 70
     2
  9
$DIMLWD
 70
    -2
  9
$DIMLWE
 70
    -2
  9
$DIMTMOVE
 70
     2
  9
$LUNITS
 70
     2
  9
$LUPREC
 70
     4
  9
$SKETCHINC
 40
0.1
  9
$FILLETRAD
 40
0.5
  9
$AUNITS
 70
     0
  9
$AUPREC
 70
     0
  9
$MENU
  1
.
  9
$ELEVATION
 40
0.0
  9
$PELEVATION
 40
0.0
  9
$THICKNESS
 40
0.0
  9
$LIMCHECK
 70
     0
  9
$CHAMFERA
 40
0.5
  9
$CHAMFERB
 40
0.5
  9
$CHAMFERC
 40
1.0
  9
$CHAMFERD
 40
0.0
  9
$SKPOLY
 70
     0
  9
$TDCREATE
 40
2455823.619326887
  9
$TDUCREATE
 40
2455823.535993553
  9
$TDUPDATE
 40
2455823.623900637
  9
$TDUUPDATE
 40
2455823.540567303
  9
$TDINDWG
 40
0.0045733912
  9
$TDUSRTIMER
 40
0.0045733912
  9
$USRTIMER
 70
     1
  9
$ANGBASE
 50
0.0
  9
$ANGDIR
 70
     0
  9
$PDMODE
 70
     0
  9
$PDSIZE
 40
0.0
  9
$PLINEWID
 40
0.0
  9
$SPLFRAME
 70
     0
  9
$SPLINETYPE
 70
     6
  9
$SPLINESEGS
 70
     8
  9
$HANDSEED
  5
785
  9
$SURFTAB1
 70
     6
  9
$SURFTAB2
 70
     6
  9
$SURFTYPE
 70
     6
  9
$SURFU
 70
     6
  9
$SURFV
 70
     6
  9
$UCSBASE
  2

  9
$UCSNAME
  2

  9
$UCSORG
 10
0.0
 20
0.0
 30
0.0
  9
$UCSXDIR
 10
1.0
 20
0.0
 30
0.0
  9
$UCSYDIR
 10
0.0
 20
1.0
 30
0.0
  9
$UCSORTHOREF
  2

  9
$UCSORTHOVIEW
 70
     0
  9
$UCSORGTOP
 10
0.0
 20
0.0
 30
0.0
  9
$UCSORGBOTTOM
 10
0.0
 20
0.0
 30
0.0
  9
$UCSORGLEFT
 10
0.0
 20
0.0
 30
0.0
  9
$UCSORGRIGHT
 10
0.0
 20
0.0
 30
0.0
  9
$UCSORGFRONT
 10
0.0
 20
0.0
 30
0.0
  9
$UCSORGBACK
 10
0.0
 20
0.0
 30
0.0
  9
$PUCSBASE
  2

  9
$PUCSNAME
  2

  9
$PUCSORG
 10
0.0
 20
0.0
 30
0.0
  9
$PUCSXDIR
 10
1.0
 20
0.0
 30
0.0
  9
$PUCSYDIR
 10
0.0
 20
1.0
 30
0.0
  9
$PUCSORTHOREF
  2

  9
$PUCSORTHOVIEW
 70
     0
  9
$PUCSORGTOP
 10
0.0
 20
0.0
 30
0.0
  9
$PUCSORGBOTTOM
 10
0.0
 20
0.0
 30
0.0
  9
$PUCSORGLEFT
 10
0.0
 20
0.0
 30
0.0
  9
$PUCSORGRIGHT
 10
0.0
 20
0.0
 30
0.0
  9
$PUCSORGFRONT
 10
0.0
 20
0.0
 30
0.0
  9
$PUCSORGBACK
 10
0.0
 20
0.0
 30
0.0
  9
$USERI1
 70
     0
  9
$USERI2
 70
     0
  9
$USERI3
 70
     0
  9
$USERI4
 70
     0
  9
$USERI5
 70
     0
  9
$USERR1
 40
0.0
  9
$USERR2
 40
0.0
  9
$USERR3
 40
0.0
  9
$USERR4
 40
0.0
  9
$USERR5
 40
0.0
  9
$WORLDVIEW
 70
     1
  9
$SHADEDGE
 70
     3
  9
$SHADEDIF
 70
    70
  9
$TILEMODE
 70
     1
  9
$MAXACTVP
 70
    64
  9
$PINSBASE
 10
0.0
 20
0.0
 30
0.0
  9
$PLIMCHECK
 70
     0
  9
$PEXTMIN
 10
1.000000000000E+20
 20
1.000000000000E+20
 30
1.000000000000E+20
  9
$PEXTMAX
 10
-1.000000000000E+20
 20
-1.000000000000E+20
 30
-1.000000000000E+20
  9
$PLIMMIN
 10
0.0
 20
0.0
  9
$PLIMMAX
 10
12.0
 20
9.0
  9
$UNITMODE
 70
     0
  9
$VISRETAIN
 70
     1
  9
$PLINEGEN
 70
     0
  9
$PSLTSCALE
 70
     1
  9
$TREEDEPTH
 70
  3020
  9
$CMLSTYLE
  2
Standard
  9
$CMLJUST
 70
     0
  9
$CMLSCALE
 40
1.0
  9
$PROXYGRAPHICS
 70
     1
  9
$MEASUREMENT
 70
     0
  9
$CELWEIGHT
370
    -1
  9
$ENDCAPS
280
     0
  9
$JOINSTYLE
280
     0
  9
$LWDISPLAY
290
     0
  9
$INSUNITS
 70
     0
  9
$HYPERLINKBASE
  1

  9
$STYLESHEET
  1

  9
$XEDIT
290
     1
  9
$CEPSNTYPE
380
     0
  9
$PSTYLEMODE
290
     1
  9
$FINGERPRINTGUID
  2
{15FA1A11-B576-4397-B562-0885F77394E1}
  9
$VERSIONGUID
  2
{FAEB1C32-E019-11D5-929B-00C0DF256EC4}
  9
$EXTNAMES
290
     1
  9
$PSVPSCALE
 40
0.0
  9
$OLESTARTUP
290
     0
  0
ENDSEC
  0
SECTION
  2
CLASSES
  0
CLASS
  1
ACDBDICTIONARYWDFLT
  2
AcDbDictionaryWithDefault
  3
ObjectDBX Classes
 90
        0
280
     0
281
     0
  0
CLASS
  1
SCALE
  2
AcDbScale
  3
ObjectDBX Classes
 90
     1153
280
     0
281
     0
  0
CLASS
  1
DICTIONARYVAR
  2
AcDbDictionaryVar
  3
ObjectDBX Classes
 90
        0
280
     0
281
     0
  0
CLASS
  1
ACDBPLACEHOLDER
  2
AcDbPlaceHolder
  3
ObjectDBX Classes
 90
        0
280
     0
281
     0
  0
CLASS
  1
LAYOUT
  2
AcDbLayout
  3
ObjectDBX Classes
 90
        0
280
     0
281
     0
  0
ENDSEC
  0
SECTION
  2
TABLES
  0
TABLE
  2
VPORT
  5
8
330
0
100
AcDbSymbolTable
 70
     1
  0
VPORT
  5
33F
330
8
100
AcDbSymbolTableRecord
100
AcDbViewportTableRecord
  2
*Active
 70
     0
 10
0.0
 20
0.0
 11
1.0
 21
1.0
 12
28.0
 22
88.502
 13
0.0
 23
0.0
 14
0.5
 24
0.5
 15
0.5
 25
0.5
 16
0.0
 26
0.0
 36
1.0
 17
0.0
 27
0.0
 37
0.0
 40
180.54404532
 41
1.790857142857
 42
50.0
 43
0.0
 44
0.0
 50
0.0
 51
0.0
 71
    16
 72
   100
 73
     1
 74
     3
 75
     0
 76
     0
 77
     0
 78
     0
281
     0
 65
     1
110
0.0
120
0.0
130
0.0
111
1.0
121
0.0
131
0.0
112
0.0
122
1.0
132
0.0
 79
     0
146
0.0
  0
ENDTAB
  0
TABLE
  2
LTYPE
  5
5
330
0
100
AcDbSymbolTable
 70
     1
  0
LTYPE
  5
14
330
5
100
AcDbSymbolTableRecord
100
AcDbLinetypeTableRecord
  2
ByBlock
 70
     0
  3

 72
    65
 73
     0
 40
0.0
  0
LTYPE
  5
15
330
5
100
AcDbSymbolTableRecord
100
AcDbLinetypeTableRecord
  2
ByLayer
 70
     0
  3

 72
    65
 73
     0
 40
0.0
  0
LTYPE
  5
16
330
5
100
AcDbSymbolTableRecord
100
AcDbLinetypeTableRecord
  2
Continuous
 70
     0
  3
Solid line
 72
    65
 73
     0
 40
0.0
  0
ENDTAB
  0
TABLE
  2
LAYER
  5
2
330
0
100
AcDbSymbolTable
 70
     1
  0
LAYER
  5
10
330
2
100
AcDbSymbolTableRecord
100
AcDbLayerTableRecord
  2
0
 70
     0
 62
     7
  6
Continuous
370
    -3
390
F
  0
ENDTAB
  0
TABLE
  2
STYLE
  5
3
330
0
100
AcDbSymbolTable
 70
     1
  0
STYLE
  5
11
330
3
100
AcDbSymbolTableRecord
100
AcDbTextStyleTableRecord
  2
Standard
 70
     0
 40
0.0
 41
1.0
 50
0.0
 71
     0
 42
0.2
  3
txt
  4

  0
ENDTAB
  0
TABLE
  2
VIEW
  5
6
330
0
100
AcDbSymbolTable
 70
     0
  0
ENDTAB
  0
TABLE
  2
UCS
  5
7
330
0
100
AcDbSymbolTable
 70
     0
  0
ENDTAB
  0
TABLE
  2
APPID
  5
9
330
0
100
AcDbSymbolTable
 70
     1
  0
APPID
  5
12
330
9
100
AcDbSymbolTableRecord
100
AcDbRegAppTableRecord
  2
ACAD
 70
     0
  0
ENDTAB
  0
TABLE
  2
DIMSTYLE
  5
A
330
0
100
AcDbSymbolTable
 70
     1
100
AcDbDimStyleTable
  0
DIMSTYLE
105
20
330
A
100
AcDbSymbolTableRecord
100
AcDbDimStyleTableRecord
  2
Standard
 70
     0
340
11
  0
ENDTAB
  0
TABLE
  2
BLOCK_RECORD
  5
1
330
0
100
AcDbSymbolTable
 70
     1
  0
BLOCK_RECORD
  5
1D
330
1
100
AcDbSymbolTableRecord
100
AcDbBlockTableRecord
  2
*Model_Space
340
1E
  0
BLOCK_RECORD
  5
1B
330
1
100
AcDbSymbolTableRecord
100
AcDbBlockTableRecord
  2
*Paper_Space
340
1C
  0
ENDTAB
  0
ENDSEC
  0
SECTION
  2
BLOCKS
  0
BLOCK
  5
342
330
1D
100
AcDbEntity
  8
0
100
AcDbBlockBegin
  2
*Model_Space
 70
     0
 10
0.0
 20
0.0
 30
0.0
  3
*Model_Space
  1
*Model_Space
  0
ENDBLK
  5
343
330
1D
100
AcDbEntity
  8
0
100
AcDbBlockEnd
  0
BLOCK
  5
340
330
1B
100
AcDbEntity
 67
     1
  8
0
100
AcDbBlockBegin
  2
*Paper_Space
 70
     0
 10
0.0
 20
0.0
 30
0.0
  3
*Paper_Space
  1
*Paper_Space
  0
ENDBLK
  5
341
330
1B
100
AcDbEntity
 67
     1
  8
0
100
AcDbBlockEnd
  0
ENDSEC
  0
SECTION
  2
ENTITIES
  0
LINE
  5
21
330
1D
100
AcDbEntity
  8
0
100
AcDbLine
 10
-0.086555
 20
0.000017
 30
0.0
 11
0.087911
 21
0.000017
 31
0.0
  0
LINE
  5
22
330
1D
100
AcDbEntity
  8
0
100
AcDbLine
 10
-0.14405
 20
0.000039
 30
0.0
 11
1.09704
 21
59.696783
 31
0.0
  0
LINE
  5
23
330
1D
100
AcDbEntity
  8
0
100
AcDbLine
 10
-0.14405
 20
0.000039
 30
0.0
 11
-0.062765
 21
0.000017
 31
0.0
  0
LINE
  5
24
330
1D
100
AcDbEntity
  8
0
100
AcDbLine
 10
-0.14405
 20
0.000039
 30
0.0
 11
1.09704
 21
59.696783
 31
0.0
  0
LINE
  5
25
330
1D
100
AcDbEntity
  8
0
100
AcDbLine
 10
-0.14405
 20
0.000039
 30
0.0
 11
-0.086555
 21
0.000017
 31
0.0
  0
LINE
  5
26
330
1D
100
AcDbEntity
  8
0
100
AcDbLine
 10
-0.062765
 20
0.000017
 30
0.0
 11
0.181091
 21
0.000019
 31
0.0
  0
LINE
  5
27
330
1D
100
AcDbEntity
  8
0
100
AcDbLine
 10
0.526059
 20
0.000017
 30
0.0
 11
0.98899
 21
0.000017
 31
0.0
  0
LINE
  5
28
330
1D
100
AcDbEntity
  8
0
100
AcDbLine
 10
0.181091
 20
0.000019
 30
0.0
 11
0.526059
 21
0.000017
 31
0.0
  0
LINE
  5
29
330
1D
100
AcDbEntity
  8
0
100
AcDbLine
 10
0.98899
 20
0.000017
 30
0.0
 11
1.56691
 21
0.000018
 31
0.0
  0
LINE
  5
2A
330
1D
100
AcDbEntity
  8
0
100
AcDbLine
 10
1.56691
 20
0.000018
 30
0.0
 11
2.25585
 21
0.000021
 31
0.0
  0
LINE
  5
2B
330
1D
100
AcDbEntity
  8
0
100
AcDbLine
 10
2.73068
 20
0.000017
 30
0.0
 11
4.60222
 21
0.000017
 31
0.0
  0
LINE
  5
2C
330
1D
100
AcDbEntity
  8
0
100
AcDbLine
 10
4.60222
 20
0.000017
 30
0.0
 11
5.419888447827
 21
0.00003032805
 31
0.0
  0
LINE
  5
2D
330
1D
100
AcDbEntity
  8
0
100
AcDbLine
 10
3.05086
 20
0.000017
 30
0.0
 11
3.94698
 21
0.000027
 31
0.0
  0
LINE
  5
2E
330
1D
100
AcDbEntity
  8
0
100
AcDbLine
 10
1.96739
 20
0.000017
 30
0.0
 11
2.73068
 21
0.000017
 31
0.0
  0
LINE
  5
2F
330
1D
100
AcDbEntity
  8
0
100
AcDbLine
 10
3.94698
 20
0.000027
 30
0.0
 11
4.94025
 21
0.000029
 31
0.0
  0
LINE
  5
30
330
1D
100
AcDbEntity
  8
0
100
AcDbLine
 10
4.94025
 20
0.000029
 30
0.0
 11
6.02373
 21
0.000032
 31
0.0
  0
LINE
  5
31
330
1D
100
AcDbEntity
  8
0
100
AcDbLine
 10
2.25585
 20
0.000021
 30
0.0
 11
3.05086
 21
0.000017
 31
0.0
  0
LINE
  5
32
330
1D
100
AcDbEntity
  8
0
100
AcDbLine
 10
1.895825008557
 20
0.000019432266
 30
0.0
 11
1.96739
 21
0.000017
 31
0.0
  0
LINE
  5
33
330
1D
100
AcDbEntity
  8
0
100
AcDbLine
 10
1.09704
 20
59.696783
 30
0.0
 11
1.11587
 21
60.578683
 31
0.0
  0
LINE
  5
63
330
1D
100
AcDbEntity
  8
0
100
AcDbLine
 10
6.88713
 20
0.000017
 30
0.0
 11
8.16589
 21
0.000017
 31
0.0
  0
LINE
  5
64
330
1D
100
AcDbEntity
  8
0
100
AcDbLine
 10
6.02373
 20
0.000032
 30
0.0
 11
7.19245
 21
0.000017
 31
0.0
  0
LINE
  5
65
330
1D
100
AcDbEntity
  8
0
100
AcDbLine
 10
7.19245
 20
0.000017
 30
0.0
 11
8.43949
 21
0.000035
 31
0.0
  0
LINE
  5
66
330
1D
100
AcDbEntity
  8
0
100
AcDbLine
 10
8.43949
 20
0.000035
 30
0.0
 11
9.76682
 21
0.000037
 31
0.0
  0
LINE
  5
67
330
1D
100
AcDbEntity
  8
0
100
AcDbLine
 10
9.76682
 20
0.000037
 30
0.0
 11
11.16155
 21
0.000038
 31
0.0
  0
LINE
  5
68
330
1D
100
AcDbEntity
  8
0
100
AcDbLine
 10
8.16589
 20
0.000017
 30
0.0
 11
9.53981
 21
0.000017
 31
0.0
  0
LINE
  5
69
330
1D
100
AcDbEntity
  8
0
100
AcDbLine
 10
5.921792748573
 20
0.00003171775
 30
0.0
 11
6.88713
 21
0.000017
 31
0.0
  0
LINE
  5
6A
330
1D
100
AcDbEntity
  8
0
100
AcDbLine
 10
9.53981
 20
0.000017
 30
0.0
 11
11.00495
 21
0.000024
 31
0.0
  0
LINE
  5
6B
330
1D
100
AcDbEntity
  8
0
100
AcDbLine
 10
12.61475
 20
0.000017
 30
0.0
 11
14.12155
 21
0.000017
 31
0.0
  0
LINE
  5
6C
330
1D
100
AcDbEntity
  8
0
100
AcDbLine
 10
14.12155
 20
0.000017
 30
0.0
 11
15.67385
 21
0.000039
 31
0.0
  0
LINE
  5
6D
330
1D
100
AcDbEntity
  8
0
100
AcDbLine
 10
21.37275
 20
0.000017
 30
0.0
 11
21.861813383917
 21
0.000021332875
 31
0.0
  0
LINE
  5
6E
330
1D
100
AcDbEntity
  8
0
100
AcDbLine
 10
17.66145
 20
0.000017
 30
0.0
 11
18.794375040427
 21
0.000018238237
 31
0.0
  0
LINE
  5
6F
330
1D
100
AcDbEntity
  8
0
100
AcDbLine
 10
18.88565
 20
0.000017
 30
0.0
 11
20.52915
 21
0.000039
 31
0.0
  0
LINE
  5
70
330
1D
100
AcDbEntity
  8
0
100
AcDbLine
 10
22.18865
 20
0.000017
 30
0.0
 11
23.85595
 21
0.000017
 31
0.0
  0
LINE
  5
71
330
1D
100
AcDbEntity
  8
0
100
AcDbLine
 10
15.89095
 20
0.000017
 30
0.0
 11
17.66145
 21
0.000017
 31
0.0
  0
LINE
  5
72
330
1D
100
AcDbEntity
  8
0
100
AcDbLine
 10
14.18595
 20
0.000017
 30
0.0
 11
15.89095
 21
0.000017
 31
0.0
  0
LINE
  5
73
330
1D
100
AcDbEntity
  8
0
100
AcDbLine
 10
15.67385
 20
0.000039
 30
0.0
 11
17.26395
 21
0.000039
 31
0.0
  0
LINE
  5
74
330
1D
100
AcDbEntity
  8
0
100
AcDbLine
 10
11.16155
 20
0.000038
 30
0.0
 11
12.61475
 21
0.000017
 31
0.0
  0
LINE
  5
E1
330
1D
100
AcDbEntity
  8
0
100
AcDbLine
 10
17.26395
 20
0.000039
 30
0.0
 11
18.88565
 21
0.000017
 31
0.0
  0
LINE
  5
FF
330
1D
100
AcDbEntity
  8
0
100
AcDbLine
 10
20.52915
 20
0.000039
 30
0.0
 11
22.18865
 21
0.000017
 31
0.0
  0
LINE
  5
100
330
1D
100
AcDbEntity
  8
0
100
AcDbLine
 10
19.49135
 20
0.000019
 30
0.0
 11
21.37275
 21
0.000017
 31
0.0
  0
LINE
  5
101
330
1D
100
AcDbEntity
  8
0
100
AcDbLine
 10
18.994491177125
 20
0.000018456955
 30
0.0
 11
19.49135
 21
0.000019
 31
0.0
  0
LINE
  5
102
330
1D
100
AcDbEntity
  8
0
100
AcDbLine
 10
14.131056603803
 20
0.000017134733
 30
0.0
 11
14.18595
 21
0.000017
 31
0.0
  0
LINE
  5
103
330
1D
100
AcDbEntity
  8
0
100
AcDbLine
 10
11.00495
 20
0.000024
 30
0.0
 11
12.30422291827
 21
0.000021487386
 31
0.0
  0
LINE
  5
127
330
1D
100
AcDbEntity
  8
0
100
AcDbLine
 10
23.85595
 20
0.000017
 30
0.0
 11
25.52325
 21
0.000017
 31
0.0
  0
LINE
  5
135
330
1D
100
AcDbEntity
  8
0
100
AcDbLine
 10
30.05045
 20
0.000017
 30
0.0
 11
31.82095
 21
0.000017
 31
0.0
  0
LINE
  5
136
330
1D
100
AcDbEntity
  8
0
100
AcDbLine
 10
31.82095
 20
0.000017
 30
0.0
 11
33.52595
 21
0.000017
 31
0.0
  0
LINE
  5
137
330
1D
100
AcDbEntity
  8
0
100
AcDbLine
 10
38.17205
 20
0.000017
 30
0.0
 11
39.54605
 21
0.000017
 31
0.0
  0
LINE
  5
138
330
1D
100
AcDbEntity
  8
0
100
AcDbLine
 10
33.52595
 20
0.000017
 30
0.0
 11
33.580843396197
 21
0.000017134733
 31
0.0
  0
LINE
  5
139
330
1D
100
AcDbEntity
  8
0
100
AcDbLine
 10
26.33915
 20
0.000017
 30
0.0
 11
28.22055
 21
0.000019
 31
0.0
  0
LINE
  5
13A
330
1D
100
AcDbEntity
  8
0
100
AcDbLine
 10
39.54605
 20
0.000017
 30
0.0
 11
40.82475
 21
0.000017
 31
0.0
  0
LINE
  5
13B
330
1D
100
AcDbEntity
  8
0
100
AcDbLine
 10
28.22055
 20
0.000019
 30
0.0
 11
28.717408822875
 21
0.000018456955
 31
0.0
  0
LINE
  5
13C
330
1D
100
AcDbEntity
  8
0
100
AcDbLine
 10
25.850086616083
 20
0.000021332875
 30
0.0
 11
26.33915
 21
0.000017
 31
0.0
  0
LINE
  5
13D
330
1D
100
AcDbEntity
  8
0
100
AcDbLine
 10
35.09715
 20
0.000017
 30
0.0
 11
36.55035
 21
0.000038
 31
0.0
  0
LINE
  5
13E
330
1D
100
AcDbEntity
  8
0
100
AcDbLine
 10
40.51945
 20
0.000017
 30
0.0
 11
41.68815
 21
0.000032
 31
0.0
  0
LINE
  5
13F
330
1D
100
AcDbEntity
  8
0
100
AcDbLine
 10
28.917524959573
 20
0.000018238237
 30
0.0
 11
30.05045
 21
0.000017
 31
0.0
  0
LINE
  5
140
330
1D
100
AcDbEntity
  8
0
100
AcDbLine
 10
35.40767708173
 20
0.000021487386
 30
0.0
 11
36.70695
 21
0.000024
 31
0.0
  0
LINE
  5
141
330
1D
100
AcDbEntity
  8
0
100
AcDbLine
 10
36.70695
 20
0.000024
 30
0.0
 11
38.17205
 21
0.000017
 31
0.0
  0
LINE
  5
142
330
1D
100
AcDbEntity
  8
0
100
AcDbLine
 10
39.27245
 20
0.000035
 30
0.0
 11
40.51945
 21
0.000017
 31
0.0
  0
LINE
  5
143
330
1D
100
AcDbEntity
  8
0
100
AcDbLine
 10
41.68815
 20
0.000032
 30
0.0
 11
42.77165
 21
0.000029
 31
0.0
  0
LINE
  5
144
330
1D
100
AcDbEntity
  8
0
100
AcDbLine
 10
36.55035
 20
0.000038
 30
0.0
 11
37.94505
 21
0.000037
 31
0.0
  0
LINE
  5
145
330
1D
100
AcDbEntity
  8
0
100
AcDbLine
 10
37.94505
 20
0.000037
 30
0.0
 11
39.27245
 21
0.000035
 31
0.0
  0
LINE
  5
146
330
1D
100
AcDbEntity
  8
0
100
AcDbLine
 10
32.03805
 20
0.000039
 30
0.0
 11
33.59035
 21
0.000017
 31
0.0
  0
LINE
  5
147
330
1D
100
AcDbEntity
  8
0
100
AcDbLine
 10
33.59035
 20
0.000017
 30
0.0
 11
35.09715
 21
0.000017
 31
0.0
  0
LINE
  5
148
330
1D
100
AcDbEntity
  8
0
100
AcDbLine
 10
28.82625
 20
0.000017
 30
0.0
 11
30.44795
 21
0.000039
 31
0.0
  0
LINE
  5
149
330
1D
100
AcDbEntity
  8
0
100
AcDbLine
 10
27.18275
 20
0.000039
 30
0.0
 11
28.82625
 21
0.000017
 31
0.0
  0
LINE
  5
14A
330
1D
100
AcDbEntity
  8
0
100
AcDbLine
 10
30.44795
 20
0.000039
 30
0.0
 11
32.03805
 21
0.000039
 31
0.0
  0
LINE
  5
14B
330
1D
100
AcDbEntity
  8
0
100
AcDbLine
 10
25.52325
 20
0.000017
 30
0.0
 11
27.18275
 21
0.000039
 31
0.0
  0
LINE
  5
1D6
330
1D
100
AcDbEntity
  8
0
100
AcDbLine
 10
43.10965
 20
0.000017
 30
0.0
 11
44.98125
 21
0.000017
 31
0.0
  0
LINE
  5
1D7
330
1D
100
AcDbEntity
  8
0
100
AcDbLine
 10
44.66105
 20
0.000017
 30
0.0
 11
45.45605
 21
0.000021
 31
0.0
  0
LINE
  5
1D8
330
1D
100
AcDbEntity
  8
0
100
AcDbLine
 10
45.74455
 20
0.000017
 30
0.0
 11
45.81610709426
 21
0.000019432035
 31
0.0
  0
LINE
  5
1D9
330
1D
100
AcDbEntity
  8
0
100
AcDbLine
 10
44.98125
 20
0.000017
 30
0.0
 11
45.74455
 21
0.000017
 31
0.0
  0
LINE
  5
1DA
330
1D
100
AcDbEntity
  8
0
100
AcDbLine
 10
43.76495
 20
0.000027
 30
0.0
 11
44.66105
 21
0.000017
 31
0.0
  0
LINE
  5
1DB
330
1D
100
AcDbEntity
  8
0
100
AcDbLine
 10
42.77165
 20
0.000029
 30
0.0
 11
43.76495
 21
0.000027
 31
0.0
  0
LINE
  5
1DC
330
1D
100
AcDbEntity
  8
0
100
AcDbLine
 10
45.45605
 20
0.000021
 30
0.0
 11
46.14495
 21
0.000018
 31
0.0
  0
LINE
  5
1DD
330
1D
100
AcDbEntity
  8
0
100
AcDbLine
 10
47.62395
 20
0.000017
 30
0.0
 11
47.79845
 21
0.000017
 31
0.0
  0
LINE
  5
1DE
330
1D
100
AcDbEntity
  8
0
100
AcDbLine
 10
47.18585
 20
0.000017
 30
0.0
 11
47.53085
 21
0.000019
 31
0.0
  0
LINE
  5
1DF
330
1D
100
AcDbEntity
  8
0
100
AcDbLine
 10
47.79845
 20
0.000017
 30
0.0
 11
47.85595
 21
0.000039
 31
0.0
  0
LINE
  5
1E0
330
1D
100
AcDbEntity
  8
0
100
AcDbLine
 10
47.77465
 20
0.000017
 30
0.0
 11
47.85595
 21
0.000039
 31
0.0
  0
LINE
  5
1E5
330
1D
100
AcDbEntity
  8
0
100
AcDbLine
 10
46.654129678413
 20
57.807435722089
 30
0.0
 11
46.77405
 21
57.822283
 31
0.0
  0
LINE
  5
1E7
330
1D
100
AcDbEntity
  8
0
100
AcDbLine
 10
46.653821002338
 20
57.822283
 30
0.0
 11
46.77405
 21
57.822283
 31
0.0
  0
LINE
  5
1EC
330
1D
100
AcDbEntity
  8
0
100
AcDbLine
 10
46.72295
 20
0.000017
 30
0.0
 11
47.18585
 21
0.000017
 31
0.0
  0
LINE
  5
1F3
330
1D
100
AcDbEntity
  8
0
100
AcDbLine
 10
47.53085
 20
0.000019
 30
0.0
 11
47.77465
 21
0.000017
 31
0.0
  0
LINE
  5
1F4
330
1D
100
AcDbEntity
  8
0
100
AcDbLine
 10
46.14495
 20
0.000018
 30
0.0
 11
46.72295
 21
0.000017
 31
0.0
  0
LINE
  5
1F8
330
1D
100
AcDbEntity
  8
0
100
AcDbLine
 10
46.59605
 20
60.578683
 30
0.0
 11
46.61485
 21
59.696783
 31
0.0
  0
LINE
  5
1F9
330
1D
100
AcDbEntity
  8
0
100
AcDbLine
 10
46.61485
 20
59.696783
 30
0.0
 11
47.85595
 21
0.000039
 31
0.0
  0
LINE
  5
1FA
330
1D
100
AcDbEntity
  8
0
100
AcDbLine
 10
46.61485
 20
59.696783
 30
0.0
 11
47.85595
 21
0.000039
 31
0.0
  0
LINE
  5
1FB
330
1D
100
AcDbEntity
  8
0
100
AcDbLine
 10
42.291968305491
 20
0.000030328145
 30
0.0
 11
43.10965
 21
0.000017
 31
0.0
  0
LINE
  5
1FC
330
1D
100
AcDbEntity
  8
0
100
AcDbLine
 10
40.82475
 20
0.000017
 30
0.0
 11
41.790073700901
 21
0.000031717793
 31
0.0
  0
LINE
  5
5CA
330
1D
100
AcDbEntity
  8
0
100
AcDbLine
 10
23.575941811997
 20
91.856983
 30
0.0
 11
23.856041811997
 21
91.860983
 31
0.0
  0
LINE
  5
5CB
330
1D
100
AcDbEntity
  8
0
100
AcDbLine
 10
24.136141811997
 20
91.856983
 30
0.0
 11
25.256141811997
 21
91.896983
 31
0.0
  0
LINE
  5
5CC
330
1D
100
AcDbEntity
  8
0
100
AcDbLine
 10
19.210241811997
 20
92.318983
 30
0.0
 11
20.262541811997
 21
92.128983
 31
0.0
  0
LINE
  5
5CD
330
1D
100
AcDbEntity
  8
0
100
AcDbLine
 10
20.262541811997
 20
92.128983
 30
0.0
 11
21.348141811997
 21
91.986983
 31
0.0
  0
LINE
  5
5CE
330
1D
100
AcDbEntity
  8
0
100
AcDbLine
 10
21.348141811997
 20
91.986983
 30
0.0
 11
22.455941811997
 21
91.896983
 31
0.0
  0
LINE
  5
5CF
330
1D
100
AcDbEntity
  8
0
100
AcDbLine
 10
22.455941811997
 20
91.896983
 30
0.0
 11
23.575941811997
 21
91.856983
 31
0.0
  0
LINE
  5
5D0
330
1D
100
AcDbEntity
  8
0
100
AcDbLine
 10
28.501841811997
 20
92.318983
 30
0.0
 11
29.511841811997
 21
92.558983
 31
0.0
  0
LINE
  5
5D1
330
1D
100
AcDbEntity
  8
0
100
AcDbLine
 10
27.449541811997
 20
92.128983
 30
0.0
 11
28.501841811997
 21
92.318983
 31
0.0
  0
LINE
  5
5D2
330
1D
100
AcDbEntity
  8
0
100
AcDbLine
 10
26.363941811997
 20
91.986983
 30
0.0
 11
27.449541811997
 21
92.128983
 31
0.0
  0
LINE
  5
5D3
330
1D
100
AcDbEntity
  8
0
100
AcDbLine
 10
25.256141811997
 20
91.896983
 30
0.0
 11
26.363941811997
 21
91.986983
 31
0.0
  0
LINE
  5
5D4
330
1D
100
AcDbEntity
  8
0
100
AcDbLine
 10
23.856041811997
 20
91.860983
 30
0.0
 11
24.136141811997
 21
91.856983
 31
0.0
  0
LINE
  5
5D5
330
1D
100
AcDbEntity
  8
0
100
AcDbLine
 10
2.287661811997
 20
116.915983
 30
0.0
 11
2.355071811997
 21
117.157983
 31
0.0
  0
LINE
  5
5D6
330
1D
100
AcDbEntity
  8
0
100
AcDbLine
 10
2.355071811997
 20
117.157983
 30
0.0
 11
2.438341811997
 21
117.255983
 31
0.0
  0
LINE
  5
5D7
330
1D
100
AcDbEntity
  8
0
100
AcDbLine
 10
2.634611811997
 20
119.927983
 30
0.0
 11
2.839811811997
 21
119.927983
 31
0.0
  0
LINE
  5
5D8
330
1D
100
AcDbEntity
  8
0
100
AcDbLine
 10
2.529541811997
 20
117.335983
 30
0.0
 11
2.960741811997
 21
117.400983
 31
0.0
  0
LINE
  5
5D9
330
1D
100
AcDbEntity
  8
0
100
AcDbLine
 10
2.438341811997
 20
117.255983
 30
0.0
 11
2.529541811997
 21
117.335983
 31
0.0
  0
LINE
  5
5DA
330
1D
100
AcDbEntity
  8
0
100
AcDbLine
 10
2.839811811997
 20
119.927983
 30
0.0
 11
3.431611811997
 21
119.927983
 31
0.0
  0
LINE
  5
5DB
330
1D
100
AcDbEntity
  8
0
100
AcDbLine
 10
2.079491811997
 20
120.464983
 30
0.0
 11
2.816021811997
 21
148.874983
 31
0.0
  0
LINE
  5
5DC
330
1D
100
AcDbEntity
  8
0
100
AcDbLine
 10
2.140951811997
 20
120.196983
 30
0.0
 11
2.219261811997
 21
120.078983
 31
0.0
  0
LINE
  5
5DD
330
1D
100
AcDbEntity
  8
0
100
AcDbLine
 10
2.113201811997
 20
120.245983
 30
0.0
 11
2.140951811997
 21
120.196983
 31
0.0
  0
LINE
  5
5DE
330
1D
100
AcDbEntity
  8
0
100
AcDbLine
 10
2.381831811997
 20
119.967983
 30
0.0
 11
2.574141811997
 21
119.927983
 31
0.0
  0
LINE
  5
5DF
330
1D
100
AcDbEntity
  8
0
100
AcDbLine
 10
2.219261811997
 20
120.078983
 30
0.0
 11
2.381831811997
 21
119.967983
 31
0.0
  0
LINE
  5
5E0
330
1D
100
AcDbEntity
  8
0
100
AcDbLine
 10
2.912171811997
 20
152.519983
 30
0.0
 11
2.913161811997
 21
152.959983
 31
0.0
  0
LINE
  5
5E1
330
1D
100
AcDbEntity
  8
0
100
AcDbLine
 10
2.816021811997
 20
148.874983
 30
0.0
 11
2.912171811997
 21
152.519983
 31
0.0
  0
LINE
  5
5E2
330
1D
100
AcDbEntity
  8
0
100
AcDbLine
 10
2.913161811997
 20
152.959983
 30
0.0
 11
2.939931811997
 21
153.940983
 31
0.0
  0
LINE
  5
5E3
330
1D
100
AcDbEntity
  8
0
100
AcDbLine
 10
2.947861811997
 20
154.673983
 30
0.0
 11
2.964711811997
 21
155.525983
 31
0.0
  0
LINE
  5
5E4
330
1D
100
AcDbEntity
  8
0
100
AcDbLine
 10
2.939931811997
 20
153.940983
 30
0.0
 11
2.947861811997
 21
154.673983
 31
0.0
  0
LINE
  5
5E5
330
1D
100
AcDbEntity
  8
0
100
AcDbLine
 10
2.079491811997
 20
120.441983
 30
0.0
 11
2.113201811997
 21
120.245983
 31
0.0
  0
LINE
  5
5E6
330
1D
100
AcDbEntity
  8
0
100
AcDbLine
 10
2.574141811997
 20
119.927983
 30
0.0
 11
2.634611811997
 21
119.927983
 31
0.0
  0
LINE
  5
5E7
330
1D
100
AcDbEntity
  8
0
100
AcDbLine
 10
3.431611811997
 20
119.927983
 30
0.0
 11
4.399101811997
 21
119.927983
 31
0.0
  0
LINE
  5
5E8
330
1D
100
AcDbEntity
  8
0
100
AcDbLine
 10
3.117371811997
 20
158.222983
 30
0.0
 11
3.214511811997
 21
158.812983
 31
0.0
  0
LINE
  5
5E9
330
1D
100
AcDbEntity
  8
0
100
AcDbLine
 10
3.032121811997
 20
157.569983
 30
0.0
 11
3.117371811997
 21
158.222983
 31
0.0
  0
LINE
  5
5EA
330
1D
100
AcDbEntity
  8
0
100
AcDbLine
 10
3.214511811997
 20
158.812983
 30
0.0
 11
3.493061811997
 21
160.304983
 31
0.0
  0
LINE
  5
5EB
330
1D
100
AcDbEntity
  8
0
100
AcDbLine
 10
2.989491811997
 20
156.108983
 30
0.0
 11
3.032121811997
 21
157.569983
 31
0.0
  0
LINE
  5
5EC
330
1D
100
AcDbEntity
  8
0
100
AcDbLine
 10
2.964711811997
 20
155.525983
 30
0.0
 11
2.989491811997
 21
156.108983
 31
0.0
  0
LINE
  5
5ED
330
1D
100
AcDbEntity
  8
0
100
AcDbLine
 10
11.937741811997
 20
97.211983
 30
0.0
 11
11.991241811997
 21
97.036983
 31
0.0
  0
LINE
  5
5EE
330
1D
100
AcDbEntity
  8
0
100
AcDbLine
 10
11.991241811997
 20
97.036983
 30
0.0
 11
12.179941811997
 21
96.490983
 31
0.0
  0
LINE
  5
5EF
330
1D
100
AcDbEntity
  8
0
100
AcDbLine
 10
12.179941811997
 20
96.490983
 30
0.0
 11
12.473541811997
 21
95.957983
 31
0.0
  0
LINE
  5
5F0
330
1D
100
AcDbEntity
  8
0
100
AcDbLine
 10
12.473541811997
 20
95.957983
 30
0.0
 11
12.871041811997
 21
95.438983
 31
0.0
  0
LINE
  5
5F1
330
1D
100
AcDbEntity
  8
0
100
AcDbLine
 10
12.871041811997
 20
95.438983
 30
0.0
 11
13.367441811997
 21
94.941983
 31
0.0
  0
LINE
  5
5F2
330
1D
100
AcDbEntity
  8
0
100
AcDbLine
 10
13.695477962117
 20
96.995685255713
 30
0.0
 11
13.865841811997
 21
96.505983
 31
0.0
  0
LINE
  5
5F3
330
1D
100
AcDbEntity
  8
0
100
AcDbLine
 10
13.688272090882
 20
97.027983
 30
0.0
 11
15.107841811997
 21
97.027983
 31
0.0
  0
LINE
  5
5F4
330
1D
100
AcDbEntity
  8
0
100
AcDbLine
 10
13.635841811997
 20
97.262983
 30
0.0
 11
13.747841811997
 21
96.760983
 31
0.0
  0
LINE
  5
5F5
330
1D
100
AcDbEntity
  8
0
100
AcDbLine
 10
13.865841811997
 20
96.505983
 30
0.0
 11
14.158441811997
 21
95.996983
 31
0.0
  0
LINE
  5
5F6
330
1D
100
AcDbEntity
  8
0
100
AcDbLine
 10
13.747841811997
 20
96.760983
 30
0.0
 11
13.962741811997
 21
96.266983
 31
0.0
  0
LINE
  5
5F7
330
1D
100
AcDbEntity
  8
0
100
AcDbLine
 10
13.962741811997
 20
96.266983
 30
0.0
 11
14.280541811997
 21
95.787983
 31
0.0
  0
LINE
  5
5F8
330
1D
100
AcDbEntity
  8
0
100
AcDbLine
 10
13.367441811997
 20
94.941983
 30
0.0
 11
13.959641811997
 21
94.469983
 31
0.0
  0
LINE
  5
5F9
330
1D
100
AcDbEntity
  8
0
100
AcDbLine
 10
13.959641811997
 20
94.469983
 30
0.0
 11
14.081741811997
 21
94.379983
 31
0.0
  0
LINE
  5
5FA
330
1D
100
AcDbEntity
  8
0
100
AcDbLine
 10
13.631841811997
 20
97.547983
 30
0.0
 11
13.635841811997
 21
97.262983
 31
0.0
  0
LINE
  5
5FB
330
1D
100
AcDbEntity
  8
0
100
AcDbLine
 10
13.631841811997
 20
97.547983
 30
0.0
 11
13.635841811997
 21
97.833983
 31
0.0
  0
LINE
  5
5FC
330
1D
100
AcDbEntity
  8
0
100
AcDbLine
 10
14.562041811997
 20
95.504983
 30
0.0
 11
15.070541811997
 21
95.035983
 31
0.0
  0
LINE
  5
5FD
330
1D
100
AcDbEntity
  8
0
100
AcDbLine
 10
14.158441811997
 20
95.996983
 30
0.0
 11
14.562041811997
 21
95.504983
 31
0.0
  0
LINE
  5
5FE
330
1D
100
AcDbEntity
  8
0
100
AcDbLine
 10
14.280541811997
 20
95.787983
 30
0.0
 11
14.695241811997
 21
95.323983
 31
0.0
  0
LINE
  5
5FF
330
1D
100
AcDbEntity
  8
0
100
AcDbLine
 10
14.081741811997
 20
94.379983
 30
0.0
 11
14.754741811997
 21
93.941983
 31
0.0
  0
LINE
  5
600
330
1D
100
AcDbEntity
  8
0
100
AcDbLine
 10
13.635841811997
 20
97.833983
 30
0.0
 11
13.747841811997
 21
98.334983
 31
0.0
  0
LINE
  5
601
330
1D
100
AcDbEntity
  8
0
100
AcDbLine
 10
13.708049396827
 20
98.156983
 30
0.0
 11
15.107841811997
 21
98.156983
 31
0.0
  0
LINE
  5
602
330
1D
100
AcDbEntity
  8
0
100
AcDbLine
 10
13.747841811997
 20
98.334983
 30
0.0
 11
13.962741811997
 21
98.827983
 31
0.0
  0
LINE
  5
603
330
1D
100
AcDbEntity
  8
0
100
AcDbLine
 10
13.962741811997
 20
98.827983
 30
0.0
 11
14.280541811997
 21
99.308983
 31
0.0
  0
LINE
  5
604
330
1D
100
AcDbEntity
  8
0
100
AcDbLine
 10
14.280541811997
 20
99.308983
 30
0.0
 11
14.695241811997
 21
99.770983
 31
0.0
  0
LINE
  5
605
330
1D
100
AcDbEntity
  8
0
100
AcDbLine
 10
11.856041811997
 20
98.041983
 30
0.0
 11
11.862841811997
 21
97.903983
 31
0.0
  0
LINE
  5
606
330
1D
100
AcDbEntity
  8
0
100
AcDbLine
 10
11.856041811997
 20
98.041983
 30
0.0
 11
11.856041811997
 21
102.6265431709
 31
0.0
  0
LINE
  5
607
330
1D
100
AcDbEntity
  8
0
100
AcDbLine
 10
14.695241811997
 20
99.770983
 30
0.0
 11
15.204741811997
 21
100.209983
 31
0.0
  0
LINE
  5
608
330
1D
100
AcDbEntity
  8
0
100
AcDbLine
 10
11.856041811997
 20
97.765983
 30
0.0
 11
11.937741811997
 21
97.211983
 31
0.0
  0
LINE
  5
609
330
1D
100
AcDbEntity
  8
0
100
AcDbLine
 10
11.856041811997
 20
97.765983
 30
0.0
 11
11.856041811997
 21
102.6265431709
 31
0.0
  0
LINE
  5
60A
330
1D
100
AcDbEntity
  8
0
100
AcDbLine
 10
14.695241811997
 20
95.323983
 30
0.0
 11
15.204741811997
 21
94.885983
 31
0.0
  0
LINE
  5
60B
330
1D
100
AcDbEntity
  8
0
100
AcDbLine
 10
11.531441811997
 20
101.294983
 30
0.0
 11
11.790141811997
 21
100.691983
 31
0.0
  0
LINE
  5
60C
330
1D
100
AcDbEntity
  8
0
100
AcDbLine
 10
11.507641811997
 20
101.417983
 30
0.0
 11
11.531441811997
 21
101.294983
 31
0.0
  0
LINE
  5
60D
330
1D
100
AcDbEntity
  8
0
100
AcDbLine
 10
11.469941811997
 20
101.860983
 30
0.0
 11
11.507641811997
 21
101.417983
 31
0.0
  0
LINE
  5
60E
330
1D
100
AcDbEntity
  8
0
100
AcDbLine
 10
11.469941811997
 20
101.860983
 30
0.0
 11
11.531441811997
 21
101.294983
 31
0.0
  0
LINE
  5
60F
330
1D
100
AcDbEntity
  8
0
100
AcDbLine
 10
11.469941811997
 20
101.860983
 30
0.0
 11
11.619641811997
 21
102.345983
 31
0.0
  0
LINE
  5
610
330
1D
100
AcDbEntity
  8
0
100
AcDbLine
 10
11.619641811997
 20
102.345983
 30
0.0
 11
12.040941811997
 21
102.845983
 31
0.0
  0
LINE
  5
611
330
1D
100
AcDbEntity
  8
0
100
AcDbLine
 10
11.856041811997
 20
102.6265431709
 30
0.0
 11
11.856041811997
 21
97.765983
 31
0.0
  0
LINE
  5
612
330
1D
100
AcDbEntity
  8
0
100
AcDbLine
 10
11.856041811997
 20
102.6265431709
 30
0.0
 11
11.856041811997
 21
98.041983
 31
0.0
  0
LINE
  5
613
330
1D
100
AcDbEntity
  8
0
100
AcDbLine
 10
12.708041811997
 20
103.299983
 30
0.0
 11
13.604141811997
 21
103.728983
 31
0.0
  0
LINE
  5
614
330
1D
100
AcDbEntity
  8
0
100
AcDbLine
 10
12.040941811997
 20
102.845983
 30
0.0
 11
12.708041811997
 21
103.299983
 31
0.0
  0
LINE
  5
615
330
1D
100
AcDbEntity
  8
0
100
AcDbLine
 10
13.604141811997
 20
103.728983
 30
0.0
 11
14.712441811997
 21
104.136983
 31
0.0
  0
LINE
  5
616
330
1D
100
AcDbEntity
  8
0
100
AcDbLine
 10
11.82380740417
 20
102.588287286937
 30
0.0
 11
11.856041811997
 21
102.532781873384
 31
0.0
  0
LINE
  5
617
330
1D
100
AcDbEntity
  8
0
100
AcDbLine
 10
11.790141811997
 20
100.691983
 30
0.0
 11
11.856041811997
 21
100.594464097429
 31
0.0
  0
LINE
  5
618
330
1D
100
AcDbEntity
  8
0
100
AcDbLine
 10
14.754741811997
 20
93.941983
 30
0.0
 11
15.510441811997
 21
93.537983
 31
0.0
  0
LINE
  5
619
330
1D
100
AcDbEntity
  8
0
100
AcDbLine
 10
15.677941811997
 20
94.597983
 30
0.0
 11
16.378141811997
 21
94.191983
 31
0.0
  0
LINE
  5
61A
330
1D
100
AcDbEntity
  8
0
100
AcDbLine
 10
15.510441811997
 20
93.537983
 30
0.0
 11
16.341741811997
 21
93.169983
 31
0.0
  0
LINE
  5
61B
330
1D
100
AcDbEntity
  8
0
100
AcDbLine
 10
15.107841811997
 20
98.156983
 30
0.0
 11
15.107841811997
 21
97.027983
 31
0.0
  0
LINE
  5
61C
330
1D
100
AcDbEntity
  8
0
100
AcDbLine
 10
15.107841811997
 20
98.156983
 30
0.0
 11
15.276341811997
 21
98.596983
 31
0.0
  0
LINE
  5
61D
330
1D
100
AcDbEntity
  8
0
100
AcDbLine
 10
15.070541811997
 20
95.035983
 30
0.0
 11
15.677941811997
 21
94.597983
 31
0.0
  0
LINE
  5
61E
330
1D
100
AcDbEntity
  8
0
100
AcDbLine
 10
15.537641811997
 20
96.158983
 30
0.0
 11
15.889741811997
 21
95.745983
 31
0.0
  0
LINE
  5
61F
330
1D
100
AcDbEntity
  8
0
100
AcDbLine
 10
15.276341811997
 20
98.596983
 30
0.0
 11
15.537641811997
 21
99.025983
 31
0.0
  0
LINE
  5
620
330
1D
100
AcDbEntity
  8
0
100
AcDbLine
 10
15.537641811997
 20
99.025983
 30
0.0
 11
15.889741811997
 21
99.439983
 31
0.0
  0
LINE
  5
621
330
1D
100
AcDbEntity
  8
0
100
AcDbLine
 10
15.204741811997
 20
100.209983
 30
0.0
 11
15.804041811997
 21
100.621983
 31
0.0
  0
LINE
  5
622
330
1D
100
AcDbEntity
  8
0
100
AcDbLine
 10
15.450190687075
 20
98.882406526248
 30
0.0
 11
15.720341811997
 21
98.512983
 31
0.0
  0
LINE
  5
623
330
1D
100
AcDbEntity
  8
0
100
AcDbLine
 10
15.720341811997
 20
98.512983
 30
0.0
 11
16.154141811997
 21
98.080983
 31
0.0
  0
LINE
  5
624
330
1D
100
AcDbEntity
  8
0
100
AcDbLine
 10
15.276341811997
 20
96.587983
 30
0.0
 11
15.537641811997
 21
96.158983
 31
0.0
  0
LINE
  5
625
330
1D
100
AcDbEntity
  8
0
100
AcDbLine
 10
15.107841811997
 20
97.027983
 30
0.0
 11
15.107841811997
 21
98.156983
 31
0.0
  0
LINE
  5
626
330
1D
100
AcDbEntity
  8
0
100
AcDbLine
 10
15.107841811997
 20
97.027983
 30
0.0
 11
15.276341811997
 21
96.587983
 31
0.0
  0
LINE
  5
627
330
1D
100
AcDbEntity
  8
0
100
AcDbLine
 10
15.204741811997
 20
94.885983
 30
0.0
 11
15.804041811997
 21
94.472983
 31
0.0
  0
LINE
  5
628
330
1D
100
AcDbEntity
  8
0
100
AcDbLine
 10
20.892141811997
 20
92.825983
 30
0.0
 11
21.915141811997
 21
92.703983
 31
0.0
  0
LINE
  5
629
330
1D
100
AcDbEntity
  8
0
100
AcDbLine
 10
19.900341811997
 20
93.000983
 30
0.0
 11
20.892141811997
 21
92.825983
 31
0.0
  0
LINE
  5
62A
330
1D
100
AcDbEntity
  8
0
100
AcDbLine
 10
19.884141811997
 20
92.958983
 30
0.0
 11
20.859841811997
 21
92.786983
 31
0.0
  0
LINE
  5
62B
330
1D
100
AcDbEntity
  8
0
100
AcDbLine
 10
20.859841811997
 20
92.786983
 30
0.0
 11
21.864741811997
 21
92.663983
 31
0.0
  0
LINE
  5
62C
330
1D
100
AcDbEntity
  8
0
100
AcDbLine
 10
21.915141811997
 20
92.703983
 30
0.0
 11
22.960441811997
 21
92.631983
 31
0.0
  0
LINE
  5
62D
330
1D
100
AcDbEntity
  8
0
100
AcDbLine
 10
21.864741811997
 20
92.663983
 30
0.0
 11
22.891841811997
 21
92.590983
 31
0.0
  0
LINE
  5
62E
330
1D
100
AcDbEntity
  8
0
100
AcDbLine
 10
18.200241811997
 20
92.558983
 30
0.0
 11
19.210241811997
 21
92.318983
 31
0.0
  0
LINE
  5
62F
330
1D
100
AcDbEntity
  8
0
100
AcDbLine
 10
17.240741811997
 20
92.842983
 30
0.0
 11
18.200241811997
 21
92.558983
 31
0.0
  0
LINE
  5
630
330
1D
100
AcDbEntity
  8
0
100
AcDbLine
 10
18.023741811997
 20
93.500983
 30
0.0
 11
18.949941811997
 21
93.222983
 31
0.0
  0
LINE
  5
631
330
1D
100
AcDbEntity
  8
0
100
AcDbLine
 10
16.378141811997
 20
94.191983
 30
0.0
 11
17.163041811997
 21
93.824983
 31
0.0
  0
LINE
  5
632
330
1D
100
AcDbEntity
  8
0
100
AcDbLine
 10
15.889741811997
 20
99.439983
 30
0.0
 11
16.329741811997
 21
99.832983
 31
0.0
  0
LINE
  5
633
330
1D
100
AcDbEntity
  8
0
100
AcDbLine
 10
15.804041811997
 20
100.621983
 30
0.0
 11
16.484041811997
 21
101.001983
 31
0.0
  0
LINE
  5
634
330
1D
100
AcDbEntity
  8
0
100
AcDbLine
 10
16.329741811997
 20
99.832983
 30
0.0
 11
16.850341811997
 21
100.201983
 31
0.0
  0
LINE
  5
635
330
1D
100
AcDbEntity
  8
0
100
AcDbLine
 10
16.484041811997
 20
101.001983
 30
0.0
 11
17.240741811997
 21
101.347983
 31
0.0
  0
LINE
  5
636
330
1D
100
AcDbEntity
  8
0
100
AcDbLine
 10
16.154141811997
 20
98.080983
 30
0.0
 11
16.684841811997
 21
97.674983
 31
0.0
  0
LINE
  5
637
330
1D
100
AcDbEntity
  8
0
100
AcDbLine
 10
16.329741811997
 20
95.351983
 30
0.0
 11
16.850341811997
 21
94.981983
 31
0.0
  0
LINE
  5
638
330
1D
100
AcDbEntity
  8
0
100
AcDbLine
 10
15.889741811997
 20
95.745983
 30
0.0
 11
16.329741811997
 21
95.351983
 31
0.0
  0
LINE
  5
639
330
1D
100
AcDbEntity
  8
0
100
AcDbLine
 10
15.804041811997
 20
94.472983
 30
0.0
 11
16.484041811997
 21
94.092983
 31
0.0
  0
LINE
  5
63A
330
1D
100
AcDbEntity
  8
0
100
AcDbLine
 10
16.850341811997
 20
94.981983
 30
0.0
 11
17.446541811997
 21
94.641983
 31
0.0
  0
LINE
  5
63B
330
1D
100
AcDbEntity
  8
0
100
AcDbLine
 10
16.850341811997
 20
100.201983
 30
0.0
 11
17.446541811997
 21
100.542983
 31
0.0
  0
LINE
  5
63C
330
1D
100
AcDbEntity
  8
0
100
AcDbLine
 10
17.240741811997
 20
101.347983
 30
0.0
 11
18.066041811997
 21
101.652983
 31
0.0
  0
LINE
  5
63D
330
1D
100
AcDbEntity
  8
0
100
AcDbLine
 10
16.684841811997
 20
97.674983
 30
0.0
 11
17.305341811997
 21
97.299983
 31
0.0
  0
LINE
  5
63E
330
1D
100
AcDbEntity
  8
0
100
AcDbLine
 10
17.446541811997
 20
100.542983
 30
0.0
 11
18.113541811997
 21
100.850983
 31
0.0
  0
LINE
  5
63F
330
1D
100
AcDbEntity
  8
0
100
AcDbLine
 10
18.066041811997
 20
101.652983
 30
0.0
 11
18.949941811997
 21
101.917983
 31
0.0
  0
LINE
  5
640
330
1D
100
AcDbEntity
  8
0
100
AcDbLine
 10
18.008541811997
 20
96.960983
 30
0.0
 11
18.786441811997
 21
96.662983
 31
0.0
  0
LINE
  5
641
330
1D
100
AcDbEntity
  8
0
100
AcDbLine
 10
17.446541811997
 20
94.641983
 30
0.0
 11
18.113541811997
 21
94.332983
 31
0.0
  0
LINE
  5
642
330
1D
100
AcDbEntity
  8
0
100
AcDbLine
 10
17.305341811997
 20
97.299983
 30
0.0
 11
18.008541811997
 21
96.960983
 31
0.0
  0
LINE
  5
643
330
1D
100
AcDbEntity
  8
0
100
AcDbLine
 10
17.163041811997
 20
93.824983
 30
0.0
 11
18.023741811997
 21
93.500983
 31
0.0
  0
LINE
  5
644
330
1D
100
AcDbEntity
  8
0
100
AcDbLine
 10
16.484041811997
 20
94.092983
 30
0.0
 11
17.240741811997
 21
93.747983
 31
0.0
  0
LINE
  5
645
330
1D
100
AcDbEntity
  8
0
100
AcDbLine
 10
17.240741811997
 20
93.747983
 30
0.0
 11
18.066041811997
 21
93.441983
 31
0.0
  0
LINE
  5
646
330
1D
100
AcDbEntity
  8
0
100
AcDbLine
 10
18.113541811997
 20
94.332983
 30
0.0
 11
18.842941811997
 21
94.059983
 31
0.0
  0
LINE
  5
647
330
1D
100
AcDbEntity
  8
0
100
AcDbLine
 10
18.842941811997
 20
94.059983
 30
0.0
 11
19.626941811997
 21
93.824983
 31
0.0
  0
LINE
  5
648
330
1D
100
AcDbEntity
  8
0
100
AcDbLine
 10
18.786441811997
 20
96.662983
 30
0.0
 11
19.626941811997
 21
96.407983
 31
0.0
  0
LINE
  5
649
330
1D
100
AcDbEntity
  8
0
100
AcDbLine
 10
18.113541811997
 20
100.850983
 30
0.0
 11
18.842941811997
 21
101.124983
 31
0.0
  0
LINE
  5
64A
330
1D
100
AcDbEntity
  8
0
100
AcDbLine
 10
18.842941811997
 20
101.124983
 30
0.0
 11
19.626941811997
 21
101.358983
 31
0.0
  0
LINE
  5
64B
330
1D
100
AcDbEntity
  8
0
100
AcDbLine
 10
18.949941811997
 20
101.917983
 30
0.0
 11
19.884141811997
 21
102.136983
 31
0.0
  0
LINE
  5
64C
330
1D
100
AcDbEntity
  8
0
100
AcDbLine
 10
19.626941811997
 20
93.824983
 30
0.0
 11
20.535941811997
 21
93.614983
 31
0.0
  0
LINE
  5
64D
330
1D
100
AcDbEntity
  8
0
100
AcDbLine
 10
20.535941811997
 20
93.614983
 30
0.0
 11
21.488441811997
 21
93.457983
 31
0.0
  0
LINE
  5
64E
330
1D
100
AcDbEntity
  8
0
100
AcDbLine
 10
21.488441811997
 20
93.457983
 30
0.0
 11
22.472141811997
 21
93.352983
 31
0.0
  0
LINE
  5
64F
330
1D
100
AcDbEntity
  8
0
100
AcDbLine
 10
19.626941811997
 20
96.407983
 30
0.0
 11
20.520841811997
 21
96.201983
 31
0.0
  0
LINE
  5
650
330
1D
100
AcDbEntity
  8
0
100
AcDbLine
 10
20.520841811997
 20
96.201983
 30
0.0
 11
21.457141811997
 21
96.044983
 31
0.0
  0
LINE
  5
651
330
1D
100
AcDbEntity
  8
0
100
AcDbLine
 10
21.457141811997
 20
96.044983
 30
0.0
 11
22.423741811997
 21
95.939983
 31
0.0
  0
LINE
  5
652
330
1D
100
AcDbEntity
  8
0
100
AcDbLine
 10
22.472141811997
 20
93.352983
 30
0.0
 11
23.473041811997
 21
93.303983
 31
0.0
  0
LINE
  5
653
330
1D
100
AcDbEntity
  8
0
100
AcDbLine
 10
22.423741811997
 20
95.939983
 30
0.0
 11
23.407441811997
 21
95.888983
 31
0.0
  0
LINE
  5
654
330
1D
100
AcDbEntity
  8
0
100
AcDbLine
 10
19.626941811997
 20
101.358983
 30
0.0
 11
20.535941811997
 21
101.569983
 31
0.0
  0
LINE
  5
655
330
1D
100
AcDbEntity
  8
0
100
AcDbLine
 10
20.535941811997
 20
101.569983
 30
0.0
 11
21.488441811997
 21
101.727983
 31
0.0
  0
LINE
  5
656
330
1D
100
AcDbEntity
  8
0
100
AcDbLine
 10
21.488441811997
 20
101.727983
 30
0.0
 11
22.472141811997
 21
101.831983
 31
0.0
  0
LINE
  5
657
330
1D
100
AcDbEntity
  8
0
100
AcDbLine
 10
19.884141811997
 20
102.136983
 30
0.0
 11
20.859841811997
 21
102.308983
 31
0.0
  0
LINE
  5
658
330
1D
100
AcDbEntity
  8
0
100
AcDbLine
 10
20.859841811997
 20
102.308983
 30
0.0
 11
21.864741811997
 21
102.431983
 31
0.0
  0
LINE
  5
659
330
1D
100
AcDbEntity
  8
0
100
AcDbLine
 10
22.472141811997
 20
101.831983
 30
0.0
 11
23.473041811997
 21
101.880983
 31
0.0
  0
LINE
  5
65A
330
1D
100
AcDbEntity
  8
0
100
AcDbLine
 10
21.864741811997
 20
102.431983
 30
0.0
 11
22.891841811997
 21
102.504983
 31
0.0
  0
LINE
  5
65B
330
1D
100
AcDbEntity
  8
0
100
AcDbLine
 10
18.949941811997
 20
93.222983
 30
0.0
 11
19.900341811997
 21
93.000983
 31
0.0
  0
LINE
  5
65C
330
1D
100
AcDbEntity
  8
0
100
AcDbLine
 10
18.949941811997
 20
93.177983
 30
0.0
 11
19.884141811997
 21
92.958983
 31
0.0
  0
LINE
  5
65D
330
1D
100
AcDbEntity
  8
0
100
AcDbLine
 10
18.066041811997
 20
93.441983
 30
0.0
 11
18.949941811997
 21
93.177983
 31
0.0
  0
LINE
  5
65E
330
1D
100
AcDbEntity
  8
0
100
AcDbLine
 10
16.341741811997
 20
93.169983
 30
0.0
 11
17.240741811997
 21
92.842983
 31
0.0
  0
LINE
  5
65F
330
1D
100
AcDbEntity
  8
0
100
AcDbLine
 10
15.790941811997
 20
104.463983
 30
0.0
 11
16.976541811997
 21
104.765983
 31
0.0
  0
LINE
  5
660
330
1D
100
AcDbEntity
  8
0
100
AcDbLine
 10
18.276141811997
 20
105.035983
 30
0.0
 11
20.770141811997
 21
105.390983
 31
0.0
  0
LINE
  5
661
330
1D
100
AcDbEntity
  8
0
100
AcDbLine
 10
20.770141811997
 20
105.390983
 30
0.0
 11
22.889541811997
 21
105.524983
 31
0.0
  0
LINE
  5
662
330
1D
100
AcDbEntity
  8
0
100
AcDbLine
 10
16.976541811997
 20
104.765983
 30
0.0
 11
18.276141811997
 21
105.035983
 31
0.0
  0
LINE
  5
663
330
1D
100
AcDbEntity
  8
0
100
AcDbLine
 10
14.712441811997
 20
104.136983
 30
0.0
 11
15.790941811997
 21
104.463983
 31
0.0
  0
LINE
  5
664
330
1D
100
AcDbEntity
  8
0
100
AcDbLine
 10
23.473041811997
 20
93.303983
 30
0.0
 11
23.856041811997
 21
93.305983
 31
0.0
  0
LINE
  5
665
330
1D
100
AcDbEntity
  8
0
100
AcDbLine
 10
22.960441811997
 20
92.631983
 30
0.0
 11
23.856041811997
 21
92.615983
 31
0.0
  0
LINE
  5
666
330
1D
100
AcDbEntity
  8
0
100
AcDbLine
 10
22.891841811997
 20
92.590983
 30
0.0
 11
23.856041811997
 21
92.569983
 31
0.0
  0
LINE
  5
667
330
1D
100
AcDbEntity
  8
0
100
AcDbLine
 10
23.856041811997
 20
101.878983
 30
0.0
 11
24.239041811997
 21
101.880983
 31
0.0
  0
LINE
  5
668
330
1D
100
AcDbEntity
  8
0
100
AcDbLine
 10
23.856041811997
 20
102.524983
 30
0.0
 11
24.820241811997
 21
102.504983
 31
0.0
  0
LINE
  5
669
330
1D
100
AcDbEntity
  8
0
100
AcDbLine
 10
23.473041811997
 20
101.880983
 30
0.0
 11
23.856041811997
 21
101.878983
 31
0.0
  0
LINE
  5
66A
330
1D
100
AcDbEntity
  8
0
100
AcDbLine
 10
22.891841811997
 20
102.504983
 30
0.0
 11
23.856041811997
 21
102.524983
 31
0.0
  0
LINE
  5
66B
330
1D
100
AcDbEntity
  8
0
100
AcDbLine
 10
23.407441811997
 20
95.888983
 30
0.0
 11
23.856041811997
 21
95.889983
 31
0.0
  0
LINE
  5
66C
330
1D
100
AcDbEntity
  8
0
100
AcDbLine
 10
23.856041811997
 20
95.889983
 30
0.0
 11
24.304641811997
 21
95.888983
 31
0.0
  0
LINE
  5
66D
330
1D
100
AcDbEntity
  8
0
100
AcDbLine
 10
23.856041811997
 20
93.305983
 30
0.0
 11
24.239041811997
 21
93.303983
 31
0.0
  0
LINE
  5
66E
330
1D
100
AcDbEntity
  8
0
100
AcDbLine
 10
23.856041811997
 20
92.615983
 30
0.0
 11
24.751641811997
 21
92.631983
 31
0.0
  0
LINE
  5
66F
330
1D
100
AcDbEntity
  8
0
100
AcDbLine
 10
23.856041811997
 20
92.569983
 30
0.0
 11
24.820241811997
 21
92.590983
 31
0.0
  0
LINE
  5
670
330
1D
100
AcDbEntity
  8
0
100
AcDbLine
 10
23.856041811997
 20
105.537983
 30
0.0
 11
24.822541811997
 21
105.524983
 31
0.0
  0
LINE
  5
671
330
1D
100
AcDbEntity
  8
0
100
AcDbLine
 10
22.889541811997
 20
105.524983
 30
0.0
 11
23.856041811997
 21
105.537983
 31
0.0
  0
LINE
  5
672
330
1D
100
AcDbEntity
  8
0
100
AcDbLine
 10
24.751641811997
 20
92.631983
 30
0.0
 11
25.796941811997
 21
92.703983
 31
0.0
  0
LINE
  5
673
330
1D
100
AcDbEntity
  8
0
100
AcDbLine
 10
25.796941811997
 20
92.703983
 30
0.0
 11
26.819941811997
 21
92.825983
 31
0.0
  0
LINE
  5
674
330
1D
100
AcDbEntity
  8
0
100
AcDbLine
 10
26.819941811997
 20
92.825983
 30
0.0
 11
27.811741811997
 21
93.000983
 31
0.0
  0
LINE
  5
675
330
1D
100
AcDbEntity
  8
0
100
AcDbLine
 10
26.852241811997
 20
92.786983
 30
0.0
 11
27.827941811997
 21
92.958983
 31
0.0
  0
LINE
  5
676
330
1D
100
AcDbEntity
  8
0
100
AcDbLine
 10
25.847341811997
 20
92.663983
 30
0.0
 11
26.852241811997
 21
92.786983
 31
0.0
  0
LINE
  5
677
330
1D
100
AcDbEntity
  8
0
100
AcDbLine
 10
24.820241811997
 20
92.590983
 30
0.0
 11
25.847341811997
 21
92.663983
 31
0.0
  0
LINE
  5
678
330
1D
100
AcDbEntity
  8
0
100
AcDbLine
 10
29.511841811997
 20
92.558983
 30
0.0
 11
30.471341811997
 21
92.842983
 31
0.0
  0
LINE
  5
679
330
1D
100
AcDbEntity
  8
0
100
AcDbLine
 10
27.811741811997
 20
93.000983
 30
0.0
 11
28.762141811997
 21
93.222983
 31
0.0
  0
LINE
  5
67A
330
1D
100
AcDbEntity
  8
0
100
AcDbLine
 10
27.827941811997
 20
92.958983
 30
0.0
 11
28.762141811997
 21
93.177983
 31
0.0
  0
LINE
  5
67B
330
1D
100
AcDbEntity
  8
0
100
AcDbLine
 10
28.762141811997
 20
93.222983
 30
0.0
 11
29.688341811997
 21
93.500983
 31
0.0
  0
LINE
  5
67C
330
1D
100
AcDbEntity
  8
0
100
AcDbLine
 10
28.869141811997
 20
94.059983
 30
0.0
 11
29.598541811997
 21
94.332983
 31
0.0
  0
LINE
  5
67D
330
1D
100
AcDbEntity
  8
0
100
AcDbLine
 10
28.925641811997
 20
96.662983
 30
0.0
 11
29.703541811997
 21
96.960983
 31
0.0
  0
LINE
  5
67E
330
1D
100
AcDbEntity
  8
0
100
AcDbLine
 10
29.598541811997
 20
94.332983
 30
0.0
 11
30.265541811997
 21
94.641983
 31
0.0
  0
LINE
  5
67F
330
1D
100
AcDbEntity
  8
0
100
AcDbLine
 10
28.085141811997
 20
96.407983
 30
0.0
 11
28.925641811997
 21
96.662983
 31
0.0
  0
LINE
  5
680
330
1D
100
AcDbEntity
  8
0
100
AcDbLine
 10
28.085141811997
 20
93.824983
 30
0.0
 11
28.869141811997
 21
94.059983
 31
0.0
  0
LINE
  5
681
330
1D
100
AcDbEntity
  8
0
100
AcDbLine
 10
27.191241811997
 20
96.201983
 30
0.0
 11
28.085141811997
 21
96.407983
 31
0.0
  0
LINE
  5
682
330
1D
100
AcDbEntity
  8
0
100
AcDbLine
 10
27.176141811997
 20
93.614983
 30
0.0
 11
28.085141811997
 21
93.824983
 31
0.0
  0
LINE
  5
683
330
1D
100
AcDbEntity
  8
0
100
AcDbLine
 10
26.254941811997
 20
96.044983
 30
0.0
 11
27.191241811997
 21
96.201983
 31
0.0
  0
LINE
  5
684
330
1D
100
AcDbEntity
  8
0
100
AcDbLine
 10
26.223641811997
 20
93.457983
 30
0.0
 11
27.176141811997
 21
93.614983
 31
0.0
  0
LINE
  5
685
330
1D
100
AcDbEntity
  8
0
100
AcDbLine
 10
25.288341811997
 20
95.939983
 30
0.0
 11
26.254941811997
 21
96.044983
 31
0.0
  0
LINE
  5
686
330
1D
100
AcDbEntity
  8
0
100
AcDbLine
 10
25.239941811997
 20
93.352983
 30
0.0
 11
26.223641811997
 21
93.457983
 31
0.0
  0
LINE
  5
687
330
1D
100
AcDbEntity
  8
0
100
AcDbLine
 10
24.304641811997
 20
95.888983
 30
0.0
 11
25.288341811997
 21
95.939983
 31
0.0
  0
LINE
  5
688
330
1D
100
AcDbEntity
  8
0
100
AcDbLine
 10
24.239041811997
 20
93.303983
 30
0.0
 11
25.239941811997
 21
93.352983
 31
0.0
  0
LINE
  5
689
330
1D
100
AcDbEntity
  8
0
100
AcDbLine
 10
29.688341811997
 20
93.500983
 30
0.0
 11
30.549041811997
 21
93.824983
 31
0.0
  0
LINE
  5
68A
330
1D
100
AcDbEntity
  8
0
100
AcDbLine
 10
30.265541811997
 20
100.542983
 30
0.0
 11
30.861741811997
 21
100.201983
 31
0.0
  0
LINE
  5
68B
330
1D
100
AcDbEntity
  8
0
100
AcDbLine
 10
30.861741811997
 20
100.201983
 30
0.0
 11
31.382341811997
 21
99.832983
 31
0.0
  0
LINE
  5
68C
330
1D
100
AcDbEntity
  8
0
100
AcDbLine
 10
31.027241811997
 20
97.674983
 30
0.0
 11
31.557941811997
 21
98.080983
 31
0.0
  0
LINE
  5
68D
330
1D
100
AcDbEntity
  8
0
100
AcDbLine
 10
30.861741811997
 20
94.981983
 30
0.0
 11
31.382341811997
 21
95.351983
 31
0.0
  0
LINE
  5
68E
330
1D
100
AcDbEntity
  8
0
100
AcDbLine
 10
30.406741811997
 20
97.299983
 30
0.0
 11
31.027241811997
 21
97.674983
 31
0.0
  0
LINE
  5
68F
330
1D
100
AcDbEntity
  8
0
100
AcDbLine
 10
30.265541811997
 20
94.641983
 30
0.0
 11
30.861741811997
 21
94.981983
 31
0.0
  0
LINE
  5
690
330
1D
100
AcDbEntity
  8
0
100
AcDbLine
 10
29.703541811997
 20
96.960983
 30
0.0
 11
30.406741811997
 21
97.299983
 31
0.0
  0
LINE
  5
691
330
1D
100
AcDbEntity
  8
0
100
AcDbLine
 10
30.549041811997
 20
93.824983
 30
0.0
 11
31.333941811997
 21
94.191983
 31
0.0
  0
LINE
  5
692
330
1D
100
AcDbEntity
  8
0
100
AcDbLine
 10
31.333941811997
 20
94.191983
 30
0.0
 11
32.034141811997
 21
94.597983
 31
0.0
  0
LINE
  5
693
330
1D
100
AcDbEntity
  8
0
100
AcDbLine
 10
31.228041811997
 20
94.092983
 30
0.0
 11
31.908041811997
 21
94.472983
 31
0.0
  0
LINE
  5
694
330
1D
100
AcDbEntity
  8
0
100
AcDbLine
 10
30.471341811997
 20
93.747983
 30
0.0
 11
31.228041811997
 21
94.092983
 31
0.0
  0
LINE
  5
695
330
1D
100
AcDbEntity
  8
0
100
AcDbLine
 10
29.646041811997
 20
93.441983
 30
0.0
 11
30.471341811997
 21
93.747983
 31
0.0
  0
LINE
  5
696
330
1D
100
AcDbEntity
  8
0
100
AcDbLine
 10
28.762141811997
 20
93.177983
 30
0.0
 11
29.646041811997
 21
93.441983
 31
0.0
  0
LINE
  5
697
330
1D
100
AcDbEntity
  8
0
100
AcDbLine
 10
31.382341811997
 20
95.351983
 30
0.0
 11
31.822341811997
 21
95.745983
 31
0.0
  0
LINE
  5
698
330
1D
100
AcDbEntity
  8
0
100
AcDbLine
 10
31.382341811997
 20
99.832983
 30
0.0
 11
31.822341811997
 21
99.439983
 31
0.0
  0
LINE
  5
699
330
1D
100
AcDbEntity
  8
0
100
AcDbLine
 10
31.822341811997
 20
99.439983
 30
0.0
 11
32.174441811997
 21
99.025983
 31
0.0
  0
LINE
  5
69A
330
1D
100
AcDbEntity
  8
0
100
AcDbLine
 10
31.557941811997
 20
98.080983
 30
0.0
 11
31.991741811997
 21
98.512983
 31
0.0
  0
LINE
  5
69B
330
1D
100
AcDbEntity
  8
0
100
AcDbLine
 10
31.822341811997
 20
95.745983
 30
0.0
 11
32.174441811997
 21
96.158983
 31
0.0
  0
LINE
  5
69C
330
1D
100
AcDbEntity
  8
0
100
AcDbLine
 10
31.370341811997
 20
93.169983
 30
0.0
 11
32.201641811997
 21
93.537983
 31
0.0
  0
LINE
  5
69D
330
1D
100
AcDbEntity
  8
0
100
AcDbLine
 10
30.471341811997
 20
92.842983
 30
0.0
 11
31.370341811997
 21
93.169983
 31
0.0
  0
LINE
  5
69E
330
1D
100
AcDbEntity
  8
0
100
AcDbLine
 10
32.034141811997
 20
94.597983
 30
0.0
 11
32.641541811997
 21
95.035983
 31
0.0
  0
LINE
  5
69F
330
1D
100
AcDbEntity
  8
0
100
AcDbLine
 10
33.752441811997
 20
94.469983
 30
0.0
 11
34.344641811997
 21
94.941983
 31
0.0
  0
LINE
  5
6A0
330
1D
100
AcDbEntity
  8
0
100
AcDbLine
 10
33.630341811997
 20
94.379983
 30
0.0
 11
33.752441811997
 21
94.469983
 31
0.0
  0
LINE
  5
6A1
330
1D
100
AcDbEntity
  8
0
100
AcDbLine
 10
32.957341811997
 20
93.941983
 30
0.0
 11
33.630341811997
 21
94.379983
 31
0.0
  0
LINE
  5
6A2
330
1D
100
AcDbEntity
  8
0
100
AcDbLine
 10
32.201641811997
 20
93.537983
 30
0.0
 11
32.957341811997
 21
93.941983
 31
0.0
  0
LINE
  5
6A3
330
1D
100
AcDbEntity
  8
0
100
AcDbLine
 10
32.641541811997
 20
95.035983
 30
0.0
 11
33.150041811997
 21
95.504983
 31
0.0
  0
LINE
  5
6A4
330
1D
100
AcDbEntity
  8
0
100
AcDbLine
 10
32.174441811997
 20
96.158983
 30
0.0
 11
32.435741811997
 21
96.587983
 31
0.0
  0
LINE
  5
6A5
330
1D
100
AcDbEntity
  8
0
100
AcDbLine
 10
32.435741811997
 20
96.587983
 30
0.0
 11
32.604241811997
 21
97.027983
 31
0.0
  0
LINE
  5
6A6
330
1D
100
AcDbEntity
  8
0
100
AcDbLine
 10
33.150041811997
 20
95.504983
 30
0.0
 11
33.553641811997
 21
95.996983
 31
0.0
  0
LINE
  5
6A7
330
1D
100
AcDbEntity
  8
0
100
AcDbLine
 10
33.553641811997
 20
95.996983
 30
0.0
 11
33.846241811997
 21
96.505983
 31
0.0
  0
LINE
  5
6A8
330
1D
100
AcDbEntity
  8
0
100
AcDbLine
 10
33.846241811997
 20
96.505983
 30
0.0
 11
34.016605661877
 21
96.995685255713
 31
0.0
  0
LINE
  5
6A9
330
1D
100
AcDbEntity
  8
0
100
AcDbLine
 10
33.964241811997
 20
96.760983
 30
0.0
 11
34.076241811997
 21
97.262983
 31
0.0
  0
LINE
  5
6AA
330
1D
100
AcDbEntity
  8
0
100
AcDbLine
 10
33.749341811997
 20
96.266983
 30
0.0
 11
33.964241811997
 21
96.760983
 31
0.0
  0
LINE
  5
6AB
330
1D
100
AcDbEntity
  8
0
100
AcDbLine
 10
33.431541811997
 20
95.787983
 30
0.0
 11
33.749341811997
 21
96.266983
 31
0.0
  0
LINE
  5
6AC
330
1D
100
AcDbEntity
  8
0
100
AcDbLine
 10
33.016841811997
 20
95.323983
 30
0.0
 11
33.431541811997
 21
95.787983
 31
0.0
  0
LINE
  5
6AD
330
1D
100
AcDbEntity
  8
0
100
AcDbLine
 10
35.532141811997
 20
96.490983
 30
0.0
 11
35.720841811997
 21
97.036983
 31
0.0
  0
LINE
  5
6AE
330
1D
100
AcDbEntity
  8
0
100
AcDbLine
 10
35.238541811997
 20
95.957983
 30
0.0
 11
35.532141811997
 21
96.490983
 31
0.0
  0
LINE
  5
6AF
330
1D
100
AcDbEntity
  8
0
100
AcDbLine
 10
34.841041811997
 20
95.438983
 30
0.0
 11
35.238541811997
 21
95.957983
 31
0.0
  0
LINE
  5
6B0
330
1D
100
AcDbEntity
  8
0
100
AcDbLine
 10
34.344641811997
 20
94.941983
 30
0.0
 11
34.841041811997
 21
95.438983
 31
0.0
  0
LINE
  5
6B1
330
1D
100
AcDbEntity
  8
0
100
AcDbLine
 10
32.604241811997
 20
97.027983
 30
0.0
 11
34.023811533112
 21
97.027983
 31
0.0
  0
LINE
  5
6B2
330
1D
100
AcDbEntity
  8
0
100
AcDbLine
 10
32.604241811997
 20
97.027983
 30
0.0
 11
34.023811533112
 21
97.027983
 31
0.0
  0
LINE
  5
6B3
330
1D
100
AcDbEntity
  8
0
100
AcDbLine
 10
32.604241811997
 20
97.027983
 30
0.0
 11
32.604241811997
 21
98.156983
 31
0.0
  0
LINE
  5
6B4
330
1D
100
AcDbEntity
  8
0
100
AcDbLine
 10
34.076241811997
 20
97.262983
 30
0.0
 11
34.080241811997
 21
97.547983
 31
0.0
  0
LINE
  5
6B5
330
1D
100
AcDbEntity
  8
0
100
AcDbLine
 10
32.174441811997
 20
99.025983
 30
0.0
 11
32.435741811997
 21
98.596983
 31
0.0
  0
LINE
  5
6B6
330
1D
100
AcDbEntity
  8
0
100
AcDbLine
 10
32.435741811997
 20
98.596983
 30
0.0
 11
32.604241811997
 21
98.156983
 31
0.0
  0
LINE
  5
6B7
330
1D
100
AcDbEntity
  8
0
100
AcDbLine
 10
32.507341811997
 20
100.209983
 30
0.0
 11
33.016841811997
 21
99.770983
 31
0.0
  0
LINE
  5
6B8
330
1D
100
AcDbEntity
  8
0
100
AcDbLine
 10
31.991741811997
 20
98.512983
 30
0.0
 11
32.261892936919
 21
98.882406526248
 31
0.0
  0
LINE
  5
6B9
330
1D
100
AcDbEntity
  8
0
100
AcDbLine
 10
34.076241811997
 20
97.833983
 30
0.0
 11
34.080241811997
 21
97.547983
 31
0.0
  0
LINE
  5
6BA
330
1D
100
AcDbEntity
  8
0
100
AcDbLine
 10
33.964241811997
 20
98.334983
 30
0.0
 11
34.076241811997
 21
97.833983
 31
0.0
  0
LINE
  5
6BB
330
1D
100
AcDbEntity
  8
0
100
AcDbLine
 10
33.749341811997
 20
98.827983
 30
0.0
 11
33.964241811997
 21
98.334983
 31
0.0
  0
LINE
  5
6BC
330
1D
100
AcDbEntity
  8
0
100
AcDbLine
 10
33.431541811997
 20
99.308983
 30
0.0
 11
33.749341811997
 21
98.827983
 31
0.0
  0
LINE
  5
6BD
330
1D
100
AcDbEntity
  8
0
100
AcDbLine
 10
33.016841811997
 20
99.770983
 30
0.0
 11
33.431541811997
 21
99.308983
 31
0.0
  0
LINE
  5
6BE
330
1D
100
AcDbEntity
  8
0
100
AcDbLine
 10
32.604241811997
 20
98.156983
 30
0.0
 11
32.604241811997
 21
97.027983
 31
0.0
  0
LINE
  5
6BF
330
1D
100
AcDbEntity
  8
0
100
AcDbLine
 10
32.604241811997
 20
98.156983
 30
0.0
 11
34.004034227167
 21
98.156983
 31
0.0
  0
LINE
  5
6C0
330
1D
100
AcDbEntity
  8
0
100
AcDbLine
 10
35.720841811997
 20
97.036983
 30
0.0
 11
35.774341811997
 21
97.211983
 31
0.0
  0
LINE
  5
6C1
330
1D
100
AcDbEntity
  8
0
100
AcDbLine
 10
35.849241811997
 20
97.903983
 30
0.0
 11
35.856041811997
 21
98.041983
 31
0.0
  0
LINE
  5
6C2
330
1D
100
AcDbEntity
  8
0
100
AcDbLine
 10
35.856041811997
 20
97.765983
 30
0.0
 11
35.856041811997
 21
98.041983
 31
0.0
  0
LINE
  5
6C3
330
1D
100
AcDbEntity
  8
0
100
AcDbLine
 10
35.856041811997
 20
98.041983
 30
0.0
 11
35.856041811997
 21
97.765983
 31
0.0
  0
LINE
  5
6C4
330
1D
100
AcDbEntity
  8
0
100
AcDbLine
 10
35.856041811997
 20
98.041983
 30
0.0
 11
35.856041811997
 21
102.6265431709
 31
0.0
  0
LINE
  5
6C5
330
1D
100
AcDbEntity
  8
0
100
AcDbLine
 10
35.774341811997
 20
97.211983
 30
0.0
 11
35.856041811997
 21
97.765983
 31
0.0
  0
LINE
  5
6C6
330
1D
100
AcDbEntity
  8
0
100
AcDbLine
 10
32.507341811997
 20
94.885983
 30
0.0
 11
33.016841811997
 21
95.323983
 31
0.0
  0
LINE
  5
6C7
330
1D
100
AcDbEntity
  8
0
100
AcDbLine
 10
31.908041811997
 20
94.472983
 30
0.0
 11
32.507341811997
 21
94.885983
 31
0.0
  0
LINE
  5
6C8
330
1D
100
AcDbEntity
  8
0
100
AcDbLine
 10
29.598541811997
 20
100.850983
 30
0.0
 11
30.265541811997
 21
100.542983
 31
0.0
  0
LINE
  5
6C9
330
1D
100
AcDbEntity
  8
0
100
AcDbLine
 10
31.908041811997
 20
100.621983
 30
0.0
 11
32.507341811997
 21
100.209983
 31
0.0
  0
LINE
  5
6CA
330
1D
100
AcDbEntity
  8
0
100
AcDbLine
 10
35.856041811997
 20
100.594464097429
 30
0.0
 11
35.921941811997
 21
100.691983
 31
0.0
  0
LINE
  5
6CB
330
1D
100
AcDbEntity
  8
0
100
AcDbLine
 10
35.921941811997
 20
100.691983
 30
0.0
 11
36.180641811997
 21
101.294983
 31
0.0
  0
LINE
  5
6CC
330
1D
100
AcDbEntity
  8
0
100
AcDbLine
 10
25.239941811997
 20
101.831983
 30
0.0
 11
26.223641811997
 21
101.727983
 31
0.0
  0
LINE
  5
6CD
330
1D
100
AcDbEntity
  8
0
100
AcDbLine
 10
24.239041811997
 20
101.880983
 30
0.0
 11
25.239941811997
 21
101.831983
 31
0.0
  0
LINE
  5
6CE
330
1D
100
AcDbEntity
  8
0
100
AcDbLine
 10
27.176141811997
 20
101.569983
 30
0.0
 11
28.085141811997
 21
101.358983
 31
0.0
  0
LINE
  5
6CF
330
1D
100
AcDbEntity
  8
0
100
AcDbLine
 10
26.223641811997
 20
101.727983
 30
0.0
 11
27.176141811997
 21
101.569983
 31
0.0
  0
LINE
  5
6D0
330
1D
100
AcDbEntity
  8
0
100
AcDbLine
 10
28.085141811997
 20
101.358983
 30
0.0
 11
28.869141811997
 21
101.124983
 31
0.0
  0
LINE
  5
6D1
330
1D
100
AcDbEntity
  8
0
100
AcDbLine
 10
27.827941811997
 20
102.136983
 30
0.0
 11
28.762141811997
 21
101.917983
 31
0.0
  0
LINE
  5
6D2
330
1D
100
AcDbEntity
  8
0
100
AcDbLine
 10
26.852241811997
 20
102.308983
 30
0.0
 11
27.827941811997
 21
102.136983
 31
0.0
  0
LINE
  5
6D3
330
1D
100
AcDbEntity
  8
0
100
AcDbLine
 10
25.847341811997
 20
102.431983
 30
0.0
 11
26.852241811997
 21
102.308983
 31
0.0
  0
LINE
  5
6D4
330
1D
100
AcDbEntity
  8
0
100
AcDbLine
 10
24.820241811997
 20
102.504983
 30
0.0
 11
25.847341811997
 21
102.431983
 31
0.0
  0
LINE
  5
6D5
330
1D
100
AcDbEntity
  8
0
100
AcDbLine
 10
28.869141811997
 20
101.124983
 30
0.0
 11
29.598541811997
 21
100.850983
 31
0.0
  0
LINE
  5
6D6
330
1D
100
AcDbEntity
  8
0
100
AcDbLine
 10
31.228041811997
 20
101.001983
 30
0.0
 11
31.908041811997
 21
100.621983
 31
0.0
  0
LINE
  5
6D7
330
1D
100
AcDbEntity
  8
0
100
AcDbLine
 10
30.471341811997
 20
101.347983
 30
0.0
 11
31.228041811997
 21
101.001983
 31
0.0
  0
LINE
  5
6D8
330
1D
100
AcDbEntity
  8
0
100
AcDbLine
 10
29.646041811997
 20
101.652983
 30
0.0
 11
30.471341811997
 21
101.347983
 31
0.0
  0
LINE
  5
6D9
330
1D
100
AcDbEntity
  8
0
100
AcDbLine
 10
28.762141811997
 20
101.917983
 30
0.0
 11
29.646041811997
 21
101.652983
 31
0.0
  0
LINE
  5
6DA
330
1D
100
AcDbEntity
  8
0
100
AcDbLine
 10
24.822541811997
 20
105.524983
 30
0.0
 11
26.941941811997
 21
105.390983
 31
0.0
  0
LINE
  5
6DB
330
1D
100
AcDbEntity
  8
0
100
AcDbLine
 10
26.941941811997
 20
105.390983
 30
0.0
 11
29.435941811997
 21
105.035983
 31
0.0
  0
LINE
  5
6DC
330
1D
100
AcDbEntity
  8
0
100
AcDbLine
 10
29.435941811997
 20
105.035983
 30
0.0
 11
30.735541811997
 21
104.765983
 31
0.0
  0
LINE
  5
6DD
330
1D
100
AcDbEntity
  8
0
100
AcDbLine
 10
30.735541811997
 20
104.765983
 30
0.0
 11
31.921141811997
 21
104.463983
 31
0.0
  0
LINE
  5
6DE
330
1D
100
AcDbEntity
  8
0
100
AcDbLine
 10
36.204441811997
 20
101.417983
 30
0.0
 11
36.242141811997
 21
101.860983
 31
0.0
  0
LINE
  5
6DF
330
1D
100
AcDbEntity
  8
0
100
AcDbLine
 10
36.180641811997
 20
101.294983
 30
0.0
 11
36.204441811997
 21
101.417983
 31
0.0
  0
LINE
  5
6E0
330
1D
100
AcDbEntity
  8
0
100
AcDbLine
 10
35.856041811997
 20
102.6265431709
 30
0.0
 11
35.856041811997
 21
98.041983
 31
0.0
  0
LINE
  5
6E1
330
1D
100
AcDbEntity
  8
0
100
AcDbLine
 10
35.671141811997
 20
102.845983
 30
0.0
 11
36.092441811997
 21
102.345983
 31
0.0
  0
LINE
  5
6E2
330
1D
100
AcDbEntity
  8
0
100
AcDbLine
 10
32.999641811997
 20
104.136983
 30
0.0
 11
34.107941811997
 21
103.728983
 31
0.0
  0
LINE
  5
6E3
330
1D
100
AcDbEntity
  8
0
100
AcDbLine
 10
34.107941811997
 20
103.728983
 30
0.0
 11
35.004041811997
 21
103.299983
 31
0.0
  0
LINE
  5
6E4
330
1D
100
AcDbEntity
  8
0
100
AcDbLine
 10
35.004041811997
 20
103.299983
 30
0.0
 11
35.671141811997
 21
102.845983
 31
0.0
  0
LINE
  5
6E5
330
1D
100
AcDbEntity
  8
0
100
AcDbLine
 10
36.092441811997
 20
102.345983
 30
0.0
 11
36.242141811997
 21
101.860983
 31
0.0
  0
LINE
  5
6E6
330
1D
100
AcDbEntity
  8
0
100
AcDbLine
 10
31.921141811997
 20
104.463983
 30
0.0
 11
32.999641811997
 21
104.136983
 31
0.0
  0
LINE
  5
6E7
330
1D
100
AcDbEntity
  8
0
100
AcDbLine
 10
3.667531811997
 20
117.431983
 30
0.0
 11
4.212741811997
 21
117.445983
 31
0.0
  0
LINE
  5
6E8
330
1D
100
AcDbEntity
  8
0
100
AcDbLine
 10
3.688041650895
 20
117.432509655316
 30
0.0
 11
3.742871811997
 21
118.515983
 31
0.0
  0
LINE
  5
6E9
330
1D
100
AcDbEntity
  8
0
100
AcDbLine
 10
3.493061811997
 20
160.304983
 30
0.0
 11
3.955001811997
 21
162.586983
 31
0.0
  0
LINE
  5
6EA
330
1D
100
AcDbEntity
  8
0
100
AcDbLine
 10
4.212741811997
 20
117.445983
 30
0.0
 11
5.111831811997
 21
117.470983
 31
0.0
  0
LINE
  5
6EB
330
1D
100
AcDbEntity
  8
0
100
AcDbLine
 10
5.725441811997
 20
119.927983
 30
0.0
 11
7.260941811997
 21
119.927983
 31
0.0
  0
LINE
  5
6EC
330
1D
100
AcDbEntity
  8
0
100
AcDbLine
 10
4.399101811997
 20
119.927983
 30
0.0
 11
5.725441811997
 21
119.927983
 31
0.0
  0
LINE
  5
6ED
330
1D
100
AcDbEntity
  8
0
100
AcDbLine
 10
7.260941811997
 20
119.927983
 30
0.0
 11
9.060121811997
 21
119.927983
 31
0.0
  0
LINE
  5
6EE
330
1D
100
AcDbEntity
  8
0
100
AcDbLine
 10
8.248261811997
 20
117.544983
 30
0.0
 11
10.359741811997
 21
117.586983
 31
0.0
  0
LINE
  5
6EF
330
1D
100
AcDbEntity
  8
0
100
AcDbLine
 10
6.487741811997
 20
117.504983
 30
0.0
 11
8.248261811997
 21
117.544983
 31
0.0
  0
LINE
  5
6F0
330
1D
100
AcDbEntity
  8
0
100
AcDbLine
 10
5.111831811997
 20
117.470983
 30
0.0
 11
6.487741811997
 21
117.504983
 31
0.0
  0
LINE
  5
6F1
330
1D
100
AcDbEntity
  8
0
100
AcDbLine
 10
10.359741811997
 20
117.586983
 30
0.0
 11
12.148941811997
 21
117.617983
 31
0.0
  0
LINE
  5
6F2
330
1D
100
AcDbEntity
  8
0
100
AcDbLine
 10
12.148941811997
 20
117.617983
 30
0.0
 11
14.089941811997
 21
117.647983
 31
0.0
  0
LINE
  5
6F3
330
1D
100
AcDbEntity
  8
0
100
AcDbLine
 10
14.089941811997
 20
117.647983
 30
0.0
 11
16.514541811997
 21
117.676983
 31
0.0
  0
LINE
  5
6F4
330
1D
100
AcDbEntity
  8
0
100
AcDbLine
 10
11.560141811997
 20
119.927983
 30
0.0
 11
13.558541811997
 21
119.927983
 31
0.0
  0
LINE
  5
6F5
330
1D
100
AcDbEntity
  8
0
100
AcDbLine
 10
9.703471811997
 20
119.927983
 30
0.0
 11
11.560141811997
 21
119.927983
 31
0.0
  0
LINE
  5
6F6
330
1D
100
AcDbEntity
  8
0
100
AcDbLine
 10
3.955001811997
 20
162.586983
 30
0.0
 11
4.941331811997
 21
167.384983
 31
0.0
  0
LINE
  5
6F7
330
1D
100
AcDbEntity
  8
0
100
AcDbLine
 10
4.941331811997
 20
167.384983
 30
0.0
 11
5.809701811997
 21
171.567983
 31
0.0
  0
LINE
  5
6F8
330
1D
100
AcDbEntity
  8
0
100
AcDbLine
 10
5.870171811997
 20
171.841983
 30
0.0
 11
6.149711811997
 21
172.578983
 31
0.0
  0
LINE
  5
6F9
330
1D
100
AcDbEntity
  8
0
100
AcDbLine
 10
6.908041811997
 20
173.558983
 30
0.0
 11
7.699091811997
 21
174.179983
 31
0.0
  0
LINE
  5
6FA
330
1D
100
AcDbEntity
  8
0
100
AcDbLine
 10
6.324171811997
 20
172.811983
 30
0.0
 11
6.908041811997
 21
173.558983
 31
0.0
  0
LINE
  5
6FB
330
1D
100
AcDbEntity
  8
0
100
AcDbLine
 10
6.149711811997
 20
172.578983
 30
0.0
 11
6.324171811997
 21
172.811983
 31
0.0
  0
LINE
  5
6FC
330
1D
100
AcDbEntity
  8
0
100
AcDbLine
 10
5.811681811997
 20
171.573983
 30
0.0
 11
5.870171811997
 21
171.841983
 31
0.0
  0
LINE
  5
6FD
330
1D
100
AcDbEntity
  8
0
100
AcDbLine
 10
7.699091811997
 20
174.179983
 30
0.0
 11
7.836871811997
 21
174.265983
 31
0.0
  0
LINE
  5
6FE
330
1D
100
AcDbEntity
  8
0
100
AcDbLine
 10
8.709211811997
 20
174.726983
 30
0.0
 11
9.410041811997
 21
175.020983
 31
0.0
  0
LINE
  5
6FF
330
1D
100
AcDbEntity
  8
0
100
AcDbLine
 10
9.410041811997
 20
175.020983
 30
0.0
 11
10.209041811997
 21
175.299983
 31
0.0
  0
LINE
  5
700
330
1D
100
AcDbEntity
  8
0
100
AcDbLine
 10
10.209041811997
 20
175.299983
 30
0.0
 11
11.081341811997
 21
175.559983
 31
0.0
  0
LINE
  5
701
330
1D
100
AcDbEntity
  8
0
100
AcDbLine
 10
11.302441811997
 20
175.617983
 30
0.0
 11
12.239141811997
 21
175.855983
 31
0.0
  0
LINE
  5
702
330
1D
100
AcDbEntity
  8
0
100
AcDbLine
 10
11.081341811997
 20
175.559983
 30
0.0
 11
11.302441811997
 21
175.617983
 31
0.0
  0
LINE
  5
703
330
1D
100
AcDbEntity
  8
0
100
AcDbLine
 10
12.239141811997
 20
175.855983
 30
0.0
 11
13.742941811997
 21
176.166983
 31
0.0
  0
LINE
  5
704
330
1D
100
AcDbEntity
  8
0
100
AcDbLine
 10
13.742941811997
 20
176.166983
 30
0.0
 11
14.276241811997
 21
176.259983
 31
0.0
  0
LINE
  5
705
330
1D
100
AcDbEntity
  8
0
100
AcDbLine
 10
14.276241811997
 20
176.259983
 30
0.0
 11
14.392241811997
 21
176.279983
 31
0.0
  0
LINE
  5
706
330
1D
100
AcDbEntity
  8
0
100
AcDbLine
 10
7.836871811997
 20
174.265983
 30
0.0
 11
8.709211811997
 21
174.726983
 31
0.0
  0
LINE
  5
707
330
1D
100
AcDbEntity
  8
0
100
AcDbLine
 10
13.334541811997
 20
119.927983
 30
0.0
 11
15.740341811997
 21
119.927983
 31
0.0
  0
LINE
  5
708
330
1D
100
AcDbEntity
  8
0
100
AcDbLine
 10
3.742871811997
 20
118.515983
 30
0.0
 11
3.960179565131
 21
119.927983
 31
0.0
  0
LINE
  5
709
330
1D
100
AcDbEntity
  8
0
100
AcDbLine
 10
16.514541811997
 20
117.676983
 30
0.0
 11
19.065141811997
 21
117.699983
 31
0.0
  0
LINE
  5
70A
330
1D
100
AcDbEntity
  8
0
100
AcDbLine
 10
14.392241811997
 20
176.279983
 30
0.0
 11
16.524541811997
 21
176.578983
 31
0.0
  0
LINE
  5
70B
330
1D
100
AcDbEntity
  8
0
100
AcDbLine
 10
16.524541811997
 20
176.578983
 30
0.0
 11
18.353441811997
 21
176.765983
 31
0.0
  0
LINE
  5
70C
330
1D
100
AcDbEntity
  8
0
100
AcDbLine
 10
18.353441811997
 20
176.765983
 30
0.0
 11
19.727341811997
 21
176.869983
 31
0.0
  0
LINE
  5
70D
330
1D
100
AcDbEntity
  8
0
100
AcDbLine
 10
15.740341811997
 20
119.927983
 30
0.0
 11
18.276141811997
 21
119.927983
 31
0.0
  0
LINE
  5
70E
330
1D
100
AcDbEntity
  8
0
100
AcDbLine
 10
19.065141811997
 20
117.699983
 30
0.0
 11
21.692041811997
 21
117.712983
 31
0.0
  0
LINE
  5
70F
330
1D
100
AcDbEntity
  8
0
100
AcDbLine
 10
18.642841811997
 20
119.927983
 30
0.0
 11
21.262841811997
 21
119.927983
 31
0.0
  0
LINE
  5
710
330
1D
100
AcDbEntity
  8
0
100
AcDbLine
 10
19.727341811997
 20
176.869983
 30
0.0
 11
21.124041811997
 21
176.944983
 31
0.0
  0
LINE
  5
711
330
1D
100
AcDbEntity
  8
0
100
AcDbLine
 10
20.902041811997
 20
119.927983
 30
0.0
 11
23.575541811997
 21
119.927983
 31
0.0
  0
LINE
  5
712
330
1D
100
AcDbEntity
  8
0
100
AcDbLine
 10
21.692041811997
 20
117.712983
 30
0.0
 11
23.855841811997
 21
117.715983
 31
0.0
  0
LINE
  5
713
330
1D
100
AcDbEntity
  8
0
100
AcDbLine
 10
21.262841811997
 20
119.927983
 30
0.0
 11
23.856041811997
 21
119.927983
 31
0.0
  0
LINE
  5
714
330
1D
100
AcDbEntity
  8
0
100
AcDbLine
 10
21.124041811997
 20
176.944983
 30
0.0
 11
23.170041811997
 21
176.999983
 31
0.0
  0
LINE
  5
715
330
1D
100
AcDbEntity
  8
0
100
AcDbLine
 10
45.182541811997
 20
117.335983
 30
0.0
 11
45.273741811997
 21
117.255983
 31
0.0
  0
LINE
  5
716
330
1D
100
AcDbEntity
  8
0
100
AcDbLine
 10
45.273741811997
 20
117.255983
 30
0.0
 11
45.357041811997
 21
117.157983
 31
0.0
  0
LINE
  5
717
330
1D
100
AcDbEntity
  8
0
100
AcDbLine
 10
45.357041811997
 20
117.157983
 30
0.0
 11
45.424441811997
 21
116.915983
 31
0.0
  0
LINE
  5
718
330
1D
100
AcDbEntity
  8
0
100
AcDbLine
 10
23.575541811997
 20
119.927983
 30
0.0
 11
23.856041811997
 21
119.927983
 31
0.0
  0
LINE
  5
719
330
1D
100
AcDbEntity
  8
0
100
AcDbLine
 10
35.563141811997
 20
117.617983
 30
0.0
 11
37.352341811997
 21
117.586983
 31
0.0
  0
LINE
  5
71A
330
1D
100
AcDbEntity
  8
0
100
AcDbLine
 10
37.352341811997
 20
117.586983
 30
0.0
 11
39.463841811997
 21
117.544983
 31
0.0
  0
LINE
  5
71B
330
1D
100
AcDbEntity
  8
0
100
AcDbLine
 10
41.224341811997
 20
117.504983
 30
0.0
 11
42.600241811997
 21
117.470983
 31
0.0
  0
LINE
  5
71C
330
1D
100
AcDbEntity
  8
0
100
AcDbLine
 10
39.463841811997
 20
117.544983
 30
0.0
 11
41.224341811997
 21
117.504983
 31
0.0
  0
LINE
  5
71D
330
1D
100
AcDbEntity
  8
0
100
AcDbLine
 10
42.600241811997
 20
117.470983
 30
0.0
 11
43.499341811997
 21
117.445983
 31
0.0
  0
LINE
  5
71E
330
1D
100
AcDbEntity
  8
0
100
AcDbLine
 10
44.049541811997
 20
117.432983
 30
0.0
 11
44.751341811997
 21
117.400983
 31
0.0
  0
LINE
  5
71F
330
1D
100
AcDbEntity
  8
0
100
AcDbLine
 10
44.044541811997
 20
117.431983
 30
0.0
 11
44.751341811997
 21
117.400983
 31
0.0
  0
LINE
  5
720
330
1D
100
AcDbEntity
  8
0
100
AcDbLine
 10
43.499341811997
 20
117.445983
 30
0.0
 11
44.044541811997
 21
117.431983
 31
0.0
  0
LINE
  5
721
330
1D
100
AcDbEntity
  8
0
100
AcDbLine
 10
44.751341811997
 20
117.400983
 30
0.0
 11
45.182541811997
 21
117.335983
 31
0.0
  0
LINE
  5
722
330
1D
100
AcDbEntity
  8
0
100
AcDbLine
 10
31.197541811997
 20
117.676983
 30
0.0
 11
33.622141811997
 21
117.647983
 31
0.0
  0
LINE
  5
723
330
1D
100
AcDbEntity
  8
0
100
AcDbLine
 10
33.622141811997
 20
117.647983
 30
0.0
 11
35.563141811997
 21
117.617983
 31
0.0
  0
LINE
  5
724
330
1D
100
AcDbEntity
  8
0
100
AcDbLine
 10
23.856041811997
 20
119.927983
 30
0.0
 11
24.136541811997
 21
119.927983
 31
0.0
  0
LINE
  5
725
330
1D
100
AcDbEntity
  8
0
100
AcDbLine
 10
26.020041811997
 20
117.712983
 30
0.0
 11
28.646941811997
 21
117.699983
 31
0.0
  0
LINE
  5
726
330
1D
100
AcDbEntity
  8
0
100
AcDbLine
 10
28.646941811997
 20
117.699983
 30
0.0
 11
31.197541811997
 21
117.676983
 31
0.0
  0
LINE
  5
727
330
1D
100
AcDbEntity
  8
0
100
AcDbLine
 10
26.449241811997
 20
119.927983
 30
0.0
 11
29.069241811997
 21
119.927983
 31
0.0
  0
LINE
  5
728
330
1D
100
AcDbEntity
  8
0
100
AcDbLine
 10
24.136541811997
 20
119.927983
 30
0.0
 11
26.810041811997
 21
119.927983
 31
0.0
  0
LINE
  5
729
330
1D
100
AcDbEntity
  8
0
100
AcDbLine
 10
34.377541811997
 20
119.927983
 30
0.0
 11
36.616841811997
 21
119.927983
 31
0.0
  0
LINE
  5
72A
330
1D
100
AcDbEntity
  8
0
100
AcDbLine
 10
36.616841811997
 20
119.927983
 30
0.0
 11
38.651941811997
 21
119.927983
 31
0.0
  0
LINE
  5
72B
330
1D
100
AcDbEntity
  8
0
100
AcDbLine
 10
41.174741811997
 20
119.927983
 30
0.0
 11
42.437641811997
 21
119.927983
 31
0.0
  0
LINE
  5
72C
330
1D
100
AcDbEntity
  8
0
100
AcDbLine
 10
38.651941811997
 20
119.927983
 30
0.0
 11
40.451141811997
 21
119.927983
 31
0.0
  0
LINE
  5
72D
330
1D
100
AcDbEntity
  8
0
100
AcDbLine
 10
40.451141811997
 20
119.927983
 30
0.0
 11
41.986641811997
 21
119.927983
 31
0.0
  0
LINE
  5
72E
330
1D
100
AcDbEntity
  8
0
100
AcDbLine
 10
29.435941811997
 20
119.927983
 30
0.0
 11
31.971741811997
 21
119.927983
 31
0.0
  0
LINE
  5
72F
330
1D
100
AcDbEntity
  8
0
100
AcDbLine
 10
31.971741811997
 20
119.927983
 30
0.0
 11
34.377541811997
 21
119.927983
 31
0.0
  0
LINE
  5
730
330
1D
100
AcDbEntity
  8
0
100
AcDbLine
 10
43.751927250763
 20
119.927983
 30
0.0
 11
43.969241811997
 21
118.515983
 31
0.0
  0
LINE
  5
731
330
1D
100
AcDbEntity
  8
0
100
AcDbLine
 10
44.455941811997
 20
119.927983
 30
0.0
 11
44.959541811997
 21
119.927983
 31
0.0
  0
LINE
  5
732
330
1D
100
AcDbEntity
  8
0
100
AcDbLine
 10
45.137941811997
 20
119.927983
 30
0.0
 11
45.330241811997
 21
119.967983
 31
0.0
  0
LINE
  5
733
330
1D
100
AcDbEntity
  8
0
100
AcDbLine
 10
44.959541811997
 20
119.927983
 30
0.0
 11
45.137941811997
 21
119.927983
 31
0.0
  0
LINE
  5
734
330
1D
100
AcDbEntity
  8
0
100
AcDbLine
 10
43.969241811997
 20
118.515983
 30
0.0
 11
44.02403579287
 21
117.432509566889
 31
0.0
  0
LINE
  5
735
330
1D
100
AcDbEntity
  8
0
100
AcDbLine
 10
42.437641811997
 20
119.927983
 30
0.0
 11
43.615341811997
 21
119.927983
 31
0.0
  0
LINE
  5
736
330
1D
100
AcDbEntity
  8
0
100
AcDbLine
 10
41.986641811997
 20
119.927983
 30
0.0
 11
43.312941811997
 21
119.927983
 31
0.0
  0
LINE
  5
737
330
1D
100
AcDbEntity
  8
0
100
AcDbLine
 10
45.330241811997
 20
119.967983
 30
0.0
 11
45.492841811997
 21
120.078983
 31
0.0
  0
LINE
  5
738
330
1D
100
AcDbEntity
  8
0
100
AcDbLine
 10
45.492841811997
 20
120.078983
 30
0.0
 11
45.571141811997
 21
120.196983
 31
0.0
  0
LINE
  5
739
330
1D
100
AcDbEntity
  8
0
100
AcDbLine
 10
45.598841811997
 20
120.245983
 30
0.0
 11
45.632641811997
 21
120.441983
 31
0.0
  0
LINE
  5
73A
330
1D
100
AcDbEntity
  8
0
100
AcDbLine
 10
45.571141811997
 20
120.196983
 30
0.0
 11
45.598841811997
 21
120.245983
 31
0.0
  0
LINE
  5
73B
330
1D
100
AcDbEntity
  8
0
100
AcDbLine
 10
43.312941811997
 20
119.927983
 30
0.0
 11
44.455941811997
 21
119.927983
 31
0.0
  0
LINE
  5
73C
330
1D
100
AcDbEntity
  8
0
100
AcDbLine
 10
23.856241811997
 20
117.715983
 30
0.0
 11
26.020041811997
 21
117.712983
 31
0.0
  0
LINE
  5
73D
330
1D
100
AcDbEntity
  8
0
100
AcDbLine
 10
44.764241811997
 20
154.673983
 30
0.0
 11
44.772141811997
 21
153.940983
 31
0.0
  0
LINE
  5
73E
330
1D
100
AcDbEntity
  8
0
100
AcDbLine
 10
44.747341811997
 20
155.525983
 30
0.0
 11
44.764241811997
 21
154.673983
 31
0.0
  0
LINE
  5
73F
330
1D
100
AcDbEntity
  8
0
100
AcDbLine
 10
44.679941811997
 20
157.569983
 30
0.0
 11
44.722641811997
 21
156.108983
 31
0.0
  0
LINE
  5
740
330
1D
100
AcDbEntity
  8
0
100
AcDbLine
 10
44.722641811997
 20
156.108983
 30
0.0
 11
44.747341811997
 21
155.525983
 31
0.0
  0
LINE
  5
741
330
1D
100
AcDbEntity
  8
0
100
AcDbLine
 10
44.772141811997
 20
153.940983
 30
0.0
 11
44.798941811997
 21
152.959983
 31
0.0
  0
LINE
  5
742
330
1D
100
AcDbEntity
  8
0
100
AcDbLine
 10
44.798941811997
 20
152.959983
 30
0.0
 11
44.799941811997
 21
152.519983
 31
0.0
  0
LINE
  5
743
330
1D
100
AcDbEntity
  8
0
100
AcDbLine
 10
44.799941811997
 20
152.519983
 30
0.0
 11
44.896041811997
 21
148.874983
 31
0.0
  0
LINE
  5
744
330
1D
100
AcDbEntity
  8
0
100
AcDbLine
 10
44.497541811997
 20
158.812983
 30
0.0
 11
44.594741811997
 21
158.222983
 31
0.0
  0
LINE
  5
745
330
1D
100
AcDbEntity
  8
0
100
AcDbLine
 10
44.219041811997
 20
160.304983
 30
0.0
 11
44.497541811997
 21
158.812983
 31
0.0
  0
LINE
  5
746
330
1D
100
AcDbEntity
  8
0
100
AcDbLine
 10
44.594741811997
 20
158.222983
 30
0.0
 11
44.679941811997
 21
157.569983
 31
0.0
  0
LINE
  5
747
330
1D
100
AcDbEntity
  8
0
100
AcDbLine
 10
43.757041811997
 20
162.586983
 30
0.0
 11
44.219041811997
 21
160.304983
 31
0.0
  0
LINE
  5
748
330
1D
100
AcDbEntity
  8
0
100
AcDbLine
 10
44.896041811997
 20
148.874983
 30
0.0
 11
45.632641811997
 21
120.464983
 31
0.0
  0
LINE
  5
749
330
1D
100
AcDbEntity
  8
0
100
AcDbLine
 10
42.770741811997
 20
167.384983
 30
0.0
 11
43.757041811997
 21
162.586983
 31
0.0
  0
LINE
  5
74A
330
1D
100
AcDbEntity
  8
0
100
AcDbLine
 10
26.588041811997
 20
176.944983
 30
0.0
 11
27.984741811997
 21
176.869983
 31
0.0
  0
LINE
  5
74B
330
1D
100
AcDbEntity
  8
0
100
AcDbLine
 10
41.902341811997
 20
171.567983
 30
0.0
 11
42.770741811997
 21
167.384983
 31
0.0
  0
LINE
  5
74C
330
1D
100
AcDbEntity
  8
0
100
AcDbLine
 10
33.319841811997
 20
176.279983
 30
0.0
 11
33.435841811997
 21
176.259983
 31
0.0
  0
LINE
  5
74D
330
1D
100
AcDbEntity
  8
0
100
AcDbLine
 10
39.002841811997
 20
174.726983
 30
0.0
 11
39.875241811997
 21
174.265983
 31
0.0
  0
LINE
  5
74E
330
1D
100
AcDbEntity
  8
0
100
AcDbLine
 10
39.875241811997
 20
174.265983
 30
0.0
 11
40.013041811997
 21
174.179983
 31
0.0
  0
LINE
  5
74F
330
1D
100
AcDbEntity
  8
0
100
AcDbLine
 10
38.302041811997
 20
175.020983
 30
0.0
 11
39.002841811997
 21
174.726983
 31
0.0
  0
LINE
  5
750
330
1D
100
AcDbEntity
  8
0
100
AcDbLine
 10
36.409641811997
 20
175.617983
 30
0.0
 11
36.630741811997
 21
175.559983
 31
0.0
  0
LINE
  5
751
330
1D
100
AcDbEntity
  8
0
100
AcDbLine
 10
36.630741811997
 20
175.559983
 30
0.0
 11
37.503041811997
 21
175.299983
 31
0.0
  0
LINE
  5
752
330
1D
100
AcDbEntity
  8
0
100
AcDbLine
 10
37.503041811997
 20
175.299983
 30
0.0
 11
38.302041811997
 21
175.020983
 31
0.0
  0
LINE
  5
753
330
1D
100
AcDbEntity
  8
0
100
AcDbLine
 10
35.472941811997
 20
175.855983
 30
0.0
 11
36.409641811997
 21
175.617983
 31
0.0
  0
LINE
  5
754
330
1D
100
AcDbEntity
  8
0
100
AcDbLine
 10
33.969141811997
 20
176.166983
 30
0.0
 11
35.472941811997
 21
175.855983
 31
0.0
  0
LINE
  5
755
330
1D
100
AcDbEntity
  8
0
100
AcDbLine
 10
33.435841811997
 20
176.259983
 30
0.0
 11
33.969141811997
 21
176.166983
 31
0.0
  0
LINE
  5
756
330
1D
100
AcDbEntity
  8
0
100
AcDbLine
 10
40.013041811997
 20
174.179983
 30
0.0
 11
40.804041811997
 21
173.558983
 31
0.0
  0
LINE
  5
757
330
1D
100
AcDbEntity
  8
0
100
AcDbLine
 10
41.841941811997
 20
171.841983
 30
0.0
 11
41.900441811997
 21
171.573983
 31
0.0
  0
LINE
  5
758
330
1D
100
AcDbEntity
  8
0
100
AcDbLine
 10
40.804041811997
 20
173.558983
 30
0.0
 11
41.387941811997
 21
172.811983
 31
0.0
  0
LINE
  5
759
330
1D
100
AcDbEntity
  8
0
100
AcDbLine
 10
41.387941811997
 20
172.811983
 30
0.0
 11
41.562341811997
 21
172.578983
 31
0.0
  0
LINE
  5
75A
330
1D
100
AcDbEntity
  8
0
100
AcDbLine
 10
41.562341811997
 20
172.578983
 30
0.0
 11
41.841941811997
 21
171.841983
 31
0.0
  0
LINE
  5
75B
330
1D
100
AcDbEntity
  8
0
100
AcDbLine
 10
31.187541811997
 20
176.578983
 30
0.0
 11
33.319841811997
 21
176.279983
 31
0.0
  0
LINE
  5
75C
330
1D
100
AcDbEntity
  8
0
100
AcDbLine
 10
27.984741811997
 20
176.869983
 30
0.0
 11
29.358641811997
 21
176.765983
 31
0.0
  0
LINE
  5
75D
330
1D
100
AcDbEntity
  8
0
100
AcDbLine
 10
29.358641811997
 20
176.765983
 30
0.0
 11
31.187541811997
 21
176.578983
 31
0.0
  0
LINE
  5
75E
330
1D
100
AcDbEntity
  8
0
100
AcDbLine
 10
23.856041811997
 20
177.003983
 30
0.0
 11
24.542041811997
 21
176.999983
 31
0.0
  0
LINE
  5
75F
330
1D
100
AcDbEntity
  8
0
100
AcDbLine
 10
24.542041811997
 20
176.999983
 30
0.0
 11
26.588041811997
 21
176.944983
 31
0.0
  0
LINE
  5
760
330
1D
100
AcDbEntity
  8
0
100
AcDbLine
 10
23.170041811997
 20
176.999983
 30
0.0
 11
23.856041811997
 21
177.003983
 31
0.0
  0
LINE
  5
768
330
1D
100
AcDbEntity
  8
0
100
AcDbLine
 10
6.149711811997
 20
172.578983
 30
0.0
 11
10.454314889048
 21
172.111305267272
 31
0.0
  0
LINE
  5
769
330
1D
100
AcDbEntity
  8
0
100
AcDbLine
 10
10.454314889048
 20
172.111305267272
 30
0.0
 11
16.997261139753
 21
171.700395599354
 31
0.0
  0
LINE
  5
76A
330
1D
100
AcDbEntity
  8
0
100
AcDbLine
 10
16.997261139753
 20
171.700395599354
 30
0.0
 11
29.008466817375
 21
171.700395599354
 31
0.0
  0
LINE
  5
76B
330
1D
100
AcDbEntity
  8
0
100
AcDbLine
 10
29.008466817375
 20
171.700395599354
 30
0.0
 11
37.258268611742
 21
171.700395599354
 31
0.0
  0
LINE
  5
76C
330
1D
100
AcDbEntity
  8
0
100
AcDbLine
 10
37.258268611742
 20
171.700395599354
 30
0.0
 11
40.735196571054
 21
172.332564319229
 31
0.0
  0
LINE
  5
76D
330
1D
100
AcDbEntity
  8
0
100
AcDbLine
 10
40.735196571054
 20
172.332564319229
 30
0.0
 11
41.562341811997
 21
172.578983
 31
0.0
  0
LINE
  5
76E
330
1D
100
AcDbEntity
  8
0
100
AcDbLine
 10
2.960741811997
 20
117.400983
 30
0.0
 11
3.667531811997
 21
117.431983
 31
0.0
  0
LINE
  5
76F
330
1D
100
AcDbEntity
  8
0
100
AcDbLine
 10
2.287661811997
 20
116.915983
 30
0.0
 11
1.115961811997
 21
60.582983
 31
0.0
  0
LINE
  5
770
330
1D
100
AcDbEntity
  8
0
100
AcDbLine
 10
46.596141811997
 20
60.582983
 30
0.0
 11
45.424441811997
 21
116.915983
 31
0.0
  0
LINE
  5
771
330
1D
100
AcDbEntity
  8
0
100
AcDbLine
 10
2.584846795242
 20
117.384496143198
 30
0.0
 11
5.448341266947
 21
106.554310979884
 31
0.0
  0
LINE
  5
772
330
1D
100
AcDbEntity
  8
0
100
AcDbLine
 10
5.448341266947
 20
106.554310979884
 30
0.0
 11
6.883356798517
 21
102.374048344441
 31
0.0
  0
LINE
  5
773
330
1D
100
AcDbEntity
  8
0
100
AcDbLine
 10
6.883356798517
 20
102.374048344441
 30
0.0
 11
7.944020452286
 21
100.564680935071
 31
0.0
  0
LINE
  5
774
330
1D
100
AcDbEntity
  8
0
100
AcDbLine
 10
7.944020452286
 20
100.564680935071
 30
0.0
 11
9.503819943123
 21
99.504017281301
 31
0.0
  0
LINE
  5
775
330
1D
100
AcDbEntity
  8
0
100
AcDbLine
 10
9.503819943123
 20
99.504017281301
 30
0.0
 11
11.095973087461
 21
99.072696164285
 31
0.0
  0
LINE
  5
776
330
1D
100
AcDbEntity
  8
0
100
AcDbLine
 10
11.095973087461
 20
99.072696164285
 30
0.0
 11
11.81717210557
 21
98.92785362776
 31
0.0
  0
LINE
  5
777
330
1D
100
AcDbEntity
  8
0
100
AcDbLine
 10
39.912473560359
 20
100.438632020808
 30
0.0
 11
38.352674069522
 21
99.377968367039
 31
0.0
  0
LINE
  5
778
330
1D
100
AcDbEntity
  8
0
100
AcDbLine
 10
40.973137214128
 20
102.247999430179
 30
0.0
 11
39.912473560359
 21
100.438632020808
 31
0.0
  0
LINE
  5
779
330
1D
100
AcDbEntity
  8
0
100
AcDbLine
 10
38.352674069522
 20
99.377968367039
 30
0.0
 11
36.760520925184
 21
98.946647250022
 31
0.0
  0
LINE
  5
77A
330
1D
100
AcDbEntity
  8
0
100
AcDbLine
 10
36.760520925184
 20
98.946647250022
 30
0.0
 11
36.039321907074
 21
98.801804713497
 31
0.0
  0
LINE
  5
77B
330
1D
100
AcDbEntity
  8
0
100
AcDbLine
 10
45.271647217402
 20
117.258447228935
 30
0.0
 11
42.408152745698
 21
106.428262065622
 31
0.0
  0
LINE
  5
77C
330
1D
100
AcDbEntity
  8
0
100
AcDbLine
 10
42.408152745698
 20
106.428262065622
 30
0.0
 11
40.973137214128
 21
102.247999430179
 31
0.0
  0
ENDSEC
  0
SECTION
  2
OBJECTS
  0
DICTIONARY
  5
C
330
0
100
AcDbDictionary
281
     1
  3
ACAD_GROUP
350
D
  3
ACAD_LAYOUT
350
1A
  3
ACAD_MLEADERSTYLE
350
77F
  3
ACAD_MLINESTYLE
350
17
  3
ACAD_PLOTSETTINGS
350
19
  3
ACAD_PLOTSTYLENAME
350
E
  3
ACAD_SCALELIST
350
344
  3
AcDbVariableDictionary
350
77D
  3
DWGPROPS
350
784
  0
DICTIONARY
  5
D
102
{ACAD_REACTORS
330
C
102
}
330
C
100
AcDbDictionary
281
     1
  0
DICTIONARY
  5
1A
102
{ACAD_REACTORS
330
C
102
}
330
C
100
AcDbDictionary
281
     1
  3
Layout1
350
1C
  3
Model
350
1E
  0
DICTIONARY
  5
77F
102
{ACAD_REACTORS
330
C
102
}
330
C
100
AcDbDictionary
281
     1
  0
DICTIONARY
  5
17
102
{ACAD_REACTORS
330
C
102
}
330
C
100
AcDbDictionary
281
     1
  3
Standard
350
18
  0
DICTIONARY
  5
19
102
{ACAD_REACTORS
330
C
102
}
330
C
100
AcDbDictionary
281
     1
  0
ACDBDICTIONARYWDFLT
  5
E
102
{ACAD_REACTORS
330
C
102
}
330
C
100
AcDbDictionary
281
     1
  3
Normal
350
F
100
AcDbDictionaryWithDefault
340
F
  0
DICTIONARY
  5
344
102
{ACAD_REACTORS
330
C
102
}
330
C
100
AcDbDictionary
281
     1
  3
A0
350
345
  3
A1
350
346
  3
A2
350
347
  3
A3
350
348
  3
A4
350
349
  3
A5
350
34A
  3
A6
350
34B
  3
A7
350
34C
  3
A8
350
34D
  3
A9
350
34E
  3
B0
350
34F
  3
B1
350
350
  3
B2
350
351
  3
B3
350
352
  3
B4
350
353
  3
B5
350
354
  3
B6
350
355
  3
B7
350
356
  3
B8
350
357
  3
B9
350
358
  3
C0
350
359
  3
C1
350
35A
  3
C2
350
35B
  3
C3
350
35C
  3
C4
350
35D
  3
C5
350
35E
  3
C6
350
35F
  3
C7
350
360
  3
C8
350
361
  3
C9
350
362
  3
D0
350
363
  3
D1
350
364
  3
D2
350
365
  0
DICTIONARY
  5
77D
102
{ACAD_REACTORS
330
C
102
}
330
C
100
AcDbDictionary
281
     1
  3
CANNOSCALE
350
780
  0
XRECORD
  5
784
102
{ACAD_REACTORS
330
C
102
}
330
C
100
AcDbXrecord
280
     1
  1
DWGPROPS COOKIE
  2

  3

  4

  6

  7

  8
MARTIN
  9

300
=
301
=
302
=
303
=
304
=
305
=
306
=
307
=
308
=
309
=
 40
0.0
 41
2455823.535993553
 42
2455823.540567303
  1

 90
        0
  0
LAYOUT
  5
1C
102
{ACAD_REACTORS
330
1A
102
}
330
1A
100
AcDbPlotSettings
  1

  2
none_device
  4

  6

 40
0.0
 41
0.0
 42
0.0
 43
0.0
 44
0.0
 45
0.0
 46
0.0
 47
0.0
 48
0.0
 49
0.0
140
0.0
141
0.0
142
1.0
143
1.0
 70
   688
 72
     0
 73
     0
 74
     5
  7

 75
    16
147
1.0
148
0.0
149
0.0
100
AcDbLayout
  1
Layout1
 70
     1
 71
     1
 10
0.0
 20
0.0
 11
12.0
 21
9.0
 12
0.0
 22
0.0
 32
0.0
 14
1.000000000000E+20
 24
1.000000000000E+20
 34
1.000000000000E+20
 15
-1.000000000000E+20
 25
-1.000000000000E+20
 35
-1.000000000000E+20
146
0.0
 13
0.0
 23
0.0
 33
0.0
 16
1.0
 26
0.0
 36
0.0
 17
0.0
 27
1.0
 37
0.0
 76
     0
330
1B
  0
LAYOUT
  5
1E
102
{ACAD_REACTORS
330
1A
102
}
330
1A
100
AcDbPlotSettings
  1

  2
none_device
  4

  6

 40
0.0
 41
0.0
 42
0.0
 43
0.0
 44
0.0
 45
0.0
 46
0.0
 47
0.0
 48
0.0
 49
0.0
140
0.0
141
0.0
142
1.0
143
1.0
 70
  1712
 72
     0
 73
     0
 74
     0
  7

 75
     0
147
1.0
148
0.0
149
0.0
100
AcDbLayout
  1
Model
 70
     1
 71
     0
 10
0.0
 20
0.0
 11
12.0
 21
9.0
 12
0.0
 22
0.0
 32
0.0
 14
-0.14405
 24
0.000017
 34
0.0
 15
56.14405
 25
177.003983
 35
0.0
146
0.0
 13
0.0
 23
0.0
 33
0.0
 16
1.0
 26
0.0
 36
0.0
 17
0.0
 27
1.0
 37
0.0
 76
     0
330
1D
331
33F
  0
MLINESTYLE
  5
18
102
{ACAD_REACTORS
330
17
102
}
330
17
100
AcDbMlineStyle
  2
Standard
 70
     0
  3

 62
   256
 51
90.0
 52
90.0
 71
     2
 49
0.5
 62
   256
  6
BYLAYER
 49
-0.5
 62
   256
  6
BYLAYER
  0
ACDBPLACEHOLDER
  5
F
102
{ACAD_REACTORS
330
E
102
}
330
E
  0
SCALE
  5
345
102
{ACAD_REACTORS
330
344
102
}
330
344
100
AcDbScale
 70
     0
300
1:1
140
1.0
141
1.0
290
     1
  0
SCALE
  5
346
102
{ACAD_REACTORS
330
344
102
}
330
344
100
AcDbScale
 70
     0
300
1:2
140
1.0
141
2.0
290
     0
  0
SCALE
  5
347
102
{ACAD_REACTORS
330
344
102
}
330
344
100
AcDbScale
 70
     0
300
1:4
140
1.0
141
4.0
290
     0
  0
SCALE
  5
348
102
{ACAD_REACTORS
330
344
102
}
330
344
100
AcDbScale
 70
     0
300
1:5
140
1.0
141
5.0
290
     0
  0
SCALE
  5
349
102
{ACAD_REACTORS
330
344
102
}
330
344
100
AcDbScale
 70
     0
300
1:8
140
1.0
141
8.0
290
     0
  0
SCALE
  5
34A
102
{ACAD_REACTORS
330
344
102
}
330
344
100
AcDbScale
 70
     0
300
1:10
140
1.0
141
10.0
290
     0
  0
SCALE
  5
34B
102
{ACAD_REACTORS
330
344
102
}
330
344
100
AcDbScale
 70
     0
300
1:16
140
1.0
141
16.0
290
     0
  0
SCALE
  5
34C
102
{ACAD_REACTORS
330
344
102
}
330
344
100
AcDbScale
 70
     0
300
1:20
140
1.0
141
20.0
290
     0
  0
SCALE
  5
34D
102
{ACAD_REACTORS
330
344
102
}
330
344
100
AcDbScale
 70
     0
300
1:30
140
1.0
141
30.0
290
     0
  0
SCALE
  5
34E
102
{ACAD_REACTORS
330
344
102
}
330
344
100
AcDbScale
 70
     0
300
1:40
140
1.0
141
40.0
290
     0
  0
SCALE
  5
34F
102
{ACAD_REACTORS
330
344
102
}
330
344
100
AcDbScale
 70
     0
300
1:50
140
1.0
141
50.0
290
     0
  0
SCALE
  5
350
102
{ACAD_REACTORS
330
344
102
}
330
344
100
AcDbScale
 70
     0
300
1:100
140
1.0
141
100.0
290
     0
  0
SCALE
  5
351
102
{ACAD_REACTORS
330
344
102
}
330
344
100
AcDbScale
 70
     0
300
2:1
140
2.0
141
1.0
290
     0
  0
SCALE
  5
352
102
{ACAD_REACTORS
330
344
102
}
330
344
100
AcDbScale
 70
     0
300
4:1
140
4.0
141
1.0
290
     0
  0
SCALE
  5
353
102
{ACAD_REACTORS
330
344
102
}
330
344
100
AcDbScale
 70
     0
300
8:1
140
8.0
141
1.0
290
     0
  0
SCALE
  5
354
102
{ACAD_REACTORS
330
344
102
}
330
344
100
AcDbScale
 70
     0
300
10:1
140
10.0
141
1.0
290
     0
  0
SCALE
  5
355
102
{ACAD_REACTORS
330
344
102
}
330
344
100
AcDbScale
 70
     0
300
100:1
140
100.0
141
1.0
290
     0
  0
SCALE
  5
356
102
{ACAD_REACTORS
330
344
102
}
330
344
100
AcDbScale
 70
     0
300
1/128" = 1'-0"
140
0.0078125
141
12.0
290
     0
  0
SCALE
  5
357
102
{ACAD_REACTORS
330
344
102
}
330
344
100
AcDbScale
 70
     0
300
1/64" = 1'-0"
140
0.015625
141
12.0
290
     0
  0
SCALE
  5
358
102
{ACAD_REACTORS
330
344
102
}
330
344
100
AcDbScale
 70
     0
300
1/32" = 1'-0"
140
0.03125
141
12.0
290
     0
  0
SCALE
  5
359
102
{ACAD_REACTORS
330
344
102
}
330
344
100
AcDbScale
 70
     0
300
1/16" = 1'-0"
140
0.0625
141
12.0
290
     0
  0
SCALE
  5
35A
102
{ACAD_REACTORS
330
344
102
}
330
344
100
AcDbScale
 70
     0
300
3/32" = 1'-0"
140
0.09375
141
12.0
290
     0
  0
SCALE
  5
35B
102
{ACAD_REACTORS
330
344
102
}
330
344
100
AcDbScale
 70
     0
300
1/8" = 1'-0"
140
0.125
141
12.0
290
     0
  0
SCALE
  5
35C
102
{ACAD_REACTORS
330
344
102
}
330
344
100
AcDbScale
 70
     0
300
3/16" = 1'-0"
140
0.1875
141
12.0
290
     0
  0
SCALE
  5
35D
102
{ACAD_REACTORS
330
344
102
}
330
344
100
AcDbScale
 70
     0
300
1/4" = 1'-0"
140
0.25
141
12.0
290
     0
  0
SCALE
  5
35E
102
{ACAD_REACTORS
330
344
102
}
330
344
100
AcDbScale
 70
     0
300
3/8" = 1'-0"
140
0.375
141
12.0
290
     0
  0
SCALE
  5
35F
102
{ACAD_REACTORS
330
344
102
}
330
344
100
AcDbScale
 70
     0
300
1/2" = 1'-0"
140
0.5
141
12.0
290
     0
  0
SCALE
  5
360
102
{ACAD_REACTORS
330
344
102
}
330
344
100
AcDbScale
 70
     0
300
3/4" = 1'-0"
140
0.75
141
12.0
290
     0
  0
SCALE
  5
361
102
{ACAD_REACTORS
330
344
102
}
330
344
100
AcDbScale
 70
     0
300
1" = 1'-0"
140
1.0
141
12.0
290
     0
  0
SCALE
  5
362
102
{ACAD_REACTORS
330
344
102
}
330
344
100
AcDbScale
 70
     0
300
1-1/2" = 1'-0"
140
1.5
141
12.0
290
     0
  0
SCALE
  5
363
102
{ACAD_REACTORS
330
344
102
}
330
344
100
AcDbScale
 70
     0
300
3" = 1'-0"
140
3.0
141
12.0
290
     0
  0
SCALE
  5
364
102
{ACAD_REACTORS
330
344
102
}
330
344
100
AcDbScale
 70
     0
300
6" = 1'-0"
140
6.0
141
12.0
290
     0
  0
SCALE
  5
365
102
{ACAD_REACTORS
330
344
102
}
330
344
100
AcDbScale
 70
     0
300
1'-0" = 1'-0"
140
12.0
141
12.0
290
     0
  0
DICTIONARYVAR
  5
780
102
{ACAD_REACTORS
330
77D
102
}
330
77D
100
DictionaryVariables
280
     0
  1
1:1
  0
ENDSEC
  0
SECTION
  2
THUMBNAILIMAGE
 90
    16364
310
28000000B40000005500000001000800000000000000000000000000000000000000000000000000FFFFFF000000FF0000FFFF0000FF0000FFFF0000FF000000FF00FF000000000080808000C0C0C0000000FF007F7FFF000000A5005252A50000007F003F3F7F0000004C0026264C000000260013132600003FFF007F9FFF
310
000029A5005267A500001F7F003F4F7F0000134C00262F4C000009260013172600007FFF007FBFFF000052A500527CA500003F7F003F5F7F0000264C0026394C0000132600131C260000BFFF007FDFFF00007CA5005291A500005F7F003F6F7F0000394C0026424C00001C26001321260000FFFF007FFFFF0000A5A50052A5
310
A500007F7F003F7F7F00004C4C00264C4C00002626001326260000FFBF007FFFDF0000A57C0052A59100007F5F003F7F6F00004C3900264C420000261C001326210000FF7F007FFFBF0000A5520052A57C00007F3F003F7F5F00004C2600264C39000026130013261C0000FF3F007FFF9F0000A5290052A56700007F1F003F
310
7F4F00004C1300264C2F00002609001326170000FF00007FFF7F0000A5000052A55200007F00003F7F3F00004C0000264C260000260000132613003FFF00009FFF7F0029A5000067A552001F7F00004F7F3F00134C00002F4C260009260000172613007FFF0000BFFF7F0052A500007CA552003F7F00005F7F3F00264C0000
310
394C2600132600001C261300BFFF0000DFFF7F007CA5000091A552005F7F00006F7F3F00394C0000424C26001C26000021261300FFFF0000FFFF7F00A5A50000A5A552007F7F00007F7F3F004C4C00004C4C26002626000026261300FFBF0000FFDF7F00A57C0000A59152007F5F00007F6F3F004C3900004C422600261C00
310
0026211300FF7F0000FFBF7F00A5520000A57C52007F3F00007F5F3F004C2600004C39260026130000261C1300FF3F0000FF9F7F00A5290000A56752007F1F00007F4F3F004C1300004C2F26002609000026171300FF000000FF7F7F00A5000000A55252007F0000007F3F3F004C0000004C2626002600000026131300FF00
310
3F00FF7F9F00A5002900A55267007F001F007F3F4F004C0013004C262F002600090026131700FF007F00FF7FBF00A5005200A5527C007F003F007F3F5F004C0026004C2639002600130026131C00FF00BF00FF7FDF00A5007C00A55291007F005F007F3F6F004C0039004C26420026001C0026132100FF00FF00FF7FFF00A5
310
00A500A552A5007F007F007F3F7F004C004C004C264C002600260026132600BF00FF00DF7FFF007C00A5009152A5005F007F006F3F7F0039004C0042264C001C002600211326007F00FF00BF7FFF005200A5007C52A5003F007F005F3F7F0026004C0039264C00130026001C1326003F00FF009F7FFF002900A5006752A500
310
1F007F004F3F7F0013004C002F264C000900260017132600000000002D2D2D005B5B5B0089898900B7B7B700B3B3B30000000000000000000000000000000000000000000000000000000000000000000000000000000000000000000000000000000000000000000000000000000000000000000000000000000000000707
310
07070707070707070707070707070707070707070700000000000000000000000000000000000000000000000000000000000000000000000000000000000000000000000000000000000000000000000000000000000000000000000000000000000000000000000000000000000000000000000000000000000000000000
310
00000000000000000000000000000000000000000000000000000000000000000000000000000000000000000000000000000007000000000000000000000000000000000000000000070000000000000000000000000000000000000000000000000000000000000000000000000000000000000000000000000000000000
310
00000000000000000000000000000000000000000000000000000000000000000000000000000000000000000000000000000000000000000000000000000000000000000000000000000000000000000000000000000000000000000000000000000000000000000700000000000000000000000000000000000000000007
310
00000000000000000000000000000000000000000000000000000000000000000000000000000000000000000000000000000000000000000000000000000000000000000000000000000000000000000000000000000000000000000000000000000000000000000000000000000000000000000000000000000000000000
310
00000000000000000000000000000000000000000000000000000000000007000000000000000000000000000000000000000000070000000000000000000000000000000000000000000000000000000000000000000000000000000000000000000000000000000000000000000000000000000000000000000000000000
310
00000000000000000000000000000000000000000000000000000000000000000000000000000000000000000000000000000000000000000000000000000000000000000000000000000000000000000000000700000000000000000000000000000000000000000007000000000000000000000000000000000000000000
310
00000000000000000000000000000000000000000000000000000000000000000000000000000000000000000000000000000000000000000000000000000000000000000000000000000000000000000000000000000000000000000000000000000000000000000000000000000000000000000000000000000000000000
310
00000000000000000007000000000000000000000000000000000000000000070000000000000000000000000000000000000000000000000000000000000000000000000000000000000000000000000000000000000000000000000000000000000000000000000000000000000000000000000000000000000000000000
310
00000000000000000000000000000000000000000000000000000000000000000000000000000000000000000000000000000000000000000000000000000700000000000000000000000000000000000000000007000000000000000000000000000000000000000000000000000000000000000000000000000000000000
310
00000000000000000000000000000000000000000000000000000000000000000000000000000000000000000000000000000000000000000000000000000000000000000000000000000000000000000000000000000000000000000000000000000000000000000000000000000000000000070000000000000000000000
310
00000000000000000000070000000000000000000000000000000000000000000000000000000000000000000000000000000000000000000000000000000000000000000000000000000000000000000000000000000000000000000000000000000000000000000000000000000000000000000000000000000000000000
310
00000000000000000000000000000000000000000000000000000000000000000000000000000000000700000000000000000000000000000000000000000007000000000000000000000000000000000000000000000000000000000000000000000000000000000000000000000000000000000000000000000000000000
310
00000000000000000000000000000000000000000000000000000000000000000000000000000000000000000000000000000000000000000000000000000000000000000000000000000000000000000000000000000000000000000000070000000000000000000000000000000000000000000700000000000000000000
310
00000000000000000000000000000000000000000000000000000000000000000000000000000000000000000000000000000000000000000000000000000000000000000000000000000000000000000000000000000000000000000000000000000000000000000000000000000000000000000000000000000000000000
310
00000000000000000000000000000000000000000700000000000000000000000000000000000000000007000000000000000000000000000000000000000000000000000000000000000000000000000000000000000000000000000000000000000000000000000000000000000000000000000000000000000000000000
310
00000000000000000000000000000000000000000000000000000000000000000000000000000000000000000000000000000000000000000000000000000000000000000000000000070000000000000000000000000000000000000000000700000000000000000000000000000000000000000000000000000000000000
310
00000000000000000000000000000000000000000000000000000000000000000000000000000000000000000000000000000000000000000000000000000000000000000000000000000000000000000000000000000000000000000000000000000000000000000000000000000000000000000000000000000000000007
310
00000000000000000000000000000000000000000007000000000000000000000000000000000000000000000000000000000000000000000000000000000000000000000000000000000000000000000000000000000000000000000000000000000000000000000000000000000000000000000000000000000000000000
310
00000000000000000000000000000000000000000000000000000000000000000000000000000000000000000000000000000000070000000000000000000000000000000000000000000700000000000000000000000000000000000000000000000000000000000000000000000000000000000000000000000000000000
310
00000000000000000000000000000000000000000000000000000000000000000000000000000000000000000000000000000000000000000000000000000000000000000000000000000000000000000000000000000000000000000000000000000000000000000007000000000000000000000000000000000000000000
310
07000000000000000000000000000000000000000000000000000000000000000000000000000000000000000000000000000000000000000000000000000000000000000000000000000000000000000000000000000000000000000000000000000000000000000000000000000000000000000000000000000000000000
310
00000000000000000000000000000000000000000000000000000000000000070000000000000000000000000000000000000000000700000000000000000000000000000000000000000000000000000000000000000000000000000000000000000000000000000000000000000000000000000000000000000000000000
310
00000000000000000000000000000000000000000000000000000000000000000000000000000000000000000000000000000000000000000000000000000000000000000000000000000000000000000000000007000000000000000000000000000000000000000000070000000000000000000000000000000000000000
310
00000000000000000000000000000000000000000000000000000000000000000000000000000000000000000000000000000000000000000000000000000000000000000000000000000000000000000000000000000000000000000000000000000000000000000000000000000000000000000000000000000000000000
310
00000000000000000000070000000000000000000000000000000000000000000700000000000000000000000000000000000000000000000000000000000000000000000000000000000000000000000000000000000000000000000000000000000000000000000000000000000000000000000000000000000000000000
310
00000000000000000000000000000000000000000000000000000000000000000000000000000000000000000000000000000000000000000000000000000007000000000000000000000000000000000000000000070000000000000000000000000000000000000000000000000000000000000000000000000000000000
310
00000000000000000000000000000000000000000000000000000000000000000000000000000000000000000000000000000000000000000000000000000000000000000000000000000000000000000000000000000000000000000000000000000000000000000000000000000000000000000700000000000000000000
310
00000000000000000000000700000000000000000000000000000000000000000000000000000000000000000000000000000000000000000000000000000000000000000000000000000000000000000000000000000000000000000000000000000000000000000000000000000000000000000000000000000000000000
310
00000000000000000000000000000000000000000000000000000000000000000000000000000000000007000000000000000000000000000000000000000000070000000000000000000000000000000000000000000000000000000000000000000000000000000000000000000000000000000000000000000000000000
310
00000000000000000000000000000000000000000000000000000000000000000000000000000000000000000000000000000000000000000000000000000000000000000000000000000000000000000000000000000000000000000000000700000000000000000000000000000000000000000007000000000000000000
310
00000000000000000000000000000000000000000000000000000000000000000000000000000000000000000000000000000000000000000000000000000000000000000000000000000000000000000000000000000000000000000000000000000000000000000000000000000000000000000000000000000000000000
310
00000000000000000000000000000000000000000007000000000000000000000000000000000000000000070000000000000000000000000000000000000000000000000000000000000000000000000000000000000000000000000000000000000000000000000000000000000000000000000000000000000000000000
310
00000000000000000000000000000000000000000000000000000000000000000000000000000000000000000000000000000000000000000000000000000000000000000000000000000700000000000000000000000000000000000000000007000000000000000000000000000000000000000000000000000000000000
310
00000000000000000000000000000000000000000000000000000000000000000000000000000000000000000000000000000000000000000000000000000000000000000000000000000000000000000000000000000000000000000000000000000000000000000000000000000000000000000000000000000000000000
310
07000000000000000000000000000000000000000000070000000000000000000000000000000000000000000000000000000000000000000000000000000000000000000000000000000000000000000000000000000000000000000000000000000000000000000000000000000000000000000000000000000000000000
310
00000000000000000000000000000000000000000000000000000000000000000000000000000000000000000000000000000000000700000000000000000000000000000000000000000007070707070000000000000000000000000000000000000000000000000000000000000000000000000000000000000000000000
310
00000000000000000000000000000000000000000000000000000000000000000000000000000000000000000000000000000000000000000000000000000000000000000000000000000000000000000000000000000000000000000000000000000000000000000000070000000000000000000000000000000000000000
310
00070000000700000000000000000000000000000000000000000000000000000000000000000000000000000000000000000000000000000000000000000000000000000000000000000000000000000000000000000000000000000000000000000000000000000000000000000000000000000000000000000000000000
310
00000000000000000000000000000000000000000000000000000000000000000700000000000000000000000000000000000000000007070707070000000000000000000000000000000000000000000000000000000000000000000000000000000000000000000000000000000000000000000000000000000000000000
310
00000000000000000000000000000000000000000000000000000000000000000000000000000000000000000000000000000000000000000000000000000000000000000000000000000000000000000000000000070000000000000000000000000000000000000000000700000000000000000000000000000000000000
310
00000000000000000000000000000000000000000000000000000000000000000000000000000000000000000000000000000000000000000000000000000000000000000000000000000000000000000000000000000000000000000000000000000000000000000000000000000000000000000000000000000000000000
310
00000000000000000000000700000000000000000000000000000000000000000007000000000000000000000000000000000000000000000000000000000000000000000000000000000000000000000000000000000000000000000000000000000000000000000000000000000000000000000000000000000000000000
310
00000000000000000000000000000000000000000000000000000000000000000000000000000000000000000000000000000000000000000000000000000000070000000000000000000000000000000000000000000700000000000000000000000000000000000000000000000000000000000000000000000000000000
310
00000000000000000000000000000000000000000000000000000000000000000000000000000000000000000000000000000000000000000000000000000000000000000000000000000000000000000000000000000000000000000000000000000000000000000000000000000000000000000007000000000000000000
310
00000000000000000000000007000000000000000000000000000000000000000000000000000000000000000000000000000000000000000000000000000000000000000000000000000000000000000000000000000000000000000000000000000000000000000000000000000000000000000000000000000000000000
310
00000000000000000000000000000000000000000000000000000000000000000000000000000000000000070000000000000000000000000000000000000000000700000000000000000000000000000000000000000000000000000000000000000000000000000000000000000000000000000000000000000000000000
310
00000000000000000000000000000000000000000000000000000000000000000000000000000000000000000000000000000000000000000000000000000000000000000000000000000000000000000000000000000000000000000000000007000000000000000000000000000000000000000000070000000000000000
310
00000000000000000000000000000000000000000000000000000000000000000000000000000000000000000000000000000000000000000000000000000000000000000000000000000000000000000000000000000000000000000000000000000000000000000000000000000000000000000000000000000000000000
310
00000000000000000000000000000000000000000000070000000000000000000000000000000000000000000700000000000000000000000000000000000000000000000000000000000000000000000000000000000000000000000000000000000000000000000000000000000000000000000000000000000000000000
310
00000000000000000000000000000000000000000000000000000000000000000000000000000000000000000000000000000000000000000000000000000000000000000000000000000007000000000000000000000000000000000000000000070000000000000000000000000000000000000000000000000000000000
310
00000000000000000000000000000000000000000000000000000000000000000000000000000000000000000000000000000000000000000000000000000000000000000000000000000000000000000000000000000000000000000000000000000000000000000000000000000000000000000000000000000000000000
310
00070000000000000000000000000000000000000000000700000000000000000000000000000000000000000000000000000000000000000000000000000000000000000000000000000000000000000000000000000000000000000000000000000000000000000000000000000000000000000000000000000000000000
310
00000000000000000000000000000000000000000000000000000000000000000000000000000000000000000000000000000000000007000000000000000000000000000000000000000000070000000000000000000000000000000000000000000000000000000000000000000000000000000000000000000000000000
310
00000000000000000000000000000000000000000000000000000000000000000000000000000000000000000000000000000000000000000000000000000000000000000000000000000000000000000000000000000000000000000000000000000000000000000000000700000000000000000000000000000000000000
310
00000700000000000000000000000000000000000000000000000000000000000000000000000000000000000000000000000000000000000000000000000000000000000000000000000000000000000000000000000000000000000000000000000000000000000000000000000000000000000000000000000000000000
310
00000000000000000000000000000000000000000000000000000000000000000007000000000000000000000000000000000000000000070000000000000000000000000000000000000000000000000000000000000000000000000000000000000000000000000000000000000000000000000000000000000000000000
310
00000000000000000000000000000000000000000000000000000000000000000000000000000000000000000000000000000000000000000000000000000000000000000000000000000000000000000000000000000700000000000000000000000000000000000000000007000000000000000000000000000000000000
310
00000000000000000000000000000000000000000000000000000000000000000000000000000000000000000000000000000000000000000000000000000000000000000000000000000000000000000000000000000000000000000000000000000000000000000000000000000000000000000000000000000000000000
310
00000000000000000000000007000000000000000000000000000000000000000000070000000000000000000000000000000000000000000000000000000000000000000000000000000000000000000000000000000000000000000000000000000000000000000000000000000000000000000000000000000000000000
310
00000000000000000000000000000000000000000000000000000000000000000000000000000000000000000000000000000000000000000000000000000000000007000000000000000000000000000000000000000700000000000000000000000000000000000000000000000000000000000000000000000000000000
310
00000000000000000000000000000000000000000000000000000000000000000000000000000000000000000000000000000000000000000000000000000000000000000000000000000000000000000000000000000000000000000000000000000000000000000000000000000000000000000000000700000000000007
310
07070707070700000000000007000000000000000000000000000000000000000000000000000000000000000000000000000000000000000000000000000000000000000000000000000000000000000000000000000000000000000000000000000000000000000000000000000000000000000000000000000000000000
310
00000000000000000000000000000000000000000000000000000000000000000000000000000000000000000007000000000707070707070707070707000000000700000000000000000000000000000000000000000000000000000000000000000000000000000000000000000000000000000000000000000000000000
310
00000000000000000000000000000000000000000000000000000000000000000000000000000000000000000000000000000000000000000000000000000000000000000000000000000000000000000000000000000000000000000000000000000700000000070707070707070707070707000000070000000000000000
310
00000000000000000000000000000000000000000000000000000000000000000000000000000000000000000000000000000000000000000000000000000000000000000000000000000000000000000000000000000000000000000000000000000000000000000000000000000000000000000000000000000000000000
310
00000000000000000000000000000000000000000000000007000000070707070000000000070707070000000700000000000000000000000000000000000000000000000000000000000000000000000000000000000000000000000000000000000000000000000000000000000000000000000000000000000000000000
310
00000000000000000000000000000000000000000000000000000000000000000000000000000000000000000000000000000000000000000000000000000000000000000000000000000000000700000707000707070000000707070707070700070000000000000000000000000000000000000000000000000000000000
310
00000000000000000000000000000000000000000000000000000000000000000000000000000000000000000000000000000000000000000000000000000000000000000000000000000000000000000000000000000000000000000000000000000000000000000000000000000000000000000000000000000000000000
310
00000007000700070700070707070707070007070007000700000000000000000000000000000000000000000000000000000000000000000000000000000000000000000000000000000000000000000000000000000000000000000000000000000000000000000000000000000000000000000000000000000000000000
310
00000000000000000000000000000000000000000000000000000000000000000000000000000000000000000000000000000000000000000707000000070707070700000707070700000700070000000000000000000000000000000000000000000000000000000000000000000000000000000000000000000000000000
310
00000000000000000000000000000000000000000000000000000000000000000000000000000000000000000000000000000000000000000000000000000000000000000000000000000000000000000000000000000000000000000000000000000000000000000000000000070700000000000000000707000000000000
310
00070700000000000000000000000000000000000000000000000000000000000000000000000000000000000000000000000000000000000000000000000000000000000000000000000000000000000000000000000000000000000000000000000000000000000000000000000000000000000000000000000000000000
310
00000000000000000000000000000000000000000000000000000000000000000000000707000000000000000000000000000000000007070000000000000000000000000000000000000000000000000000000000000000000000000000000000000000000000000000000000000000000000000000000000000000000000
310
00000000000000000000000000000000000000000000000000000000000000000000000000000000000000000000000000000000000000000000000000000000000000000000000000000000000000000000000000000000070700000000000000000000000000000000000707000000000000000000000000000000000000
310
00000000000000000000000000000000000000000000000000000000000000000000000000000000000000000000000000000000000000000000000000000000000000000000000000000000000000000000000000000000000000000000000000000000000000000000000000000000000000000000000000000000000000
310
00000000000000000000000000000700000000000000000000000000000000000000070000000000000000000000000000000000000000000000000000000000000000000000000000000000000000000000000000000000000000000000000000000000000000000000000000000000000000000000000000000000000000
310
00000000000000000000000000000000000000000000000000000000000000000000000000000000000000000000000000000000000000000000000000000000000000070000000000000000000000000000000000000007000000000000000000000000000000000000000000000000000000000000000000000000000000
310
00000000000000000000000000000000000000000000000000000000000000000000000000000000000000000000000000000000000000000000000000000000000000000000000000000000000000000000000000000000000000000000000000000000000000000000000000000000000000000000000007070707070707
310
07070707070707070707070707070000000000000000000000000000000000000000000000000000000000000000000000000000000000000000000000000000000000000000000000000000000000000000000000000000000000000000000000000000000000000000000000000000000000000000000000000000000000
310
00000000000000000000000000000000000000000000000000000000000000000000000000000000000000000000070707070707070007070707070707070707070707000000000000000000000000000000000000000000000000000000000000000000000000000000000000000000000000000000000000000000000000
310
00000000000000000000000000000000000000000000000000000000000000000000000000000000000000000000000000000000000000000000000000000000000000000000000000000000000000000000000000000000000000000000000000000007000000000000000000000000000000000000000000000000000000
310
00000000000000000000000000000000000000000000000000000000000000000000000000000000000000000000000000000000000000000000000000000000000000000000000000000000000000000000000000000000000000000000000000000000000000000000000000000000000000000000000000000000000000
310
00000000000000000000000000000000000000000000000000070000000000000000000000000000000000000007000000000000000000000000000000000000000000000000000000000000000000000000000000000000000000000000000000000000000000000000000000000000000000000000000000000000000000
310
00000000000000000000000000000000000000000000000000000000000000000000000000000000000000000000000000000000000000000000000000000000000000000000000000000000000007000000000000000000000000000000000000000700000000000000000000000000000000000000000000000000000000
310
00000000000000000000000000000000000000000000000000000000000000000000000000000000000000000000000000000000000000000000000000000000000000000000000000000000000000000000000000000000000000000000000000000000000000000000000000000000000000000000000000000000000000
310
00000000070000000000000000000000000000000000000007000000000000000000000000000000000000000000000000000000000000000000000000000000000000000000000000000000000000000000000000000000000000000000000000000000000000000000000000000000000000000000000000000000000000
310
00000000000000000000000000000000000000000000000000000000000000000000000000000000000000000000000000000000000000000007000000000000000000000000000000000000000700000000000000000000000000000000000000000000000000000000000000000000000000000000000000000000000000
310
00000000000000000000000000000000000000000000000000000000000000000000000000000000000000000000000000000000000000000000000000000000000000000000000000000000000000000000000000000000000000000000000000000000000000000000000000000700000000000000000000000000000000
310
00000007000000000000000000000000000000000000000000000000000000000000000000000000000000000000000000000000000000000000000000000000000000000000000000000000000000000000000000000000000000000000000000000000000000000000000000000000000000000000000000000000000000
310
00000000000000000000000000000000000000000000000000000000000000000000000007000000000000000000000000000000000000000700000000000000000000000000000000000000000000000000000000000000000000000000000000000000000000000000000000000000000000000000000000000000000000
310
00000000000000000000000000000000000000000000000000000000000000000000000000000000000000000000000000000000000000000000000000000000000000000000000000000000000000000000000000000000000700000000000000000000000000000000000000070000000000000000000000000000000000
310
00000000000000000000000000000000000000000000000000000000000000000000000000000000000000000000000000000000000000000000000000000000000000000000000000000000000000000000000000000000000000000000000000000000000000000000000000000000000000000000000000000000000000
310
00000000000000000000000000000007000000000000000000000000000000000000000700000000000000000000000000000000000000000000000000000000000000000000000000000000000000000000000000000000000000000000000000000000000000000000000000000000000000000000000000000000000000
310
00000000000000000000000000000000000000000000000000000000000000000000000000000000000000000000000000000000000000000000000000000000000000000700000000000000000000000000000000000000070000000000000000000000000000000000000000000000000000000000000000000000000000
310
00000000000000000000000000000000000000000000000000000000000000000000000000000000000000000000000000000000000000000000000000000000000000000000000000000000000000000000000000000000000000000000000000000000000000000000000000000000000000000000000000070000000000
310
00000000000000000000000000000700000000000000000000000000000000000000000000000000000000000000000000000000000000000000000000000000000000000000000000000000000000000000000000000000000000000000000000000000000000000000000000000000000000000000000000000000000000
310
00000000000000000000000000000000000000000000000000000000000000000000000000000000000000000000000700000000000000000000000000000000000000070000000000000000000000000000000000000000000000000000000000000000000000000000000000000000000000000000000000000000000000
310
00000000000000000000000000000000000000000000000000000000000000000000000000000000000000000000000000000000000000000000000000000000000000000000000000000000000000000000000000000000000000000000000000000000070000000000000000000000000000000000000007000000000000
310
00000000000000000000000000000000000000000000000000000000000000000000000000000000000000000000000000000000000000000000000000000000000000000000000000000000000000000000000000000000000000000000000000000000000000000000000000000000000000000000000000000000000000
310
00000000000000000000000000000000000000000000000000000700000000000000000000000000000000000000070000000000000000000000000000000000000000000000000000000000000000000000000000000000000000000000000000000000000000000000000000000000000000000000000000000000000000
310
00000000000000000000000000000000000000000000000000000000000000000000000000000000000000000000000000000000000000000000000000000000000000000000000000000000000000070000000000000000000000000000000000000007000000000000000000000000000000000000000000000000000000
310
00000000000000000000000000000000000000000000000000000000000000000000000000000000000000000000000000000000000000000000000000000000000000000000000000000000000000000000000000000000000000000000000000000000000000000000000000000000000000000000000000000000000000
310
00000000000700000000000000000000000000000000000000070000000000000000000000000000000000000000000000000000000000000000000000000000000000000000000000000000000000000000000000000000000000000000000000000000000000000000000000000000000000000000000000000000000000
310
00000000000000000000000000000000000000000000000000000000000000000000000000000000000000000000000000000000000000000000070000000000000000000000000000000000000007000000000000000000000000000000000000000000000000000000000000000000000000000000000000000000000000
310
00000000000000000000000000000000000000000000000000000000000000000000000000000000000000000000000000000000000000000000000000000000000000000000000000000000000000000000000000000000000000000000000000000000000000000000000000000007000000000000000000000000000000
310
00000000070000000000000000000000000000000000000000000000000000000000000000000000000000000000000000000000000000000000000000000000000000000000000000000000000000000000000000000000000000000000000000000000000000000000000000000000000000000000000000000000000000
310
00000000000000000000000000000000000000000000000000000000000000000000000000070000000000000000000000000000000000000007000000000000000000000000000000000000000000000000000000000000000000000000000000000000000000000000000000000000000000000000000000000000000000
310
00000000000000000000000000000000000000000000000000000000000000000000000000000000000000000000000000000000000000000000000000000000000000000000000000000000000000000000000000000000000000070000000000000000000000000000000000070000000000000000000000000000000000
310
00000000000000000000000000000000000000000000000000000000000000000000000000000000000000000000000000000000000000000000000000000000000000000000000000000000000000000000000000000000000000000000000000000000000000000000000000000000000000000000000000000000000000
310
00000000000000000000000000000000000700000000000000000000000000000000000700000000000000000000000000000000000000000000000000000000000000000000000000000000000000000000000000000000000000000000000000000000000000000000000000000000000000000000000000000000000000
310
00000000000000000000000000000000000000000000000000000000000000000000000000000000000000000000000000000000000000000000000000000000000000000000070000000000000000000000000000000000070000000000000000000000000000000000000000000000000000000000000000000000000000
310
00000000000000000000000000000000000000000000000000000000000000000000000000000000000000000000000000000000000000000000000000000000000000000000000000000000000000000000000000000000000000000000000000000000000000000000000000000000000000000000000000000007000000
310
00000000000000000000000000000700000000000000000000000000000000000000000000000000000000000000000000000000000000000000000000000000000000000000000000000000000000000000000000000000000000000000000000000000000000000000000000000000000000000000000000000000000000
310
00000000000000000000000000000000000000000000000000000000000000000000000000000000000000000000000000070000000000000000000000000000000000070000000000000000000000000000000000000000000000000000000000000000000000000000000000000000000000000000000000000000000000
310
00000000000000000000000000000000000000000000000000000000000000000000000000000000000000000000000000000000000000000000000000000000000000000000000000000000000000000000000000000000000000000000000000000000000000070707070707070707070707070707070707000000000000
310
00000000000000000000000000000000000000000000000000000000000000000000000000000000000000000000000000000000000000000000000000000000000000000000000000000000000000000000000000000000000000000000000000000000000000000000000000000000000000000000000000000000000000
310
00000000000000000000000000000000000000000000000000000000000707070000000000000000000000070707000000000000000000000000000000000000000000000000000000000000000000000000000000000000000000000000000000000000000000000000000000000000000000000000000000000000000000
310
00000000000000000000000000000000000000000000000000000000000000000000000000000000000000000000000000000000000000000000000000000000000000000000000000000000000000000000000007070707070707070707070707000000000000000000000000000000000000000000000000000000000000
310
00000000000000000000000000000000000000000000000000000000000000000000000000000000000000000000000000000000000000000000000000000000000000000000000000000000000000000000000000000000000000000000000000000000000000000000000000000000000000000000000000000000000000
310
000000000000000000000000000000000000000000000000000000000000000000000000000000000000000000000000000000000000000000000000000000000000000000000000000000000000000000000000000000000000000000000000000000000000000000000000
  0
ENDSEC
  0
EOF
