  0
SECTION
  2
HEADER
  9
$ACADVER
  1
AC1015
  9
$ACADMAINTVER
 70
    13
  9
$DWGCODEPAGE
  3
ANSI_1252
  9
$INSBASE
 10
0.0
 20
0.0
 30
0.0
  9
$EXTMIN
 10
0.115049999999998
 20
-0.0000000000000095
 30
0.0
  9
$EXTMAX
 10
54.88495
 20
171.9829999999999
 30
0.0
  9
$LIMMIN
 10
0.0
 20
0.0
  9
$LIMMAX
 10
12.0
 20
9.0
  9
$ORTHOMODE
 70
     0
  9
$REGENMODE
 70
     1
  9
$FILLMODE
 70
     1
  9
$QTEXTMODE
 70
     0
  9
$MIRRTEXT
 70
     1
  9
$LTSCALE
 40
1.0
  9
$ATTMODE
 70
     1
  9
$TEXTSIZE
 40
0.2
  9
$TRACEWID
 40
0.05
  9
$TEXTSTYLE
  7
Standard
  9
$CLAYER
  8
0
  9
$CELTYPE
  6
Continuous
  9
$CECOLOR
 62
   256
  9
$CELTSCALE
 40
1.0
  9
$DISPSILH
 70
     0
  9
$DIMSCALE
 40
1.0
  9
$DIMASZ
 40
0.18
  9
$DIMEXO
 40
0.0625
  9
$DIMDLI
 40
0.38
  9
$DIMRND
 40
0.0
  9
$DIMDLE
 40
0.0
  9
$DIMEXE
 40
0.18
  9
$DIMTP
 40
0.0
  9
$DIMTM
 40
0.0
  9
$DIMTXT
 40
0.18
  9
$DIMCEN
 40
0.09
  9
$DIMTSZ
 40
0.0
  9
$DIMTOL
 70
     0
  9
$DIMLIM
 70
     0
  9
$DIMTIH
 70
     1
  9
$DIMTOH
 70
     1
  9
$DIMSE1
 70
     0
  9
$DIMSE2
 70
     0
  9
$DIMTAD
 70
     0
  9
$DIMZIN
 70
     0
  9
$DIMBLK
  1

  9
$DIMASO
 70
     1
  9
$DIMSHO
 70
     1
  9
$DIMPOST
  1

  9
$DIMAPOST
  1

  9
$DIMALT
 70
     0
  9
$DIMALTD
 70
     2
  9
$DIMALTF
 40
25.4
  9
$DIMLFAC
 40
1.0
  9
$DIMTOFL
 70
     0
  9
$DIMTVP
 40
0.0
  9
$DIMTIX
 70
     0
  9
$DIMSOXD
 70
     0
  9
$DIMSAH
 70
     0
  9
$DIMBLK1
  1

  9
$DIMBLK2
  1

  9
$DIMSTYLE
  2
Standard
  9
$DIMCLRD
 70
     0
  9
$DIMCLRE
 70
     0
  9
$DIMCLRT
 70
     0
  9
$DIMTFAC
 40
1.0
  9
$DIMGAP
 40
0.09
  9
$DIMJUST
 70
     0
  9
$DIMSD1
 70
     0
  9
$DIMSD2
 70
     0
  9
$DIMTOLJ
 70
     1
  9
$DIMTZIN
 70
     0
  9
$DIMALTZ
 70
     0
  9
$DIMALTTZ
 70
     0
  9
$DIMUPT
 70
     0
  9
$DIMDEC
 70
     4
  9
$DIMTDEC
 70
     4
  9
$DIMALTU
 70
     2
  9
$DIMALTTD
 70
     2
  9
$DIMTXSTY
  7
Standard
  9
$DIMAUNIT
 70
     0
  9
$DIMADEC
 70
     0
  9
$DIMALTRND
 40
0.0
  9
$DIMAZIN
 70
     0
  9
$DIMDSEP
 70
    46
  9
$DIMATFIT
 70
     3
  9
$DIMFRAC
 70
     0
  9
$DIMLDRBLK
  1

  9
$DIMLUNIT
 70
     2
  9
$DIMLWD
 70
    -2
  9
$DIMLWE
 70
    -2
  9
$DIMTMOVE
 70
     0
  9
$LUNITS
 70
     2
  9
$LUPREC
 70
     4
  9
$SKETCHINC
 40
0.1
  9
$FILLETRAD
 40
0.0
  9
$AUNITS
 70
     0
  9
$AUPREC
 70
     0
  9
$MENU
  1
.
  9
$ELEVATION
 40
0.0
  9
$PELEVATION
 40
0.0
  9
$THICKNESS
 40
0.0
  9
$LIMCHECK
 70
     0
  9
$CHAMFERA
 40
0.0
  9
$CHAMFERB
 40
0.0
  9
$CHAMFERC
 40
0.0
  9
$CHAMFERD
 40
0.0
  9
$SKPOLY
 70
     0
  9
$TDCREATE
 40
2455653.884166666
  9
$TDUCREATE
 40
2455653.800833333
  9
$TDUPDATE
 40
2455653.888901539
  9
$TDUUPDATE
 40
2455653.805568206
  9
$TDINDWG
 40
0.0047348727
  9
$TDUSRTIMER
 40
0.0047348727
  9
$USRTIMER
 70
     1
  9
$ANGBASE
 50
0.0
  9
$ANGDIR
 70
     0
  9
$PDMODE
 70
     0
  9
$PDSIZE
 40
0.0
  9
$PLINEWID
 40
0.0
  9
$SPLFRAME
 70
     0
  9
$SPLINETYPE
 70
     6
  9
$SPLINESEGS
 70
     8
  9
$HANDSEED
  5
38C
  9
$SURFTAB1
 70
     6
  9
$SURFTAB2
 70
     6
  9
$SURFTYPE
 70
     6
  9
$SURFU
 70
     6
  9
$SURFV
 70
     6
  9
$UCSBASE
  2

  9
$UCSNAME
  2

  9
$UCSORG
 10
0.0
 20
0.0
 30
0.0
  9
$UCSXDIR
 10
1.0
 20
0.0
 30
0.0
  9
$UCSYDIR
 10
0.0
 20
1.0
 30
0.0
  9
$UCSORTHOREF
  2

  9
$UCSORTHOVIEW
 70
     1
  9
$UCSORGTOP
 10
0.0
 20
0.0
 30
0.0
  9
$UCSORGBOTTOM
 10
0.0
 20
0.0
 30
0.0
  9
$UCSORGLEFT
 10
0.0
 20
0.0
 30
0.0
  9
$UCSORGRIGHT
 10
0.0
 20
0.0
 30
0.0
  9
$UCSORGFRONT
 10
0.0
 20
0.0
 30
0.0
  9
$UCSORGBACK
 10
0.0
 20
0.0
 30
0.0
  9
$PUCSBASE
  2

  9
$PUCSNAME
  2

  9
$PUCSORG
 10
0.0
 20
0.0
 30
0.0
  9
$PUCSXDIR
 10
1.0
 20
0.0
 30
0.0
  9
$PUCSYDIR
 10
0.0
 20
1.0
 30
0.0
  9
$PUCSORTHOREF
  2

  9
$PUCSORTHOVIEW
 70
     0
  9
$PUCSORGTOP
 10
0.0
 20
0.0
 30
0.0
  9
$PUCSORGBOTTOM
 10
0.0
 20
0.0
 30
0.0
  9
$PUCSORGLEFT
 10
0.0
 20
0.0
 30
0.0
  9
$PUCSORGRIGHT
 10
0.0
 20
0.0
 30
0.0
  9
$PUCSORGFRONT
 10
0.0
 20
0.0
 30
0.0
  9
$PUCSORGBACK
 10
0.0
 20
0.0
 30
0.0
  9
$USERI1
 70
     0
  9
$USERI2
 70
     0
  9
$USERI3
 70
     0
  9
$USERI4
 70
     0
  9
$USERI5
 70
     0
  9
$USERR1
 40
0.0
  9
$USERR2
 40
0.0
  9
$USERR3
 40
0.0
  9
$USERR4
 40
0.0
  9
$USERR5
 40
0.0
  9
$WORLDVIEW
 70
     1
  9
$SHADEDGE
 70
     3
  9
$SHADEDIF
 70
    70
  9
$TILEMODE
 70
     1
  9
$MAXACTVP
 70
    64
  9
$PINSBASE
 10
0.0
 20
0.0
 30
0.0
  9
$PLIMCHECK
 70
     0
  9
$PEXTMIN
 10
1.000000000000000E+20
 20
1.000000000000000E+20
 30
1.000000000000000E+20
  9
$PEXTMAX
 10
-1.000000000000000E+20
 20
-1.000000000000000E+20
 30
-1.000000000000000E+20
  9
$PLIMMIN
 10
0.0
 20
0.0
  9
$PLIMMAX
 10
12.0
 20
9.0
  9
$UNITMODE
 70
     0
  9
$VISRETAIN
 70
     1
  9
$PLINEGEN
 70
     0
  9
$PSLTSCALE
 70
     1
  9
$TREEDEPTH
 70
  3020
  9
$CMLSTYLE
  2
Standard
  9
$CMLJUST
 70
     0
  9
$CMLSCALE
 40
1.0
  9
$PROXYGRAPHICS
 70
     1
  9
$MEASUREMENT
 70
     0
  9
$CELWEIGHT
370
    -1
  9
$ENDCAPS
280
     0
  9
$JOINSTYLE
280
     0
  9
$LWDISPLAY
290
     0
  9
$INSUNITS
 70
     0
  9
$HYPERLINKBASE
  1

  9
$STYLESHEET
  1

  9
$XEDIT
290
     1
  9
$CEPSNTYPE
380
     0
  9
$PSTYLEMODE
290
     1
  9
$FINGERPRINTGUID
  2
{06C769D4-285A-460B-BF73-602180B7AEAD}
  9
$VERSIONGUID
  2
{085785C6-AB63-4514-9ED4-67C70582B3BE}
  9
$EXTNAMES
290
     1
  9
$PSVPSCALE
 40
0.0
  9
$OLESTARTUP
290
     0
  0
ENDSEC
  0
SECTION
  2
CLASSES
  0
CLASS
  1
ACDBDICTIONARYWDFLT
  2
AcDbDictionaryWithDefault
  3
AutoCAD 2000
 90
        0
280
     0
281
     0
  0
CLASS
  1
ACDBPLACEHOLDER
  2
AcDbPlaceHolder
  3
AutoCAD 2000
 90
        0
280
     0
281
     0
  0
CLASS
  1
LAYOUT
  2
AcDbLayout
  3
AutoCAD 2000
 90
        0
280
     0
281
     0
  0
CLASS
  1
DICTIONARYVAR
  2
AcDbDictionaryVar
  3
AutoCAD 2000
 90
        0
280
     0
281
     0
  0
ENDSEC
  0
SECTION
  2
TABLES
  0
TABLE
  2
VPORT
  5
8
330
0
100
AcDbSymbolTable
 70
     7
  0
VPORT
  5
38B
330
8
100
AcDbSymbolTableRecord
100
AcDbViewportTableRecord
  2
*Active
 70
     0
 10
0.0
 20
0.0
 11
1.0
 21
1.0
 12
27.5
 22
85.99149999999999
 13
0.0
 23
0.0
 14
1.0
 24
1.0
 15
0.0
 25
0.0
 16
0.0
 26
0.0
 36
1.0
 17
0.0
 27
0.0
 37
0.0
 40
173.1463573844419
 41
2.073363431151241
 42
50.0
 43
0.0
 44
0.0
 50
0.0
 51
0.0
 71
     0
 72
   100
 73
     1
 74
     3
 75
     0
 76
     0
 77
     0
 78
     0
281
     0
 65
     1
110
0.0
120
0.0
130
0.0
111
1.0
121
0.0
131
0.0
112
0.0
122
1.0
132
0.0
 79
     1
146
0.0
  0
ENDTAB
  0
TABLE
  2
LTYPE
  5
5
330
0
100
AcDbSymbolTable
 70
     1
  0
LTYPE
  5
13
330
5
100
AcDbSymbolTableRecord
100
AcDbLinetypeTableRecord
  2
ByBlock
 70
     0
  3

 72
    65
 73
     0
 40
0.0
  0
LTYPE
  5
14
330
5
100
AcDbSymbolTableRecord
100
AcDbLinetypeTableRecord
  2
ByLayer
 70
     0
  3

 72
    65
 73
     0
 40
0.0
  0
LTYPE
  5
15
330
5
100
AcDbSymbolTableRecord
100
AcDbLinetypeTableRecord
  2
Continuous
 70
     0
  3
Solid line
 72
    65
 73
     0
 40
0.0
  0
ENDTAB
  0
TABLE
  2
LAYER
  5
2
330
0
100
AcDbSymbolTable
 70
     1
  0
LAYER
  5
10
330
2
100
AcDbSymbolTableRecord
100
AcDbLayerTableRecord
  2
0
 70
     0
 62
     7
  6
Continuous
370
    -3
390
F
  0
ENDTAB
  0
TABLE
  2
STYLE
  5
3
330
0
100
AcDbSymbolTable
 70
     1
  0
STYLE
  5
11
330
3
100
AcDbSymbolTableRecord
100
AcDbTextStyleTableRecord
  2
Standard
 70
     0
 40
0.0
 41
1.0
 50
0.0
 71
     0
 42
0.2
  3
txt
  4

  0
ENDTAB
  0
TABLE
  2
VIEW
  5
6
330
0
100
AcDbSymbolTable
 70
     0
  0
ENDTAB
  0
TABLE
  2
UCS
  5
7
330
0
100
AcDbSymbolTable
 70
     0
  0
ENDTAB
  0
TABLE
  2
APPID
  5
9
330
0
100
AcDbSymbolTable
 70
     1
  0
APPID
  5
12
330
9
100
AcDbSymbolTableRecord
100
AcDbRegAppTableRecord
  2
ACAD
 70
     0
  0
ENDTAB
  0
TABLE
  2
DIMSTYLE
  5
A
330
0
100
AcDbSymbolTable
 70
     1
100
AcDbDimStyleTable
 71
     0
  0
DIMSTYLE
105
377
330
A
100
AcDbSymbolTableRecord
100
AcDbDimStyleTableRecord
  2
Standard
 70
     0
340
11
  0
ENDTAB
  0
TABLE
  2
BLOCK_RECORD
  5
1
330
0
100
AcDbSymbolTable
 70
     0
  0
BLOCK_RECORD
  5
1E
330
1
100
AcDbSymbolTableRecord
100
AcDbBlockTableRecord
  2
*Model_Space
340
21
  0
BLOCK_RECORD
  5
1A
330
1
100
AcDbSymbolTableRecord
100
AcDbBlockTableRecord
  2
*Paper_Space
340
1D
  0
ENDTAB
  0
ENDSEC
  0
SECTION
  2
BLOCKS
  0
BLOCK
  5
1F
330
1E
100
AcDbEntity
  8
0
100
AcDbBlockBegin
  2
*Model_Space
 70
     0
 10
0.0
 20
0.0
 30
0.0
  3
*Model_Space
  1

  0
ENDBLK
  5
20
330
1E
100
AcDbEntity
  8
0
100
AcDbBlockEnd
  0
BLOCK
  5
1B
330
1A
100
AcDbEntity
 67
     1
  8
0
100
AcDbBlockBegin
  2
*Paper_Space
 70
     0
 10
0.0
 20
0.0
 30
0.0
  3
*Paper_Space
  1

  0
ENDBLK
  5
1C
330
1A
100
AcDbEntity
 67
     1
  8
0
100
AcDbBlockEnd
  0
ENDSEC
  0
SECTION
  2
ENTITIES
  0
LINE
  5
22
330
1E
100
AcDbEntity
  8
0
100
AcDbLine
 10
0.115049999999998
 20
-0.0000000000000095
 30
0.0
 11
1.70418
 21
82.0082
 31
0.0
  0
LINE
  5
23
330
1E
100
AcDbEntity
  8
0
100
AcDbLine
 10
9.60978
 20
-0.0000000000000089
 30
0.0
 11
11.68725
 21
-0.000000000000009
 31
0.0
  0
LINE
  5
24
330
1E
100
AcDbEntity
  8
0
100
AcDbLine
 10
10.49544999999999
 20
-0.0000000000000088
 30
0.0
 11
13.67965
 21
-0.0000000000000089
 31
0.0
  0
LINE
  5
25
330
1E
100
AcDbEntity
  8
0
100
AcDbLine
 10
7.67741
 20
-0.0000000000000088
 30
0.0
 11
9.60978
 21
-0.0000000000000089
 31
0.0
  0
LINE
  5
26
330
1E
100
AcDbEntity
  8
0
100
AcDbLine
 10
6.336459999999999
 20
-0.0000000000000088
 30
0.0
 11
7.67741
 21
-0.0000000000000088
 31
0.0
  0
LINE
  5
27
330
1E
100
AcDbEntity
  8
0
100
AcDbLine
 10
0.9736579999999978
 20
-0.0000000000000082
 30
0.0
 11
1.522049999999999
 21
-0.0000000000000083
 31
0.0
  0
LINE
  5
28
330
1E
100
AcDbEntity
  8
0
100
AcDbLine
 10
0.9736579999999978
 20
-0.0000000000000082
 30
0.0
 11
1.522049999999999
 21
-0.0000000000000083
 31
0.0
  0
LINE
  5
29
330
1E
100
AcDbEntity
  8
0
100
AcDbLine
 10
0.5633679999999979
 20
-0.0000000000000081
 30
0.0
 11
0.9736579999999978
 21
-0.0000000000000082
 31
0.0
  0
LINE
  5
2A
330
1E
100
AcDbEntity
  8
0
100
AcDbLine
 10
0.5633679999999979
 20
-0.0000000000000081
 30
0.0
 11
0.9736579999999978
 21
-0.0000000000000082
 31
0.0
  0
LINE
  5
2B
330
1E
100
AcDbEntity
  8
0
100
AcDbLine
 10
2.741909999999999
 20
-0.000000000000008
 30
0.0
 11
3.794659999999999
 21
-0.0000000000000083
 31
0.0
  0
LINE
  5
2C
330
1E
100
AcDbEntity
  8
0
100
AcDbLine
 10
3.794659999999999
 20
-0.0000000000000083
 30
0.0
 11
5.474849999999999
 21
-0.0000000000000085
 31
0.0
  0
LINE
  5
2D
330
1E
100
AcDbEntity
  8
0
100
AcDbLine
 10
2.211529999999999
 20
-0.0000000000000084
 30
0.0
 11
3.04112
 21
-0.0000000000000085
 31
0.0
  0
LINE
  5
2E
330
1E
100
AcDbEntity
  8
0
100
AcDbLine
 10
1.522049999999999
 20
-0.0000000000000083
 30
0.0
 11
2.211529999999999
 21
-0.0000000000000084
 31
0.0
  0
LINE
  5
2F
330
1E
100
AcDbEntity
  8
0
100
AcDbLine
 10
3.04112
 20
-0.0000000000000085
 30
0.0
 11
4.008809999999999
 21
-0.0000000000000086
 31
0.0
  0
LINE
  5
30
330
1E
100
AcDbEntity
  8
0
100
AcDbLine
 10
0.285170999999998
 20
-0.000000000000008
 30
0.0
 11
0.5633679999999979
 21
-0.0000000000000081
 31
0.0
  0
LINE
  5
31
330
1E
100
AcDbEntity
  8
0
100
AcDbLine
 10
0.115049999999998
 20
-0.0000000000000078
 30
0.0
 11
1.70418
 21
82.0082
 31
0.0
  0
LINE
  5
32
330
1E
100
AcDbEntity
  8
0
100
AcDbLine
 10
2.35163
 20
-0.0000000000000078
 30
0.0
 11
2.741909999999999
 21
-0.000000000000008
 31
0.0
  0
LINE
  5
33
330
1E
100
AcDbEntity
  8
0
100
AcDbLine
 10
2.35163
 20
-0.0000000000000078
 30
0.0
 11
2.63383
 21
-0.0000000000000076
 31
0.0
  0
LINE
  5
34
330
1E
100
AcDbEntity
  8
0
100
AcDbLine
 10
2.63383
 20
-0.0000000000000076
 30
0.0
 11
3.5815
 21
-0.0000000000000073
 31
0.0
  0
LINE
  5
35
330
1E
100
AcDbEntity
  8
0
100
AcDbLine
 10
0.134062999999998
 20
-0.0000000000000077
 30
0.0
 11
0.532345999999998
 21
-0.0000000000000075
 31
0.0
  0
LINE
  5
36
330
1E
100
AcDbEntity
  8
0
100
AcDbLine
 10
0.134062999999998
 20
-0.0000000000000077
 30
0.0
 11
0.532345999999998
 21
-0.0000000000000075
 31
0.0
  0
LINE
  5
37
330
1E
100
AcDbEntity
  8
0
100
AcDbLine
 10
1.70418
 20
82.0082
 30
0.0
 11
1.77022
 21
83.4281
 31
0.0
  0
LINE
  5
38
330
1E
100
AcDbEntity
  8
0
100
AcDbLine
 10
1.79824
 20
84.84899999999999
 30
0.0
 11
1.896309999999999
 21
90.39990000000001
 31
0.0
  0
LINE
  5
39
330
1E
100
AcDbEntity
  8
0
100
AcDbLine
 10
1.79824
 20
84.84899999999999
 30
0.0
 11
1.85780956720284
 21
87.8930094236472
 31
0.0
  0
LINE
  5
3A
330
1E
100
AcDbEntity
  8
0
100
AcDbLine
 10
1.79824
 20
84.84899999999999
 30
0.0
 11
1.85780956720284
 21
87.89300942364729
 31
0.0
  0
LINE
  5
3B
330
1E
100
AcDbEntity
  8
0
100
AcDbLine
 10
1.948349999999999
 20
93.9591
 30
0.0
 11
1.989379999999999
 21
97.00839999999999
 31
0.0
  0
LINE
  5
3C
330
1E
100
AcDbEntity
  8
0
100
AcDbLine
 10
1.896309999999999
 20
90.39990000000001
 30
0.0
 11
1.948349999999999
 21
93.9591
 31
0.0
  0
LINE
  5
3D
330
1E
100
AcDbEntity
  8
0
100
AcDbLine
 10
1.77022
 20
83.4281
 30
0.0
 11
1.876466286695169
 21
88.8559142488477
 31
0.0
  0
LINE
  5
3E
330
1E
100
AcDbEntity
  8
0
100
AcDbLine
 10
1.77022
 20
83.4281
 30
0.0
 11
1.876466286695169
 21
88.8559142488476
 31
0.0
  0
LINE
  5
3F
330
1E
100
AcDbEntity
  8
0
100
AcDbLine
 10
1.41097
 20
-0.0000000000000073
 30
0.0
 11
2.677859999999999
 21
-0.0000000000000071
 31
0.0
  0
LINE
  5
40
330
1E
100
AcDbEntity
  8
0
100
AcDbLine
 10
0.532345999999998
 20
-0.0000000000000075
 30
0.0
 11
1.41097
 21
-0.0000000000000073
 31
0.0
  0
LINE
  5
41
330
1E
100
AcDbEntity
  8
0
100
AcDbLine
 10
3.5815
 20
-0.0000000000000073
 30
0.0
 11
5.16363
 21
-0.0000000000000071
 31
0.0
  0
LINE
  5
42
330
1E
100
AcDbEntity
  8
0
100
AcDbLine
 10
2.677859999999999
 20
-0.0000000000000071
 30
0.0
 11
4.379069999999999
 21
-0.0000000000000069
 31
0.0
  0
LINE
  5
43
330
1E
100
AcDbEntity
  8
0
100
AcDbLine
 10
0.134062999999998
 20
-0.0000000000000079
 30
0.0
 11
0.285170999999998
 21
-0.000000000000008
 31
0.0
  0
LINE
  5
44
330
1E
100
AcDbEntity
  8
0
100
AcDbLine
 10
5.16363
 20
-0.0000000000000071
 30
0.0
 11
7.33216
 21
-0.0000000000000069
 31
0.0
  0
LINE
  5
45
330
1E
100
AcDbEntity
  8
0
100
AcDbLine
 10
5.474849999999999
 20
-0.0000000000000085
 30
0.0
 11
7.731439999999999
 21
-0.0000000000000087
 31
0.0
  0
LINE
  5
46
330
1E
100
AcDbEntity
  8
0
100
AcDbLine
 10
7.731439999999999
 20
-0.0000000000000087
 30
0.0
 11
10.49544999999999
 21
-0.0000000000000088
 31
0.0
  0
LINE
  5
47
330
1E
100
AcDbEntity
  8
0
100
AcDbLine
 10
10.02007
 20
-0.0000000000000068
 30
0.0
 11
13.14325
 21
-0.0000000000000066
 31
0.0
  0
LINE
  5
48
330
1E
100
AcDbEntity
  8
0
100
AcDbLine
 10
7.33216
 20
-0.0000000000000069
 30
0.0
 11
10.02007
 21
-0.0000000000000068
 31
0.0
  0
LINE
  5
49
330
1E
100
AcDbEntity
  8
0
100
AcDbLine
 10
10.65355
 20
-0.0000000000000066
 30
0.0
 11
12.25764999999999
 21
-0.0000000000000065
 31
0.0
  0
LINE
  5
4A
330
1E
100
AcDbEntity
  8
0
100
AcDbLine
 10
9.12143
 20
-0.0000000000000066
 30
0.0
 11
10.65355
 21
-0.0000000000000066
 31
0.0
  0
LINE
  5
4B
330
1E
100
AcDbEntity
  8
0
100
AcDbLine
 10
7.67741
 20
-0.0000000000000067
 30
0.0
 11
9.12143
 21
-0.0000000000000066
 31
0.0
  0
LINE
  5
4C
330
1E
100
AcDbEntity
  8
0
100
AcDbLine
 10
5.924159999999999
 20
-0.0000000000000068
 30
0.0
 11
7.67741
 21
-0.0000000000000067
 31
0.0
  0
LINE
  5
4D
330
1E
100
AcDbEntity
  8
0
100
AcDbLine
 10
4.379069999999999
 20
-0.0000000000000069
 30
0.0
 11
5.924159999999999
 21
-0.0000000000000068
 31
0.0
  0
LINE
  5
4E
330
1E
100
AcDbEntity
  8
0
100
AcDbLine
 10
4.008809999999999
 20
-0.0000000000000086
 30
0.0
 11
5.109589999999999
 21
-0.0000000000000087
 31
0.0
  0
LINE
  5
4F
330
1E
100
AcDbEntity
  8
0
100
AcDbLine
 10
5.109589999999999
 20
-0.0000000000000087
 30
0.0
 11
6.336459999999999
 21
-0.0000000000000088
 31
0.0
  0
LINE
  5
50
330
1E
100
AcDbEntity
  8
0
100
AcDbLine
 10
13.14325
 20
-0.0000000000000066
 30
0.0
 11
16.60675
 21
-0.0000000000000065
 31
0.0
  0
LINE
  5
51
330
1E
100
AcDbEntity
  8
0
100
AcDbLine
 10
13.67965
 20
-0.0000000000000089
 30
0.0
 11
16.99405
 21
-0.000000000000009
 31
0.0
  0
LINE
  5
52
330
1E
100
AcDbEntity
  8
0
100
AcDbLine
 10
16.99405
 20
-0.000000000000009
 30
0.0
 11
20.50444999999999
 21
-0.0000000000000091
 31
0.0
  0
LINE
  5
53
330
1E
100
AcDbEntity
  8
0
100
AcDbLine
 10
16.60675
 20
-0.0000000000000065
 30
0.0
 11
20.30235
 21
-0.0000000000000065
 31
0.0
  0
LINE
  5
54
330
1E
100
AcDbEntity
  8
0
100
AcDbLine
 10
17.33225
 20
-0.0000000000000064
 30
0.0
 11
19.05645
 21
-0.0000000000000063
 31
0.0
  0
LINE
  5
55
330
1E
100
AcDbEntity
  8
0
100
AcDbLine
 10
15.61304999999999
 20
-0.0000000000000064
 30
0.0
 11
17.33225
 21
-0.0000000000000064
 31
0.0
  0
LINE
  5
56
330
1E
100
AcDbEntity
  8
0
100
AcDbLine
 10
13.91585
 20
-0.0000000000000065
 30
0.0
 11
15.61304999999999
 21
-0.0000000000000064
 31
0.0
  0
LINE
  5
57
330
1E
100
AcDbEntity
  8
0
100
AcDbLine
 10
12.25764999999999
 20
-0.0000000000000065
 30
0.0
 11
13.91585
 21
-0.0000000000000065
 31
0.0
  0
LINE
  5
58
330
1E
100
AcDbEntity
  8
0
100
AcDbLine
 10
11.68725
 20
-0.000000000000009
 30
0.0
 11
14.61834999999999
 21
-0.0000000000000091
 31
0.0
  0
LINE
  5
59
330
1E
100
AcDbEntity
  8
0
100
AcDbLine
 10
14.61834999999999
 20
-0.0000000000000091
 30
0.0
 11
17.64645
 21
-0.0000000000000092
 31
0.0
  0
LINE
  5
5A
330
1E
100
AcDbEntity
  8
0
100
AcDbLine
 10
24.11505
 20
-0.0000000000000092
 30
0.0
 11
27.30535
 21
-0.0000000000000092
 31
0.0
  0
LINE
  5
5B
330
1E
100
AcDbEntity
  8
0
100
AcDbLine
 10
20.50444999999999
 20
-0.0000000000000091
 30
0.0
 11
24.11505
 21
-0.0000000000000091
 31
0.0
  0
LINE
  5
5C
330
1E
100
AcDbEntity
  8
0
100
AcDbLine
 10
20.30235
 20
-0.0000000000000065
 30
0.0
 11
24.11495
 21
-0.0000000000000065
 31
0.0
  0
LINE
  5
5D
330
1E
100
AcDbEntity
  8
0
100
AcDbLine
 10
24.11505
 20
-0.0000000000000091
 30
0.0
 11
27.72565
 21
-0.0000000000000091
 31
0.0
  0
LINE
  5
5E
330
1E
100
AcDbEntity
  8
0
100
AcDbLine
 10
24.11515
 20
-0.0000000000000065
 30
0.0
 11
27.92775
 21
-0.0000000000000065
 31
0.0
  0
LINE
  5
5F
330
1E
100
AcDbEntity
  8
0
100
AcDbLine
 10
24.11505
 20
-0.0000000000000063
 30
0.0
 11
27.46045
 21
-0.0000000000000063
 31
0.0
  0
LINE
  5
60
330
1E
100
AcDbEntity
  8
0
100
AcDbLine
 10
20.76964999999999
 20
-0.0000000000000063
 30
0.0
 11
24.11505
 21
-0.0000000000000063
 31
0.0
  0
LINE
  5
61
330
1E
100
AcDbEntity
  8
0
100
AcDbLine
 10
19.05645
 20
-0.0000000000000063
 30
0.0
 11
20.76964999999999
 21
-0.0000000000000063
 31
0.0
  0
LINE
  5
62
330
1E
100
AcDbEntity
  8
0
100
AcDbLine
 10
20.92474999999999
 20
-0.0000000000000092
 30
0.0
 11
24.11505
 21
-0.0000000000000092
 31
0.0
  0
LINE
  5
63
330
1E
100
AcDbEntity
  8
0
100
AcDbLine
 10
17.64645
 20
-0.0000000000000092
 30
0.0
 11
20.92474999999999
 21
-0.0000000000000092
 31
0.0
  0
LINE
  5
64
330
1E
100
AcDbEntity
  8
0
100
AcDbLine
 10
23.83494999999999
 20
94.2866
 30
0.0
 11
24.11505
 21
94.2896
 31
0.0
  0
LINE
  5
65
330
1E
100
AcDbEntity
  8
0
100
AcDbLine
 10
27.72565
 20
-0.0000000000000091
 30
0.0
 11
31.23604999999999
 21
-0.000000000000009
 31
0.0
  0
LINE
  5
66
330
1E
100
AcDbEntity
  8
0
100
AcDbLine
 10
27.92775
 20
-0.0000000000000065
 30
0.0
 11
31.62335
 21
-0.0000000000000065
 31
0.0
  0
LINE
  5
67
330
1E
100
AcDbEntity
  8
0
100
AcDbLine
 10
27.30535
 20
-0.0000000000000092
 30
0.0
 11
30.58365
 21
-0.0000000000000092
 31
0.0
  0
LINE
  5
68
330
1E
100
AcDbEntity
  8
0
100
AcDbLine
 10
27.46045
 20
-0.0000000000000063
 30
0.0
 11
29.17365
 21
-0.0000000000000063
 31
0.0
  0
LINE
  5
69
330
1E
100
AcDbEntity
  8
0
100
AcDbLine
 10
29.17365
 20
-0.0000000000000063
 30
0.0
 11
30.89785
 21
-0.0000000000000064
 31
0.0
  0
LINE
  5
6A
330
1E
100
AcDbEntity
  8
0
100
AcDbLine
 10
24.39515
 20
94.2866
 30
0.0
 11
25.51515
 21
94.3241
 31
0.0
  0
LINE
  5
6B
330
1E
100
AcDbEntity
  8
0
100
AcDbLine
 10
18.45925
 20
94.951
 30
0.0
 11
19.46925
 21
94.72430000000001
 31
0.0
  0
LINE
  5
6C
330
1E
100
AcDbEntity
  8
0
100
AcDbLine
 10
19.46925
 20
94.72430000000001
 30
0.0
 11
20.52155
 21
94.54359999999999
 31
0.0
  0
LINE
  5
6D
330
1E
100
AcDbEntity
  8
0
100
AcDbLine
 10
20.52155
 20
94.54359999999999
 30
0.0
 11
21.60715
 21
94.40989999999999
 31
0.0
  0
LINE
  5
6E
330
1E
100
AcDbEntity
  8
0
100
AcDbLine
 10
21.60715
 20
94.40989999999999
 30
0.0
 11
22.71495
 21
94.3241
 31
0.0
  0
LINE
  5
6F
330
1E
100
AcDbEntity
  8
0
100
AcDbLine
 10
22.71495
 20
94.3241
 30
0.0
 11
23.83494999999999
 21
94.2866
 31
0.0
  0
LINE
  5
72
330
1E
100
AcDbEntity
  8
0
100
AcDbLine
 10
23.21944999999999
 20
95.0205
 30
0.0
 11
24.11505
 21
95.00539999999999
 31
0.0
  0
LINE
  5
73
330
1E
100
AcDbEntity
  8
0
100
AcDbLine
 10
23.15084999999999
 20
94.9777
 30
0.0
 11
24.11505
 21
94.95839999999999
 31
0.0
  0
LINE
  5
75
330
1E
100
AcDbEntity
  8
0
100
AcDbLine
 10
24.11505
 20
95.00539999999999
 30
0.0
 11
25.01065
 21
95.0205
 31
0.0
  0
LINE
  5
76
330
1E
100
AcDbEntity
  8
0
100
AcDbLine
 10
21.15115
 20
95.20430000000001
 30
0.0
 11
22.17415
 21
95.08830000000001
 31
0.0
  0
LINE
  5
77
330
1E
100
AcDbEntity
  8
0
100
AcDbLine
 10
21.11885
 20
95.1641
 30
0.0
 11
22.12375
 21
95.04700000000001
 31
0.0
  0
LINE
  5
78
330
1E
100
AcDbEntity
  8
0
100
AcDbLine
 10
22.17415
 20
95.08830000000001
 30
0.0
 11
23.21944999999999
 21
95.0205
 31
0.0
  0
LINE
  5
79
330
1E
100
AcDbEntity
  8
0
100
AcDbLine
 10
22.12375
 20
95.04700000000001
 30
0.0
 11
23.15084999999999
 21
94.9777
 31
0.0
  0
LINE
  5
7A
330
1E
100
AcDbEntity
  8
0
100
AcDbLine
 10
17.49975
 20
95.22020000000001
 30
0.0
 11
18.45925
 21
94.951
 31
0.0
  0
LINE
  5
7D
330
1E
100
AcDbEntity
  8
0
100
AcDbLine
 10
25.01065
 20
95.0205
 30
0.0
 11
26.05595
 21
95.08830000000001
 31
0.0
  0
LINE
  5
7E
330
1E
100
AcDbEntity
  8
0
100
AcDbLine
 10
25.07925
 20
94.9777
 30
0.0
 11
26.10635
 21
95.04700000000001
 31
0.0
  0
LINE
  5
7F
330
1E
100
AcDbEntity
  8
0
100
AcDbLine
 10
24.11505
 20
94.95839999999999
 30
0.0
 11
25.07925
 21
94.9777
 31
0.0
  0
LINE
  5
81
330
1E
100
AcDbEntity
  8
0
100
AcDbLine
 10
26.05595
 20
95.08830000000001
 30
0.0
 11
27.07895
 21
95.20430000000001
 31
0.0
  0
LINE
  5
82
330
1E
100
AcDbEntity
  8
0
100
AcDbLine
 10
27.07895
 20
95.20430000000001
 30
0.0
 11
28.07075
 21
95.36939999999999
 31
0.0
  0
LINE
  5
83
330
1E
100
AcDbEntity
  8
0
100
AcDbLine
 10
27.11125
 20
95.1641
 30
0.0
 11
28.08695
 21
95.32670000000001
 31
0.0
  0
LINE
  5
84
330
1E
100
AcDbEntity
  8
0
100
AcDbLine
 10
26.10635
 20
95.04700000000001
 30
0.0
 11
27.11125
 21
95.1641
 31
0.0
  0
LINE
  5
85
330
1E
100
AcDbEntity
  8
0
100
AcDbLine
 10
28.76085
 20
94.72430000000001
 30
0.0
 11
29.77085
 21
94.951
 31
0.0
  0
LINE
  5
86
330
1E
100
AcDbEntity
  8
0
100
AcDbLine
 10
27.70855
 20
94.54359999999999
 30
0.0
 11
28.76085
 21
94.72430000000001
 31
0.0
  0
LINE
  5
87
330
1E
100
AcDbEntity
  8
0
100
AcDbLine
 10
26.62295
 20
94.40989999999999
 30
0.0
 11
27.70855
 21
94.54359999999999
 31
0.0
  0
LINE
  5
88
330
1E
100
AcDbEntity
  8
0
100
AcDbLine
 10
25.51515
 20
94.3241
 30
0.0
 11
26.62295
 21
94.40989999999999
 31
0.0
  0
LINE
  5
89
330
1E
100
AcDbEntity
  8
0
100
AcDbLine
 10
24.11505
 20
94.2896
 30
0.0
 11
24.39515
 21
94.2866
 31
0.0
  0
LINE
  5
8A
330
1E
100
AcDbEntity
  8
0
100
AcDbLine
 10
31.23604999999999
 20
-0.000000000000009
 30
0.0
 11
34.55045
 21
-0.0000000000000089
 31
0.0
  0
LINE
  5
8B
330
1E
100
AcDbEntity
  8
0
100
AcDbLine
 10
31.62335
 20
-0.0000000000000065
 30
0.0
 11
35.08684999999999
 21
-0.0000000000000066
 31
0.0
  0
LINE
  5
8C
330
1E
100
AcDbEntity
  8
0
100
AcDbLine
 10
30.89785
 20
-0.0000000000000064
 30
0.0
 11
32.61705
 21
-0.0000000000000064
 31
0.0
  0
LINE
  5
8D
330
1E
100
AcDbEntity
  8
0
100
AcDbLine
 10
30.58365
 20
-0.0000000000000092
 30
0.0
 11
33.61175
 21
-0.0000000000000091
 31
0.0
  0
LINE
  5
8E
330
1E
100
AcDbEntity
  8
0
100
AcDbLine
 10
29.77085
 20
94.951
 30
0.0
 11
30.73035
 21
95.22020000000001
 31
0.0
  0
LINE
  5
8F
330
1E
100
AcDbEntity
  8
0
100
AcDbLine
 10
20.15935
 20
95.36939999999999
 30
0.0
 11
21.15115
 21
95.20430000000001
 31
0.0
  0
LINE
  5
90
330
1E
100
AcDbEntity
  8
0
100
AcDbLine
 10
20.14314999999999
 20
95.32670000000001
 30
0.0
 11
21.11885
 21
95.1641
 31
0.0
  0
LINE
  5
91
330
1E
100
AcDbEntity
  8
0
100
AcDbLine
 10
19.20895
 20
95.5342
 30
0.0
 11
20.14314999999999
 21
95.32670000000001
 31
0.0
  0
LINE
  5
92
330
1E
100
AcDbEntity
  8
0
100
AcDbLine
 10
16.60075
 20
95.5302
 30
0.0
 11
17.49975
 21
95.22020000000001
 31
0.0
  0
LINE
  5
93
330
1E
100
AcDbEntity
  8
0
100
AcDbLine
 10
28.07075
 20
95.36939999999999
 30
0.0
 11
29.02115
 21
95.57999999999999
 31
0.0
  0
LINE
  5
94
330
1E
100
AcDbEntity
  8
0
100
AcDbLine
 10
28.08695
 20
95.32670000000001
 30
0.0
 11
29.02115
 21
95.5342
 31
0.0
  0
LINE
  5
95
330
1E
100
AcDbEntity
  8
0
100
AcDbLine
 10
23.73205
 20
95.65659999999999
 30
0.0
 11
24.11505
 21
95.65899999999999
 31
0.0
  0
LINE
  5
97
330
1E
100
AcDbEntity
  8
0
100
AcDbLine
 10
19.20895
 20
95.57999999999999
 30
0.0
 11
20.15935
 21
95.36939999999999
 31
0.0
  0
LINE
  5
98
330
1E
100
AcDbEntity
  8
0
100
AcDbLine
 10
29.02115
 20
95.57999999999999
 30
0.0
 11
29.94735
 21
95.8431
 31
0.0
  0
LINE
  5
99
330
1E
100
AcDbEntity
  8
0
100
AcDbLine
 10
24.49805
 20
95.65659999999999
 30
0.0
 11
25.49895
 21
95.7033
 31
0.0
  0
LINE
  5
9A
330
1E
100
AcDbEntity
  8
0
100
AcDbLine
 10
1.989379999999999
 20
97.00839999999999
 30
0.0
 11
2.017399999999999
 21
99.007
 31
0.0
  0
LINE
  5
9B
330
1E
100
AcDbEntity
  8
0
100
AcDbLine
 10
13.62645
 20
97.2169
 30
0.0
 11
13.75655
 21
97.11770000000001
 31
0.0
  0
LINE
  5
9C
330
1E
100
AcDbEntity
  8
0
100
AcDbLine
 10
13.75655
 20
97.11770000000001
 30
0.0
 11
14.34074999999999
 21
96.67570000000001
 31
0.0
  0
LINE
  5
9D
330
1E
100
AcDbEntity
  8
0
100
AcDbLine
 10
14.34074999999999
 20
96.67570000000001
 30
0.0
 11
15.01375
 21
96.26090000000001
 31
0.0
  0
LINE
  5
9E
330
1E
100
AcDbEntity
  8
0
100
AcDbLine
 10
15.32955
 20
97.29750000000001
 30
0.0
 11
15.93695
 21
96.88209999999999
 31
0.0
  0
LINE
  5
9F
330
1E
100
AcDbEntity
  8
0
100
AcDbLine
 10
15.01375
 20
96.26090000000001
 30
0.0
 11
15.76945
 21
95.8786
 31
0.0
  0
LINE
  5
A0
330
1E
100
AcDbEntity
  8
0
100
AcDbLine
 10
2.017399999999999
 20
99.007
 30
0.0
 11
2.04942
 21
100.9149999999999
 31
0.0
  0
LINE
  5
A1
330
1E
100
AcDbEntity
  8
0
100
AcDbLine
 10
2.04942
 20
100.9149999999999
 30
0.0
 11
2.550769999999999
 21
126.421
 31
0.0
  0
LINE
  5
A2
330
1E
100
AcDbEntity
  8
0
100
AcDbLine
 10
2.04942
 20
100.9149999999999
 30
0.0
 11
2.550769999999999
 21
126.421
 31
0.0
  0
LINE
  5
A3
330
1E
100
AcDbEntity
  8
0
100
AcDbLine
 10
6.480559999999999
 20
103.635
 30
0.0
 11
6.746749999999999
 21
103.3479999999999
 31
0.0
  0
LINE
  5
A4
330
1E
100
AcDbEntity
  8
0
100
AcDbLine
 10
6.746749999999999
 20
103.3479999999999
 30
0.0
 11
6.883849999999999
 21
103.207
 31
0.0
  0
LINE
  5
A5
330
1E
100
AcDbEntity
  8
0
100
AcDbLine
 10
6.883849999999999
 20
103.207
 30
0.0
 11
7.484269999999999
 21
102.668
 31
0.0
  0
LINE
  5
A6
330
1E
100
AcDbEntity
  8
0
100
AcDbLine
 10
7.484269999999999
 20
102.668
 30
0.0
 11
8.354889999999999
 21
101.907
 31
0.0
  0
LINE
  5
A7
330
1E
100
AcDbEntity
  8
0
100
AcDbLine
 10
8.354889999999999
 20
101.907
 30
0.0
 11
10.24625
 21
100.424
 31
0.0
  0
LINE
  5
A8
330
1E
100
AcDbEntity
  8
0
100
AcDbLine
 10
11.81235
 20
103.632
 30
0.0
 11
12.11505
 21
103.074113127504
 31
0.0
  0
LINE
  5
A9
330
1E
100
AcDbEntity
  8
0
100
AcDbLine
 10
10.24625
 20
100.424
 30
0.0
 11
12.2629430861657
 21
99.16726968724649
 31
0.0
  0
LINE
  5
AA
330
1E
100
AcDbEntity
  8
0
100
AcDbLine
 10
12.11505
 20
100.165
 30
0.0
 11
12.12185
 21
100.034
 31
0.0
  0
LINE
  5
AB
330
1E
100
AcDbEntity
  8
0
100
AcDbLine
 10
12.11505
 20
100.165
 30
0.0
 11
12.11505
 21
105.5949999999999
 31
0.0
  0
LINE
  5
AC
330
1E
100
AcDbEntity
  8
0
100
AcDbLine
 10
12.19675
 20
99.3796
 30
0.0
 11
12.25025
 21
99.2021
 31
0.0
  0
LINE
  5
AD
330
1E
100
AcDbEntity
  8
0
100
AcDbLine
 10
12.25025
 20
99.2021
 30
0.0
 11
12.43895
 21
98.6843
 31
0.0
  0
LINE
  5
AE
330
1E
100
AcDbEntity
  8
0
100
AcDbLine
 10
12.43895
 20
98.6843
 30
0.0
 11
12.73255
 21
98.17900000000001
 31
0.0
  0
LINE
  5
B0
330
1E
100
AcDbEntity
  8
0
100
AcDbLine
 10
14.82104999999999
 20
97.7411
 30
0.0
 11
15.32955
 21
97.29750000000001
 31
0.0
  0
LINE
  5
B1
330
1E
100
AcDbEntity
  8
0
100
AcDbLine
 10
14.12485
 20
98.68960000000001
 30
0.0
 11
14.41745
 21
98.2066
 31
0.0
  0
LINE
  5
B2
330
1E
100
AcDbEntity
  8
0
100
AcDbLine
 10
13.9523901681801
 20
99.1592111609853
 30
0.0
 11
14.12485
 21
98.68960000000001
 31
0.0
  0
LINE
  5
B3
330
1E
100
AcDbEntity
  8
0
100
AcDbLine
 10
13.9465278128286
 20
99.18410000000001
 30
0.0
 11
15.36685
 21
99.18410000000001
 31
0.0
  0
LINE
  5
B4
330
1E
100
AcDbEntity
  8
0
100
AcDbLine
 10
13.89485
 20
99.4035
 30
0.0
 11
14.00685
 21
98.92800000000001
 31
0.0
  0
LINE
  5
B5
330
1E
100
AcDbEntity
  8
0
100
AcDbLine
 10
14.00685
 20
98.92800000000001
 30
0.0
 11
14.22175
 21
98.46009999999999
 31
0.0
  0
LINE
  5
B6
330
1E
100
AcDbEntity
  8
0
100
AcDbLine
 10
14.41745
 20
98.2066
 30
0.0
 11
14.82104999999999
 21
97.7411
 31
0.0
  0
LINE
  5
B7
330
1E
100
AcDbEntity
  8
0
100
AcDbLine
 10
15.36685
 20
99.18410000000001
 30
0.0
 11
15.36685
 21
100.2529999999999
 31
0.0
  0
LINE
  5
B8
330
1E
100
AcDbEntity
  8
0
100
AcDbLine
 10
15.36685
 20
99.18410000000001
 30
0.0
 11
15.53535
 21
98.7672
 31
0.0
  0
LINE
  5
B9
330
1E
100
AcDbEntity
  8
0
100
AcDbLine
 10
14.22175
 20
98.46009999999999
 30
0.0
 11
14.53955
 21
98.00589999999999
 31
0.0
  0
LINE
  5
BA
330
1E
100
AcDbEntity
  8
0
100
AcDbLine
 10
14.53955
 20
98.00589999999999
 30
0.0
 11
14.95425
 21
97.5674
 31
0.0
  0
LINE
  5
BB
330
1E
100
AcDbEntity
  8
0
100
AcDbLine
 10
12.73255
 20
98.17900000000001
 30
0.0
 11
13.13005
 21
97.6876
 31
0.0
  0
LINE
  5
BC
330
1E
100
AcDbEntity
  8
0
100
AcDbLine
 10
13.13005
 20
97.6876
 30
0.0
 11
13.62645
 21
97.2169
 31
0.0
  0
LINE
  5
C5
330
1E
100
AcDbEntity
  8
0
100
AcDbLine
 10
13.9678708816705
 20
100.2529999999999
 30
0.0
 11
15.36685
 21
100.2529999999999
 31
0.0
  0
LINE
  5
C6
330
1E
100
AcDbEntity
  8
0
100
AcDbLine
 10
13.9678708816705
 20
100.2529999999999
 30
0.0
 11
15.36685
 21
100.2529999999999
 31
0.0
  0
LINE
  5
C7
330
1E
100
AcDbEntity
  8
0
100
AcDbLine
 10
13.89485
 20
99.9439
 30
0.0
 11
14.00685
 21
100.4179999999999
 31
0.0
  0
LINE
  5
C8
330
1E
100
AcDbEntity
  8
0
100
AcDbLine
 10
14.00685
 20
100.4179999999999
 30
0.0
 11
14.22175
 21
100.885
 31
0.0
  0
LINE
  5
C9
330
1E
100
AcDbEntity
  8
0
100
AcDbLine
 10
14.22175
 20
100.885
 30
0.0
 11
14.53955
 21
101.341
 31
0.0
  0
LINE
  5
CA
330
1E
100
AcDbEntity
  8
0
100
AcDbLine
 10
14.53955
 20
101.341
 30
0.0
 11
14.95425
 21
101.7789999999999
 31
0.0
  0
LINE
  5
CB
330
1E
100
AcDbEntity
  8
0
100
AcDbLine
 10
14.95425
 20
101.7789999999999
 30
0.0
 11
15.46375
 21
102.1949999999999
 31
0.0
  0
LINE
  5
CC
330
1E
100
AcDbEntity
  8
0
100
AcDbLine
 10
15.46375
 20
102.1949999999999
 30
0.0
 11
16.06305
 21
102.5849999999999
 31
0.0
  0
LINE
  5
CD
330
1E
100
AcDbEntity
  8
0
100
AcDbLine
 10
15.36685
 20
100.2529999999999
 30
0.0
 11
15.36685
 21
99.18410000000001
 31
0.0
  0
LINE
  5
CE
330
1E
100
AcDbEntity
  8
0
100
AcDbLine
 10
15.36685
 20
100.2529999999999
 30
0.0
 11
15.53535
 21
100.6699999999999
 31
0.0
  0
LINE
  5
CF
330
1E
100
AcDbEntity
  8
0
100
AcDbLine
 10
13.89085
 20
99.6727
 30
0.0
 11
13.89485
 21
99.4035
 31
0.0
  0
LINE
  5
D0
330
1E
100
AcDbEntity
  8
0
100
AcDbLine
 10
13.89085
 20
99.6727
 30
0.0
 11
13.89485
 21
99.9439
 31
0.0
  0
LINE
  5
D2
330
1E
100
AcDbEntity
  8
0
100
AcDbLine
 10
12.11505
 20
99.90490000000001
 30
0.0
 11
12.19675
 21
99.3796
 31
0.0
  0
LINE
  5
D3
330
1E
100
AcDbEntity
  8
0
100
AcDbLine
 10
12.11505
 20
99.90490000000001
 30
0.0
 11
12.11505
 21
105.335
 31
0.0
  0
LINE
  5
D4
330
1E
100
AcDbEntity
  8
0
100
AcDbLine
 10
14.95425
 20
97.5674
 30
0.0
 11
15.46375
 21
97.15200000000001
 31
0.0
  0
LINE
  5
D5
330
1E
100
AcDbEntity
  8
0
100
AcDbLine
 10
18.28275
 20
95.8431
 30
0.0
 11
19.20895
 21
95.57999999999999
 31
0.0
  0
LINE
  5
D6
330
1E
100
AcDbEntity
  8
0
100
AcDbLine
 10
21.74745
 20
95.8023
 30
0.0
 11
22.73115
 21
95.7033
 31
0.0
  0
LINE
  5
D7
330
1E
100
AcDbEntity
  8
0
100
AcDbLine
 10
22.73115
 20
95.7033
 30
0.0
 11
23.73205
 21
95.65659999999999
 31
0.0
  0
LINE
  5
D9
330
1E
100
AcDbEntity
  8
0
100
AcDbLine
 10
18.32505
 20
95.7839
 30
0.0
 11
19.20895
 21
95.5342
 31
0.0
  0
LINE
  5
DA
330
1E
100
AcDbEntity
  8
0
100
AcDbLine
 10
17.42205
 20
96.15009999999999
 30
0.0
 11
18.28275
 21
95.8431
 31
0.0
  0
LINE
  5
DB
330
1E
100
AcDbEntity
  8
0
100
AcDbLine
 10
15.53535
 20
100.6699999999999
 30
0.0
 11
15.79665
 21
101.076
 31
0.0
  0
LINE
  5
DC
330
1E
100
AcDbEntity
  8
0
100
AcDbLine
 10
15.79665
 20
101.076
 30
0.0
 11
16.14875
 21
101.4679999999999
 31
0.0
  0
LINE
  5
DD
330
1E
100
AcDbEntity
  8
0
100
AcDbLine
 10
15.7719495055654
 20
101.0376211223099
 30
0.0
 11
15.97935
 21
100.7689999999999
 31
0.0
  0
LINE
  5
DE
330
1E
100
AcDbEntity
  8
0
100
AcDbLine
 10
16.06305
 20
102.5849999999999
 30
0.0
 11
16.74305
 21
102.9449999999999
 31
0.0
  0
LINE
  5
DF
330
1E
100
AcDbEntity
  8
0
100
AcDbLine
 10
15.97935
 20
100.7689999999999
 30
0.0
 11
16.41315
 21
100.3589999999999
 31
0.0
  0
LINE
  5
E0
330
1E
100
AcDbEntity
  8
0
100
AcDbLine
 10
15.79665
 20
98.36060000000001
 30
0.0
 11
16.14875
 21
97.9687
 31
0.0
  0
LINE
  5
E1
330
1E
100
AcDbEntity
  8
0
100
AcDbLine
 10
15.53535
 20
98.7672
 30
0.0
 11
15.79665
 21
98.36060000000001
 31
0.0
  0
LINE
  5
E2
330
1E
100
AcDbEntity
  8
0
100
AcDbLine
 10
15.93695
 20
96.88209999999999
 30
0.0
 11
16.63714999999999
 21
96.4975
 31
0.0
  0
LINE
  5
E3
330
1E
100
AcDbEntity
  8
0
100
AcDbLine
 10
16.58875
 20
97.596
 30
0.0
 11
17.10935
 21
97.24630000000001
 31
0.0
  0
LINE
  5
E4
330
1E
100
AcDbEntity
  8
0
100
AcDbLine
 10
16.14875
 20
101.4679999999999
 30
0.0
 11
16.58875
 21
101.8399999999999
 31
0.0
  0
LINE
  5
E5
330
1E
100
AcDbEntity
  8
0
100
AcDbLine
 10
16.58875
 20
101.8399999999999
 30
0.0
 11
17.10935
 21
102.19
 31
0.0
  0
LINE
  5
E6
330
1E
100
AcDbEntity
  8
0
100
AcDbLine
 10
16.74305
 20
102.9449999999999
 30
0.0
 11
17.49975
 21
103.272
 31
0.0
  0
LINE
  5
E7
330
1E
100
AcDbEntity
  8
0
100
AcDbLine
 10
16.41315
 20
100.3589999999999
 30
0.0
 11
16.94385
 21
99.97419999999999
 31
0.0
  0
LINE
  5
E8
330
1E
100
AcDbEntity
  8
0
100
AcDbLine
 10
16.14875
 20
97.9687
 30
0.0
 11
16.58875
 21
97.596
 31
0.0
  0
LINE
  5
E9
330
1E
100
AcDbEntity
  8
0
100
AcDbLine
 10
17.10935
 20
102.19
 30
0.0
 11
17.70554999999999
 21
102.5139999999999
 31
0.0
  0
LINE
  5
EA
330
1E
100
AcDbEntity
  8
0
100
AcDbLine
 10
17.49975
 20
103.272
 30
0.0
 11
18.32505
 21
103.562
 31
0.0
  0
LINE
  5
EB
330
1E
100
AcDbEntity
  8
0
100
AcDbLine
 10
17.10935
 20
97.24630000000001
 30
0.0
 11
17.70554999999999
 21
96.9241
 31
0.0
  0
LINE
  5
EC
330
1E
100
AcDbEntity
  8
0
100
AcDbLine
 10
16.94385
 20
99.97419999999999
 30
0.0
 11
17.56435
 21
99.6189
 31
0.0
  0
LINE
  5
ED
330
1E
100
AcDbEntity
  8
0
100
AcDbLine
 10
16.63714999999999
 20
96.4975
 30
0.0
 11
17.42205
 21
96.15009999999999
 31
0.0
  0
LINE
  5
EE
330
1E
100
AcDbEntity
  8
0
100
AcDbLine
 10
16.06305
 20
96.7613
 30
0.0
 11
16.74305
 21
96.4005
 31
0.0
  0
LINE
  5
EF
330
1E
100
AcDbEntity
  8
0
100
AcDbLine
 10
16.74305
 20
96.4005
 30
0.0
 11
17.49975
 21
96.074
 31
0.0
  0
LINE
  5
F0
330
1E
100
AcDbEntity
  8
0
100
AcDbLine
 10
18.37255
 20
96.6313
 30
0.0
 11
19.10194999999999
 21
96.37250000000001
 31
0.0
  0
LINE
  5
F1
330
1E
100
AcDbEntity
  8
0
100
AcDbLine
 10
17.70554999999999
 20
96.9241
 30
0.0
 11
18.37255
 21
96.6313
 31
0.0
  0
LINE
  5
F2
330
1E
100
AcDbEntity
  8
0
100
AcDbLine
 10
19.10194999999999
 20
96.37250000000001
 30
0.0
 11
19.88595
 21
96.15009999999999
 31
0.0
  0
LINE
  5
F3
330
1E
100
AcDbEntity
  8
0
100
AcDbLine
 10
19.88595
 20
96.15009999999999
 30
0.0
 11
20.79495
 21
95.9515
 31
0.0
  0
LINE
  5
F4
330
1E
100
AcDbEntity
  8
0
100
AcDbLine
 10
20.79495
 20
95.9515
 30
0.0
 11
21.74745
 21
95.8023
 31
0.0
  0
LINE
  5
F5
330
1E
100
AcDbEntity
  8
0
100
AcDbLine
 10
18.26755
 20
99.29770000000001
 30
0.0
 11
19.04544999999999
 21
99.01470000000001
 31
0.0
  0
LINE
  5
F6
330
1E
100
AcDbEntity
  8
0
100
AcDbLine
 10
17.56435
 20
99.6189
 30
0.0
 11
18.26755
 21
99.29770000000001
 31
0.0
  0
LINE
  5
F7
330
1E
100
AcDbEntity
  8
0
100
AcDbLine
 10
19.04544999999999
 20
99.01470000000001
 30
0.0
 11
19.88595
 21
98.7739
 31
0.0
  0
LINE
  5
F8
330
1E
100
AcDbEntity
  8
0
100
AcDbLine
 10
19.88595
 20
98.7739
 30
0.0
 11
20.77984999999999
 21
98.57840000000001
 31
0.0
  0
LINE
  5
F9
330
1E
100
AcDbEntity
  8
0
100
AcDbLine
 10
20.77984999999999
 20
98.57840000000001
 30
0.0
 11
21.71615
 21
98.43009999999999
 31
0.0
  0
LINE
  5
FA
330
1E
100
AcDbEntity
  8
0
100
AcDbLine
 10
21.71615
 20
98.43009999999999
 30
0.0
 11
22.68275
 21
98.3305
 31
0.0
  0
LINE
  5
FB
330
1E
100
AcDbEntity
  8
0
100
AcDbLine
 10
22.68275
 20
98.3305
 30
0.0
 11
23.66645
 21
98.28189999999999
 31
0.0
  0
LINE
  5
FC
330
1E
100
AcDbEntity
  8
0
100
AcDbLine
 10
23.66645
 20
98.28189999999999
 30
0.0
 11
24.11505
 21
98.28319999999999
 31
0.0
  0
LINE
  5
FD
330
1E
100
AcDbEntity
  8
0
100
AcDbLine
 10
18.37255
 20
102.805
 30
0.0
 11
19.10194999999999
 21
103.064
 31
0.0
  0
LINE
  5
FE
330
1E
100
AcDbEntity
  8
0
100
AcDbLine
 10
17.70554999999999
 20
102.5139999999999
 30
0.0
 11
18.37255
 21
102.805
 31
0.0
  0
LINE
  5
FF
330
1E
100
AcDbEntity
  8
0
100
AcDbLine
 10
19.10194999999999
 20
103.064
 30
0.0
 11
19.88595
 21
103.286
 31
0.0
  0
LINE
  5
100
330
1E
100
AcDbEntity
  8
0
100
AcDbLine
 10
19.88595
 20
103.286
 30
0.0
 11
20.79495
 21
103.486
 31
0.0
  0
LINE
  5
101
330
1E
100
AcDbEntity
  8
0
100
AcDbLine
 10
18.32505
 20
103.562
 30
0.0
 11
19.20895
 21
103.812
 31
0.0
  0
LINE
  5
102
330
1E
100
AcDbEntity
  8
0
100
AcDbLine
 10
20.79495
 20
103.486
 30
0.0
 11
21.74745
 21
103.635
 31
0.0
  0
LINE
  5
103
330
1E
100
AcDbEntity
  8
0
100
AcDbLine
 10
21.74745
 20
103.635
 30
0.0
 11
22.73115
 21
103.7339999999999
 31
0.0
  0
LINE
  5
104
330
1E
100
AcDbEntity
  8
0
100
AcDbLine
 10
22.73115
 20
103.7339999999999
 30
0.0
 11
23.73205
 21
103.781
 31
0.0
  0
LINE
  5
106
330
1E
100
AcDbEntity
  8
0
100
AcDbLine
 10
17.49975
 20
96.074
 30
0.0
 11
18.32505
 21
95.7839
 31
0.0
  0
LINE
  5
107
330
1E
100
AcDbEntity
  8
0
100
AcDbLine
 10
15.76945
 20
95.8786
 30
0.0
 11
16.60075
 21
95.5302
 31
0.0
  0
LINE
  5
108
330
1E
100
AcDbEntity
  8
0
100
AcDbLine
 10
15.46375
 20
97.15200000000001
 30
0.0
 11
16.06305
 21
96.7613
 31
0.0
  0
LINE
  5
109
330
1E
100
AcDbEntity
  8
0
100
AcDbLine
 10
6.22838
 20
103.9239999999999
 30
0.0
 11
6.480559999999999
 21
103.635
 31
0.0
  0
LINE
  5
10A
330
1E
100
AcDbEntity
  8
0
100
AcDbLine
 10
19.20895
 20
103.812
 30
0.0
 11
20.14314999999999
 21
104.02
 31
0.0
  0
LINE
  5
10B
330
1E
100
AcDbEntity
  8
0
100
AcDbLine
 10
20.14314999999999
 20
104.02
 30
0.0
 11
21.11885
 21
104.1819999999999
 31
0.0
  0
LINE
  5
10C
330
1E
100
AcDbEntity
  8
0
100
AcDbLine
 10
23.73205
 20
103.781
 30
0.0
 11
24.11505
 21
103.7779999999999
 31
0.0
  0
LINE
  5
10E
330
1E
100
AcDbEntity
  8
0
100
AcDbLine
 10
21.11885
 20
104.1819999999999
 30
0.0
 11
22.12375
 21
104.2999999999999
 31
0.0
  0
LINE
  5
10F
330
1E
100
AcDbEntity
  8
0
100
AcDbLine
 10
5.76205
 20
104.515
 30
0.0
 11
6.22838
 21
103.9239999999999
 31
0.0
  0
LINE
  5
110
330
1E
100
AcDbEntity
  8
0
100
AcDbLine
 10
5.293719999999999
 20
105.1989999999999
 30
0.0
 11
5.76205
 21
104.515
 31
0.0
  0
LINE
  5
111
330
1E
100
AcDbEntity
  8
0
100
AcDbLine
 10
11.60614999999999
 20
104.891
 30
0.0
 11
11.81235
 21
103.632
 31
0.0
  0
LINE
  5
112
330
1E
100
AcDbEntity
  8
0
100
AcDbLine
 10
11.60614999999999
 20
104.891
 30
0.0
 11
11.82235
 21
106.122
 31
0.0
  0
LINE
  5
113
330
1E
100
AcDbEntity
  8
0
100
AcDbLine
 10
4.982499999999999
 20
105.782
 30
0.0
 11
5.293719999999999
 21
105.1989999999999
 31
0.0
  0
LINE
  5
114
330
1E
100
AcDbEntity
  8
0
100
AcDbLine
 10
3.7176
 20
110.3539999999999
 30
0.0
 11
3.724609999999999
 21
110.037
 31
0.0
  0
LINE
  5
115
330
1E
100
AcDbEntity
  8
0
100
AcDbLine
 10
3.724609999999999
 20
110.037
 30
0.0
 11
3.75263
 21
109.34
 31
0.0
  0
LINE
  5
116
330
1E
100
AcDbEntity
  8
0
100
AcDbLine
 10
3.75263
 20
109.34
 30
0.0
 11
3.809669999999999
 21
108.8659999999999
 31
0.0
  0
LINE
  5
117
330
1E
100
AcDbEntity
  8
0
100
AcDbLine
 10
3.809669999999999
 20
108.8659999999999
 30
0.0
 11
3.90874
 21
108.4
 31
0.0
  0
LINE
  5
118
330
1E
100
AcDbEntity
  8
0
100
AcDbLine
 10
3.90874
 20
108.4
 30
0.0
 11
3.948769999999999
 21
108.238
 31
0.0
  0
LINE
  5
119
330
1E
100
AcDbEntity
  8
0
100
AcDbLine
 10
4.411089999999999
 20
106.8699999999999
 30
0.0
 11
4.982499999999999
 21
105.782
 31
0.0
  0
LINE
  5
11A
330
1E
100
AcDbEntity
  8
0
100
AcDbLine
 10
4.072849999999999
 20
107.7829999999999
 30
0.0
 11
4.411089999999999
 21
106.8699999999999
 31
0.0
  0
LINE
  5
11B
330
1E
100
AcDbEntity
  8
0
100
AcDbLine
 10
3.948769999999999
 20
108.238
 30
0.0
 11
4.072849999999999
 21
107.7829999999999
 31
0.0
  0
LINE
  5
11C
330
1E
100
AcDbEntity
  8
0
100
AcDbLine
 10
11.82235
 20
106.122
 30
0.0
 11
12.67295
 21
107.5539999999999
 31
0.0
  0
LINE
  5
11E
330
1E
100
AcDbEntity
  8
0
100
AcDbLine
 10
12.11505
 20
105.5949999999999
 30
0.0
 11
12.19675
 21
106.121
 31
0.0
  0
LINE
  5
11F
330
1E
100
AcDbEntity
  8
0
100
AcDbLine
 10
12.11505
 20
105.5949999999999
 30
0.0
 11
12.11505
 21
100.165
 31
0.0
  0
LINE
  5
120
330
1E
100
AcDbEntity
  8
0
100
AcDbLine
 10
12.25025
 20
106.2979999999999
 30
0.0
 11
12.43895
 21
106.8139999999999
 31
0.0
  0
LINE
  5
121
330
1E
100
AcDbEntity
  8
0
100
AcDbLine
 10
12.19675
 20
106.121
 30
0.0
 11
12.25025
 21
106.2979999999999
 31
0.0
  0
LINE
  5
122
330
1E
100
AcDbEntity
  8
0
100
AcDbLine
 10
12.67295
 20
107.5539999999999
 30
0.0
 11
14.12695
 21
108.809
 31
0.0
  0
LINE
  5
123
330
1E
100
AcDbEntity
  8
0
100
AcDbLine
 10
12.43895
 20
106.8139999999999
 30
0.0
 11
12.73255
 21
107.3209999999999
 31
0.0
  0
LINE
  5
124
330
1E
100
AcDbEntity
  8
0
100
AcDbLine
 10
22.12375
 20
104.2999999999999
 30
0.0
 11
23.15084999999999
 21
104.369
 31
0.0
  0
LINE
  5
126
330
1E
100
AcDbEntity
  8
0
100
AcDbLine
 10
23.15084999999999
 20
104.369
 30
0.0
 11
24.11505
 21
104.3879999999999
 31
0.0
  0
LINE
  5
128
330
1E
100
AcDbEntity
  8
0
100
AcDbLine
 10
12.73255
 20
107.3209999999999
 30
0.0
 11
13.13005
 21
107.812
 31
0.0
  0
LINE
  5
129
330
1E
100
AcDbEntity
  8
0
100
AcDbLine
 10
14.12695
 20
108.809
 30
0.0
 11
16.12235
 21
109.8389999999999
 31
0.0
  0
LINE
  5
12A
330
1E
100
AcDbEntity
  8
0
100
AcDbLine
 10
13.75655
 20
108.383
 30
0.0
 11
14.34074999999999
 21
108.824
 31
0.0
  0
LINE
  5
12B
330
1E
100
AcDbEntity
  8
0
100
AcDbLine
 10
13.62645
 20
108.2829999999999
 30
0.0
 11
13.75655
 21
108.383
 31
0.0
  0
LINE
  5
12C
330
1E
100
AcDbEntity
  8
0
100
AcDbLine
 10
14.34074999999999
 20
108.824
 30
0.0
 11
15.01375
 21
109.238
 31
0.0
  0
LINE
  5
12D
330
1E
100
AcDbEntity
  8
0
100
AcDbLine
 10
15.01375
 20
109.238
 30
0.0
 11
15.76945
 21
109.622
 31
0.0
  0
LINE
  5
12E
330
1E
100
AcDbEntity
  8
0
100
AcDbLine
 10
16.12235
 20
109.8389999999999
 30
0.0
 11
18.54015
 21
110.5979999999999
 31
0.0
  0
LINE
  5
12F
330
1E
100
AcDbEntity
  8
0
100
AcDbLine
 10
15.76945
 20
109.622
 30
0.0
 11
16.60075
 21
109.969
 31
0.0
  0
LINE
  5
130
330
1E
100
AcDbEntity
  8
0
100
AcDbLine
 10
16.60075
 20
109.969
 30
0.0
 11
17.2310219226146
 21
110.187036226844
 31
0.0
  0
LINE
  5
131
330
1E
100
AcDbEntity
  8
0
100
AcDbLine
 10
18.54015
 20
110.5979999999999
 30
0.0
 11
21.25305
 21
111.062
 31
0.0
  0
LINE
  5
132
330
1E
100
AcDbEntity
  8
0
100
AcDbLine
 10
18.45925
 20
110.5489999999999
 30
0.0
 11
19.11384309605449
 21
110.6961214186179
 31
0.0
  0
LINE
  5
133
330
1E
100
AcDbEntity
  8
0
100
AcDbLine
 10
21.25305
 20
111.062
 30
0.0
 11
24.11505
 21
111.217
 31
0.0
  0
LINE
  5
134
330
1E
100
AcDbEntity
  8
0
100
AcDbLine
 10
20.93097762136789
 20
111.00691445181
 30
0.0
 11
21.4672203799138
 21
111.073599024768
 31
0.0
  0
LINE
  5
135
330
1E
100
AcDbEntity
  8
0
100
AcDbLine
 10
17.75607568191789
 20
110.351862020256
 30
0.0
 11
18.45925
 21
110.5489999999999
 31
0.0
  0
LINE
  5
136
330
1E
100
AcDbEntity
  8
0
100
AcDbLine
 10
13.13005
 20
107.812
 30
0.0
 11
13.62645
 21
108.2829999999999
 31
0.0
  0
LINE
  5
137
330
1E
100
AcDbEntity
  8
0
100
AcDbLine
 10
12.11505
 20
105.335
 30
0.0
 11
12.11505
 21
99.90490000000001
 31
0.0
  0
LINE
  5
13C
330
1E
100
AcDbEntity
  8
0
100
AcDbLine
 10
24.11505
 20
103.7779999999999
 30
0.0
 11
24.49805
 21
103.781
 31
0.0
  0
LINE
  5
13D
330
1E
100
AcDbEntity
  8
0
100
AcDbLine
 10
24.11505
 20
104.3879999999999
 30
0.0
 11
25.07925
 21
104.369
 31
0.0
  0
LINE
  5
13F
330
1E
100
AcDbEntity
  8
0
100
AcDbLine
 10
3.69158
 20
112.497
 30
0.0
 11
3.705589999999999
 21
111.4929999999999
 31
0.0
  0
LINE
  5
140
330
1E
100
AcDbEntity
  8
0
100
AcDbLine
 10
3.705589999999999
 20
111.4929999999999
 30
0.0
 11
3.7176
 21
110.3539999999999
 31
0.0
  0
LINE
  5
141
330
1E
100
AcDbEntity
  8
0
100
AcDbLine
 10
3.674569999999999
 20
113.4619999999999
 30
0.0
 11
3.69158
 21
112.497
 31
0.0
  0
LINE
  5
146
330
1E
100
AcDbEntity
  8
0
100
AcDbLine
 10
3.639549999999999
 20
114.877
 30
0.0
 11
3.642654709302319
 21
114.7919103868219
 31
0.0
  0
LINE
  5
147
330
1E
100
AcDbEntity
  8
0
100
AcDbLine
 10
3.613258524092139
 20
115.6168155151449
 30
0.0
 11
3.656559999999999
 21
114.2849999999999
 31
0.0
  0
LINE
  5
148
330
1E
100
AcDbEntity
  8
0
100
AcDbLine
 10
3.656559999999999
 20
114.2849999999999
 30
0.0
 11
3.674569999999999
 21
113.4619999999999
 31
0.0
  0
LINE
  5
149
330
1E
100
AcDbEntity
  8
0
100
AcDbLine
 10
3.5665
 20
115.952
 30
0.0
 11
3.613258524092139
 21
115.6168155151449
 31
0.0
  0
LINE
  5
14B
330
1E
100
AcDbEntity
  8
0
100
AcDbLine
 10
3.500449999999999
 20
116.2889999999999
 30
0.0
 11
3.5665
 21
115.952
 31
0.0
  0
LINE
  5
14C
330
1E
100
AcDbEntity
  8
0
100
AcDbLine
 10
3.46743
 20
116.354
 30
0.0
 11
3.500449999999999
 21
116.2889999999999
 31
0.0
  0
LINE
  5
14E
330
1E
100
AcDbEntity
  8
0
100
AcDbLine
 10
5.162619999999999
 20
118.073
 30
0.0
 11
14.49024999999999
 21
118.2339999999999
 31
0.0
  0
LINE
  5
156
330
1E
100
AcDbEntity
  8
0
100
AcDbLine
 10
14.49024999999999
 20
118.2339999999999
 30
0.0
 11
24.11505
 21
118.664
 31
0.0
  0
LINE
  5
158
330
1E
100
AcDbEntity
  8
0
100
AcDbLine
 10
5.162619999999999
 20
118.073
 30
0.0
 11
14.49024999999999
 21
118.2339999999999
 31
0.0
  0
LINE
  5
166
330
1E
100
AcDbEntity
  8
0
100
AcDbLine
 10
2.093449999999999
 20
130.718
 30
0.0
 11
2.1625
 21
130.4699999999999
 31
0.0
  0
LINE
  5
170
330
1E
100
AcDbEntity
  8
0
100
AcDbLine
 10
2.097449999999999
 20
142.3859999999999
 30
0.0
 11
2.104459999999999
 21
166.649
 31
0.0
  0
LINE
  5
175
330
1E
100
AcDbEntity
  8
0
100
AcDbLine
 10
2.132479999999999
 20
167.214
 30
0.0
 11
2.19152
 21
167.438
 31
0.0
  0
LINE
  5
176
330
1E
100
AcDbEntity
  8
0
100
AcDbLine
 10
2.104459999999999
 20
166.649
 30
0.0
 11
2.132479999999999
 21
167.214
 31
0.0
  0
LINE
  5
177
330
1E
100
AcDbEntity
  8
0
100
AcDbLine
 10
2.104459999999999
 20
166.649
 30
0.0
 11
2.097449999999999
 21
142.3859999999999
 31
0.0
  0
LINE
  5
178
330
1E
100
AcDbEntity
  8
0
100
AcDbLine
 10
2.093449999999999
 20
130.718
 30
0.0
 11
2.097449999999999
 21
142.3859999999999
 31
0.0
  0
LINE
  5
179
330
1E
100
AcDbEntity
  8
0
100
AcDbLine
 10
2.19152
 20
167.438
 30
0.0
 11
2.357639999999999
 21
167.699
 31
0.0
  0
LINE
  5
17A
330
1E
100
AcDbEntity
  8
0
100
AcDbLine
 10
2.357639999999999
 20
167.699
 30
0.0
 11
2.618819999999999
 21
167.869
 31
0.0
  0
LINE
  5
17B
330
1E
100
AcDbEntity
  8
0
100
AcDbLine
 10
2.1625
 20
130.4699999999999
 30
0.0
 11
2.345629999999999
 21
130.286
 31
0.0
  0
LINE
  5
17C
330
1E
100
AcDbEntity
  8
0
100
AcDbLine
 10
2.345629999999999
 20
130.286
 30
0.0
 11
2.595809999999999
 21
130.22
 31
0.0
  0
LINE
  5
17D
330
1E
100
AcDbEntity
  8
0
100
AcDbLine
 10
2.64184
 20
127.1309999999999
 30
0.0
 11
2.792949999999999
 21
127.392
 31
0.0
  0
LINE
  5
17E
330
1E
100
AcDbEntity
  8
0
100
AcDbLine
 10
2.746909999999999
 20
127.3139999999999
 30
0.0
 11
2.792949999999999
 21
127.392
 31
0.0
  0
LINE
  5
17F
330
1E
100
AcDbEntity
  8
0
100
AcDbLine
 10
9.77289
 20
127.7139999999999
 30
0.0
 11
11.89035
 21
127.715
 31
0.0
  0
LINE
  5
180
330
1E
100
AcDbEntity
  8
0
100
AcDbLine
 10
7.941589999999999
 20
127.7129999999999
 30
0.0
 11
9.77289
 21
127.7139999999999
 31
0.0
  0
LINE
  5
181
330
1E
100
AcDbEntity
  8
0
100
AcDbLine
 10
4.91945
 20
127.715
 30
0.0
 11
6.213369999999999
 21
127.7139999999999
 31
0.0
  0
LINE
  5
182
330
1E
100
AcDbEntity
  8
0
100
AcDbLine
 10
4.31803
 20
127.716
 30
0.0
 11
4.91945
 21
127.715
 31
0.0
  0
LINE
  5
183
330
1E
100
AcDbEntity
  8
0
100
AcDbLine
 10
6.213369999999999
 20
127.7139999999999
 30
0.0
 11
7.941589999999999
 21
127.7129999999999
 31
0.0
  0
LINE
  5
184
330
1E
100
AcDbEntity
  8
0
100
AcDbLine
 10
3.56049
 20
127.7109999999999
 30
0.0
 11
3.675569999999999
 21
127.716
 31
0.0
  0
LINE
  5
185
330
1E
100
AcDbEntity
  8
0
100
AcDbLine
 10
3.213249999999999
 20
127.656
 30
0.0
 11
3.56049
 21
127.7109999999999
 31
0.0
  0
LINE
  5
186
330
1E
100
AcDbEntity
  8
0
100
AcDbLine
 10
11.89035
 20
127.715
 30
0.0
 11
14.25605
 21
127.716
 31
0.0
  0
LINE
  5
187
330
1E
100
AcDbEntity
  8
0
100
AcDbLine
 10
14.25605
 20
127.716
 30
0.0
 11
16.80485
 21
127.7179999999999
 31
0.0
  0
LINE
  5
188
330
1E
100
AcDbEntity
  8
0
100
AcDbLine
 10
3.02211
 20
127.5779999999999
 30
0.0
 11
3.213249999999999
 21
127.656
 31
0.0
  0
LINE
  5
189
330
1E
100
AcDbEntity
  8
0
100
AcDbLine
 10
2.792949999999999
 20
127.392
 30
0.0
 11
3.02211
 21
127.5779999999999
 31
0.0
  0
LINE
  5
18A
330
1E
100
AcDbEntity
  8
0
100
AcDbLine
 10
3.75460892358041
 20
127.7163639663089
 30
0.0
 11
3.810669999999999
 21
128.8089999999999
 31
0.0
  0
LINE
  5
18C
330
1E
100
AcDbEntity
  8
0
100
AcDbLine
 10
2.62583
 20
167.8729999999999
 30
0.0
 11
2.84799
 21
167.935
 31
0.0
  0
LINE
  5
18D
330
1E
100
AcDbEntity
  8
0
100
AcDbLine
 10
2.92004
 20
167.942
 30
0.0
 11
3.49745
 21
167.982
 31
0.0
  0
LINE
  5
18E
330
1E
100
AcDbEntity
  8
0
100
AcDbLine
 10
2.84799
 20
167.935
 30
0.0
 11
2.92004
 21
167.942
 31
0.0
  0
LINE
  5
18F
330
1E
100
AcDbEntity
  8
0
100
AcDbLine
 10
3.49745
 20
167.982
 30
0.0
 11
3.79766
 21
167.994
 31
0.0
  0
LINE
  5
190
330
1E
100
AcDbEntity
  8
0
100
AcDbLine
 10
3.79766
 20
167.994
 30
0.0
 11
4.017426893219529
 21
168.000145835785
 31
0.0
  0
LINE
  5
191
330
1E
100
AcDbEntity
  8
0
100
AcDbLine
 10
3.77464
 20
167.369
 30
0.0
 11
3.90273
 21
167.6009999999999
 31
0.0
  0
LINE
  5
193
330
1E
100
AcDbEntity
  8
0
100
AcDbLine
 10
7.126019999999999
 20
130.22
 30
0.0
 11
33.07735
 21
130.22
 31
0.0
  0
LINE
  5
194
330
1E
100
AcDbEntity
  8
0
100
AcDbLine
 10
2.595809999999999
 20
130.22
 30
0.0
 11
7.126019999999999
 21
130.22
 31
0.0
  0
LINE
  5
199
330
1E
100
AcDbEntity
  8
0
100
AcDbLine
 10
3.97378
 20
167.8029999999999
 30
0.0
 11
4.04684
 21
168.1329999999999
 31
0.0
  0
LINE
  5
19A
330
1E
100
AcDbEntity
  8
0
100
AcDbLine
 10
4.12089
 20
168.54
 30
0.0
 11
4.170919999999999
 21
168.854
 31
0.0
  0
LINE
  5
19B
330
1E
100
AcDbEntity
  8
0
100
AcDbLine
 10
4.04684
 20
168.1329999999999
 30
0.0
 11
4.12089
 21
168.54
 31
0.0
  0
LINE
  5
19C
330
1E
100
AcDbEntity
  8
0
100
AcDbLine
 10
4.272
 20
169.594
 30
0.0
 11
4.33304
 21
169.805
 31
0.0
  0
LINE
  5
19D
330
1E
100
AcDbEntity
  8
0
100
AcDbLine
 10
4.170919999999999
 20
168.854
 30
0.0
 11
4.272
 21
169.594
 31
0.0
  0
LINE
  5
19E
330
1E
100
AcDbEntity
  8
0
100
AcDbLine
 10
3.90273
 20
167.6009999999999
 30
0.0
 11
3.995444261132589
 21
167.9008539032819
 31
0.0
  0
LINE
  5
19F
330
1E
100
AcDbEntity
  8
0
100
AcDbLine
 10
3.8567
 20
167.565
 30
0.0
 11
3.904204675468779
 21
167.605769354682
 31
0.0
  0
LINE
  5
1A0
330
1E
100
AcDbEntity
  8
0
100
AcDbLine
 10
4.33304
 20
169.805
 30
0.0
 11
4.429109999999999
 21
170.113
 31
0.0
  0
LINE
  5
1A1
330
1E
100
AcDbEntity
  8
0
100
AcDbLine
 10
4.596219999999999
 20
170.3549999999999
 30
0.0
 11
4.721309999999999
 21
170.5109999999999
 31
0.0
  0
LINE
  5
1A2
330
1E
100
AcDbEntity
  8
0
100
AcDbLine
 10
4.429109999999999
 20
170.113
 30
0.0
 11
4.596219999999999
 21
170.3549999999999
 31
0.0
  0
LINE
  5
1A3
330
1E
100
AcDbEntity
  8
0
100
AcDbLine
 10
4.721309999999999
 20
170.5109999999999
 30
0.0
 11
5.037539999999999
 21
170.749
 31
0.0
  0
LINE
  5
1A4
330
1E
100
AcDbEntity
  8
0
100
AcDbLine
 10
5.248689999999999
 20
170.863
 30
0.0
 11
5.68399
 21
171.067
 31
0.0
  0
LINE
  5
1A5
330
1E
100
AcDbEntity
  8
0
100
AcDbLine
 10
5.037539999999999
 20
170.749
 30
0.0
 11
5.248689999999999
 21
170.863
 31
0.0
  0
LINE
  5
1A6
330
1E
100
AcDbEntity
  8
0
100
AcDbLine
 10
5.68399
 20
171.067
 30
0.0
 11
6.24439
 21
171.2429999999999
 31
0.0
  0
LINE
  5
1A9
330
1E
100
AcDbEntity
  8
0
100
AcDbLine
 10
7.3832
 20
171.4479999999999
 30
0.0
 11
8.384910000000001
 21
171.5329999999999
 31
0.0
  0
LINE
  5
1AA
330
1E
100
AcDbEntity
  8
0
100
AcDbLine
 10
6.90486
 20
171.3799999999999
 30
0.0
 11
7.3832
 21
171.4479999999999
 31
0.0
  0
LINE
  5
1AB
330
1E
100
AcDbEntity
  8
0
100
AcDbLine
 10
6.24439
 20
171.2429999999999
 30
0.0
 11
6.90486
 21
171.3799999999999
 31
0.0
  0
LINE
  5
1AC
330
1E
100
AcDbEntity
  8
0
100
AcDbLine
 10
12.30265
 20
171.75
 30
0.0
 11
16.23245
 21
171.897
 31
0.0
  0
LINE
  5
1AD
330
1E
100
AcDbEntity
  8
0
100
AcDbLine
 10
8.384910000000001
 20
171.5329999999999
 30
0.0
 11
12.30265
 21
171.75
 31
0.0
  0
LINE
  5
1AE
330
1E
100
AcDbEntity
  8
0
100
AcDbLine
 10
16.23245
 20
171.897
 30
0.0
 11
20.17125
 21
171.9829999999999
 31
0.0
  0
LINE
  5
1B0
330
1E
100
AcDbEntity
  8
0
100
AcDbLine
 10
3.810669999999999
 20
128.8089999999999
 30
0.0
 11
4.03095417151163
 21
130.22
 31
0.0
  0
LINE
  5
1B1
330
1E
100
AcDbEntity
  8
0
100
AcDbLine
 10
3.89273
 20
127.717
 30
0.0
 11
4.31803
 21
127.716
 31
0.0
  0
LINE
  5
1B3
330
1E
100
AcDbEntity
  8
0
100
AcDbLine
 10
21.42214999999999
 20
139.7499999999999
 30
0.0
 11
21.46314999999999
 21
140.0749999999999
 31
0.0
  0
LINE
  5
1B4
330
1E
100
AcDbEntity
  8
0
100
AcDbLine
 10
21.41414999999999
 20
139.422
 30
0.0
 11
21.44115
 21
139.0949999999999
 31
0.0
  0
LINE
  5
1B5
330
1E
100
AcDbEntity
  8
0
100
AcDbLine
 10
21.41414999999999
 20
139.422
 30
0.0
 11
21.42214999999999
 21
139.7499999999999
 31
0.0
  0
LINE
  5
1B6
330
1E
100
AcDbEntity
  8
0
100
AcDbLine
 10
21.46314999999999
 20
140.0749999999999
 30
0.0
 11
21.49615
 21
140.2369999999999
 31
0.0
  0
LINE
  5
1B7
330
1E
100
AcDbEntity
  8
0
100
AcDbLine
 10
21.50015
 20
138.7729999999999
 30
0.0
 11
21.59124999999999
 21
138.463
 31
0.0
  0
LINE
  5
1B8
330
1E
100
AcDbEntity
  8
0
100
AcDbLine
 10
21.50015
 20
138.7729999999999
 30
0.0
 11
21.58376066655919
 21
138.4906664788279
 31
0.0
  0
LINE
  5
1B9
330
1E
100
AcDbEntity
  8
0
100
AcDbLine
 10
21.49615
 20
140.2369999999999
 30
0.0
 11
21.53825
 21
140.396
 31
0.0
  0
LINE
  5
1BA
330
1E
100
AcDbEntity
  8
0
100
AcDbLine
 10
21.53825
 20
140.396
 30
0.0
 11
21.58725
 21
140.551
 31
0.0
  0
LINE
  5
1BB
330
1E
100
AcDbEntity
  8
0
100
AcDbLine
 10
21.58725
 20
140.551
 30
0.0
 11
21.64535
 21
140.704
 31
0.0
  0
LINE
  5
1BC
330
1E
100
AcDbEntity
  8
0
100
AcDbLine
 10
21.64535
 20
140.704
 30
0.0
 11
21.75135
 21
140.935
 31
0.0
  0
LINE
  5
1BD
330
1E
100
AcDbEntity
  8
0
100
AcDbLine
 10
21.44115
 20
139.0949999999999
 30
0.0
 11
21.50015
 21
138.7729999999999
 31
0.0
  0
LINE
  5
1BE
330
1E
100
AcDbEntity
  8
0
100
AcDbLine
 10
21.59124999999999
 20
138.463
 30
0.0
 11
21.64835
 21
138.3089999999999
 31
0.0
  0
LINE
  5
1BF
330
1E
100
AcDbEntity
  8
0
100
AcDbLine
 10
21.78535
 20
138.013
 30
0.0
 11
21.86644999999999
 21
137.871
 31
0.0
  0
LINE
  5
1C0
330
1E
100
AcDbEntity
  8
0
100
AcDbLine
 10
21.75135
 20
140.935
 30
0.0
 11
21.87644999999999
 21
141.157
 31
0.0
  0
LINE
  5
1C1
330
1E
100
AcDbEntity
  8
0
100
AcDbLine
 10
21.71335
 20
138.1589999999999
 30
0.0
 11
21.78535
 21
138.013
 31
0.0
  0
LINE
  5
1C2
330
1E
100
AcDbEntity
  8
0
100
AcDbLine
 10
21.64835
 20
138.3089999999999
 30
0.0
 11
21.71335
 21
138.1589999999999
 31
0.0
  0
LINE
  5
1C3
330
1E
100
AcDbEntity
  8
0
100
AcDbLine
 10
21.86644999999999
 20
137.871
 30
0.0
 11
22.02055
 21
137.6409999999999
 31
0.0
  0
LINE
  5
1C4
330
1E
100
AcDbEntity
  8
0
100
AcDbLine
 10
22.02055
 20
137.6409999999999
 30
0.0
 11
22.19665
 21
137.426
 31
0.0
  0
LINE
  5
1C7
330
1E
100
AcDbEntity
  8
0
100
AcDbLine
 10
21.15895
 20
162.415
 30
0.0
 11
24.11505
 21
162.465
 31
0.0
  0
LINE
  5
1C8
330
1E
100
AcDbEntity
  8
0
100
AcDbLine
 10
21.87644999999999
 20
141.157
 30
0.0
 11
22.02055
 21
141.367
 31
0.0
  0
LINE
  5
1C9
330
1E
100
AcDbEntity
  8
0
100
AcDbLine
 10
22.18265
 20
141.565
 30
0.0
 11
22.38185
 21
141.7649999999999
 31
0.0
  0
LINE
  5
1CA
330
1E
100
AcDbEntity
  8
0
100
AcDbLine
 10
22.19665
 20
137.426
 30
0.0
 11
22.39384999999999
 21
137.2279999999999
 31
0.0
  0
LINE
  5
1CB
330
1E
100
AcDbEntity
  8
0
100
AcDbLine
 10
22.02055
 20
141.367
 30
0.0
 11
22.18265
 21
141.565
 31
0.0
  0
LINE
  5
1CE
330
1E
100
AcDbEntity
  8
0
100
AcDbLine
 10
22.80815
 20
136.9199999999999
 30
0.0
 11
23.04225
 21
136.7939999999999
 31
0.0
  0
LINE
  5
1CF
330
1E
100
AcDbEntity
  8
0
100
AcDbLine
 10
23.04225
 20
136.7939999999999
 30
0.0
 11
23.28945
 21
136.692
 31
0.0
  0
LINE
  5
1D0
330
1E
100
AcDbEntity
  8
0
100
AcDbLine
 10
23.28945
 20
136.692
 30
0.0
 11
23.54565
 21
136.6179999999999
 31
0.0
  0
LINE
  5
1D1
330
1E
100
AcDbEntity
  8
0
100
AcDbLine
 10
23.54565
 20
136.6179999999999
 30
0.0
 11
23.77185
 21
136.5759999999999
 31
0.0
  0
LINE
  5
1D2
330
1E
100
AcDbEntity
  8
0
100
AcDbLine
 10
23.77185
 20
136.5759999999999
 30
0.0
 11
23.99995
 21
136.5539999999999
 31
0.0
  0
LINE
  5
1D3
330
1E
100
AcDbEntity
  8
0
100
AcDbLine
 10
23.99995
 20
136.5539999999999
 30
0.0
 11
24.11505
 21
136.5539999999999
 31
0.0
  0
LINE
  5
1D4
330
1E
100
AcDbEntity
  8
0
100
AcDbLine
 10
22.38185
 20
141.7649999999999
 30
0.0
 11
22.60095
 21
141.9449999999999
 31
0.0
  0
LINE
  5
1D7
330
1E
100
AcDbEntity
  8
0
100
AcDbLine
 10
23.70074999999999
 20
142.4139999999999
 30
0.0
 11
23.93095
 21
142.442
 31
0.0
  0
LINE
  5
1D8
330
1E
100
AcDbEntity
  8
0
100
AcDbLine
 10
23.93095
 20
142.442
 30
0.0
 11
24.11505
 21
142.447
 31
0.0
  0
LINE
  5
1D9
330
1E
100
AcDbEntity
  8
0
100
AcDbLine
 10
23.47255
 20
142.365
 30
0.0
 11
23.70074999999999
 21
142.4139999999999
 31
0.0
  0
LINE
  5
1DA
330
1E
100
AcDbEntity
  8
0
100
AcDbLine
 10
23.25344999999999
 20
142.2949999999999
 30
0.0
 11
23.47255
 21
142.365
 31
0.0
  0
LINE
  5
1DB
330
1E
100
AcDbEntity
  8
0
100
AcDbLine
 10
23.04125
 20
142.2069999999999
 30
0.0
 11
23.25344999999999
 21
142.2949999999999
 31
0.0
  0
LINE
  5
1DC
330
1E
100
AcDbEntity
  8
0
100
AcDbLine
 10
22.83815
 20
142.101
 30
0.0
 11
23.04125
 21
142.2069999999999
 31
0.0
  0
LINE
  5
1DD
330
1E
100
AcDbEntity
  8
0
100
AcDbLine
 10
22.60095
 20
141.9449999999999
 30
0.0
 11
22.83815
 21
142.101
 31
0.0
  0
LINE
  5
1DE
330
1E
100
AcDbEntity
  8
0
100
AcDbLine
 10
22.39384999999999
 20
137.2279999999999
 30
0.0
 11
22.60995
 21
137.052
 31
0.0
  0
LINE
  5
1DF
330
1E
100
AcDbEntity
  8
0
100
AcDbLine
 10
22.60995
 20
137.052
 30
0.0
 11
22.80815
 21
136.9199999999999
 31
0.0
  0
LINE
  5
1E0
330
1E
100
AcDbEntity
  8
0
100
AcDbLine
 10
22.28975
 20
127.72
 30
0.0
 11
24.11485
 21
127.72
 31
0.0
  0
LINE
  5
1E1
330
1E
100
AcDbEntity
  8
0
100
AcDbLine
 10
19.50075
 20
127.719
 30
0.0
 11
22.28975
 21
127.72
 31
0.0
  0
LINE
  5
1E2
330
1E
100
AcDbEntity
  8
0
100
AcDbLine
 10
16.80485
 20
127.7179999999999
 30
0.0
 11
19.50075
 21
127.719
 31
0.0
  0
LINE
  5
1E3
330
1E
100
AcDbEntity
  8
0
100
AcDbLine
 10
3.675569999999999
 20
127.716
 30
0.0
 11
3.89273
 21
127.717
 31
0.0
  0
LINE
  5
1E4
330
1E
100
AcDbEntity
  8
0
100
AcDbLine
 10
2.585799999999999
 20
126.921
 30
0.0
 11
2.64184
 21
127.1309999999999
 31
0.0
  0
LINE
  5
1E5
330
1E
100
AcDbEntity
  8
0
100
AcDbLine
 10
2.550769999999999
 20
126.421
 30
0.0
 11
2.585799999999999
 21
126.921
 31
0.0
  0
LINE
  5
1F7
330
1E
100
AcDbEntity
  8
0
100
AcDbLine
 10
24.11505
 20
118.664
 30
0.0
 11
33.73984999999999
 21
118.2339999999999
 31
0.0
  0
LINE
  5
205
330
1E
100
AcDbEntity
  8
0
100
AcDbLine
 10
24.11505
 20
111.217
 30
0.0
 11
26.97705
 21
111.062
 31
0.0
  0
LINE
  5
206
330
1E
100
AcDbEntity
  8
0
100
AcDbLine
 10
24.11505
 20
142.447
 30
0.0
 11
24.29915
 21
142.442
 31
0.0
  0
LINE
  5
207
330
1E
100
AcDbEntity
  8
0
100
AcDbLine
 10
24.11505
 20
136.5539999999999
 30
0.0
 11
24.23014999999999
 21
136.5539999999999
 31
0.0
  0
LINE
  5
208
330
1E
100
AcDbEntity
  8
0
100
AcDbLine
 10
24.11505
 20
162.465
 30
0.0
 11
27.07114999999999
 21
162.415
 31
0.0
  0
LINE
  5
20F
330
1E
100
AcDbEntity
  8
0
100
AcDbLine
 10
24.0071392012728
 20
111.211155774353
 30
0.0
 11
24.11505
 21
111.2099999999999
 31
0.0
  0
LINE
  5
210
330
1E
100
AcDbEntity
  8
0
100
AcDbLine
 10
24.11505
 20
111.2099999999999
 30
0.0
 11
24.22296079872719
 21
111.211155774353
 31
0.0
  0
LINE
  5
211
330
1E
100
AcDbEntity
  8
0
100
AcDbLine
 10
29.12815
 20
96.37250000000001
 30
0.0
 11
29.85755
 21
96.6313
 31
0.0
  0
LINE
  5
212
330
1E
100
AcDbEntity
  8
0
100
AcDbLine
 10
29.85755
 20
96.6313
 30
0.0
 11
30.52455
 21
96.9241
 31
0.0
  0
LINE
  5
213
330
1E
100
AcDbEntity
  8
0
100
AcDbLine
 10
28.34414999999999
 20
96.15009999999999
 30
0.0
 11
29.12815
 21
96.37250000000001
 31
0.0
  0
LINE
  5
214
330
1E
100
AcDbEntity
  8
0
100
AcDbLine
 10
27.43515
 20
95.9515
 30
0.0
 11
28.34414999999999
 21
96.15009999999999
 31
0.0
  0
LINE
  5
215
330
1E
100
AcDbEntity
  8
0
100
AcDbLine
 10
26.48265
 20
95.8023
 30
0.0
 11
27.43515
 21
95.9515
 31
0.0
  0
LINE
  5
216
330
1E
100
AcDbEntity
  8
0
100
AcDbLine
 10
25.49895
 20
95.7033
 30
0.0
 11
26.48265
 21
95.8023
 31
0.0
  0
LINE
  5
217
330
1E
100
AcDbEntity
  8
0
100
AcDbLine
 10
24.45825
 20
136.5759999999999
 30
0.0
 11
24.68445
 21
136.6179999999999
 31
0.0
  0
LINE
  5
218
330
1E
100
AcDbEntity
  8
0
100
AcDbLine
 10
24.23014999999999
 20
136.5539999999999
 30
0.0
 11
24.45825
 21
136.5759999999999
 31
0.0
  0
LINE
  5
219
330
1E
100
AcDbEntity
  8
0
100
AcDbLine
 10
24.94065
 20
136.692
 30
0.0
 11
25.18785
 21
136.7939999999999
 31
0.0
  0
LINE
  5
21A
330
1E
100
AcDbEntity
  8
0
100
AcDbLine
 10
24.97665
 20
142.2949999999999
 30
0.0
 11
25.18885
 21
142.2069999999999
 31
0.0
  0
LINE
  5
21B
330
1E
100
AcDbEntity
  8
0
100
AcDbLine
 10
24.75754999999999
 20
142.365
 30
0.0
 11
24.97665
 21
142.2949999999999
 31
0.0
  0
LINE
  5
21C
330
1E
100
AcDbEntity
  8
0
100
AcDbLine
 10
24.68445
 20
136.6179999999999
 30
0.0
 11
24.94065
 21
136.692
 31
0.0
  0
LINE
  5
21D
330
1E
100
AcDbEntity
  8
0
100
AcDbLine
 10
24.52935
 20
142.4139999999999
 30
0.0
 11
24.75754999999999
 21
142.365
 31
0.0
  0
LINE
  5
21E
330
1E
100
AcDbEntity
  8
0
100
AcDbLine
 10
24.29915
 20
142.442
 30
0.0
 11
24.52935
 21
142.4139999999999
 31
0.0
  0
LINE
  5
221
330
1E
100
AcDbEntity
  8
0
100
AcDbLine
 10
24.11525
 20
127.72
 30
0.0
 11
25.94034999999999
 21
127.72
 31
0.0
  0
LINE
  5
222
330
1E
100
AcDbEntity
  8
0
100
AcDbLine
 10
24.49805
 20
103.781
 30
0.0
 11
25.49895
 21
103.7339999999999
 31
0.0
  0
LINE
  5
223
330
1E
100
AcDbEntity
  8
0
100
AcDbLine
 10
25.39195
 20
142.101
 30
0.0
 11
25.62915
 21
141.9449999999999
 31
0.0
  0
LINE
  5
224
330
1E
100
AcDbEntity
  8
0
100
AcDbLine
 10
25.18885
 20
142.2069999999999
 30
0.0
 11
25.39195
 21
142.101
 31
0.0
  0
LINE
  5
225
330
1E
100
AcDbEntity
  8
0
100
AcDbLine
 10
25.18785
 20
136.7939999999999
 30
0.0
 11
25.42194999999999
 21
136.9199999999999
 31
0.0
  0
LINE
  5
226
330
1E
100
AcDbEntity
  8
0
100
AcDbLine
 10
25.42194999999999
 20
136.9199999999999
 30
0.0
 11
25.62015
 21
137.052
 31
0.0
  0
LINE
  5
227
330
1E
100
AcDbEntity
  8
0
100
AcDbLine
 10
25.49895
 20
103.7339999999999
 30
0.0
 11
26.48265
 21
103.635
 31
0.0
  0
LINE
  5
228
330
1E
100
AcDbEntity
  8
0
100
AcDbLine
 10
25.07925
 20
104.369
 30
0.0
 11
26.10635
 21
104.2999999999999
 31
0.0
  0
LINE
  5
229
330
1E
100
AcDbEntity
  8
0
100
AcDbLine
 10
26.48265
 20
103.635
 30
0.0
 11
27.43515
 21
103.486
 31
0.0
  0
LINE
  5
22A
330
1E
100
AcDbEntity
  8
0
100
AcDbLine
 10
25.62915
 20
141.9449999999999
 30
0.0
 11
25.84825
 21
141.7649999999999
 31
0.0
  0
LINE
  5
22B
330
1E
100
AcDbEntity
  8
0
100
AcDbLine
 10
25.84825
 20
141.7649999999999
 30
0.0
 11
26.04745
 21
141.565
 31
0.0
  0
LINE
  5
22C
330
1E
100
AcDbEntity
  8
0
100
AcDbLine
 10
25.83625
 20
137.2279999999999
 30
0.0
 11
26.03345
 21
137.426
 31
0.0
  0
LINE
  5
22D
330
1E
100
AcDbEntity
  8
0
100
AcDbLine
 10
25.62015
 20
137.052
 30
0.0
 11
25.83625
 21
137.2279999999999
 31
0.0
  0
LINE
  5
22E
330
1E
100
AcDbEntity
  8
0
100
AcDbLine
 10
26.03345
 20
137.426
 30
0.0
 11
26.20955
 21
137.6409999999999
 31
0.0
  0
LINE
  5
22F
330
1E
100
AcDbEntity
  8
0
100
AcDbLine
 10
26.36365
 20
137.871
 30
0.0
 11
26.44474999999999
 21
138.013
 31
0.0
  0
LINE
  5
230
330
1E
100
AcDbEntity
  8
0
100
AcDbLine
 10
26.58174999999999
 20
138.3089999999999
 30
0.0
 11
26.63885
 21
138.463
 31
0.0
  0
LINE
  5
231
330
1E
100
AcDbEntity
  8
0
100
AcDbLine
 10
26.51675
 20
138.1589999999999
 30
0.0
 11
26.58174999999999
 21
138.3089999999999
 31
0.0
  0
LINE
  5
232
330
1E
100
AcDbEntity
  8
0
100
AcDbLine
 10
26.44474999999999
 20
138.013
 30
0.0
 11
26.51675
 21
138.1589999999999
 31
0.0
  0
LINE
  5
233
330
1E
100
AcDbEntity
  8
0
100
AcDbLine
 10
26.20955
 20
137.6409999999999
 30
0.0
 11
26.36365
 21
137.871
 31
0.0
  0
LINE
  5
234
330
1E
100
AcDbEntity
  8
0
100
AcDbLine
 10
26.6463393334408
 20
138.4906664788279
 30
0.0
 11
26.72995
 21
138.7729999999999
 31
0.0
  0
LINE
  5
235
330
1E
100
AcDbEntity
  8
0
100
AcDbLine
 10
26.63885
 20
138.463
 30
0.0
 11
26.72995
 21
138.7729999999999
 31
0.0
  0
LINE
  5
236
330
1E
100
AcDbEntity
  8
0
100
AcDbLine
 10
26.72995
 20
138.7729999999999
 30
0.0
 11
26.78895
 21
139.0949999999999
 31
0.0
  0
LINE
  5
237
330
1E
100
AcDbEntity
  8
0
100
AcDbLine
 10
26.35365
 20
141.157
 30
0.0
 11
26.47875
 21
140.935
 31
0.0
  0
LINE
  5
238
330
1E
100
AcDbEntity
  8
0
100
AcDbLine
 10
26.58475
 20
140.704
 30
0.0
 11
26.64285
 21
140.551
 31
0.0
  0
LINE
  5
239
330
1E
100
AcDbEntity
  8
0
100
AcDbLine
 10
26.47875
 20
140.935
 30
0.0
 11
26.58475
 21
140.704
 31
0.0
  0
LINE
  5
23A
330
1E
100
AcDbEntity
  8
0
100
AcDbLine
 10
26.04745
 20
141.565
 30
0.0
 11
26.20955
 21
141.367
 31
0.0
  0
LINE
  5
23B
330
1E
100
AcDbEntity
  8
0
100
AcDbLine
 10
26.20955
 20
141.367
 30
0.0
 11
26.35365
 21
141.157
 31
0.0
  0
LINE
  5
23C
330
1E
100
AcDbEntity
  8
0
100
AcDbLine
 10
26.69185
 20
140.396
 30
0.0
 11
26.73395
 21
140.2369999999999
 31
0.0
  0
LINE
  5
23D
330
1E
100
AcDbEntity
  8
0
100
AcDbLine
 10
26.64285
 20
140.551
 30
0.0
 11
26.69185
 21
140.396
 31
0.0
  0
LINE
  5
23E
330
1E
100
AcDbEntity
  8
0
100
AcDbLine
 10
26.73395
 20
140.2369999999999
 30
0.0
 11
26.76695
 21
140.0749999999999
 31
0.0
  0
LINE
  5
23F
330
1E
100
AcDbEntity
  8
0
100
AcDbLine
 10
25.94034999999999
 20
127.72
 30
0.0
 11
28.72935
 21
127.719
 31
0.0
  0
LINE
  5
240
330
1E
100
AcDbEntity
  8
0
100
AcDbLine
 10
26.10635
 20
104.2999999999999
 30
0.0
 11
27.11125
 21
104.1819999999999
 31
0.0
  0
LINE
  5
241
330
1E
100
AcDbEntity
  8
0
100
AcDbLine
 10
27.43515
 20
103.486
 30
0.0
 11
28.34414999999999
 21
103.286
 31
0.0
  0
LINE
  5
242
330
1E
100
AcDbEntity
  8
0
100
AcDbLine
 10
26.76695
 20
140.0749999999999
 30
0.0
 11
26.80795
 21
139.7499999999999
 31
0.0
  0
LINE
  5
243
330
1E
100
AcDbEntity
  8
0
100
AcDbLine
 10
26.78895
 20
139.0949999999999
 30
0.0
 11
26.81595
 21
139.422
 31
0.0
  0
LINE
  5
244
330
1E
100
AcDbEntity
  8
0
100
AcDbLine
 10
26.80795
 20
139.7499999999999
 30
0.0
 11
26.81595
 21
139.422
 31
0.0
  0
LINE
  5
246
330
1E
100
AcDbEntity
  8
0
100
AcDbLine
 10
26.97705
 20
111.062
 30
0.0
 11
29.68994999999999
 21
110.5979999999999
 31
0.0
  0
LINE
  5
247
330
1E
100
AcDbEntity
  8
0
100
AcDbLine
 10
27.11125
 20
104.1819999999999
 30
0.0
 11
28.08695
 21
104.02
 31
0.0
  0
LINE
  5
248
330
1E
100
AcDbEntity
  8
0
100
AcDbLine
 10
26.7628796200862
 20
111.073599024768
 30
0.0
 11
27.2991223786321
 21
111.00691445181
 31
0.0
  0
LINE
  5
249
330
1E
100
AcDbEntity
  8
0
100
AcDbLine
 10
28.34414999999999
 20
103.286
 30
0.0
 11
29.12815
 21
103.064
 31
0.0
  0
LINE
  5
24A
330
1E
100
AcDbEntity
  8
0
100
AcDbLine
 10
28.08695
 20
104.02
 30
0.0
 11
29.02115
 21
103.812
 31
0.0
  0
LINE
  5
24B
330
1E
100
AcDbEntity
  8
0
100
AcDbLine
 10
29.12815
 20
103.064
 30
0.0
 11
29.85755
 21
102.805
 31
0.0
  0
LINE
  5
24C
330
1E
100
AcDbEntity
  8
0
100
AcDbLine
 10
29.02115
 20
103.812
 30
0.0
 11
29.90505
 21
103.562
 31
0.0
  0
LINE
  5
252
330
1E
100
AcDbEntity
  8
0
100
AcDbLine
 10
28.05884999999999
 20
171.9829999999999
 30
0.0
 11
31.99765
 21
171.897
 31
0.0
  0
LINE
  5
254
330
1E
100
AcDbEntity
  8
0
100
AcDbLine
 10
28.72935
 20
127.719
 30
0.0
 11
31.42525
 21
127.7179999999999
 31
0.0
  0
LINE
  5
255
330
1E
100
AcDbEntity
  8
0
100
AcDbLine
 10
29.11625690394549
 20
110.6961214186179
 30
0.0
 11
29.77085
 21
110.5489999999999
 31
0.0
  0
LINE
  5
256
330
1E
100
AcDbEntity
  8
0
100
AcDbLine
 10
29.85755
 20
102.805
 30
0.0
 11
30.52455
 21
102.5139999999999
 31
0.0
  0
LINE
  5
257
330
1E
100
AcDbEntity
  8
0
100
AcDbLine
 10
29.90505
 20
103.562
 30
0.0
 11
30.73035
 21
103.272
 31
0.0
  0
LINE
  5
259
330
1E
100
AcDbEntity
  8
0
100
AcDbLine
 10
29.68994999999999
 20
110.5979999999999
 30
0.0
 11
32.10775
 21
109.8389999999999
 31
0.0
  0
LINE
  5
25A
330
1E
100
AcDbEntity
  8
0
100
AcDbLine
 10
29.77085
 20
110.5489999999999
 30
0.0
 11
30.4740243180821
 21
110.351862020256
 31
0.0
  0
LINE
  5
25B
330
1E
100
AcDbEntity
  8
0
100
AcDbLine
 10
29.18465
 20
99.01470000000001
 30
0.0
 11
29.96255
 21
99.29770000000001
 31
0.0
  0
LINE
  5
25C
330
1E
100
AcDbEntity
  8
0
100
AcDbLine
 10
28.34414999999999
 20
98.7739
 30
0.0
 11
29.18465
 21
99.01470000000001
 31
0.0
  0
LINE
  5
25D
330
1E
100
AcDbEntity
  8
0
100
AcDbLine
 10
27.45025
 20
98.57840000000001
 30
0.0
 11
28.34414999999999
 21
98.7739
 31
0.0
  0
LINE
  5
25E
330
1E
100
AcDbEntity
  8
0
100
AcDbLine
 10
26.51395
 20
98.43009999999999
 30
0.0
 11
27.45025
 21
98.57840000000001
 31
0.0
  0
LINE
  5
25F
330
1E
100
AcDbEntity
  8
0
100
AcDbLine
 10
25.54735
 20
98.3305
 30
0.0
 11
26.51395
 21
98.43009999999999
 31
0.0
  0
LINE
  5
260
330
1E
100
AcDbEntity
  8
0
100
AcDbLine
 10
24.56364999999999
 20
98.28189999999999
 30
0.0
 11
25.54735
 21
98.3305
 31
0.0
  0
LINE
  5
261
330
1E
100
AcDbEntity
  8
0
100
AcDbLine
 10
24.11505
 20
98.28319999999999
 30
0.0
 11
24.56364999999999
 21
98.28189999999999
 31
0.0
  0
LINE
  5
262
330
1E
100
AcDbEntity
  8
0
100
AcDbLine
 10
24.11505
 20
95.65899999999999
 30
0.0
 11
24.49805
 21
95.65659999999999
 31
0.0
  0
LINE
  5
263
330
1E
100
AcDbEntity
  8
0
100
AcDbLine
 10
29.94735
 20
95.8431
 30
0.0
 11
30.80805
 21
96.15009999999999
 31
0.0
  0
LINE
  5
264
330
1E
100
AcDbEntity
  8
0
100
AcDbLine
 10
30.52455
 20
102.5139999999999
 30
0.0
 11
31.12075
 21
102.19
 31
0.0
  0
LINE
  5
265
330
1E
100
AcDbEntity
  8
0
100
AcDbLine
 10
30.73035
 20
103.272
 30
0.0
 11
31.48705
 21
102.9449999999999
 31
0.0
  0
LINE
  5
266
330
1E
100
AcDbEntity
  8
0
100
AcDbLine
 10
31.12075
 20
102.19
 30
0.0
 11
31.64134999999999
 21
101.8399999999999
 31
0.0
  0
LINE
  5
267
330
1E
100
AcDbEntity
  8
0
100
AcDbLine
 10
30.9990780773854
 20
110.187036226844
 30
0.0
 11
31.62935
 21
109.969
 31
0.0
  0
LINE
  5
268
330
1E
100
AcDbEntity
  8
0
100
AcDbLine
 10
30.9990780773854
 20
110.187036226844
 30
0.0
 11
31.62935
 21
109.969
 31
0.0
  0
LINE
  5
269
330
1E
100
AcDbEntity
  8
0
100
AcDbLine
 10
31.42525
 20
127.7179999999999
 30
0.0
 11
33.97405
 21
127.716
 31
0.0
  0
LINE
  5
26A
330
1E
100
AcDbEntity
  8
0
100
AcDbLine
 10
31.48705
 20
102.9449999999999
 30
0.0
 11
32.16705
 21
102.5849999999999
 31
0.0
  0
LINE
  5
26B
330
1E
100
AcDbEntity
  8
0
100
AcDbLine
 10
31.28624999999999
 20
99.97419999999999
 30
0.0
 11
31.81694999999999
 21
100.3589999999999
 31
0.0
  0
LINE
  5
26C
330
1E
100
AcDbEntity
  8
0
100
AcDbLine
 10
31.12075
 20
97.24630000000001
 30
0.0
 11
31.64134999999999
 21
97.596
 31
0.0
  0
LINE
  5
26D
330
1E
100
AcDbEntity
  8
0
100
AcDbLine
 10
30.66575
 20
99.6189
 30
0.0
 11
31.28624999999999
 21
99.97419999999999
 31
0.0
  0
LINE
  5
26E
330
1E
100
AcDbEntity
  8
0
100
AcDbLine
 10
30.52455
 20
96.9241
 30
0.0
 11
31.12075
 21
97.24630000000001
 31
0.0
  0
LINE
  5
26F
330
1E
100
AcDbEntity
  8
0
100
AcDbLine
 10
29.96255
 20
99.29770000000001
 30
0.0
 11
30.66575
 21
99.6189
 31
0.0
  0
LINE
  5
270
330
1E
100
AcDbEntity
  8
0
100
AcDbLine
 10
30.80805
 20
96.15009999999999
 30
0.0
 11
31.59295
 21
96.4975
 31
0.0
  0
LINE
  5
271
330
1E
100
AcDbEntity
  8
0
100
AcDbLine
 10
31.62935
 20
109.969
 30
0.0
 11
32.46065
 21
109.622
 31
0.0
  0
LINE
  5
272
330
1E
100
AcDbEntity
  8
0
100
AcDbLine
 10
31.59295
 20
96.4975
 30
0.0
 11
32.29314999999999
 21
96.88209999999999
 31
0.0
  0
LINE
  5
273
330
1E
100
AcDbEntity
  8
0
100
AcDbLine
 10
31.48705
 20
96.4005
 30
0.0
 11
32.16705
 21
96.7613
 31
0.0
  0
LINE
  5
274
330
1E
100
AcDbEntity
  8
0
100
AcDbLine
 10
30.73035
 20
96.074
 30
0.0
 11
31.48705
 21
96.4005
 31
0.0
  0
LINE
  5
275
330
1E
100
AcDbEntity
  8
0
100
AcDbLine
 10
29.90505
 20
95.7839
 30
0.0
 11
30.73035
 21
96.074
 31
0.0
  0
LINE
  5
276
330
1E
100
AcDbEntity
  8
0
100
AcDbLine
 10
29.02115
 20
95.5342
 30
0.0
 11
29.90505
 21
95.7839
 31
0.0
  0
LINE
  5
277
330
1E
100
AcDbEntity
  8
0
100
AcDbLine
 10
31.64134999999999
 20
97.596
 30
0.0
 11
32.08135
 21
97.9687
 31
0.0
  0
LINE
  5
278
330
1E
100
AcDbEntity
  8
0
100
AcDbLine
 10
31.64134999999999
 20
101.8399999999999
 30
0.0
 11
32.08135
 21
101.4679999999999
 31
0.0
  0
LINE
  5
279
330
1E
100
AcDbEntity
  8
0
100
AcDbLine
 10
32.08135
 20
101.4679999999999
 30
0.0
 11
32.43345
 21
101.076
 31
0.0
  0
LINE
  5
27A
330
1E
100
AcDbEntity
  8
0
100
AcDbLine
 10
31.99765
 20
171.897
 30
0.0
 11
35.92745
 21
171.75
 31
0.0
  0
LINE
  5
27C
330
1E
100
AcDbEntity
  8
0
100
AcDbLine
 10
32.10775
 20
109.8389999999999
 30
0.0
 11
34.10315
 21
108.809
 31
0.0
  0
LINE
  5
27D
330
1E
100
AcDbEntity
  8
0
100
AcDbLine
 10
32.16705
 20
102.5849999999999
 30
0.0
 11
32.76635
 21
102.1949999999999
 31
0.0
  0
LINE
  5
27E
330
1E
100
AcDbEntity
  8
0
100
AcDbLine
 10
31.81694999999999
 20
100.3589999999999
 30
0.0
 11
32.25074999999999
 21
100.7689999999999
 31
0.0
  0
LINE
  5
27F
330
1E
100
AcDbEntity
  8
0
100
AcDbLine
 10
32.08135
 20
97.9687
 30
0.0
 11
32.43345
 21
98.36060000000001
 31
0.0
  0
LINE
  5
280
330
1E
100
AcDbEntity
  8
0
100
AcDbLine
 10
31.62935
 20
95.5302
 30
0.0
 11
32.46065
 21
95.8786
 31
0.0
  0
LINE
  5
281
330
1E
100
AcDbEntity
  8
0
100
AcDbLine
 10
30.73035
 20
95.22020000000001
 30
0.0
 11
31.62935
 21
95.5302
 31
0.0
  0
LINE
  5
282
330
1E
100
AcDbEntity
  8
0
100
AcDbLine
 10
32.29314999999999
 20
96.88209999999999
 30
0.0
 11
32.90055
 21
97.29750000000001
 31
0.0
  0
LINE
  5
283
330
1E
100
AcDbEntity
  8
0
100
AcDbLine
 10
33.61175
 20
-0.0000000000000091
 30
0.0
 11
36.54285
 21
-0.000000000000009
 31
0.0
  0
LINE
  5
284
330
1E
100
AcDbEntity
  8
0
100
AcDbLine
 10
34.31425
 20
-0.0000000000000065
 30
0.0
 11
35.97245
 21
-0.0000000000000065
 31
0.0
  0
LINE
  5
285
330
1E
100
AcDbEntity
  8
0
100
AcDbLine
 10
32.61705
 20
-0.0000000000000064
 30
0.0
 11
34.31425
 21
-0.0000000000000065
 31
0.0
  0
LINE
  5
286
330
1E
100
AcDbEntity
  8
0
100
AcDbLine
 10
37.73465
 20
-0.0000000000000088
 30
0.0
 11
40.49864999999999
 21
-0.0000000000000087
 31
0.0
  0
LINE
  5
287
330
1E
100
AcDbEntity
  8
0
100
AcDbLine
 10
40.55265
 20
-0.0000000000000088
 30
0.0
 11
41.89365
 21
-0.0000000000000088
 31
0.0
  0
LINE
  5
288
330
1E
100
AcDbEntity
  8
0
100
AcDbLine
 10
38.62035
 20
-0.0000000000000089
 30
0.0
 11
40.55265
 21
-0.0000000000000088
 31
0.0
  0
LINE
  5
289
330
1E
100
AcDbEntity
  8
0
100
AcDbLine
 10
41.89365
 20
-0.0000000000000088
 30
0.0
 11
43.12054999999999
 21
-0.0000000000000087
 31
0.0
  0
LINE
  5
28A
330
1E
100
AcDbEntity
  8
0
100
AcDbLine
 10
40.49864999999999
 20
-0.0000000000000087
 30
0.0
 11
42.75525
 21
-0.0000000000000085
 31
0.0
  0
LINE
  5
28B
330
1E
100
AcDbEntity
  8
0
100
AcDbLine
 10
40.89795
 20
-0.0000000000000069
 30
0.0
 11
43.06645
 21
-0.0000000000000071
 31
0.0
  0
LINE
  5
28C
330
1E
100
AcDbEntity
  8
0
100
AcDbLine
 10
43.06645
 20
-0.0000000000000071
 30
0.0
 11
44.64865
 21
-0.0000000000000073
 31
0.0
  0
LINE
  5
28D
330
1E
100
AcDbEntity
  8
0
100
AcDbLine
 10
42.75525
 20
-0.0000000000000085
 30
0.0
 11
44.43545
 21
-0.0000000000000083
 31
0.0
  0
LINE
  5
28E
330
1E
100
AcDbEntity
  8
0
100
AcDbLine
 10
43.12054999999999
 20
-0.0000000000000087
 30
0.0
 11
44.22125
 21
-0.0000000000000086
 31
0.0
  0
LINE
  5
28F
330
1E
100
AcDbEntity
  8
0
100
AcDbLine
 10
44.64865
 20
-0.0000000000000073
 30
0.0
 11
45.59624999999999
 21
-0.0000000000000076
 31
0.0
  0
LINE
  5
290
330
1E
100
AcDbEntity
  8
0
100
AcDbLine
 10
44.43545
 20
-0.0000000000000083
 30
0.0
 11
45.48815
 21
-0.000000000000008
 31
0.0
  0
LINE
  5
291
330
1E
100
AcDbEntity
  8
0
100
AcDbLine
 10
44.22125
 20
-0.0000000000000086
 30
0.0
 11
45.18894999999999
 21
-0.0000000000000085
 31
0.0
  0
LINE
  5
292
330
1E
100
AcDbEntity
  8
0
100
AcDbLine
 10
43.85105
 20
-0.0000000000000069
 30
0.0
 11
45.55225
 21
-0.0000000000000071
 31
0.0
  0
LINE
  5
293
330
1E
100
AcDbEntity
  8
0
100
AcDbLine
 10
38.21005
 20
-0.0000000000000068
 30
0.0
 11
40.89795
 21
-0.0000000000000069
 31
0.0
  0
LINE
  5
294
330
1E
100
AcDbEntity
  8
0
100
AcDbLine
 10
42.30595
 20
-0.0000000000000068
 30
0.0
 11
43.85105
 21
-0.0000000000000069
 31
0.0
  0
LINE
  5
295
330
1E
100
AcDbEntity
  8
0
100
AcDbLine
 10
46.01854999999999
 20
-0.0000000000000084
 30
0.0
 11
46.70805
 21
-0.0000000000000083
 31
0.0
  0
LINE
  5
296
330
1E
100
AcDbEntity
  8
0
100
AcDbLine
 10
45.48815
 20
-0.000000000000008
 30
0.0
 11
45.87845
 21
-0.0000000000000078
 31
0.0
  0
LINE
  5
297
330
1E
100
AcDbEntity
  8
0
100
AcDbLine
 10
45.59624999999999
 20
-0.0000000000000076
 30
0.0
 11
45.87845
 21
-0.0000000000000078
 31
0.0
  0
LINE
  5
298
330
1E
100
AcDbEntity
  8
0
100
AcDbLine
 10
47.25645
 20
-0.0000000000000082
 30
0.0
 11
47.66675
 21
-0.0000000000000081
 31
0.0
  0
LINE
  5
299
330
1E
100
AcDbEntity
  8
0
100
AcDbLine
 10
46.81915
 20
-0.0000000000000073
 30
0.0
 11
47.69775
 21
-0.0000000000000075
 31
0.0
  0
LINE
  5
29A
330
1E
100
AcDbEntity
  8
0
100
AcDbLine
 10
45.55225
 20
-0.0000000000000071
 30
0.0
 11
46.81915
 21
-0.0000000000000073
 31
0.0
  0
LINE
  5
29B
330
1E
100
AcDbEntity
  8
0
100
AcDbLine
 10
47.94495
 20
-0.000000000000008
 30
0.0
 11
48.09605
 21
-0.0000000000000079
 31
0.0
  0
LINE
  5
29C
330
1E
100
AcDbEntity
  8
0
100
AcDbLine
 10
47.66675
 20
-0.0000000000000081
 30
0.0
 11
47.94495
 21
-0.000000000000008
 31
0.0
  0
LINE
  5
29D
330
1E
100
AcDbEntity
  8
0
100
AcDbLine
 10
47.69775
 20
-0.0000000000000075
 30
0.0
 11
48.09605
 21
-0.0000000000000077
 31
0.0
  0
LINE
  5
29E
330
1E
100
AcDbEntity
  8
0
100
AcDbLine
 10
47.25645
 20
-0.0000000000000082
 30
0.0
 11
47.66675
 21
-0.0000000000000081
 31
0.0
  0
LINE
  5
29F
330
1E
100
AcDbEntity
  8
0
100
AcDbLine
 10
46.70805
 20
-0.0000000000000083
 30
0.0
 11
47.25645
 21
-0.0000000000000082
 31
0.0
  0
LINE
  5
2A0
330
1E
100
AcDbEntity
  8
0
100
AcDbLine
 10
46.70805
 20
-0.0000000000000083
 30
0.0
 11
47.25645
 21
-0.0000000000000082
 31
0.0
  0
LINE
  5
2A1
330
1E
100
AcDbEntity
  8
0
100
AcDbLine
 10
45.18894999999999
 20
-0.0000000000000085
 30
0.0
 11
46.01854999999999
 21
-0.0000000000000084
 31
0.0
  0
LINE
  5
2A2
330
1E
100
AcDbEntity
  8
0
100
AcDbLine
 10
39.10864999999999
 20
-0.0000000000000066
 30
0.0
 11
40.55265
 21
-0.0000000000000067
 31
0.0
  0
LINE
  5
2A3
330
1E
100
AcDbEntity
  8
0
100
AcDbLine
 10
37.57654999999999
 20
-0.0000000000000066
 30
0.0
 11
39.10864999999999
 21
-0.0000000000000066
 31
0.0
  0
LINE
  5
2A4
330
1E
100
AcDbEntity
  8
0
100
AcDbLine
 10
40.55265
 20
-0.0000000000000067
 30
0.0
 11
42.30595
 21
-0.0000000000000068
 31
0.0
  0
LINE
  5
2A5
330
1E
100
AcDbEntity
  8
0
100
AcDbLine
 10
35.08684999999999
 20
-0.0000000000000066
 30
0.0
 11
38.21005
 21
-0.0000000000000068
 31
0.0
  0
LINE
  5
2A6
330
1E
100
AcDbEntity
  8
0
100
AcDbLine
 10
35.97245
 20
-0.0000000000000065
 30
0.0
 11
37.57654999999999
 21
-0.0000000000000066
 31
0.0
  0
LINE
  5
2A7
330
1E
100
AcDbEntity
  8
0
100
AcDbLine
 10
34.55045
 20
-0.0000000000000089
 30
0.0
 11
37.73465
 21
-0.0000000000000088
 31
0.0
  0
LINE
  5
2A8
330
1E
100
AcDbEntity
  8
0
100
AcDbLine
 10
36.54285
 20
-0.000000000000009
 30
0.0
 11
38.62035
 21
-0.0000000000000089
 31
0.0
  0
LINE
  5
2AA
330
1E
100
AcDbEntity
  8
0
100
AcDbLine
 10
46.3530085004289
 20
88.88632194618191
 30
0.0
 11
46.45985
 21
83.4281
 31
0.0
  0
LINE
  5
2AB
330
1E
100
AcDbEntity
  8
0
100
AcDbLine
 10
46.45985
 20
83.4281
 30
0.0
 11
46.52595
 21
82.0082
 31
0.0
  0
LINE
  5
2AC
330
1E
100
AcDbEntity
  8
0
100
AcDbLine
 10
46.3703677690884
 20
87.990669454179
 30
0.0
 11
46.43184999999999
 21
84.84899999999999
 31
0.0
  0
LINE
  5
2AD
330
1E
100
AcDbEntity
  8
0
100
AcDbLine
 10
46.3703677690884
 20
87.99066945417921
 30
0.0
 11
46.43184999999999
 21
84.84899999999999
 31
0.0
  0
LINE
  5
2AE
330
1E
100
AcDbEntity
  8
0
100
AcDbLine
 10
46.33375
 20
90.39990000000001
 30
0.0
 11
46.43184999999999
 21
84.84899999999999
 31
0.0
  0
LINE
  5
2AF
330
1E
100
AcDbEntity
  8
0
100
AcDbLine
 10
46.3530085004289
 20
88.88632194618219
 30
0.0
 11
46.45985
 21
83.4281
 31
0.0
  0
LINE
  5
2B0
330
1E
100
AcDbEntity
  8
0
100
AcDbLine
 10
46.28175
 20
93.9591
 30
0.0
 11
46.33375
 21
90.39990000000001
 31
0.0
  0
LINE
  5
2B1
330
1E
100
AcDbEntity
  8
0
100
AcDbLine
 10
46.52595
 20
82.0082
 30
0.0
 11
48.11505
 21
-0.0000000000000078
 31
0.0
  0
LINE
  5
2B2
330
1E
100
AcDbEntity
  8
0
100
AcDbLine
 10
46.52595
 20
82.0082
 30
0.0
 11
48.11505
 21
-0.0000000000000095
 31
0.0
  0
LINE
  5
2BD
330
1E
100
AcDbEntity
  8
0
100
AcDbLine
 10
46.24075
 20
97.00839999999999
 30
0.0
 11
46.28175
 21
93.9591
 31
0.0
  0
LINE
  5
2BE
330
1E
100
AcDbEntity
  8
0
100
AcDbLine
 10
34.47355
 20
97.11770000000001
 30
0.0
 11
34.60365
 21
97.2169
 31
0.0
  0
LINE
  5
2BF
330
1E
100
AcDbEntity
  8
0
100
AcDbLine
 10
33.88935
 20
96.67570000000001
 30
0.0
 11
34.47355
 21
97.11770000000001
 31
0.0
  0
LINE
  5
2C0
330
1E
100
AcDbEntity
  8
0
100
AcDbLine
 10
33.21635
 20
96.26090000000001
 30
0.0
 11
33.88935
 21
96.67570000000001
 31
0.0
  0
LINE
  5
2C1
330
1E
100
AcDbEntity
  8
0
100
AcDbLine
 10
32.46065
 20
95.8786
 30
0.0
 11
33.21635
 21
96.26090000000001
 31
0.0
  0
LINE
  5
2C2
330
1E
100
AcDbEntity
  8
0
100
AcDbLine
 10
32.90055
 20
97.29750000000001
 30
0.0
 11
33.40905
 21
97.7411
 31
0.0
  0
LINE
  5
2C3
330
1E
100
AcDbEntity
  8
0
100
AcDbLine
 10
32.43345
 20
98.36060000000001
 30
0.0
 11
32.69474999999999
 21
98.7672
 31
0.0
  0
LINE
  5
2C4
330
1E
100
AcDbEntity
  8
0
100
AcDbLine
 10
32.69474999999999
 20
98.7672
 30
0.0
 11
32.86325
 21
99.18410000000001
 31
0.0
  0
LINE
  5
2C5
330
1E
100
AcDbEntity
  8
0
100
AcDbLine
 10
33.40905
 20
97.7411
 30
0.0
 11
33.81264999999999
 21
98.2066
 31
0.0
  0
LINE
  5
2C6
330
1E
100
AcDbEntity
  8
0
100
AcDbLine
 10
33.81264999999999
 20
98.2066
 30
0.0
 11
34.10524999999999
 21
98.68960000000001
 31
0.0
  0
LINE
  5
2C7
330
1E
100
AcDbEntity
  8
0
100
AcDbLine
 10
34.10524999999999
 20
98.68960000000001
 30
0.0
 11
34.27770983181989
 21
99.15921116098541
 31
0.0
  0
LINE
  5
2C8
330
1E
100
AcDbEntity
  8
0
100
AcDbLine
 10
34.22325
 20
98.92800000000001
 30
0.0
 11
34.33525
 21
99.4035
 31
0.0
  0
LINE
  5
2C9
330
1E
100
AcDbEntity
  8
0
100
AcDbLine
 10
34.00835
 20
98.46009999999999
 30
0.0
 11
34.22325
 21
98.92800000000001
 31
0.0
  0
LINE
  5
2CA
330
1E
100
AcDbEntity
  8
0
100
AcDbLine
 10
33.69055
 20
98.00589999999999
 30
0.0
 11
34.00835
 21
98.46009999999999
 31
0.0
  0
LINE
  5
2CB
330
1E
100
AcDbEntity
  8
0
100
AcDbLine
 10
33.27585
 20
97.5674
 30
0.0
 11
33.69055
 21
98.00589999999999
 31
0.0
  0
LINE
  5
2CC
330
1E
100
AcDbEntity
  8
0
100
AcDbLine
 10
35.79115
 20
98.6843
 30
0.0
 11
35.97984999999999
 21
99.2021
 31
0.0
  0
LINE
  5
2CD
330
1E
100
AcDbEntity
  8
0
100
AcDbLine
 10
35.49754999999999
 20
98.17900000000001
 30
0.0
 11
35.79115
 21
98.6843
 31
0.0
  0
LINE
  5
2CE
330
1E
100
AcDbEntity
  8
0
100
AcDbLine
 10
35.10005
 20
97.6876
 30
0.0
 11
35.49754999999999
 21
98.17900000000001
 31
0.0
  0
LINE
  5
2CF
330
1E
100
AcDbEntity
  8
0
100
AcDbLine
 10
34.60365
 20
97.2169
 30
0.0
 11
35.10005
 21
97.6876
 31
0.0
  0
LINE
  5
2D0
330
1E
100
AcDbEntity
  8
0
100
AcDbLine
 10
32.86325
 20
99.18410000000001
 30
0.0
 11
34.28357218717139
 21
99.18410000000001
 31
0.0
  0
LINE
  5
2D1
330
1E
100
AcDbEntity
  8
0
100
AcDbLine
 10
32.86325
 20
99.18410000000001
 30
0.0
 11
32.86325
 21
100.2529999999999
 31
0.0
  0
LINE
  5
2D6
330
1E
100
AcDbEntity
  8
0
100
AcDbLine
 10
34.33525
 20
99.4035
 30
0.0
 11
34.33925
 21
99.6727
 31
0.0
  0
LINE
  5
2D7
330
1E
100
AcDbEntity
  8
0
100
AcDbLine
 10
32.69474999999999
 20
100.6699999999999
 30
0.0
 11
32.86325
 21
100.2529999999999
 31
0.0
  0
LINE
  5
2D8
330
1E
100
AcDbEntity
  8
0
100
AcDbLine
 10
32.43345
 20
101.076
 30
0.0
 11
32.69474999999999
 21
100.6699999999999
 31
0.0
  0
LINE
  5
2D9
330
1E
100
AcDbEntity
  8
0
100
AcDbLine
 10
32.46065
 20
109.622
 30
0.0
 11
33.21635
 21
109.238
 31
0.0
  0
LINE
  5
2DA
330
1E
100
AcDbEntity
  8
0
100
AcDbLine
 10
32.76635
 20
102.1949999999999
 30
0.0
 11
33.27585
 21
101.7789999999999
 31
0.0
  0
LINE
  5
2DB
330
1E
100
AcDbEntity
  8
0
100
AcDbLine
 10
32.25074999999999
 20
100.7689999999999
 30
0.0
 11
32.45815049443459
 21
101.0376211223099
 31
0.0
  0
LINE
  5
2DC
330
1E
100
AcDbEntity
  8
0
100
AcDbLine
 10
34.33525
 20
99.9439
 30
0.0
 11
34.33925
 21
99.6727
 31
0.0
  0
LINE
  5
2DD
330
1E
100
AcDbEntity
  8
0
100
AcDbLine
 10
34.22325
 20
100.4179999999999
 30
0.0
 11
34.33525
 21
99.9439
 31
0.0
  0
LINE
  5
2DE
330
1E
100
AcDbEntity
  8
0
100
AcDbLine
 10
34.00835
 20
100.885
 30
0.0
 11
34.22325
 21
100.4179999999999
 31
0.0
  0
LINE
  5
2DF
330
1E
100
AcDbEntity
  8
0
100
AcDbLine
 10
33.69055
 20
101.341
 30
0.0
 11
34.00835
 21
100.885
 31
0.0
  0
LINE
  5
2E0
330
1E
100
AcDbEntity
  8
0
100
AcDbLine
 10
33.27585
 20
101.7789999999999
 30
0.0
 11
33.69055
 21
101.341
 31
0.0
  0
LINE
  5
2E3
330
1E
100
AcDbEntity
  8
0
100
AcDbLine
 10
35.41646372735
 20
107.421159395902
 30
0.0
 11
35.4920420143426
 21
107.610197057772
 31
0.0
  0
LINE
  5
2E4
330
1E
100
AcDbEntity
  8
0
100
AcDbLine
 10
35.55715
 20
107.5539999999999
 30
0.0
 11
36.40775
 21
106.122
 31
0.0
  0
LINE
  5
2E5
330
1E
100
AcDbEntity
  8
0
100
AcDbLine
 10
35.49754999999999
 20
107.3209999999999
 30
0.0
 11
35.79115
 21
106.8139999999999
 31
0.0
  0
LINE
  5
2E6
330
1E
100
AcDbEntity
  8
0
100
AcDbLine
 10
35.10005
 20
107.812
 30
0.0
 11
35.49754999999999
 21
107.3209999999999
 31
0.0
  0
LINE
  5
2E7
330
1E
100
AcDbEntity
  8
0
100
AcDbLine
 10
33.07735
 20
130.22
 30
0.0
 11
35.30995
 21
130.22
 31
0.0
  0
LINE
  5
2E8
330
1E
100
AcDbEntity
  8
0
100
AcDbLine
 10
34.10315
 20
108.809
 30
0.0
 11
35.55715
 21
107.5539999999999
 31
0.0
  0
LINE
  5
2E9
330
1E
100
AcDbEntity
  8
0
100
AcDbLine
 10
34.47355
 20
108.383
 30
0.0
 11
34.60365
 21
108.2829999999999
 31
0.0
  0
LINE
  5
2EA
330
1E
100
AcDbEntity
  8
0
100
AcDbLine
 10
33.73984999999999
 20
118.2339999999999
 30
0.0
 11
43.06745
 21
118.073
 31
0.0
  0
LINE
  5
2EB
330
1E
100
AcDbEntity
  8
0
100
AcDbLine
 10
35.30995
 20
130.22
 30
0.0
 11
37.51155
 21
130.22
 31
0.0
  0
LINE
  5
2ED
330
1E
100
AcDbEntity
  8
0
100
AcDbLine
 10
33.97405
 20
127.716
 30
0.0
 11
36.33975
 21
127.715
 31
0.0
  0
LINE
  5
2EE
330
1E
100
AcDbEntity
  8
0
100
AcDbLine
 10
33.88935
 20
108.824
 30
0.0
 11
34.47355
 21
108.383
 31
0.0
  0
LINE
  5
2EF
330
1E
100
AcDbEntity
  8
0
100
AcDbLine
 10
33.21635
 20
109.238
 30
0.0
 11
33.88935
 21
108.824
 31
0.0
  0
LINE
  5
2F0
330
1E
100
AcDbEntity
  8
0
100
AcDbLine
 10
34.60365
 20
108.2829999999999
 30
0.0
 11
35.10005
 21
107.812
 31
0.0
  0
LINE
  5
2F1
330
1E
100
AcDbEntity
  8
0
100
AcDbLine
 10
32.86325
 20
100.2529999999999
 30
0.0
 11
32.86325
 21
99.18410000000001
 31
0.0
  0
LINE
  5
2F2
330
1E
100
AcDbEntity
  8
0
100
AcDbLine
 10
32.86325
 20
100.2529999999999
 30
0.0
 11
34.2622291183295
 21
100.2529999999999
 31
0.0
  0
LINE
  5
2F5
330
1E
100
AcDbEntity
  8
0
100
AcDbLine
 10
35.96715691383429
 20
99.16726968724649
 30
0.0
 11
37.98384999999999
 21
100.424
 31
0.0
  0
LINE
  5
2F6
330
1E
100
AcDbEntity
  8
0
100
AcDbLine
 10
36.03334999999999
 20
106.121
 30
0.0
 11
36.11504999999999
 21
105.5949999999999
 31
0.0
  0
LINE
  5
2F7
330
1E
100
AcDbEntity
  8
0
100
AcDbLine
 10
35.92745
 20
171.75
 30
0.0
 11
39.84515
 21
171.5329999999999
 31
0.0
  0
LINE
  5
2F8
330
1E
100
AcDbEntity
  8
0
100
AcDbLine
 10
35.97984999999999
 20
106.2979999999999
 30
0.0
 11
36.03334999999999
 21
106.121
 31
0.0
  0
LINE
  5
2F9
330
1E
100
AcDbEntity
  8
0
100
AcDbLine
 10
35.79115
 20
106.8139999999999
 30
0.0
 11
35.97984999999999
 21
106.2979999999999
 31
0.0
  0
LINE
  5
2FA
330
1E
100
AcDbEntity
  8
0
100
AcDbLine
 10
35.97984999999999
 20
99.2021
 30
0.0
 11
36.03334999999999
 21
99.3796
 31
0.0
  0
LINE
  5
2FD
330
1E
100
AcDbEntity
  8
0
100
AcDbLine
 10
36.10825
 20
100.034
 30
0.0
 11
36.11504999999999
 21
100.165
 31
0.0
  0
LINE
  5
2FE
330
1E
100
AcDbEntity
  8
0
100
AcDbLine
 10
46.21265
 20
99.007
 30
0.0
 11
46.24075
 21
97.00839999999999
 31
0.0
  0
LINE
  5
2FF
330
1E
100
AcDbEntity
  8
0
100
AcDbLine
 10
36.11504999999999
 20
99.90490000000001
 30
0.0
 11
36.11504999999999
 21
100.165
 31
0.0
  0
LINE
  5
300
330
1E
100
AcDbEntity
  8
0
100
AcDbLine
 10
36.11504999999999
 20
103.074113127504
 30
0.0
 11
36.41774999999999
 21
103.632
 31
0.0
  0
LINE
  5
301
330
1E
100
AcDbEntity
  8
0
100
AcDbLine
 10
36.0658194068872
 20
105.911955838156
 30
0.0
 11
36.28209688949029
 21
106.3335392126149
 31
0.0
  0
LINE
  5
302
330
1E
100
AcDbEntity
  8
0
100
AcDbLine
 10
40.74584999999999
 20
102.668
 30
0.0
 11
41.34624999999999
 21
103.207
 31
0.0
  0
LINE
  5
303
330
1E
100
AcDbEntity
  8
0
100
AcDbLine
 10
41.34624999999999
 20
103.207
 30
0.0
 11
41.48335
 21
103.3479999999999
 31
0.0
  0
LINE
  5
304
330
1E
100
AcDbEntity
  8
0
100
AcDbLine
 10
39.87525
 20
101.907
 30
0.0
 11
40.74584999999999
 21
102.668
 31
0.0
  0
LINE
  5
305
330
1E
100
AcDbEntity
  8
0
100
AcDbLine
 10
46.18065
 20
100.9149999999999
 30
0.0
 11
46.21265
 21
99.007
 31
0.0
  0
LINE
  5
306
330
1E
100
AcDbEntity
  8
0
100
AcDbLine
 10
41.48335
 20
103.3479999999999
 30
0.0
 11
41.74954999999999
 21
103.635
 31
0.0
  0
LINE
  5
307
330
1E
100
AcDbEntity
  8
0
100
AcDbLine
 10
42.00175
 20
103.9239999999999
 30
0.0
 11
42.46805
 21
104.515
 31
0.0
  0
LINE
  5
308
330
1E
100
AcDbEntity
  8
0
100
AcDbLine
 10
42.93635
 20
105.1989999999999
 30
0.0
 11
43.24754999999999
 21
105.782
 31
0.0
  0
LINE
  5
309
330
1E
100
AcDbEntity
  8
0
100
AcDbLine
 10
42.46805
 20
104.515
 30
0.0
 11
42.93635
 21
105.1989999999999
 31
0.0
  0
LINE
  5
30A
330
1E
100
AcDbEntity
  8
0
100
AcDbLine
 10
41.74954999999999
 20
103.635
 30
0.0
 11
42.00175
 21
103.9239999999999
 31
0.0
  0
LINE
  5
30B
330
1E
100
AcDbEntity
  8
0
100
AcDbLine
 10
36.41774999999999
 20
103.632
 30
0.0
 11
36.62395
 21
104.891
 31
0.0
  0
LINE
  5
30C
330
1E
100
AcDbEntity
  8
0
100
AcDbLine
 10
36.40775
 20
106.122
 30
0.0
 11
36.62395
 21
104.891
 31
0.0
  0
LINE
  5
30D
330
1E
100
AcDbEntity
  8
0
100
AcDbLine
 10
44.15725
 20
107.7829999999999
 30
0.0
 11
44.28135
 21
108.238
 31
0.0
  0
LINE
  5
30E
330
1E
100
AcDbEntity
  8
0
100
AcDbLine
 10
44.42045
 20
108.8659999999999
 30
0.0
 11
44.47745
 21
109.34
 31
0.0
  0
LINE
  5
30F
330
1E
100
AcDbEntity
  8
0
100
AcDbLine
 10
44.32135
 20
108.4
 30
0.0
 11
44.42045
 21
108.8659999999999
 31
0.0
  0
LINE
  5
310
330
1E
100
AcDbEntity
  8
0
100
AcDbLine
 10
44.28135
 20
108.238
 30
0.0
 11
44.32135
 21
108.4
 31
0.0
  0
LINE
  5
311
330
1E
100
AcDbEntity
  8
0
100
AcDbLine
 10
43.81904999999999
 20
106.8699999999999
 30
0.0
 11
44.15725
 21
107.7829999999999
 31
0.0
  0
LINE
  5
312
330
1E
100
AcDbEntity
  8
0
100
AcDbLine
 10
44.47745
 20
109.34
 30
0.0
 11
44.50545
 21
110.037
 31
0.0
  0
LINE
  5
313
330
1E
100
AcDbEntity
  8
0
100
AcDbLine
 10
44.50545
 20
110.037
 30
0.0
 11
44.51245
 21
110.3539999999999
 31
0.0
  0
LINE
  5
314
330
1E
100
AcDbEntity
  8
0
100
AcDbLine
 10
44.51245
 20
110.3539999999999
 30
0.0
 11
44.52454999999999
 21
111.4929999999999
 31
0.0
  0
LINE
  5
315
330
1E
100
AcDbEntity
  8
0
100
AcDbLine
 10
44.52454999999999
 20
111.4929999999999
 30
0.0
 11
44.53854999999999
 21
112.497
 31
0.0
  0
LINE
  5
316
330
1E
100
AcDbEntity
  8
0
100
AcDbLine
 10
44.53854999999999
 20
112.497
 30
0.0
 11
44.55554999999999
 21
113.4619999999999
 31
0.0
  0
LINE
  5
317
330
1E
100
AcDbEntity
  8
0
100
AcDbLine
 10
44.55554999999999
 20
113.4619999999999
 30
0.0
 11
44.57354999999999
 21
114.2849999999999
 31
0.0
  0
LINE
  5
318
330
1E
100
AcDbEntity
  8
0
100
AcDbLine
 10
40.28855
 20
127.7129999999999
 30
0.0
 11
42.01675
 21
127.7139999999999
 31
0.0
  0
LINE
  5
319
330
1E
100
AcDbEntity
  8
0
100
AcDbLine
 10
38.45725
 20
127.7139999999999
 30
0.0
 11
40.28855
 21
127.7129999999999
 31
0.0
  0
LINE
  5
31A
330
1E
100
AcDbEntity
  8
0
100
AcDbLine
 10
37.15025
 20
130.22
 30
0.0
 11
39.25675
 21
130.22
 31
0.0
  0
LINE
  5
31B
330
1E
100
AcDbEntity
  8
0
100
AcDbLine
 10
41.10405
 20
130.22
 30
0.0
 11
42.66115
 21
130.22
 31
0.0
  0
LINE
  5
31C
330
1E
100
AcDbEntity
  8
0
100
AcDbLine
 10
39.25675
 20
130.22
 30
0.0
 11
41.10405
 21
130.22
 31
0.0
  0
LINE
  5
31D
330
1E
100
AcDbEntity
  8
0
100
AcDbLine
 10
41.98575
 20
171.2429999999999
 30
0.0
 11
42.54615
 21
171.067
 31
0.0
  0
LINE
  5
31E
330
1E
100
AcDbEntity
  8
0
100
AcDbLine
 10
42.66115
 20
130.22
 30
0.0
 11
43.90205
 21
130.22
 31
0.0
  0
LINE
  5
31F
330
1E
100
AcDbEntity
  8
0
100
AcDbLine
 10
42.54615
 20
171.067
 30
0.0
 11
42.98145
 21
170.863
 31
0.0
  0
LINE
  5
320
330
1E
100
AcDbEntity
  8
0
100
AcDbLine
 10
40.84685
 20
171.4479999999999
 30
0.0
 11
41.32525
 21
171.3799999999999
 31
0.0
  0
LINE
  5
321
330
1E
100
AcDbEntity
  8
0
100
AcDbLine
 10
41.32525
 20
171.3799999999999
 30
0.0
 11
41.98575
 21
171.2429999999999
 31
0.0
  0
LINE
  5
322
330
1E
100
AcDbEntity
  8
0
100
AcDbLine
 10
42.98145
 20
170.863
 30
0.0
 11
43.19255
 21
170.749
 31
0.0
  0
LINE
  5
323
330
1E
100
AcDbEntity
  8
0
100
AcDbLine
 10
39.84515
 20
171.5329999999999
 30
0.0
 11
40.84685
 21
171.4479999999999
 31
0.0
  0
LINE
  5
324
330
1E
100
AcDbEntity
  8
0
100
AcDbLine
 10
43.19255
 20
170.749
 30
0.0
 11
43.50875
 21
170.5109999999999
 31
0.0
  0
LINE
  5
325
330
1E
100
AcDbEntity
  8
0
100
AcDbLine
 10
42.01675
 20
127.7139999999999
 30
0.0
 11
43.31065
 21
127.715
 31
0.0
  0
LINE
  5
326
330
1E
100
AcDbEntity
  8
0
100
AcDbLine
 10
44.55454999999999
 20
127.716
 30
0.0
 11
44.66965
 21
127.7109999999999
 31
0.0
  0
LINE
  5
327
330
1E
100
AcDbEntity
  8
0
100
AcDbLine
 10
44.21267923710529
 20
168.000145714846
 30
0.0
 11
44.43245
 21
167.994
 31
0.0
  0
LINE
  5
328
330
1E
100
AcDbEntity
  8
0
100
AcDbLine
 10
44.19918633720929
 20
130.22
 30
0.0
 11
44.41944999999999
 21
128.8089999999999
 31
0.0
  0
LINE
  5
329
330
1E
100
AcDbEntity
  8
0
100
AcDbLine
 10
43.81804999999999
 20
130.22
 30
0.0
 11
44.65465
 21
130.22
 31
0.0
  0
LINE
  5
32A
330
1E
100
AcDbEntity
  8
0
100
AcDbLine
 10
44.10925
 20
168.54
 30
0.0
 11
44.18325
 21
168.1329999999999
 31
0.0
  0
LINE
  5
32B
330
1E
100
AcDbEntity
  8
0
100
AcDbLine
 10
44.05915
 20
168.854
 30
0.0
 11
44.10925
 21
168.54
 31
0.0
  0
LINE
  5
32C
330
1E
100
AcDbEntity
  8
0
100
AcDbLine
 10
44.18325
 20
168.1329999999999
 30
0.0
 11
44.234770228877
 21
167.9004189394059
 31
0.0
  0
LINE
  5
32D
330
1E
100
AcDbEntity
  8
0
100
AcDbLine
 10
44.32735
 20
167.6009999999999
 30
0.0
 11
44.45545
 21
167.369
 31
0.0
  0
LINE
  5
32F
330
1E
100
AcDbEntity
  8
0
100
AcDbLine
 10
44.234770228877
 20
167.9004189394059
 30
0.0
 11
44.32735
 21
167.6009999999999
 31
0.0
  0
LINE
  5
330
330
1E
100
AcDbEntity
  8
0
100
AcDbLine
 10
43.80094999999999
 20
170.113
 30
0.0
 11
43.89705
 21
169.805
 31
0.0
  0
LINE
  5
331
330
1E
100
AcDbEntity
  8
0
100
AcDbLine
 10
43.89705
 20
169.805
 30
0.0
 11
43.95805
 21
169.594
 31
0.0
  0
LINE
  5
332
330
1E
100
AcDbEntity
  8
0
100
AcDbLine
 10
43.95805
 20
169.594
 30
0.0
 11
44.05915
 21
168.854
 31
0.0
  0
LINE
  5
333
330
1E
100
AcDbEntity
  8
0
100
AcDbLine
 10
43.63385
 20
170.3549999999999
 30
0.0
 11
43.80094999999999
 21
170.113
 31
0.0
  0
LINE
  5
334
330
1E
100
AcDbEntity
  8
0
100
AcDbLine
 10
43.50875
 20
170.5109999999999
 30
0.0
 11
43.63385
 21
170.3549999999999
 31
0.0
  0
LINE
  5
335
330
1E
100
AcDbEntity
  8
0
100
AcDbLine
 10
44.43245
 20
167.994
 30
0.0
 11
44.73265
 21
167.982
 31
0.0
  0
LINE
  5
336
330
1E
100
AcDbEntity
  8
0
100
AcDbLine
 10
44.41944999999999
 20
128.8089999999999
 30
0.0
 11
44.47552155321189
 21
127.716363851044
 31
0.0
  0
LINE
  5
337
330
1E
100
AcDbEntity
  8
0
100
AcDbLine
 10
44.33735
 20
127.717
 30
0.0
 11
44.55454999999999
 21
127.716
 31
0.0
  0
LINE
  5
338
330
1E
100
AcDbEntity
  8
0
100
AcDbLine
 10
43.91205
 20
127.716
 30
0.0
 11
44.33735
 21
127.717
 31
0.0
  0
LINE
  5
339
330
1E
100
AcDbEntity
  8
0
100
AcDbLine
 10
43.31065
 20
127.715
 30
0.0
 11
43.91205
 21
127.716
 31
0.0
  0
LINE
  5
33A
330
1E
100
AcDbEntity
  8
0
100
AcDbLine
 10
44.57354999999999
 20
114.2849999999999
 30
0.0
 11
44.616818071168
 21
115.6167993746739
 31
0.0
  0
LINE
  5
33F
330
1E
100
AcDbEntity
  8
0
100
AcDbLine
 10
44.616818071168
 20
115.6167993746739
 30
0.0
 11
44.66355
 21
115.952
 31
0.0
  0
LINE
  5
340
330
1E
100
AcDbEntity
  8
0
100
AcDbLine
 10
44.65465
 20
130.22
 30
0.0
 11
45.24305
 21
130.22
 31
0.0
  0
LINE
  5
341
330
1E
100
AcDbEntity
  8
0
100
AcDbLine
 10
44.66965
 20
127.7109999999999
 30
0.0
 11
45.01685
 21
127.656
 31
0.0
  0
LINE
  5
343
330
1E
100
AcDbEntity
  8
0
100
AcDbLine
 10
45.58825
 20
127.1309999999999
 30
0.0
 11
45.64435
 21
126.921
 31
0.0
  0
LINE
  5
344
330
1E
100
AcDbEntity
  8
0
100
AcDbLine
 10
45.43715
 20
127.392
 30
0.0
 11
45.58825
 21
127.1309999999999
 31
0.0
  0
LINE
  5
345
330
1E
100
AcDbEntity
  8
0
100
AcDbLine
 10
45.43715
 20
127.392
 30
0.0
 11
45.48315
 21
127.3139999999999
 31
0.0
  0
LINE
  5
346
330
1E
100
AcDbEntity
  8
0
100
AcDbLine
 10
45.20794999999999
 20
127.5779999999999
 30
0.0
 11
45.43715
 21
127.392
 31
0.0
  0
LINE
  5
347
330
1E
100
AcDbEntity
  8
0
100
AcDbLine
 10
44.73265
 20
167.982
 30
0.0
 11
45.31004999999999
 21
167.942
 31
0.0
  0
LINE
  5
348
330
1E
100
AcDbEntity
  8
0
100
AcDbLine
 10
45.31004999999999
 20
167.942
 30
0.0
 11
45.38215
 21
167.935
 31
0.0
  0
LINE
  5
349
330
1E
100
AcDbEntity
  8
0
100
AcDbLine
 10
45.38215
 20
167.935
 30
0.0
 11
45.60425
 21
167.8729999999999
 31
0.0
  0
LINE
  5
34A
330
1E
100
AcDbEntity
  8
0
100
AcDbLine
 10
45.53725
 20
130.22
 30
0.0
 11
45.63425
 21
130.22
 31
0.0
  0
LINE
  5
34B
330
1E
100
AcDbEntity
  8
0
100
AcDbLine
 10
45.35205
 20
130.22
 30
0.0
 11
45.53725
 21
130.22
 31
0.0
  0
LINE
  5
34C
330
1E
100
AcDbEntity
  8
0
100
AcDbLine
 10
45.01685
 20
127.656
 30
0.0
 11
45.20794999999999
 21
127.5779999999999
 31
0.0
  0
LINE
  5
34D
330
1E
100
AcDbEntity
  8
0
100
AcDbLine
 10
45.67935
 20
126.421
 30
0.0
 11
46.18065
 21
100.9149999999999
 31
0.0
  0
LINE
  5
34E
330
1E
100
AcDbEntity
  8
0
100
AcDbLine
 10
45.67935
 20
126.421
 30
0.0
 11
46.18065
 21
100.9149999999999
 31
0.0
  0
LINE
  5
34F
330
1E
100
AcDbEntity
  8
0
100
AcDbLine
 10
45.88445
 20
130.286
 30
0.0
 11
46.06754999999999
 21
130.4699999999999
 31
0.0
  0
LINE
  5
350
330
1E
100
AcDbEntity
  8
0
100
AcDbLine
 10
46.12565
 20
166.649
 30
0.0
 11
46.13265
 21
142.3859999999999
 31
0.0
  0
LINE
  5
351
330
1E
100
AcDbEntity
  8
0
100
AcDbLine
 10
46.06754999999999
 20
130.4699999999999
 30
0.0
 11
46.13665
 21
130.718
 31
0.0
  0
LINE
  5
352
330
1E
100
AcDbEntity
  8
0
100
AcDbLine
 10
45.63425
 20
130.22
 30
0.0
 11
45.88445
 21
130.286
 31
0.0
  0
LINE
  5
355
330
1E
100
AcDbEntity
  8
0
100
AcDbLine
 10
46.13265
 20
142.3859999999999
 30
0.0
 11
46.13665
 21
130.718
 31
0.0
  0
LINE
  5
356
330
1E
100
AcDbEntity
  8
0
100
AcDbLine
 10
46.13265
 20
142.3859999999999
 30
0.0
 11
46.12565
 21
166.649
 31
0.0
  0
LINE
  5
358
330
1E
100
AcDbEntity
  8
0
100
AcDbLine
 10
46.03855
 20
167.438
 30
0.0
 11
46.09765
 21
167.214
 31
0.0
  0
LINE
  5
359
330
1E
100
AcDbEntity
  8
0
100
AcDbLine
 10
45.61124999999999
 20
167.869
 30
0.0
 11
45.87245
 21
167.699
 31
0.0
  0
LINE
  5
35A
330
1E
100
AcDbEntity
  8
0
100
AcDbLine
 10
45.87245
 20
167.699
 30
0.0
 11
46.03855
 21
167.438
 31
0.0
  0
LINE
  5
35B
330
1E
100
AcDbEntity
  8
0
100
AcDbLine
 10
46.09765
 20
167.214
 30
0.0
 11
46.12565
 21
166.649
 31
0.0
  0
LINE
  5
366
330
1E
100
AcDbEntity
  8
0
100
AcDbLine
 10
45.64435
 20
126.921
 30
0.0
 11
45.67935
 21
126.421
 31
0.0
  0
LINE
  5
369
330
1E
100
AcDbEntity
  8
0
100
AcDbLine
 10
44.72965
 20
116.2889999999999
 30
0.0
 11
44.76265
 21
116.354
 31
0.0
  0
LINE
  5
36A
330
1E
100
AcDbEntity
  8
0
100
AcDbLine
 10
44.66355
 20
115.952
 30
0.0
 11
44.72965
 21
116.2889999999999
 31
0.0
  0
LINE
  5
36D
330
1E
100
AcDbEntity
  8
0
100
AcDbLine
 10
44.5874511627907
 20
114.7920266217869
 30
0.0
 11
44.59055
 21
114.877
 31
0.0
  0
LINE
  5
36E
330
1E
100
AcDbEntity
  8
0
100
AcDbLine
 10
43.24754999999999
 20
105.782
 30
0.0
 11
43.81904999999999
 21
106.8699999999999
 31
0.0
  0
LINE
  5
36F
330
1E
100
AcDbEntity
  8
0
100
AcDbLine
 10
36.33975
 20
127.715
 30
0.0
 11
38.45725
 21
127.7139999999999
 31
0.0
  0
LINE
  5
370
330
1E
100
AcDbEntity
  8
0
100
AcDbLine
 10
37.98384999999999
 20
100.424
 30
0.0
 11
39.87525
 21
101.907
 31
0.0
  0
LINE
  5
371
330
1E
100
AcDbEntity
  8
0
100
AcDbLine
 10
36.11504999999999
 20
105.5949999999999
 30
0.0
 11
36.11504999999999
 21
100.165
 31
0.0
  0
LINE
  5
372
330
1E
100
AcDbEntity
  8
0
100
AcDbLine
 10
36.11504999999999
 20
100.165
 30
0.0
 11
36.11504999999999
 21
99.90490000000001
 31
0.0
  0
LINE
  5
373
330
1E
100
AcDbEntity
  8
0
100
AcDbLine
 10
36.11504999999999
 20
100.165
 30
0.0
 11
36.11504999999999
 21
105.5949999999999
 31
0.0
  0
LINE
  5
374
330
1E
100
AcDbEntity
  8
0
100
AcDbLine
 10
36.03334999999999
 20
99.3796
 30
0.0
 11
36.11504999999999
 21
99.90490000000001
 31
0.0
  0
LINE
  5
375
330
1E
100
AcDbEntity
  8
0
100
AcDbLine
 10
32.76635
 20
97.15200000000001
 30
0.0
 11
33.27585
 21
97.5674
 31
0.0
  0
LINE
  5
376
330
1E
100
AcDbEntity
  8
0
100
AcDbLine
 10
32.16705
 20
96.7613
 30
0.0
 11
32.76635
 21
97.15200000000001
 31
0.0
  0
LINE
  5
37B
330
1E
100
AcDbEntity
  8
0
100
AcDbLine
 10
21.15895
 20
162.415
 30
0.0
 11
16.49094938138364
 21
162.9357432576714
 31
0.0
  0
LINE
  5
37C
330
1E
100
AcDbEntity
  8
0
100
AcDbLine
 10
16.49094938138364
 20
162.9357432576714
 30
0.0
 11
9.64329274464012
 21
164.2550029480003
 31
0.0
  0
LINE
  5
37D
330
1E
100
AcDbEntity
  8
0
100
AcDbLine
 10
9.64329274464012
 20
164.2550029480003
 30
0.0
 11
6.095711958057449
 21
165.6567160917902
 31
0.0
  0
LINE
  5
37E
330
1E
100
AcDbEntity
  8
0
100
AcDbLine
 10
6.095711958057449
 20
165.6567160917902
 30
0.0
 11
3.8567
 21
167.565
 31
0.0
  0
LINE
  5
37F
330
1E
100
AcDbEntity
  8
0
100
AcDbLine
 10
20.17125
 20
171.9829999999999
 30
0.0
 11
28.05884999999999
 21
171.9829999999999
 31
0.0
  0
LINE
  5
380
330
1E
100
AcDbEntity
  8
0
100
AcDbLine
 10
31.74712389492963
 20
162.7811605917301
 30
0.0
 11
38.62010658397375
 21
163.9613963738364
 31
0.0
  0
LINE
  5
381
330
1E
100
AcDbEntity
  8
0
100
AcDbLine
 10
27.06952993272669
 20
162.3551112511888
 30
0.0
 11
31.74712389492963
 21
162.7811605917301
 31
0.0
  0
LINE
  5
382
330
1E
100
AcDbEntity
  8
0
100
AcDbLine
 10
42.19536171222086
 20
165.2909376265798
 30
0.0
 11
44.45545
 21
167.369
 31
0.0
  0
LINE
  5
383
330
1E
100
AcDbEntity
  8
0
100
AcDbLine
 10
38.62010658397375
 20
163.9613963738364
 30
0.0
 11
42.19536171222086
 21
165.2909376265798
 31
0.0
  0
ENDSEC
  0
SECTION
  2
OBJECTS
  0
DICTIONARY
  5
C
330
0
100
AcDbDictionary
281
     1
  3
ACAD_GROUP
350
D
  3
ACAD_LAYOUT
350
19
  3
ACAD_MLINESTYLE
350
16
  3
ACAD_PLOTSETTINGS
350
18
  3
ACAD_PLOTSTYLENAME
350
E
  3
AcDbVariableDictionary
350
385
  0
DICTIONARY
  5
D
102
{ACAD_REACTORS
330
C
102
}
330
C
100
AcDbDictionary
281
     1
  0
DICTIONARY
  5
19
102
{ACAD_REACTORS
330
C
102
}
330
C
100
AcDbDictionary
281
     1
  3
Layout1
350
1D
  3
Model
350
21
  0
DICTIONARY
  5
16
102
{ACAD_REACTORS
330
C
102
}
330
C
100
AcDbDictionary
281
     1
  3
Standard
350
17
  0
DICTIONARY
  5
18
102
{ACAD_REACTORS
330
C
102
}
330
C
100
AcDbDictionary
281
     1
  0
ACDBDICTIONARYWDFLT
  5
E
102
{ACAD_REACTORS
330
C
102
}
330
C
100
AcDbDictionary
281
     1
  3
Normal
350
F
100
AcDbDictionaryWithDefault
340
F
  0
DICTIONARY
  5
385
102
{ACAD_REACTORS
330
C
102
}
330
C
100
AcDbDictionary
281
     1
  3
DIMASSOC
350
386
  0
LAYOUT
  5
1D
102
{ACAD_REACTORS
330
19
102
}
330
19
100
AcDbPlotSettings
  1

  2
C:\Programme\AutoCAD LT 2002 Deu\plotters\DWF ePlot (optimized for plotting).pc3
  4

  6

 40
0.0
 41
0.0
 42
0.0
 43
0.0
 44
0.0
 45
0.0
 46
0.0
 47
0.0
 48
0.0
 49
0.0
140
0.0
141
0.0
142
1.0
143
1.0
 70
   688
 72
     0
 73
     0
 74
     5
  7

 75
    16
147
1.0
148
0.0
149
0.0
100
AcDbLayout
  1
Layout1
 70
     1
 71
     1
 10
0.0
 20
0.0
 11
12.0
 21
9.0
 12
0.0
 22
0.0
 32
0.0
 14
1.000000000000000E+20
 24
1.000000000000000E+20
 34
1.000000000000000E+20
 15
-1.000000000000000E+20
 25
-1.000000000000000E+20
 35
-1.000000000000000E+20
146
0.0
 13
0.0
 23
0.0
 33
0.0
 16
1.0
 26
0.0
 36
0.0
 17
0.0
 27
1.0
 37
0.0
 76
     0
330
1A
  0
LAYOUT
  5
21
102
{ACAD_REACTORS
330
19
102
}
330
19
100
AcDbPlotSettings
  1

  2
C:\Programme\AutoCAD LT 2002 Deu\plotters\DWF ePlot (optimized for plotting).pc3
  4

  6

 40
0.0
 41
0.0
 42
0.0
 43
0.0
 44
0.0
 45
0.0
 46
0.0
 47
0.0
 48
0.0
 49
0.0
140
0.0
141
0.0
142
1.0
143
1.0
 70
  1712
 72
     0
 73
     0
 74
     0
  7

 75
     0
147
1.0
148
0.0
149
0.0
100
AcDbLayout
  1
Model
 70
     1
 71
     0
 10
0.0
 20
0.0
 11
12.0
 21
9.0
 12
0.0
 22
0.0
 32
0.0
 14
0.0
 24
0.0
 34
0.0
 15
0.0
 25
0.0
 35
0.0
146
0.0
 13
0.0
 23
0.0
 33
0.0
 16
1.0
 26
0.0
 36
0.0
 17
0.0
 27
1.0
 37
0.0
 76
     0
330
1E
  0
MLINESTYLE
  5
17
102
{ACAD_REACTORS
330
16
102
}
330
16
100
AcDbMlineStyle
  2
STANDARD
 70
     0
  3

 62
   256
 51
90.0
 52
90.0
 71
     2
 49
0.5
 62
   256
  6
BYLAYER
 49
-0.5
 62
   256
  6
BYLAYER
  0
ACDBPLACEHOLDER
  5
F
102
{ACAD_REACTORS
330
E
102
}
330
E
  0
DICTIONARYVAR
  5
386
102
{ACAD_REACTORS
330
385
102
}
330
385
100
DictionaryVariables
280
     0
  1
1
  0
ENDSEC
  0
EOF
