  0
SECTION
  2
HEADER
  9
$ACADVER
  1
AC1015
  9
$ACADMAINTVER
 70
     6
  9
$DWGCODEPAGE
  3
ANSI_1252
  9
$INSBASE
 10
0.0
 20
0.0
 30
0.0
  9
$EXTMIN
 10
0.364212223068
 20
-0.14116
 30
0.0
  9
$EXTMAX
 10
208.8217
 20
1402.14116
 30
0.0
  9
$LIMMIN
 10
0.0
 20
0.0
  9
$LIMMAX
 10
12.0
 20
9.0
  9
$ORTHOMODE
 70
     0
  9
$REGENMODE
 70
     1
  9
$FILLMODE
 70
     1
  9
$QTEXTMODE
 70
     0
  9
$MIRRTEXT
 70
     1
  9
$LTSCALE
 40
1.0
  9
$ATTMODE
 70
     1
  9
$TEXTSIZE
 40
0.2
  9
$TRACEWID
 40
0.05
  9
$TEXTSTYLE
  7
Standard
  9
$CLAYER
  8
0
  9
$CELTYPE
  6
ByBlock
  9
$CECOLOR
 62
   256
  9
$CELTSCALE
 40
1.0
  9
$DISPSILH
 70
     0
  9
$DIMSCALE
 40
1.0
  9
$DIMASZ
 40
0.18
  9
$DIMEXO
 40
0.0625
  9
$DIMDLI
 40
0.38
  9
$DIMRND
 40
0.0
  9
$DIMDLE
 40
0.0
  9
$DIMEXE
 40
0.18
  9
$DIMTP
 40
0.0
  9
$DIMTM
 40
0.0
  9
$DIMTXT
 40
0.18
  9
$DIMCEN
 40
0.09
  9
$DIMTSZ
 40
0.0
  9
$DIMTOL
 70
     0
  9
$DIMLIM
 70
     0
  9
$DIMTIH
 70
     1
  9
$DIMTOH
 70
     1
  9
$DIMSE1
 70
     0
  9
$DIMSE2
 70
     0
  9
$DIMTAD
 70
     0
  9
$DIMZIN
 70
     0
  9
$DIMBLK
  1

  9
$DIMASO
 70
     1
  9
$DIMSHO
 70
     1
  9
$DIMPOST
  1

  9
$DIMAPOST
  1

  9
$DIMALT
 70
     0
  9
$DIMALTD
 70
     2
  9
$DIMALTF
 40
25.4
  9
$DIMLFAC
 40
1.0
  9
$DIMTOFL
 70
     0
  9
$DIMTVP
 40
0.0
  9
$DIMTIX
 70
     0
  9
$DIMSOXD
 70
     0
  9
$DIMSAH
 70
     0
  9
$DIMBLK1
  1

  9
$DIMBLK2
  1

  9
$DIMSTYLE
  2
Standard
  9
$DIMCLRD
 70
     0
  9
$DIMCLRE
 70
     0
  9
$DIMCLRT
 70
     0
  9
$DIMTFAC
 40
1.0
  9
$DIMGAP
 40
0.09
  9
$DIMJUST
 70
     0
  9
$DIMSD1
 70
     0
  9
$DIMSD2
 70
     0
  9
$DIMTOLJ
 70
     1
  9
$DIMTZIN
 70
     0
  9
$DIMALTZ
 70
     0
  9
$DIMALTTZ
 70
     0
  9
$DIMUPT
 70
     0
  9
$DIMDEC
 70
     4
  9
$DIMTDEC
 70
     4
  9
$DIMALTU
 70
     2
  9
$DIMALTTD
 70
     2
  9
$DIMTXSTY
  7
Standard
  9
$DIMAUNIT
 70
     0
  9
$DIMADEC
 70
     0
  9
$DIMALTRND
 40
0.0
  9
$DIMAZIN
 70
     0
  9
$DIMDSEP
 70
    46
  9
$DIMATFIT
 70
     3
  9
$DIMFRAC
 70
     0
  9
$DIMLDRBLK
  1

  9
$DIMLUNIT
 70
     2
  9
$DIMLWD
 70
    -2
  9
$DIMLWE
 70
    -2
  9
$DIMTMOVE
 70
     2
  9
$LUNITS
 70
     2
  9
$LUPREC
 70
     4
  9
$SKETCHINC
 40
0.1
  9
$FILLETRAD
 40
0.5
  9
$AUNITS
 70
     0
  9
$AUPREC
 70
     0
  9
$MENU
  1
.
  9
$ELEVATION
 40
0.0
  9
$PELEVATION
 40
0.0
  9
$THICKNESS
 40
0.0
  9
$LIMCHECK
 70
     0
  9
$CHAMFERA
 40
0.5
  9
$CHAMFERB
 40
0.5
  9
$CHAMFERC
 40
1.0
  9
$CHAMFERD
 40
0.0
  9
$SKPOLY
 70
     0
  9
$TDCREATE
 40
2456462.89963125
  9
$TDUCREATE
 40
2456462.816297917
  9
$TDUPDATE
 40
2456462.902577211
  9
$TDUUPDATE
 40
2456462.819243877
  9
$TDINDWG
 40
0.0029450694
  9
$TDUSRTIMER
 40
0.0029450694
  9
$USRTIMER
 70
     1
  9
$ANGBASE
 50
0.0
  9
$ANGDIR
 70
     0
  9
$PDMODE
 70
     0
  9
$PDSIZE
 40
0.0
  9
$PLINEWID
 40
0.0
  9
$SPLFRAME
 70
     0
  9
$SPLINETYPE
 70
     6
  9
$SPLINESEGS
 70
     8
  9
$HANDSEED
  5
1B59
  9
$SURFTAB1
 70
     6
  9
$SURFTAB2
 70
     6
  9
$SURFTYPE
 70
     6
  9
$SURFU
 70
     6
  9
$SURFV
 70
     6
  9
$UCSBASE
  2

  9
$UCSNAME
  2

  9
$UCSORG
 10
0.0
 20
0.0
 30
0.0
  9
$UCSXDIR
 10
1.0
 20
0.0
 30
0.0
  9
$UCSYDIR
 10
0.0
 20
1.0
 30
0.0
  9
$UCSORTHOREF
  2

  9
$UCSORTHOVIEW
 70
     0
  9
$UCSORGTOP
 10
0.0
 20
0.0
 30
0.0
  9
$UCSORGBOTTOM
 10
0.0
 20
0.0
 30
0.0
  9
$UCSORGLEFT
 10
0.0
 20
0.0
 30
0.0
  9
$UCSORGRIGHT
 10
0.0
 20
0.0
 30
0.0
  9
$UCSORGFRONT
 10
0.0
 20
0.0
 30
0.0
  9
$UCSORGBACK
 10
0.0
 20
0.0
 30
0.0
  9
$PUCSBASE
  2

  9
$PUCSNAME
  2

  9
$PUCSORG
 10
0.0
 20
0.0
 30
0.0
  9
$PUCSXDIR
 10
1.0
 20
0.0
 30
0.0
  9
$PUCSYDIR
 10
0.0
 20
1.0
 30
0.0
  9
$PUCSORTHOREF
  2

  9
$PUCSORTHOVIEW
 70
     0
  9
$PUCSORGTOP
 10
0.0
 20
0.0
 30
0.0
  9
$PUCSORGBOTTOM
 10
0.0
 20
0.0
 30
0.0
  9
$PUCSORGLEFT
 10
0.0
 20
0.0
 30
0.0
  9
$PUCSORGRIGHT
 10
0.0
 20
0.0
 30
0.0
  9
$PUCSORGFRONT
 10
0.0
 20
0.0
 30
0.0
  9
$PUCSORGBACK
 10
0.0
 20
0.0
 30
0.0
  9
$USERI1
 70
     0
  9
$USERI2
 70
     0
  9
$USERI3
 70
     0
  9
$USERI4
 70
     0
  9
$USERI5
 70
     0
  9
$USERR1
 40
0.0
  9
$USERR2
 40
0.0
  9
$USERR3
 40
0.0
  9
$USERR4
 40
0.0
  9
$USERR5
 40
0.0
  9
$WORLDVIEW
 70
     1
  9
$SHADEDGE
 70
     3
  9
$SHADEDIF
 70
    70
  9
$TILEMODE
 70
     1
  9
$MAXACTVP
 70
    64
  9
$PINSBASE
 10
0.0
 20
0.0
 30
0.0
  9
$PLIMCHECK
 70
     0
  9
$PEXTMIN
 10
1.000000000000E+20
 20
1.000000000000E+20
 30
1.000000000000E+20
  9
$PEXTMAX
 10
-1.000000000000E+20
 20
-1.000000000000E+20
 30
-1.000000000000E+20
  9
$PLIMMIN
 10
0.0
 20
0.0
  9
$PLIMMAX
 10
12.0
 20
9.0
  9
$UNITMODE
 70
     0
  9
$VISRETAIN
 70
     1
  9
$PLINEGEN
 70
     0
  9
$PSLTSCALE
 70
     1
  9
$TREEDEPTH
 70
  3020
  9
$CMLSTYLE
  2
Standard
  9
$CMLJUST
 70
     0
  9
$CMLSCALE
 40
1.0
  9
$PROXYGRAPHICS
 70
     1
  9
$MEASUREMENT
 70
     0
  9
$CELWEIGHT
370
    -1
  9
$ENDCAPS
280
     0
  9
$JOINSTYLE
280
     0
  9
$LWDISPLAY
290
     0
  9
$INSUNITS
 70
     0
  9
$HYPERLINKBASE
  1

  9
$STYLESHEET
  1

  9
$XEDIT
290
     1
  9
$CEPSNTYPE
380
     0
  9
$PSTYLEMODE
290
     1
  9
$FINGERPRINTGUID
  2
{1267C87C-CB44-4219-9F33-EF67EE0477C0}
  9
$VERSIONGUID
  2
{FAEB1C32-E019-11D5-929B-00C0DF256EC4}
  9
$EXTNAMES
290
     1
  9
$PSVPSCALE
 40
0.0
  9
$OLESTARTUP
290
     0
  0
ENDSEC
  0
SECTION
  2
CLASSES
  0
CLASS
  1
ACDBDICTIONARYWDFLT
  2
AcDbDictionaryWithDefault
  3
ObjectDBX Classes
 90
        0
280
     0
281
     0
  0
CLASS
  1
SCALE
  2
AcDbScale
  3
ObjectDBX Classes
 90
     1153
280
     0
281
     0
  0
CLASS
  1
DICTIONARYVAR
  2
AcDbDictionaryVar
  3
ObjectDBX Classes
 90
        0
280
     0
281
     0
  0
CLASS
  1
ACDBPLACEHOLDER
  2
AcDbPlaceHolder
  3
ObjectDBX Classes
 90
        0
280
     0
281
     0
  0
CLASS
  1
LAYOUT
  2
AcDbLayout
  3
ObjectDBX Classes
 90
        0
280
     0
281
     0
  0
ENDSEC
  0
SECTION
  2
TABLES
  0
TABLE
  2
VPORT
  5
8
330
0
100
AcDbSymbolTable
 70
     1
  0
VPORT
  5
EB4
330
8
100
AcDbSymbolTableRecord
100
AcDbViewportTableRecord
  2
*Active
 70
     0
 10
0.0
 20
0.0
 11
1.0
 21
1.0
 12
104.41085
 22
701.0
 13
0.0
 23
0.0
 14
0.5
 24
0.5
 15
0.5
 25
0.5
 16
0.0
 26
0.0
 36
1.0
 17
0.0
 27
0.0
 37
0.0
 40
1430.3279664
 41
1.863448275862
 42
50.0
 43
0.0
 44
0.0
 50
0.0
 51
0.0
 71
    16
 72
   100
 73
     1
 74
     3
 75
     0
 76
     0
 77
     0
 78
     0
281
     0
 65
     1
110
0.0
120
0.0
130
0.0
111
1.0
121
0.0
131
0.0
112
0.0
122
1.0
132
0.0
 79
     0
146
0.0
  0
ENDTAB
  0
TABLE
  2
LTYPE
  5
5
330
0
100
AcDbSymbolTable
 70
     1
  0
LTYPE
  5
14
330
5
100
AcDbSymbolTableRecord
100
AcDbLinetypeTableRecord
  2
ByBlock
 70
     0
  3

 72
    65
 73
     0
 40
0.0
  0
LTYPE
  5
15
330
5
100
AcDbSymbolTableRecord
100
AcDbLinetypeTableRecord
  2
ByLayer
 70
     0
  3

 72
    65
 73
     0
 40
0.0
  0
LTYPE
  5
16
330
5
100
AcDbSymbolTableRecord
100
AcDbLinetypeTableRecord
  2
Continuous
 70
     0
  3
Solid line
 72
    65
 73
     0
 40
0.0
  0
ENDTAB
  0
TABLE
  2
LAYER
  5
2
330
0
100
AcDbSymbolTable
 70
     1
  0
LAYER
  5
10
330
2
100
AcDbSymbolTableRecord
100
AcDbLayerTableRecord
  2
0
 70
     0
 62
     7
  6
Continuous
370
    -3
390
F
  0
ENDTAB
  0
TABLE
  2
STYLE
  5
3
330
0
100
AcDbSymbolTable
 70
     1
  0
STYLE
  5
11
330
3
100
AcDbSymbolTableRecord
100
AcDbTextStyleTableRecord
  2
Standard
 70
     0
 40
0.0
 41
1.0
 50
0.0
 71
     0
 42
0.2
  3
txt
  4

  0
ENDTAB
  0
TABLE
  2
VIEW
  5
6
330
0
100
AcDbSymbolTable
 70
     0
  0
ENDTAB
  0
TABLE
  2
UCS
  5
7
330
0
100
AcDbSymbolTable
 70
     0
  0
ENDTAB
  0
TABLE
  2
APPID
  5
9
330
0
100
AcDbSymbolTable
 70
     1
  0
APPID
  5
12
330
9
100
AcDbSymbolTableRecord
100
AcDbRegAppTableRecord
  2
ACAD
 70
     0
  0
ENDTAB
  0
TABLE
  2
DIMSTYLE
  5
A
330
0
100
AcDbSymbolTable
 70
     1
100
AcDbDimStyleTable
  0
DIMSTYLE
105
20
330
A
100
AcDbSymbolTableRecord
100
AcDbDimStyleTableRecord
  2
Standard
 70
     0
340
11
  0
ENDTAB
  0
TABLE
  2
BLOCK_RECORD
  5
1
330
0
100
AcDbSymbolTable
 70
     2
  0
BLOCK_RECORD
  5
1D
330
1
100
AcDbSymbolTableRecord
100
AcDbBlockTableRecord
  2
*Model_Space
340
1E
  0
BLOCK_RECORD
  5
1B
330
1
100
AcDbSymbolTableRecord
100
AcDbBlockTableRecord
  2
*Paper_Space
340
1C
  0
ENDTAB
  0
ENDSEC
  0
SECTION
  2
BLOCKS
  0
BLOCK
  5
EB7
330
1D
100
AcDbEntity
  8
0
100
AcDbBlockBegin
  2
*Model_Space
 70
     0
 10
0.0
 20
0.0
 30
0.0
  3
*Model_Space
  1
*Model_Space
  0
ENDBLK
  5
EB8
330
1D
100
AcDbEntity
  8
0
100
AcDbBlockEnd
  0
BLOCK
  5
EB5
330
1B
100
AcDbEntity
 67
     1
  8
0
100
AcDbBlockBegin
  2
*Paper_Space
 70
     0
 10
0.0
 20
0.0
 30
0.0
  3
*Paper_Space
  1
*Paper_Space
  0
ENDBLK
  5
EB6
330
1B
100
AcDbEntity
 67
     1
  8
0
100
AcDbBlockEnd
  0
ENDSEC
  0
SECTION
  2
ENTITIES
  0
LINE
  5
22
330
1D
100
AcDbEntity
  8
0
100
AcDbLine
 10
140.0215
 20
-0.11486
 30
0.0
 11
141.8215
 21
-0.03996
 31
0.0
  0
LINE
  5
23
330
1D
100
AcDbEntity
  8
0
100
AcDbLine
 10
138.1215
 20
-0.14116
 30
0.0
 11
140.0215
 21
-0.11486
 31
0.0
  0
LINE
  5
26
330
1D
100
AcDbEntity
  8
0
100
AcDbLine
 10
130.9215
 20
5.47004
 30
0.0
 11
131.6215
 21
6.66944
 31
0.0
  0
LINE
  5
2A
330
1D
100
AcDbEntity
  8
0
100
AcDbLine
 10
131.6215
 20
6.66944
 30
0.0
 11
132.8215
 21
7.86886
 31
0.0
  0
LINE
  5
2B
330
1D
100
AcDbEntity
  8
0
100
AcDbLine
 10
130.6215
 20
4.12064
 30
0.0
 11
130.9215
 21
2.13404
 31
0.0
  0
LINE
  5
2D
330
1D
100
AcDbEntity
  8
0
100
AcDbLine
 10
130.6215
 20
4.12064
 30
0.0
 11
130.9215
 21
5.47004
 31
0.0
  0
LINE
  5
2E
330
1D
100
AcDbEntity
  8
0
100
AcDbLine
 10
130.9215
 20
2.13404
 30
0.0
 11
131.6215
 21
1.00954
 31
0.0
  0
LINE
  5
2F
330
1D
100
AcDbEntity
  8
0
100
AcDbLine
 10
132.8215
 20
7.86886
 30
0.0
 11
134.4215
 21
8.91836
 31
0.0
  0
LINE
  5
33
330
1D
100
AcDbEntity
  8
0
100
AcDbLine
 10
134.4215
 20
8.91836
 30
0.0
 11
136.2215
 21
9.63056
 31
0.0
  0
LINE
  5
34
330
1D
100
AcDbEntity
  8
0
100
AcDbLine
 10
131.6215
 20
1.00954
 30
0.0
 11
132.8215
 21
0.33494
 31
0.0
  0
LINE
  5
35
330
1D
100
AcDbEntity
  8
0
100
AcDbLine
 10
132.8215
 20
0.33494
 30
0.0
 11
134.4215
 21
-0.03996
 31
0.0
  0
LINE
  5
36
330
1D
100
AcDbEntity
  8
0
100
AcDbLine
 10
143.4215
 20
0.33494
 30
0.0
 11
144.6215
 21
1.00954
 31
0.0
  0
LINE
  5
37
330
1D
100
AcDbEntity
  8
0
100
AcDbLine
 10
141.8215
 20
-0.03996
 30
0.0
 11
143.4215
 21
0.33494
 31
0.0
  0
LINE
  5
38
330
1D
100
AcDbEntity
  8
0
100
AcDbLine
 10
145.3215
 20
2.13404
 30
0.0
 11
145.6215
 21
4.12064
 31
0.0
  0
LINE
  5
39
330
1D
100
AcDbEntity
  8
0
100
AcDbLine
 10
144.6215
 20
1.00954
 30
0.0
 11
145.3215
 21
2.13404
 31
0.0
  0
LINE
  5
3A
330
1D
100
AcDbEntity
  8
0
100
AcDbLine
 10
145.3215
 20
5.47004
 30
0.0
 11
145.6215
 21
4.12064
 31
0.0
  0
LINE
  5
3C
330
1D
100
AcDbEntity
  8
0
100
AcDbLine
 10
144.6215
 20
6.66944
 30
0.0
 11
145.3215
 21
5.47004
 31
0.0
  0
LINE
  5
3D
330
1D
100
AcDbEntity
  8
0
100
AcDbLine
 10
143.4215
 20
7.86886
 30
0.0
 11
144.6215
 21
6.66944
 31
0.0
  0
LINE
  5
3E
330
1D
100
AcDbEntity
  8
0
100
AcDbLine
 10
141.8215
 20
8.91836
 30
0.0
 11
143.4215
 21
7.86886
 31
0.0
  0
LINE
  5
3F
330
1D
100
AcDbEntity
  8
0
100
AcDbLine
 10
140.0215
 20
9.63056
 30
0.0
 11
141.8215
 21
8.91836
 31
0.0
  0
LINE
  5
42
330
1D
100
AcDbEntity
  8
0
100
AcDbLine
 10
138.1215
 20
9.85886
 30
0.0
 11
140.0215
 21
9.63056
 31
0.0
  0
LINE
  5
53
330
1D
100
AcDbEntity
  8
0
100
AcDbLine
 10
136.2215
 20
9.63056
 30
0.0
 11
138.1215
 21
9.85886
 31
0.0
  0
LINE
  5
54
330
1D
100
AcDbEntity
  8
0
100
AcDbLine
 10
134.4215
 20
-0.03996
 30
0.0
 11
136.2215
 21
-0.11486
 31
0.0
  0
LINE
  5
55
330
1D
100
AcDbEntity
  8
0
100
AcDbLine
 10
136.2215
 20
-0.11486
 30
0.0
 11
138.1215
 21
-0.14116
 31
0.0
  0
LINE
  5
E6A
330
1D
100
AcDbEntity
  8
0
100
AcDbLine
 10
157.0627
 20
1401.75616
 30
0.0
 11
157.4587
 21
1401.75616
 31
0.0
  0
LINE
  5
E6B
330
1D
100
AcDbEntity
  8
0
100
AcDbLine
 10
157.0627
 20
1401.75616
 30
0.0
 11
157.3267
 21
1402.14116
 31
0.0
  0
LINE
  5
E6C
330
1D
100
AcDbEntity
  8
0
100
AcDbLine
 10
157.4587
 20
1401.75616
 30
0.0
 11
158.5147
 21
1401.75616
 31
0.0
  0
LINE
  5
E6D
330
1D
100
AcDbEntity
  8
0
100
AcDbLine
 10
158.5147
 20
1401.75616
 30
0.0
 11
160.2747
 21
1401.75616
 31
0.0
  0
LINE
  5
E6E
330
1D
100
AcDbEntity
  8
0
100
AcDbLine
 10
160.2747
 20
1401.75616
 30
0.0
 11
162.6067
 21
1401.75616
 31
0.0
  0
LINE
  5
E6F
330
1D
100
AcDbEntity
  8
0
100
AcDbLine
 10
157.3267
 20
1402.14116
 30
0.0
 11
157.7227
 21
1402.14116
 31
0.0
  0
LINE
  5
E70
330
1D
100
AcDbEntity
  8
0
100
AcDbLine
 10
157.7227
 20
1402.14116
 30
0.0
 11
158.7787
 21
1402.14116
 31
0.0
  0
LINE
  5
E71
330
1D
100
AcDbEntity
  8
0
100
AcDbLine
 10
158.7787
 20
1402.14116
 30
0.0
 11
160.4947
 21
1402.14116
 31
0.0
  0
LINE
  5
E72
330
1D
100
AcDbEntity
  8
0
100
AcDbLine
 10
160.4947
 20
1402.14116
 30
0.0
 11
162.7387
 21
1402.14116
 31
0.0
  0
LINE
  5
E73
330
1D
100
AcDbEntity
  8
0
100
AcDbLine
 10
162.7387
 20
1402.14116
 30
0.0
 11
165.2907
 21
1402.14116
 31
0.0
  0
LINE
  5
E74
330
1D
100
AcDbEntity
  8
0
100
AcDbLine
 10
162.6067
 20
1401.75616
 30
0.0
 11
165.2467
 21
1401.75616
 31
0.0
  0
LINE
  5
E75
330
1D
100
AcDbEntity
  8
0
100
AcDbLine
 10
168.0627
 20
1402.14116
 30
0.0
 11
170.8347
 21
1402.14116
 31
0.0
  0
LINE
  5
E79
330
1D
100
AcDbEntity
  8
0
100
AcDbLine
 10
178.6667
 20
1401.75616
 30
0.0
 11
179.0627
 21
1401.75616
 31
0.0
  0
LINE
  5
E7B
330
1D
100
AcDbEntity
  8
0
100
AcDbLine
 10
177.6107
 20
1401.75616
 30
0.0
 11
178.6667
 21
1401.75616
 31
0.0
  0
LINE
  5
E7C
330
1D
100
AcDbEntity
  8
0
100
AcDbLine
 10
175.8507
 20
1401.75616
 30
0.0
 11
177.6107
 21
1401.75616
 31
0.0
  0
LINE
  5
E7D
330
1D
100
AcDbEntity
  8
0
100
AcDbLine
 10
173.5187
 20
1401.75616
 30
0.0
 11
175.8507
 21
1401.75616
 31
0.0
  0
LINE
  5
E7E
330
1D
100
AcDbEntity
  8
0
100
AcDbLine
 10
178.7987
 20
1402.14116
 30
0.0
 11
179.0627
 21
1401.75616
 31
0.0
  0
LINE
  5
E7F
330
1D
100
AcDbEntity
  8
0
100
AcDbLine
 10
178.4027
 20
1402.14116
 30
0.0
 11
178.7987
 21
1402.14116
 31
0.0
  0
LINE
  5
E80
330
1D
100
AcDbEntity
  8
0
100
AcDbLine
 10
177.3467
 20
1402.14116
 30
0.0
 11
178.4027
 21
1402.14116
 31
0.0
  0
LINE
  5
E81
330
1D
100
AcDbEntity
  8
0
100
AcDbLine
 10
175.6307
 20
1402.14116
 30
0.0
 11
177.3467
 21
1402.14116
 31
0.0
  0
LINE
  5
E82
330
1D
100
AcDbEntity
  8
0
100
AcDbLine
 10
173.3867
 20
1402.14116
 30
0.0
 11
175.6307
 21
1402.14116
 31
0.0
  0
LINE
  5
E83
330
1D
100
AcDbEntity
  8
0
100
AcDbLine
 10
170.8347
 20
1402.14116
 30
0.0
 11
173.3867
 21
1402.14116
 31
0.0
  0
LINE
  5
E84
330
1D
100
AcDbEntity
  8
0
100
AcDbLine
 10
170.8787
 20
1401.75616
 30
0.0
 11
173.5187
 21
1401.75616
 31
0.0
  0
LINE
  5
E85
330
1D
100
AcDbEntity
  8
0
100
AcDbLine
 10
168.0627
 20
1401.75616
 30
0.0
 11
170.8787
 21
1401.75616
 31
0.0
  0
LINE
  5
E86
330
1D
100
AcDbEntity
  8
0
100
AcDbLine
 10
165.2907
 20
1402.14116
 30
0.0
 11
168.0627
 21
1402.14116
 31
0.0
  0
LINE
  5
E87
330
1D
100
AcDbEntity
  8
0
100
AcDbLine
 10
165.2467
 20
1401.75616
 30
0.0
 11
168.0627
 21
1401.75616
 31
0.0
  0
LINE
  5
1415
330
1D
100
AcDbEntity
  8
0
100
AcDbLine
 10
41.0627
 20
794.14116
 30
0.0
 11
41.1377
 21
794.14116
 31
0.0
  0
LINE
  5
1416
330
1D
100
AcDbEntity
  8
0
100
AcDbLine
 10
41.0627
 20
794.14116
 30
0.0
 11
41.0627
 21
814.14116
 31
0.0
  0
LINE
  5
1417
330
1D
100
AcDbEntity
  8
0
100
AcDbLine
 10
41.1377
 20
814.14116
 30
0.0
 11
41.1986
 21
814.14116
 31
0.0
  0
LINE
  5
1418
330
1D
100
AcDbEntity
  8
0
100
AcDbLine
 10
41.1377
 20
794.14116
 30
0.0
 11
41.1986
 21
794.14116
 31
0.0
  0
LINE
  5
1419
330
1D
100
AcDbEntity
  8
0
100
AcDbLine
 10
41.0627
 20
814.14116
 30
0.0
 11
41.0627
 21
794.14116
 31
0.0
  0
LINE
  5
141A
330
1D
100
AcDbEntity
  8
0
100
AcDbLine
 10
41.0627
 20
814.14116
 30
0.0
 11
41.1377
 21
814.14116
 31
0.0
  0
LINE
  5
141B
330
1D
100
AcDbEntity
  8
0
100
AcDbLine
 10
41.1986
 20
814.14116
 30
0.0
 11
41.3343
 21
814.14116
 31
0.0
  0
LINE
  5
141C
330
1D
100
AcDbEntity
  8
0
100
AcDbLine
 10
41.1986
 20
794.14116
 30
0.0
 11
41.3343
 21
794.14116
 31
0.0
  0
LINE
  5
141D
330
1D
100
AcDbEntity
  8
0
100
AcDbLine
 10
41.3343
 20
794.14116
 30
0.0
 11
41.4948
 21
794.14116
 31
0.0
  0
LINE
  5
141E
330
1D
100
AcDbEntity
  8
0
100
AcDbLine
 10
41.4948
 20
794.14116
 30
0.0
 11
41.6851
 21
794.14116
 31
0.0
  0
LINE
  5
141F
330
1D
100
AcDbEntity
  8
0
100
AcDbLine
 10
41.6851
 20
794.14116
 30
0.0
 11
41.9283
 21
794.14116
 31
0.0
  0
LINE
  5
1420
330
1D
100
AcDbEntity
  8
0
100
AcDbLine
 10
41.9283
 20
794.14116
 30
0.0
 11
42.1716
 21
794.14116
 31
0.0
  0
LINE
  5
1421
330
1D
100
AcDbEntity
  8
0
100
AcDbLine
 10
42.1716
 20
794.14116
 30
0.0
 11
42.6581
 21
794.14116
 31
0.0
  0
LINE
  5
1422
330
1D
100
AcDbEntity
  8
0
100
AcDbLine
 10
42.6581
 20
794.14116
 30
0.0
 11
43.5095
 21
794.14116
 31
0.0
  0
LINE
  5
1423
330
1D
100
AcDbEntity
  8
0
100
AcDbLine
 10
43.5095
 20
794.14116
 30
0.0
 11
44.5434
 21
794.14116
 31
0.0
  0
LINE
  5
1424
330
1D
100
AcDbEntity
  8
0
100
AcDbLine
 10
44.5434
 20
794.14116
 30
0.0
 11
45.6989
 21
794.14116
 31
0.0
  0
LINE
  5
1425
330
1D
100
AcDbEntity
  8
0
100
AcDbLine
 10
41.3343
 20
814.14116
 30
0.0
 11
41.4948
 21
814.14116
 31
0.0
  0
LINE
  5
1426
330
1D
100
AcDbEntity
  8
0
100
AcDbLine
 10
41.4948
 20
814.14116
 30
0.0
 11
41.6851
 21
814.14116
 31
0.0
  0
LINE
  5
1427
330
1D
100
AcDbEntity
  8
0
100
AcDbLine
 10
41.6851
 20
814.14116
 30
0.0
 11
41.9283
 21
814.14116
 31
0.0
  0
LINE
  5
1428
330
1D
100
AcDbEntity
  8
0
100
AcDbLine
 10
41.9283
 20
814.14116
 30
0.0
 11
42.1716
 21
814.14116
 31
0.0
  0
LINE
  5
1429
330
1D
100
AcDbEntity
  8
0
100
AcDbLine
 10
42.1716
 20
814.14116
 30
0.0
 11
42.6581
 21
814.14116
 31
0.0
  0
LINE
  5
142A
330
1D
100
AcDbEntity
  8
0
100
AcDbLine
 10
42.6581
 20
814.14116
 30
0.0
 11
43.5095
 21
814.14116
 31
0.0
  0
LINE
  5
142B
330
1D
100
AcDbEntity
  8
0
100
AcDbLine
 10
43.5095
 20
814.14116
 30
0.0
 11
44.5434
 21
814.14116
 31
0.0
  0
LINE
  5
142C
330
1D
100
AcDbEntity
  8
0
100
AcDbLine
 10
44.5434
 20
814.14116
 30
0.0
 11
45.6989
 21
814.14116
 31
0.0
  0
LINE
  5
142D
330
1D
100
AcDbEntity
  8
0
100
AcDbLine
 10
45.6989
 20
814.14116
 30
0.0
 11
46.976
 21
814.14116
 31
0.0
  0
LINE
  5
142E
330
1D
100
AcDbEntity
  8
0
100
AcDbLine
 10
46.976
 20
814.14116
 30
0.0
 11
48.4627
 21
814.14116
 31
0.0
  0
LINE
  5
142F
330
1D
100
AcDbEntity
  8
0
100
AcDbLine
 10
45.6989
 20
794.14116
 30
0.0
 11
46.976
 21
794.14116
 31
0.0
  0
LINE
  5
1430
330
1D
100
AcDbEntity
  8
0
100
AcDbLine
 10
56.208
 20
794.14116
 30
0.0
 11
59.0074
 21
794.14116
 31
0.0
  0
LINE
  5
1431
330
1D
100
AcDbEntity
  8
0
100
AcDbLine
 10
53.8953
 20
794.14116
 30
0.0
 11
56.208
 21
794.14116
 31
0.0
  0
LINE
  5
1432
330
1D
100
AcDbEntity
  8
0
100
AcDbLine
 10
51.9479
 20
794.14116
 30
0.0
 11
53.8953
 21
794.14116
 31
0.0
  0
LINE
  5
1433
330
1D
100
AcDbEntity
  8
0
100
AcDbLine
 10
50.183
 20
794.14116
 30
0.0
 11
51.9479
 21
794.14116
 31
0.0
  0
LINE
  5
1434
330
1D
100
AcDbEntity
  8
0
100
AcDbLine
 10
56.208
 20
814.14116
 30
0.0
 11
59.0074
 21
814.14116
 31
0.0
  0
LINE
  5
1435
330
1D
100
AcDbEntity
  8
0
100
AcDbLine
 10
53.8953
 20
814.14116
 30
0.0
 11
56.208
 21
814.14116
 31
0.0
  0
LINE
  5
1436
330
1D
100
AcDbEntity
  8
0
100
AcDbLine
 10
51.9479
 20
814.14116
 30
0.0
 11
53.8953
 21
814.14116
 31
0.0
  0
LINE
  5
1437
330
1D
100
AcDbEntity
  8
0
100
AcDbLine
 10
50.183
 20
814.14116
 30
0.0
 11
51.9479
 21
814.14116
 31
0.0
  0
LINE
  5
1438
330
1D
100
AcDbEntity
  8
0
100
AcDbLine
 10
48.4627
 20
814.14116
 30
0.0
 11
50.183
 21
814.14116
 31
0.0
  0
LINE
  5
1439
330
1D
100
AcDbEntity
  8
0
100
AcDbLine
 10
48.4627
 20
794.14116
 30
0.0
 11
50.183
 21
794.14116
 31
0.0
  0
LINE
  5
143A
330
1D
100
AcDbEntity
  8
0
100
AcDbLine
 10
46.976
 20
794.14116
 30
0.0
 11
48.4627
 21
794.14116
 31
0.0
  0
LINE
  5
143B
330
1D
100
AcDbEntity
  8
0
100
AcDbLine
 10
59.0074
 20
814.14116
 30
0.0
 11
61.9286
 21
814.14116
 31
0.0
  0
LINE
  5
143C
330
1D
100
AcDbEntity
  8
0
100
AcDbLine
 10
59.0074
 20
794.14116
 30
0.0
 11
61.9286
 21
794.14116
 31
0.0
  0
LINE
  5
143D
330
1D
100
AcDbEntity
  8
0
100
AcDbLine
 10
61.9286
 20
814.14116
 30
0.0
 11
65.0933
 21
814.14116
 31
0.0
  0
LINE
  5
143E
330
1D
100
AcDbEntity
  8
0
100
AcDbLine
 10
61.9286
 20
794.14116
 30
0.0
 11
65.0933
 21
794.14116
 31
0.0
  0
LINE
  5
143F
330
1D
100
AcDbEntity
  8
0
100
AcDbLine
 10
71.0822
 20
794.14116
 30
0.0
 11
74.186
 21
794.14116
 31
0.0
  0
LINE
  5
1440
330
1D
100
AcDbEntity
  8
0
100
AcDbLine
 10
68.197
 20
794.14116
 30
0.0
 11
71.0822
 21
794.14116
 31
0.0
  0
LINE
  5
1441
330
1D
100
AcDbEntity
  8
0
100
AcDbLine
 10
71.0822
 20
814.14116
 30
0.0
 11
74.186
 21
814.14116
 31
0.0
  0
LINE
  5
1442
330
1D
100
AcDbEntity
  8
0
100
AcDbLine
 10
68.197
 20
814.14116
 30
0.0
 11
71.0822
 21
814.14116
 31
0.0
  0
LINE
  5
1443
330
1D
100
AcDbEntity
  8
0
100
AcDbLine
 10
65.0933
 20
814.14116
 30
0.0
 11
68.197
 21
814.14116
 31
0.0
  0
LINE
  5
1444
330
1D
100
AcDbEntity
  8
0
100
AcDbLine
 10
65.0933
 20
794.14116
 30
0.0
 11
68.197
 21
794.14116
 31
0.0
  0
LINE
  5
1445
330
1D
100
AcDbEntity
  8
0
100
AcDbLine
 10
74.186
 20
814.14116
 30
0.0
 11
77.7518
 21
814.14116
 31
0.0
  0
LINE
  5
1446
330
1D
100
AcDbEntity
  8
0
100
AcDbLine
 10
77.7518
 20
814.14116
 30
0.0
 11
81.4641
 21
814.14116
 31
0.0
  0
LINE
  5
1447
330
1D
100
AcDbEntity
  8
0
100
AcDbLine
 10
77.7518
 20
794.14116
 30
0.0
 11
81.4641
 21
794.14116
 31
0.0
  0
LINE
  5
1448
330
1D
100
AcDbEntity
  8
0
100
AcDbLine
 10
74.186
 20
794.14116
 30
0.0
 11
77.7518
 21
794.14116
 31
0.0
  0
LINE
  5
1449
330
1D
100
AcDbEntity
  8
0
100
AcDbLine
 10
81.4641
 20
814.14116
 30
0.0
 11
85.0627
 21
814.14116
 31
0.0
  0
LINE
  5
144A
330
1D
100
AcDbEntity
  8
0
100
AcDbLine
 10
81.4641
 20
794.14116
 30
0.0
 11
85.0627
 21
794.14116
 31
0.0
  0
LINE
  5
144B
330
1D
100
AcDbEntity
  8
0
100
AcDbLine
 10
85.0627
 20
814.14116
 30
0.0
 11
95.0627
 21
814.14116
 31
0.0
  0
LINE
  5
144C
330
1D
100
AcDbEntity
  8
0
100
AcDbLine
 10
95.0627
 20
794.14116
 30
0.0
 11
105.0627
 21
794.14116
 31
0.0
  0
LINE
  5
144D
330
1D
100
AcDbEntity
  8
0
100
AcDbLine
 10
105.0627
 20
794.14116
 30
0.0
 11
108.6617
 21
794.14116
 31
0.0
  0
LINE
  5
144E
330
1D
100
AcDbEntity
  8
0
100
AcDbLine
 10
108.6617
 20
794.14116
 30
0.0
 11
112.3737
 21
794.14116
 31
0.0
  0
LINE
  5
144F
330
1D
100
AcDbEntity
  8
0
100
AcDbLine
 10
112.3737
 20
794.14116
 30
0.0
 11
115.9397
 21
794.14116
 31
0.0
  0
LINE
  5
1450
330
1D
100
AcDbEntity
  8
0
100
AcDbLine
 10
115.9397
 20
794.14116
 30
0.0
 11
119.0427
 21
794.14116
 31
0.0
  0
LINE
  5
1451
330
1D
100
AcDbEntity
  8
0
100
AcDbLine
 10
119.0427
 20
794.14116
 30
0.0
 11
121.9287
 21
794.14116
 31
0.0
  0
LINE
  5
1452
330
1D
100
AcDbEntity
  8
0
100
AcDbLine
 10
121.9287
 20
794.14116
 30
0.0
 11
125.0317
 21
794.14116
 31
0.0
  0
LINE
  5
1453
330
1D
100
AcDbEntity
  8
0
100
AcDbLine
 10
95.0627
 20
814.14116
 30
0.0
 11
105.0627
 21
814.14116
 31
0.0
  0
LINE
  5
1454
330
1D
100
AcDbEntity
  8
0
100
AcDbLine
 10
105.0627
 20
814.14116
 30
0.0
 11
108.6617
 21
814.14116
 31
0.0
  0
LINE
  5
1455
330
1D
100
AcDbEntity
  8
0
100
AcDbLine
 10
108.6617
 20
814.14116
 30
0.0
 11
112.3737
 21
814.14116
 31
0.0
  0
LINE
  5
1456
330
1D
100
AcDbEntity
  8
0
100
AcDbLine
 10
112.3737
 20
814.14116
 30
0.0
 11
115.9397
 21
814.14116
 31
0.0
  0
LINE
  5
1457
330
1D
100
AcDbEntity
  8
0
100
AcDbLine
 10
115.9397
 20
814.14116
 30
0.0
 11
119.0427
 21
814.14116
 31
0.0
  0
LINE
  5
1458
330
1D
100
AcDbEntity
  8
0
100
AcDbLine
 10
119.0427
 20
814.14116
 30
0.0
 11
121.9287
 21
814.14116
 31
0.0
  0
LINE
  5
1459
330
1D
100
AcDbEntity
  8
0
100
AcDbLine
 10
121.9287
 20
814.14116
 30
0.0
 11
125.0317
 21
814.14116
 31
0.0
  0
LINE
  5
145A
330
1D
100
AcDbEntity
  8
0
100
AcDbLine
 10
125.0317
 20
814.14116
 30
0.0
 11
128.1967
 21
814.14116
 31
0.0
  0
LINE
  5
145B
330
1D
100
AcDbEntity
  8
0
100
AcDbLine
 10
125.0317
 20
794.14116
 30
0.0
 11
128.1967
 21
794.14116
 31
0.0
  0
LINE
  5
145C
330
1D
100
AcDbEntity
  8
0
100
AcDbLine
 10
85.0627
 20
794.14116
 30
0.0
 11
95.0627
 21
794.14116
 31
0.0
  0
LINE
  5
145D
330
1D
100
AcDbEntity
  8
0
100
AcDbLine
 10
128.1967
 20
794.14116
 30
0.0
 11
131.1177
 21
794.14116
 31
0.0
  0
LINE
  5
145E
330
1D
100
AcDbEntity
  8
0
100
AcDbLine
 10
131.1177
 20
794.14116
 30
0.0
 11
133.9177
 21
794.14116
 31
0.0
  0
LINE
  5
145F
330
1D
100
AcDbEntity
  8
0
100
AcDbLine
 10
133.9177
 20
794.14116
 30
0.0
 11
136.2297
 21
794.14116
 31
0.0
  0
LINE
  5
1460
330
1D
100
AcDbEntity
  8
0
100
AcDbLine
 10
136.2297
 20
794.14116
 30
0.0
 11
138.1777
 21
794.14116
 31
0.0
  0
LINE
  5
1461
330
1D
100
AcDbEntity
  8
0
100
AcDbLine
 10
138.1777
 20
794.14116
 30
0.0
 11
139.9427
 21
794.14116
 31
0.0
  0
LINE
  5
1462
330
1D
100
AcDbEntity
  8
0
100
AcDbLine
 10
128.1967
 20
814.14116
 30
0.0
 11
131.1177
 21
814.14116
 31
0.0
  0
LINE
  5
1463
330
1D
100
AcDbEntity
  8
0
100
AcDbLine
 10
131.1177
 20
814.14116
 30
0.0
 11
133.9177
 21
814.14116
 31
0.0
  0
LINE
  5
1464
330
1D
100
AcDbEntity
  8
0
100
AcDbLine
 10
133.9177
 20
814.14116
 30
0.0
 11
136.2297
 21
814.14116
 31
0.0
  0
LINE
  5
1465
330
1D
100
AcDbEntity
  8
0
100
AcDbLine
 10
136.2297
 20
814.14116
 30
0.0
 11
138.1777
 21
814.14116
 31
0.0
  0
LINE
  5
1466
330
1D
100
AcDbEntity
  8
0
100
AcDbLine
 10
138.1777
 20
814.14116
 30
0.0
 11
139.9427
 21
814.14116
 31
0.0
  0
LINE
  5
1467
330
1D
100
AcDbEntity
  8
0
100
AcDbLine
 10
139.9427
 20
814.14116
 30
0.0
 11
141.6627
 21
814.14116
 31
0.0
  0
LINE
  5
1468
330
1D
100
AcDbEntity
  8
0
100
AcDbLine
 10
139.9427
 20
794.14116
 30
0.0
 11
141.6627
 21
794.14116
 31
0.0
  0
LINE
  5
1469
330
1D
100
AcDbEntity
  8
0
100
AcDbLine
 10
148.0627
 20
794.14116
 30
0.0
 11
154.0627
 21
794.14116
 31
0.0
  0
LINE
  5
146A
330
1D
100
AcDbEntity
  8
0
100
AcDbLine
 10
148.9877
 20
794.14116
 30
0.0
 11
149.0627
 21
794.14116
 31
0.0
  0
LINE
  5
146B
330
1D
100
AcDbEntity
  8
0
100
AcDbLine
 10
148.9267
 20
794.14116
 30
0.0
 11
148.9877
 21
794.14116
 31
0.0
  0
LINE
  5
146C
330
1D
100
AcDbEntity
  8
0
100
AcDbLine
 10
148.7907
 20
794.14116
 30
0.0
 11
148.9267
 21
794.14116
 31
0.0
  0
LINE
  5
146D
330
1D
100
AcDbEntity
  8
0
100
AcDbLine
 10
148.6307
 20
794.14116
 30
0.0
 11
148.7907
 21
794.14116
 31
0.0
  0
LINE
  5
146E
330
1D
100
AcDbEntity
  8
0
100
AcDbLine
 10
148.4407
 20
794.14116
 30
0.0
 11
148.6307
 21
794.14116
 31
0.0
  0
LINE
  5
146F
330
1D
100
AcDbEntity
  8
0
100
AcDbLine
 10
148.1967
 20
794.14116
 30
0.0
 11
148.4407
 21
794.14116
 31
0.0
  0
LINE
  5
1470
330
1D
100
AcDbEntity
  8
0
100
AcDbLine
 10
147.9537
 20
794.14116
 30
0.0
 11
148.1967
 21
794.14116
 31
0.0
  0
LINE
  5
1471
330
1D
100
AcDbEntity
  8
0
100
AcDbLine
 10
147.4677
 20
794.14116
 30
0.0
 11
147.9537
 21
794.14116
 31
0.0
  0
LINE
  5
1472
330
1D
100
AcDbEntity
  8
0
100
AcDbLine
 10
146.6157
 20
794.14116
 30
0.0
 11
147.4677
 21
794.14116
 31
0.0
  0
LINE
  5
1473
330
1D
100
AcDbEntity
  8
0
100
AcDbLine
 10
145.5817
 20
794.14116
 30
0.0
 11
146.6157
 21
794.14116
 31
0.0
  0
LINE
  5
1474
330
1D
100
AcDbEntity
  8
0
100
AcDbLine
 10
144.4267
 20
794.14116
 30
0.0
 11
145.5817
 21
794.14116
 31
0.0
  0
LINE
  5
1475
330
1D
100
AcDbEntity
  8
0
100
AcDbLine
 10
143.1497
 20
794.14116
 30
0.0
 11
144.4267
 21
794.14116
 31
0.0
  0
LINE
  5
1476
330
1D
100
AcDbEntity
  8
0
100
AcDbLine
 10
148.98465
 20
813.14116
 30
0.0
 11
154.0627
 21
813.14116
 31
0.0
  0
LINE
  5
1477
330
1D
100
AcDbEntity
  8
0
100
AcDbLine
 10
148.9877
 20
814.14116
 30
0.0
 11
149.0627
 21
814.14116
 31
0.0
  0
LINE
  5
1478
330
1D
100
AcDbEntity
  8
0
100
AcDbLine
 10
148.9267
 20
814.14116
 30
0.0
 11
148.9877
 21
814.14116
 31
0.0
  0
LINE
  5
1479
330
1D
100
AcDbEntity
  8
0
100
AcDbLine
 10
148.7907
 20
814.14116
 30
0.0
 11
148.9267
 21
814.14116
 31
0.0
  0
LINE
  5
147A
330
1D
100
AcDbEntity
  8
0
100
AcDbLine
 10
148.6307
 20
814.14116
 30
0.0
 11
148.7907
 21
814.14116
 31
0.0
  0
LINE
  5
147B
330
1D
100
AcDbEntity
  8
0
100
AcDbLine
 10
148.4407
 20
814.14116
 30
0.0
 11
148.6307
 21
814.14116
 31
0.0
  0
LINE
  5
147C
330
1D
100
AcDbEntity
  8
0
100
AcDbLine
 10
148.1967
 20
814.14116
 30
0.0
 11
148.4407
 21
814.14116
 31
0.0
  0
LINE
  5
147D
330
1D
100
AcDbEntity
  8
0
100
AcDbLine
 10
147.9537
 20
814.14116
 30
0.0
 11
148.1967
 21
814.14116
 31
0.0
  0
LINE
  5
147E
330
1D
100
AcDbEntity
  8
0
100
AcDbLine
 10
147.4677
 20
814.14116
 30
0.0
 11
147.9537
 21
814.14116
 31
0.0
  0
LINE
  5
147F
330
1D
100
AcDbEntity
  8
0
100
AcDbLine
 10
146.6157
 20
814.14116
 30
0.0
 11
147.4677
 21
814.14116
 31
0.0
  0
LINE
  5
1480
330
1D
100
AcDbEntity
  8
0
100
AcDbLine
 10
145.5817
 20
814.14116
 30
0.0
 11
146.6157
 21
814.14116
 31
0.0
  0
LINE
  5
1481
330
1D
100
AcDbEntity
  8
0
100
AcDbLine
 10
144.4267
 20
814.14116
 30
0.0
 11
145.5817
 21
814.14116
 31
0.0
  0
LINE
  5
1482
330
1D
100
AcDbEntity
  8
0
100
AcDbLine
 10
143.1497
 20
814.14116
 30
0.0
 11
144.4267
 21
814.14116
 31
0.0
  0
LINE
  5
1483
330
1D
100
AcDbEntity
  8
0
100
AcDbLine
 10
141.6627
 20
814.14116
 30
0.0
 11
143.1497
 21
814.14116
 31
0.0
  0
LINE
  5
1484
330
1D
100
AcDbEntity
  8
0
100
AcDbLine
 10
141.6627
 20
794.14116
 30
0.0
 11
143.1497
 21
794.14116
 31
0.0
  0
LINE
  5
1485
330
1D
100
AcDbEntity
  8
0
100
AcDbLine
 10
154.0627
 20
794.14116
 30
0.0
 11
154.0627
 21
813.14116
 31
0.0
  0
LINE
  5
1486
330
1D
100
AcDbEntity
  8
0
100
AcDbLine
 10
154.0627
 20
794.14116
 30
0.0
 11
157.0627
 21
794.14116
 31
0.0
  0
LINE
  5
1487
330
1D
100
AcDbEntity
  8
0
100
AcDbLine
 10
154.0627
 20
794.14116
 30
0.0
 11
168.0627
 21
794.14116
 31
0.0
  0
LINE
  5
1488
330
1D
100
AcDbEntity
  8
0
100
AcDbLine
 10
149.0627
 20
814.14116
 30
0.0
 11
149.0627
 21
813.14116
 31
0.0
  0
LINE
  5
1489
330
1D
100
AcDbEntity
  8
0
100
AcDbLine
 10
154.0627
 20
812.14116
 30
0.0
 11
168.0627
 21
812.14116
 31
0.0
  0
LINE
  5
148A
330
1D
100
AcDbEntity
  8
0
100
AcDbLine
 10
154.0627
 20
813.14116
 30
0.0
 11
154.0627
 21
794.14116
 31
0.0
  0
LINE
  5
148B
330
1D
100
AcDbEntity
  8
0
100
AcDbLine
 10
149.0627
 20
813.14116
 30
0.0
 11
149.0627
 21
814.14116
 31
0.0
  0
LINE
  5
148C
330
1D
100
AcDbEntity
  8
0
100
AcDbLine
 10
152.6047
 20
1109.31516
 30
0.0
 11
154.1627
 21
1113.21716
 31
0.0
  0
LINE
  5
148D
330
1D
100
AcDbEntity
  8
0
100
AcDbLine
 10
152.0027
 20
1105.15716
 30
0.0
 11
152.6537
 21
1101.03016
 31
0.0
  0
LINE
  5
148E
330
1D
100
AcDbEntity
  8
0
100
AcDbLine
 10
152.0027
 20
1105.15716
 30
0.0
 11
152.6047
 21
1109.31516
 31
0.0
  0
LINE
  5
148F
330
1D
100
AcDbEntity
  8
0
100
AcDbLine
 10
152.6537
 20
1101.03016
 30
0.0
 11
154.1847
 21
1097.17916
 31
0.0
  0
LINE
  5
1490
330
1D
100
AcDbEntity
  8
0
100
AcDbLine
 10
157.0627
 20
644.525775
 30
0.0
 11
157.3267
 21
644.14116
 31
0.0
  0
LINE
  5
1491
330
1D
100
AcDbEntity
  8
0
100
AcDbLine
 10
157.0627
 20
644.525775
 30
0.0
 11
157.0627
 21
713.75656
 31
0.0
  0
LINE
  5
1492
330
1D
100
AcDbEntity
  8
0
100
AcDbLine
 10
157.3267
 20
644.14116
 30
0.0
 11
157.7227
 21
644.14116
 31
0.0
  0
LINE
  5
1493
330
1D
100
AcDbEntity
  8
0
100
AcDbLine
 10
157.7227
 20
644.14116
 30
0.0
 11
158.7787
 21
644.14116
 31
0.0
  0
LINE
  5
1494
330
1D
100
AcDbEntity
  8
0
100
AcDbLine
 10
157.0627
 20
713.75656
 30
0.0
 11
157.3267
 21
714.14116
 31
0.0
  0
LINE
  5
1495
330
1D
100
AcDbEntity
  8
0
100
AcDbLine
 10
157.0627
 20
713.75656
 30
0.0
 11
157.0627
 21
644.525775
 31
0.0
  0
LINE
  5
1496
330
1D
100
AcDbEntity
  8
0
100
AcDbLine
 10
157.0627
 20
714.74116
 30
0.0
 11
157.3267
 21
714.14116
 31
0.0
  0
LINE
  5
1497
330
1D
100
AcDbEntity
  8
0
100
AcDbLine
 10
157.0627
 20
714.74116
 30
0.0
 11
157.0627
 21
794.14116
 31
0.0
  0
LINE
  5
1498
330
1D
100
AcDbEntity
  8
0
100
AcDbLine
 10
157.0627
 20
794.14116
 30
0.0
 11
157.0627
 21
714.74116
 31
0.0
  0
LINE
  5
1499
330
1D
100
AcDbEntity
  8
0
100
AcDbLine
 10
157.0627
 20
794.14116
 30
0.0
 11
163.0627
 21
794.14116
 31
0.0
  0
LINE
  5
149A
330
1D
100
AcDbEntity
  8
0
100
AcDbLine
 10
157.0627
 20
812.14116
 30
0.0
 11
157.0627
 21
1023.14116
 31
0.0
  0
LINE
  5
149B
330
1D
100
AcDbEntity
  8
0
100
AcDbLine
 10
157.3267
 20
714.14116
 30
0.0
 11
157.7227
 21
714.14116
 31
0.0
  0
LINE
  5
149C
330
1D
100
AcDbEntity
  8
0
100
AcDbLine
 10
157.7227
 20
714.14116
 30
0.0
 11
158.7787
 21
714.14116
 31
0.0
  0
LINE
  5
149D
330
1D
100
AcDbEntity
  8
0
100
AcDbLine
 10
158.7787
 20
644.14116
 30
0.0
 11
160.4947
 21
644.14116
 31
0.0
  0
LINE
  5
149E
330
1D
100
AcDbEntity
  8
0
100
AcDbLine
 10
158.7787
 20
714.14116
 30
0.0
 11
160.4947
 21
714.14116
 31
0.0
  0
LINE
  5
149F
330
1D
100
AcDbEntity
  8
0
100
AcDbLine
 10
160.4947
 20
644.14116
 30
0.0
 11
162.7387
 21
644.14116
 31
0.0
  0
LINE
  5
14A0
330
1D
100
AcDbEntity
  8
0
100
AcDbLine
 10
160.4947
 20
714.14116
 30
0.0
 11
162.7387
 21
714.14116
 31
0.0
  0
LINE
  5
14A1
330
1D
100
AcDbEntity
  8
0
100
AcDbLine
 10
160.0027
 20
1091.30116
 30
0.0
 11
163.9047
 21
1089.74316
 31
0.0
  0
LINE
  5
14A2
330
1D
100
AcDbEntity
  8
0
100
AcDbLine
 10
156.7537
 20
1093.92816
 30
0.0
 11
157.0627
 21
1093.678316048015
 31
0.0
  0
LINE
  5
14A3
330
1D
100
AcDbEntity
  8
0
100
AcDbLine
 10
156.7537
 20
1093.92816
 30
0.0
 11
160.0027
 21
1091.30116
 31
0.0
  0
LINE
  5
14A4
330
1D
100
AcDbEntity
  8
0
100
AcDbLine
 10
154.1847
 20
1097.17916
 30
0.0
 11
156.7537
 21
1093.92816
 31
0.0
  0
LINE
  5
14A5
330
1D
100
AcDbEntity
  8
0
100
AcDbLine
 10
154.1627
 20
1113.21716
 30
0.0
 11
156.7897
 21
1116.46616
 31
0.0
  0
LINE
  5
14A6
330
1D
100
AcDbEntity
  8
0
100
AcDbLine
 10
161.568412050105
 20
1111.989706574245
 30
0.0
 11
169.1137
 21
1094.39516
 31
0.0
  0
LINE
  5
14A7
330
1D
100
AcDbEntity
  8
0
100
AcDbLine
 10
162.7387
 20
644.14116
 30
0.0
 11
165.2907
 21
644.14116
 31
0.0
  0
LINE
  5
14A8
330
1D
100
AcDbEntity
  8
0
100
AcDbLine
 10
163.0627
 20
794.14116
 30
0.0
 11
168.0627
 21
794.14116
 31
0.0
  0
LINE
  5
14A9
330
1D
100
AcDbEntity
  8
0
100
AcDbLine
 10
162.7387
 20
714.14116
 30
0.0
 11
165.2907
 21
714.14116
 31
0.0
  0
LINE
  5
14AA
330
1D
100
AcDbEntity
  8
0
100
AcDbLine
 10
168.0627
 20
644.14116
 30
0.0
 11
170.8347
 21
644.14116
 31
0.0
  0
LINE
  5
14AB
330
1D
100
AcDbEntity
  8
0
100
AcDbLine
 10
165.2907
 20
644.14116
 30
0.0
 11
168.0627
 21
644.14116
 31
0.0
  0
LINE
  5
14AC
330
1D
100
AcDbEntity
  8
0
100
AcDbLine
 10
168.0627
 20
714.14116
 30
0.0
 11
170.8347
 21
714.14116
 31
0.0
  0
LINE
  5
14AD
330
1D
100
AcDbEntity
  8
0
100
AcDbLine
 10
168.0627
 20
812.14116
 30
0.0
 11
171.3907
 21
812.14116
 31
0.0
  0
LINE
  5
14AE
330
1D
100
AcDbEntity
  8
0
100
AcDbLine
 10
168.0627
 20
794.14116
 30
0.0
 11
171.3907
 21
794.14116
 31
0.0
  0
LINE
  5
14AF
330
1D
100
AcDbEntity
  8
0
100
AcDbLine
 10
168.0627
 20
794.14116
 30
0.0
 11
170.8787
 21
794.14116
 31
0.0
  0
LINE
  5
14B0
330
1D
100
AcDbEntity
  8
0
100
AcDbLine
 10
165.2907
 20
714.14116
 30
0.0
 11
168.0627
 21
714.14116
 31
0.0
  0
LINE
  5
14B1
330
1D
100
AcDbEntity
  8
0
100
AcDbLine
 10
168.0627
 20
1089.14116
 30
0.0
 11
170.785868140755
 21
1089.570613115221
 31
0.0
  0
LINE
  5
14B2
330
1D
100
AcDbEntity
  8
0
100
AcDbLine
 10
163.9047
 20
1089.74316
 30
0.0
 11
168.0627
 21
1089.14116
 31
0.0
  0
LINE
  5
14B3
330
1D
100
AcDbEntity
  8
0
100
AcDbLine
 10
169.1137
 20
1094.39516
 30
0.0
 11
177.0147
 21
1071.59916
 31
0.0
  0
LINE
  5
14B4
330
1D
100
AcDbEntity
  8
0
100
AcDbLine
 10
170.8347
 20
644.14116
 30
0.0
 11
173.3867
 21
644.14116
 31
0.0
  0
LINE
  5
14B5
330
1D
100
AcDbEntity
  8
0
100
AcDbLine
 10
175.6307
 20
644.14116
 30
0.0
 11
177.3467
 21
644.14116
 31
0.0
  0
LINE
  5
14B6
330
1D
100
AcDbEntity
  8
0
100
AcDbLine
 10
173.3867
 20
644.14116
 30
0.0
 11
175.6307
 21
644.14116
 31
0.0
  0
LINE
  5
14B7
330
1D
100
AcDbEntity
  8
0
100
AcDbLine
 10
178.4027
 20
644.14116
 30
0.0
 11
178.7987
 21
644.14116
 31
0.0
  0
LINE
  5
14B8
330
1D
100
AcDbEntity
  8
0
100
AcDbLine
 10
178.7987
 20
644.14116
 30
0.0
 11
179.0627
 21
644.525775
 31
0.0
  0
LINE
  5
14B9
330
1D
100
AcDbEntity
  8
0
100
AcDbLine
 10
177.3467
 20
644.14116
 30
0.0
 11
178.4027
 21
644.14116
 31
0.0
  0
LINE
  5
14BA
330
1D
100
AcDbEntity
  8
0
100
AcDbLine
 10
179.0627
 20
644.525775
 30
0.0
 11
179.0627
 21
669.14116
 31
0.0
  0
LINE
  5
14BB
330
1D
100
AcDbEntity
  8
0
100
AcDbLine
 10
172.580033532474
 20
669.14116
 30
0.0
 11
192.745205242343
 21
669.14116
 31
0.0
  0
LINE
  5
14BC
330
1D
100
AcDbEntity
  8
0
100
AcDbLine
 10
173.5187
 20
794.14116
 30
0.0
 11
175.8507
 21
794.14116
 31
0.0
  0
LINE
  5
14BD
330
1D
100
AcDbEntity
  8
0
100
AcDbLine
 10
170.8787
 20
794.14116
 30
0.0
 11
173.5187
 21
794.14116
 31
0.0
  0
LINE
  5
14BE
330
1D
100
AcDbEntity
  8
0
100
AcDbLine
 10
178.6667
 20
794.14116
 30
0.0
 11
179.0627
 21
794.14116
 31
0.0
  0
LINE
  5
14BF
330
1D
100
AcDbEntity
  8
0
100
AcDbLine
 10
177.6107
 20
794.14116
 30
0.0
 11
178.6667
 21
794.14116
 31
0.0
  0
LINE
  5
14C0
330
1D
100
AcDbEntity
  8
0
100
AcDbLine
 10
175.8507
 20
794.14116
 30
0.0
 11
177.6107
 21
794.14116
 31
0.0
  0
LINE
  5
14C1
330
1D
100
AcDbEntity
  8
0
100
AcDbLine
 10
177.2667
 20
794.14116
 30
0.0
 11
179.3467
 21
794.14116
 31
0.0
  0
LINE
  5
14C2
330
1D
100
AcDbEntity
  8
0
100
AcDbLine
 10
174.5107
 20
794.14116
 30
0.0
 11
177.2667
 21
794.14116
 31
0.0
  0
LINE
  5
14C3
330
1D
100
AcDbEntity
  8
0
100
AcDbLine
 10
171.3907
 20
794.14116
 30
0.0
 11
174.5107
 21
794.14116
 31
0.0
  0
LINE
  5
14C4
330
1D
100
AcDbEntity
  8
0
100
AcDbLine
 10
179.0627
 20
714.74116
 30
0.0
 11
179.0627
 21
794.14116
 31
0.0
  0
LINE
  5
14C5
330
1D
100
AcDbEntity
  8
0
100
AcDbLine
 10
178.7987
 20
714.14116
 30
0.0
 11
179.0627
 21
714.74116
 31
0.0
  0
LINE
  5
14C6
330
1D
100
AcDbEntity
  8
0
100
AcDbLine
 10
177.2667
 20
812.14116
 30
0.0
 11
179.3467
 21
812.14116
 31
0.0
  0
LINE
  5
14C7
330
1D
100
AcDbEntity
  8
0
100
AcDbLine
 10
174.5107
 20
812.14116
 30
0.0
 11
177.2667
 21
812.14116
 31
0.0
  0
LINE
  5
14C8
330
1D
100
AcDbEntity
  8
0
100
AcDbLine
 10
171.3907
 20
812.14116
 30
0.0
 11
174.5107
 21
812.14116
 31
0.0
  0
LINE
  5
14C9
330
1D
100
AcDbEntity
  8
0
100
AcDbLine
 10
179.0627
 20
794.14116
 30
0.0
 11
179.0627
 21
714.74116
 31
0.0
  0
LINE
  5
14CA
330
1D
100
AcDbEntity
  8
0
100
AcDbLine
 10
179.0627
 20
794.14116
 30
0.0
 11
179.3467
 21
794.14116
 31
0.0
  0
LINE
  5
14CB
330
1D
100
AcDbEntity
  8
0
100
AcDbLine
 10
181.0627
 20
794.14116
 30
0.0
 11
181.0627
 21
812.14116
 31
0.0
  0
LINE
  5
14CC
330
1D
100
AcDbEntity
  8
0
100
AcDbLine
 10
180.5947
 20
794.14116
 30
0.0
 11
181.0627
 21
794.14116
 31
0.0
  0
LINE
  5
14CD
330
1D
100
AcDbEntity
  8
0
100
AcDbLine
 10
180.5947
 20
812.14116
 30
0.0
 11
181.0627
 21
812.14116
 31
0.0
  0
LINE
  5
14CE
330
1D
100
AcDbEntity
  8
0
100
AcDbLine
 10
179.3467
 20
812.14116
 30
0.0
 11
180.5947
 21
812.14116
 31
0.0
  0
LINE
  5
14CF
330
1D
100
AcDbEntity
  8
0
100
AcDbLine
 10
181.0627
 20
812.14116
 30
0.0
 11
181.0627
 21
794.14116
 31
0.0
  0
LINE
  5
14D0
330
1D
100
AcDbEntity
  8
0
100
AcDbLine
 10
179.3467
 20
794.14116
 30
0.0
 11
180.5947
 21
794.14116
 31
0.0
  0
LINE
  5
14D1
330
1D
100
AcDbEntity
  8
0
100
AcDbLine
 10
179.0627
 20
1023.14116
 30
0.0
 11
179.0627
 21
1063.54028
 31
0.0
  0
LINE
  5
14D2
330
1D
100
AcDbEntity
  8
0
100
AcDbLine
 10
179.0627
 20
1063.54028
 30
0.0
 11
179.0627
 21
1023.14116
 31
0.0
  0
LINE
  5
14D3
330
1D
100
AcDbEntity
  8
0
100
AcDbLine
 10
179.0627
 20
812.14116
 30
0.0
 11
179.0627
 21
1023.14116
 31
0.0
  0
LINE
  5
14D4
330
1D
100
AcDbEntity
  8
0
100
AcDbLine
 10
170.8347
 20
714.14116
 30
0.0
 11
192.710543695392
 21
714.14116
 31
0.0
  0
LINE
  5
14D5
330
1D
100
AcDbEntity
  8
0
100
AcDbLine
 10
179.0627
 20
669.14116
 30
0.0
 11
192.745205242343
 21
669.14116
 31
0.0
  0
LINE
  5
14D6
330
1D
100
AcDbEntity
  8
0
100
AcDbLine
 10
179.0627
 20
669.14116
 30
0.0
 11
179.0627
 21
644.525775
 31
0.0
  0
LINE
  5
14D7
330
1D
100
AcDbEntity
  8
0
100
AcDbLine
 10
192.5137
 20
969.69716
 30
0.0
 11
192.9157
 21
447.79316
 31
0.0
  0
LINE
  5
14D8
330
1D
100
AcDbEntity
  8
0
100
AcDbLine
 10
192.5137
 20
969.69716
 30
0.0
 11
192.9157
 21
447.79316
 31
0.0
  0
LINE
  5
14D9
330
1D
100
AcDbEntity
  8
0
100
AcDbLine
 10
201.8317
 20
444.35516
 30
0.0
 11
204.7377
 21
444.86316
 31
0.0
  0
LINE
  5
14DA
330
1D
100
AcDbEntity
  8
0
100
AcDbLine
 10
207.1297
 20
445.81416
 30
0.0
 11
208.5587
 21
447.18816
 31
0.0
  0
LINE
  5
14DB
330
1D
100
AcDbEntity
  8
0
100
AcDbLine
 10
204.7377
 20
444.86316
 30
0.0
 11
207.1297
 21
445.81416
 31
0.0
  0
LINE
  5
14DC
330
1D
100
AcDbEntity
  8
0
100
AcDbLine
 10
198.6887
 20
444.48416
 30
0.0
 11
201.8317
 21
444.35516
 31
0.0
  0
LINE
  5
14DD
330
1D
100
AcDbEntity
  8
0
100
AcDbLine
 10
195.8897
 20
445.18716
 30
0.0
 11
198.6887
 21
444.48416
 31
0.0
  0
LINE
  5
14DE
330
1D
100
AcDbEntity
  8
0
100
AcDbLine
 10
207.7917
 20
450.15816
 30
0.0
 11
208.8217
 21
448.73016
 31
0.0
  0
LINE
  5
14DF
330
1D
100
AcDbEntity
  8
0
100
AcDbLine
 10
205.8557
 20
451.33416
 30
0.0
 11
207.7917
 21
450.15816
 31
0.0
  0
LINE
  5
14E0
330
1D
100
AcDbEntity
  8
0
100
AcDbLine
 10
203.0617
 20
452.03716
 30
0.0
 11
205.8557
 21
451.33416
 31
0.0
  0
LINE
  5
14E1
330
1D
100
AcDbEntity
  8
0
100
AcDbLine
 10
199.9187
 20
452.16916
 30
0.0
 11
203.0617
 21
452.03716
 31
0.0
  0
LINE
  5
14E2
330
1D
100
AcDbEntity
  8
0
100
AcDbLine
 10
197.0087
 20
451.66316
 30
0.0
 11
199.9187
 21
452.16916
 31
0.0
  0
LINE
  5
14E3
330
1D
100
AcDbEntity
  8
0
100
AcDbLine
 10
194.6137
 20
450.71116
 30
0.0
 11
197.0087
 21
451.66316
 31
0.0
  0
LINE
  5
14E4
330
1D
100
AcDbEntity
  8
0
100
AcDbLine
 10
193.1807
 20
449.33816
 30
0.0
 11
194.6137
 21
450.71116
 31
0.0
  0
LINE
  5
14E5
330
1D
100
AcDbEntity
  8
0
100
AcDbLine
 10
208.5137
 20
969.70116
 30
0.0
 11
208.8217
 21
448.73016
 31
0.0
  0
LINE
  5
14E6
330
1D
100
AcDbEntity
  8
0
100
AcDbLine
 10
208.5137
 20
969.70116
 30
0.0
 11
208.8217
 21
448.73016
 31
0.0
  0
LINE
  5
14E7
330
1D
100
AcDbEntity
  8
0
100
AcDbLine
 10
208.5587
 20
447.18816
 30
0.0
 11
208.8217
 21
448.73016
 31
0.0
  0
LINE
  5
14E8
330
1D
100
AcDbEntity
  8
0
100
AcDbLine
 10
193.9497
 20
446.36316
 30
0.0
 11
195.8897
 21
445.18716
 31
0.0
  0
LINE
  5
14E9
330
1D
100
AcDbEntity
  8
0
100
AcDbLine
 10
192.9157
 20
447.79316
 30
0.0
 11
193.9497
 21
446.36316
 31
0.0
  0
LINE
  5
14EA
330
1D
100
AcDbEntity
  8
0
100
AcDbLine
 10
192.9157
 20
447.79316
 30
0.0
 11
193.1807
 21
449.33816
 31
0.0
  0
LINE
  5
14EB
330
1D
100
AcDbEntity
  8
0
100
AcDbLine
 10
206.5137
 20
1004.10216
 30
0.0
 11
208.5137
 21
969.70116
 31
0.0
  0
LINE
  5
14EC
330
1D
100
AcDbEntity
  8
0
100
AcDbLine
 10
190.7127
 20
1001.29916
 30
0.0
 11
192.5137
 21
969.69716
 31
0.0
  0
LINE
  5
14ED
330
1D
100
AcDbEntity
  8
0
100
AcDbLine
 10
202.8137
 20
1028.50016
 30
0.0
 11
206.5137
 21
1004.10216
 31
0.0
  0
LINE
  5
14EE
330
1D
100
AcDbEntity
  8
0
100
AcDbLine
 10
187.8137
 20
1022.99516
 30
0.0
 11
190.7127
 21
1001.29916
 31
0.0
  0
LINE
  5
14EF
330
1D
100
AcDbEntity
  8
0
100
AcDbLine
 10
197.7137
 20
1053.89816
 30
0.0
 11
202.8137
 21
1028.50016
 31
0.0
  0
LINE
  5
14F0
330
1D
100
AcDbEntity
  8
0
100
AcDbLine
 10
183.2147
 20
1047.20216
 30
0.0
 11
187.8137
 21
1022.99516
 31
0.0
  0
LINE
  5
14F1
330
1D
100
AcDbEntity
  8
0
100
AcDbLine
 10
190.9137
 20
1079.60516
 30
0.0
 11
197.7137
 21
1053.89816
 31
0.0
  0
LINE
  5
14F2
330
1D
100
AcDbEntity
  8
0
100
AcDbLine
 10
177.0147
 20
1071.59916
 30
0.0
 11
183.2147
 21
1047.20216
 31
0.0
  0
LINE
  5
14F3
330
1D
100
AcDbEntity
  8
0
100
AcDbLine
 10
161.6357
 20
1111.87316
 30
0.0
 11
163.9737
 21
1113.22316
 31
0.0
  0
LINE
  5
14F4
330
1D
100
AcDbEntity
  8
0
100
AcDbLine
 10
163.9737
 20
1113.22316
 30
0.0
 11
166.6587
 21
1114.77316
 31
0.0
  0
LINE
  5
14F5
330
1D
100
AcDbEntity
  8
0
100
AcDbLine
 10
181.8977
 20
1113.17916
 30
0.0
 11
183.4277
 21
1109.32816
 31
0.0
  0
LINE
  5
14F6
330
1D
100
AcDbEntity
  8
0
100
AcDbLine
 10
166.6587
 20
1114.77316
 30
0.0
 11
169.6027
 21
1116.47316
 31
0.0
  0
LINE
  5
14F7
330
1D
100
AcDbEntity
  8
0
100
AcDbLine
 10
183.355750482196
 20
1100.740242786603
 30
0.0
 11
183.4767
 21
1101.04316
 31
0.0
  0
LINE
  5
14F8
330
1D
100
AcDbEntity
  8
0
100
AcDbLine
 10
183.4767
 20
1101.04316
 30
0.0
 11
184.0787
 21
1105.20116
 31
0.0
  0
LINE
  5
14F9
330
1D
100
AcDbEntity
  8
0
100
AcDbLine
 10
183.4277
 20
1109.32816
 30
0.0
 11
184.0787
 21
1105.20116
 31
0.0
  0
LINE
  5
14FA
330
1D
100
AcDbEntity
  8
0
100
AcDbLine
 10
182.5147
 20
1103.09216
 30
0.0
 11
190.9137
 21
1079.60516
 31
0.0
  0
LINE
  5
14FB
330
1D
100
AcDbEntity
  8
0
100
AcDbLine
 10
161.568412050105
 20
1111.989706574245
 30
0.0
 11
169.1137
 21
1094.39516
 31
0.0
  0
LINE
  5
14FC
330
1D
100
AcDbEntity
  8
0
100
AcDbLine
 10
157.0627
 20
1093.537128859478
 30
0.0
 11
157.0627
 21
1023.14116
 31
0.0
  0
LINE
  5
14FD
330
1D
100
AcDbEntity
  8
0
100
AcDbLine
 10
156.7897
 20
1116.46616
 30
0.0
 11
157.628256091299
 21
1117.12880244803
 31
0.0
  0
LINE
  5
14FE
330
1D
100
AcDbEntity
  8
0
100
AcDbLine
 10
156.7897
 20
1116.46616
 30
0.0
 11
157.0627
 21
1116.681889621655
 31
0.0
  0
LINE
  5
14FF
330
1D
100
AcDbEntity
  8
0
100
AcDbLine
 10
179.3277
 20
1116.43016
 30
0.0
 11
181.8977
 21
1113.17916
 31
0.0
  0
LINE
  5
1500
330
1D
100
AcDbEntity
  8
0
100
AcDbLine
 10
174.944866695237
 20
1119.509879704977
 30
0.0
 11
176.0787
 21
1119.05716
 31
0.0
  0
LINE
  5
1501
330
1D
100
AcDbEntity
  8
0
100
AcDbLine
 10
176.0787
 20
1119.05716
 30
0.0
 11
179.3277
 21
1116.43016
 31
0.0
  0
LINE
  5
1502
330
1D
100
AcDbEntity
  8
0
100
AcDbLine
 10
179.0627
 20
1116.644427466913
 30
0.0
 11
179.3277
 21
1116.43016
 31
0.0
  0
LINE
  5
1503
330
1D
100
AcDbEntity
  8
0
100
AcDbLine
 10
172.5477
 20
1118.17316
 30
0.0
 11
175.2317
 21
1119.72316
 31
0.0
  0
LINE
  5
1504
330
1D
100
AcDbEntity
  8
0
100
AcDbLine
 10
169.6027
 20
1116.47316
 30
0.0
 11
172.5477
 21
1118.17316
 31
0.0
  0
LINE
  5
1505
330
1D
100
AcDbEntity
  8
0
100
AcDbLine
 10
159.095765129815
 20
1116.272472334296
 30
0.0
 11
161.568412050105
 21
1111.989706574245
 31
0.0
  0
LINE
  5
1506
330
1D
100
AcDbEntity
  8
0
100
AcDbLine
 10
174.963300000113
 20
1119.568160000065
 30
0.0
 11
175.591546153429
 21
1119.930852307451
 31
0.0
  0
LINE
  5
1507
330
1D
100
AcDbEntity
  8
0
100
AcDbLine
 10
174.963300000114
 20
1119.568160000066
 30
0.0
 11
175.591546153429
 21
1119.930852307452
 31
0.0
  0
LINE
  5
1508
330
1D
100
AcDbEntity
  8
0
100
AcDbLine
 10
175.2317
 20
1119.72316
 30
0.0
 11
177.5707
 21
1121.07316
 31
0.0
  0
LINE
  5
1509
330
1D
100
AcDbEntity
  8
0
100
AcDbLine
 10
177.278325000386
 20
1120.904410000223
 30
0.0
 11
177.8307
 21
1121.22316
 31
0.0
  0
LINE
  5
150A
330
1D
100
AcDbEntity
  8
0
100
AcDbLine
 10
177.278325000389
 20
1120.904410000224
 30
0.0
 11
177.8307
 21
1121.22316
 31
0.0
  0
LINE
  5
150B
330
1D
100
AcDbEntity
  8
0
100
AcDbLine
 10
179.0627
 20
1121.934402440902
 30
0.0
 11
179.0627
 21
1116.644427466913
 31
0.0
  0
LINE
  5
150C
330
1D
100
AcDbEntity
  8
0
100
AcDbLine
 10
177.8307
 20
1121.22316
 30
0.0
 11
178.480199999527
 21
1121.598159999727
 31
0.0
  0
LINE
  5
150D
330
1D
100
AcDbEntity
  8
0
100
AcDbLine
 10
177.8307
 20
1121.22316
 30
0.0
 11
178.480199999528
 21
1121.598159999728
 31
0.0
  0
LINE
  5
150E
330
1D
100
AcDbEntity
  8
0
100
AcDbLine
 10
177.5707
 20
1121.07316
 30
0.0
 11
179.3897
 21
1122.12316
 31
0.0
  0
LINE
  5
150F
330
1D
100
AcDbEntity
  8
0
100
AcDbLine
 10
179.3897
 20
1122.12316
 30
0.0
 11
180.4287
 21
1122.72316
 31
0.0
  0
LINE
  5
1510
330
1D
100
AcDbEntity
  8
0
100
AcDbLine
 10
179.0627
 20
1126.0891308
 30
0.0
 11
179.0627
 21
1331.54116
 31
0.0
  0
LINE
  5
1511
330
1D
100
AcDbEntity
  8
0
100
AcDbLine
 10
180.4287
 20
1122.72316
 30
0.0
 11
180.8617
 21
1122.97316
 31
0.0
  0
LINE
  5
1512
330
1D
100
AcDbEntity
  8
0
100
AcDbLine
 10
174.92752169029
 20
1119.547498159445
 30
0.0
 11
182.5147
 21
1103.09216
 31
0.0
  0
LINE
  5
1513
330
1D
100
AcDbEntity
  8
0
100
AcDbLine
 10
158.7767
 20
1116.08816
 30
0.0
 11
159.095765129815
 21
1116.272472334296
 31
0.0
  0
LINE
  5
1514
330
1D
100
AcDbEntity
  8
0
100
AcDbLine
 10
158.4297
 20
1115.88816
 30
0.0
 11
158.7767
 21
1116.08816
 31
0.0
  0
LINE
  5
1515
330
1D
100
AcDbEntity
  8
0
100
AcDbLine
 10
142.794120920662
 20
1140.092178390746
 30
0.0
 11
158.4297
 21
1115.88816
 31
0.0
  0
LINE
  5
1516
330
1D
100
AcDbEntity
  8
0
100
AcDbLine
 10
157.0627
 20
1166.918305197319
 30
0.0
 11
157.0627
 21
1331.54116
 31
0.0
  0
LINE
  5
1517
330
1D
100
AcDbEntity
  8
0
100
AcDbLine
 10
163.505745003375
 20
1153.034665823011
 30
0.0
 11
180.8617
 21
1122.97316
 31
0.0
  0
LINE
  5
1518
330
1D
100
AcDbEntity
  8
0
100
AcDbLine
 10
163.505745003375
 20
1153.034665823011
 30
0.0
 11
180.8617
 21
1122.97316
 31
0.0
  0
LINE
  5
1519
330
1D
100
AcDbEntity
  8
0
100
AcDbLine
 10
157.0627
 20
1331.54116
 30
0.0
 11
157.3267
 21
1332.14116
 31
0.0
  0
LINE
  5
151A
330
1D
100
AcDbEntity
  8
0
100
AcDbLine
 10
157.3267
 20
1332.14116
 30
0.0
 11
157.7227
 21
1332.14116
 31
0.0
  0
LINE
  5
151B
330
1D
100
AcDbEntity
  8
0
100
AcDbLine
 10
157.0627
 20
1332.52616
 30
0.0
 11
157.3267
 21
1332.14116
 31
0.0
  0
LINE
  5
151C
330
1D
100
AcDbEntity
  8
0
100
AcDbLine
 10
157.0627
 20
1332.52616
 30
0.0
 11
157.0627
 21
1401.75616
 31
0.0
  0
LINE
  5
151D
330
1D
100
AcDbEntity
  8
0
100
AcDbLine
 10
157.7227
 20
1332.14116
 30
0.0
 11
158.7787
 21
1332.14116
 31
0.0
  0
LINE
  5
151E
330
1D
100
AcDbEntity
  8
0
100
AcDbLine
 10
158.7787
 20
1332.14116
 30
0.0
 11
160.4947
 21
1332.14116
 31
0.0
  0
LINE
  5
151F
330
1D
100
AcDbEntity
  8
0
100
AcDbLine
 10
160.4947
 20
1332.14116
 30
0.0
 11
162.7387
 21
1332.14116
 31
0.0
  0
LINE
  5
1520
330
1D
100
AcDbEntity
  8
0
100
AcDbLine
 10
162.7387
 20
1332.14116
 30
0.0
 11
165.2907
 21
1332.14116
 31
0.0
  0
LINE
  5
1521
330
1D
100
AcDbEntity
  8
0
100
AcDbLine
 10
203.0627
 20
1332.14116
 30
0.0
 11
203.0627
 21
1377.14116
 31
0.0
  0
LINE
  5
1522
330
1D
100
AcDbEntity
  8
0
100
AcDbLine
 10
178.7987
 20
1332.14116
 30
0.0
 11
179.0627
 21
1331.54116
 31
0.0
  0
LINE
  5
1523
330
1D
100
AcDbEntity
  8
0
100
AcDbLine
 10
178.7987
 20
1332.14116
 30
0.0
 11
203.0627
 21
1332.14116
 31
0.0
  0
LINE
  5
1524
330
1D
100
AcDbEntity
  8
0
100
AcDbLine
 10
178.4027
 20
1332.14116
 30
0.0
 11
178.7987
 21
1332.14116
 31
0.0
  0
LINE
  5
1525
330
1D
100
AcDbEntity
  8
0
100
AcDbLine
 10
177.3467
 20
1332.14116
 30
0.0
 11
178.4027
 21
1332.14116
 31
0.0
  0
LINE
  5
1526
330
1D
100
AcDbEntity
  8
0
100
AcDbLine
 10
175.6307
 20
1332.14116
 30
0.0
 11
177.3467
 21
1332.14116
 31
0.0
  0
LINE
  5
1527
330
1D
100
AcDbEntity
  8
0
100
AcDbLine
 10
173.3867
 20
1332.14116
 30
0.0
 11
175.6307
 21
1332.14116
 31
0.0
  0
LINE
  5
1528
330
1D
100
AcDbEntity
  8
0
100
AcDbLine
 10
170.8347
 20
1332.14116
 30
0.0
 11
173.3867
 21
1332.14116
 31
0.0
  0
LINE
  5
1529
330
1D
100
AcDbEntity
  8
0
100
AcDbLine
 10
170.8347
 20
1332.14116
 30
0.0
 11
203.0627
 21
1332.14116
 31
0.0
  0
LINE
  5
152A
330
1D
100
AcDbEntity
  8
0
100
AcDbLine
 10
168.0627
 20
1332.14116
 30
0.0
 11
170.8347
 21
1332.14116
 31
0.0
  0
LINE
  5
152B
330
1D
100
AcDbEntity
  8
0
100
AcDbLine
 10
165.2907
 20
1332.14116
 30
0.0
 11
168.0627
 21
1332.14116
 31
0.0
  0
LINE
  5
152C
330
1D
100
AcDbEntity
  8
0
100
AcDbLine
 10
157.0627
 20
1401.75616
 30
0.0
 11
157.0627
 21
1332.52616
 31
0.0
  0
LINE
  5
152D
330
1D
100
AcDbEntity
  8
0
100
AcDbLine
 10
157.0627
 20
1401.75616
 30
0.0
 11
157.3267
 21
1402.14116
 31
0.0
  0
LINE
  5
152E
330
1D
100
AcDbEntity
  8
0
100
AcDbLine
 10
157.3267
 20
1402.14116
 30
0.0
 11
157.7227
 21
1402.14116
 31
0.0
  0
LINE
  5
152F
330
1D
100
AcDbEntity
  8
0
100
AcDbLine
 10
157.7227
 20
1402.14116
 30
0.0
 11
158.7787
 21
1402.14116
 31
0.0
  0
LINE
  5
1530
330
1D
100
AcDbEntity
  8
0
100
AcDbLine
 10
158.7787
 20
1402.14116
 30
0.0
 11
160.4947
 21
1402.14116
 31
0.0
  0
LINE
  5
1531
330
1D
100
AcDbEntity
  8
0
100
AcDbLine
 10
160.4947
 20
1402.14116
 30
0.0
 11
162.7387
 21
1402.14116
 31
0.0
  0
LINE
  5
1532
330
1D
100
AcDbEntity
  8
0
100
AcDbLine
 10
162.7387
 20
1402.14116
 30
0.0
 11
165.2907
 21
1402.14116
 31
0.0
  0
LINE
  5
1533
330
1D
100
AcDbEntity
  8
0
100
AcDbLine
 10
168.0627
 20
1402.14116
 30
0.0
 11
170.8347
 21
1402.14116
 31
0.0
  0
LINE
  5
1534
330
1D
100
AcDbEntity
  8
0
100
AcDbLine
 10
171.817362429583
 20
1377.14116
 30
0.0
 11
203.0627
 21
1377.14116
 31
0.0
  0
LINE
  5
1535
330
1D
100
AcDbEntity
  8
0
100
AcDbLine
 10
203.0627
 20
1377.14116
 30
0.0
 11
203.0627
 21
1332.14116
 31
0.0
  0
LINE
  5
1536
330
1D
100
AcDbEntity
  8
0
100
AcDbLine
 10
179.0627
 20
1401.75616
 30
0.0
 11
179.0627
 21
1377.14116
 31
0.0
  0
LINE
  5
1537
330
1D
100
AcDbEntity
  8
0
100
AcDbLine
 10
179.0627
 20
1377.14116
 30
0.0
 11
179.0627
 21
1401.75616
 31
0.0
  0
LINE
  5
1538
330
1D
100
AcDbEntity
  8
0
100
AcDbLine
 10
178.7987
 20
1402.14116
 30
0.0
 11
179.0627
 21
1401.75616
 31
0.0
  0
LINE
  5
1539
330
1D
100
AcDbEntity
  8
0
100
AcDbLine
 10
178.4027
 20
1402.14116
 30
0.0
 11
178.7987
 21
1402.14116
 31
0.0
  0
LINE
  5
153A
330
1D
100
AcDbEntity
  8
0
100
AcDbLine
 10
177.3467
 20
1402.14116
 30
0.0
 11
178.4027
 21
1402.14116
 31
0.0
  0
LINE
  5
153B
330
1D
100
AcDbEntity
  8
0
100
AcDbLine
 10
175.6307
 20
1402.14116
 30
0.0
 11
177.3467
 21
1402.14116
 31
0.0
  0
LINE
  5
153C
330
1D
100
AcDbEntity
  8
0
100
AcDbLine
 10
173.3867
 20
1402.14116
 30
0.0
 11
175.6307
 21
1402.14116
 31
0.0
  0
LINE
  5
153D
330
1D
100
AcDbEntity
  8
0
100
AcDbLine
 10
170.8347
 20
1402.14116
 30
0.0
 11
173.3867
 21
1402.14116
 31
0.0
  0
LINE
  5
153E
330
1D
100
AcDbEntity
  8
0
100
AcDbLine
 10
165.2907
 20
1402.14116
 30
0.0
 11
168.0627
 21
1402.14116
 31
0.0
  0
LINE
  5
153F
330
1D
100
AcDbEntity
  8
0
100
AcDbLine
 10
33.052795223068
 20
1278.672635396485
 30
0.0
 11
34.056895223068
 21
1277.896635396485
 31
0.0
  0
LINE
  5
1540
330
1D
100
AcDbEntity
  8
0
100
AcDbLine
 10
33.511095223068
 20
1276.078635396485
 30
0.0
 11
33.822982219237
 21
1275.80072332834
 31
0.0
  0
LINE
  5
1541
330
1D
100
AcDbEntity
  8
0
100
AcDbLine
 10
33.422495223068
 20
1276.158635396485
 30
0.0
 11
33.511095223068
 21
1276.078635396485
 31
0.0
  0
LINE
  5
1542
330
1D
100
AcDbEntity
  8
0
100
AcDbLine
 10
33.867895223068
 20
1276.275635396485
 30
0.0
 11
34.312095223068
 21
1275.742635396485
 31
0.0
  0
LINE
  5
1543
330
1D
100
AcDbEntity
  8
0
100
AcDbLine
 10
33.758695223068
 20
1276.534635396485
 30
0.0
 11
34.050095223068
 21
1276.441635396485
 31
0.0
  0
LINE
  5
1544
330
1D
100
AcDbEntity
  8
0
100
AcDbLine
 10
33.758695223068
 20
1276.534635396485
 30
0.0
 11
33.867895223068
 21
1276.275635396485
 31
0.0
  0
LINE
  5
1545
330
1D
100
AcDbEntity
  8
0
100
AcDbLine
 10
32.273595223068
 20
1279.189635396485
 30
0.0
 11
33.052795223068
 21
1278.672635396485
 31
0.0
  0
LINE
  5
1546
330
1D
100
AcDbEntity
  8
0
100
AcDbLine
 10
37.362095223068
 20
1272.010635396485
 30
0.0
 11
38.013245032644
 21
1271.468734035134
 31
0.0
  0
LINE
  5
1547
330
1D
100
AcDbEntity
  8
0
100
AcDbLine
 10
37.697495223068
 20
1272.079635396485
 30
0.0
 11
38.706795223068
 21
1271.001635396485
 31
0.0
  0
LINE
  5
1548
330
1D
100
AcDbEntity
  8
0
100
AcDbLine
 10
38.013245032644
 20
1271.468734035134
 30
0.0
 11
38.338595223068
 21
1271.177635396485
 31
0.0
  0
LINE
  5
1549
330
1D
100
AcDbEntity
  8
0
100
AcDbLine
 10
38.772395223068
 20
1270.835635396485
 30
0.0
 11
39.839609208329
 21
1271.504560700979
 31
0.0
  0
LINE
  5
154A
330
1D
100
AcDbEntity
  8
0
100
AcDbLine
 10
38.706795223068
 20
1271.001635396485
 30
0.0
 11
38.772395223068
 21
1270.835635396485
 31
0.0
  0
LINE
  5
154B
330
1D
100
AcDbEntity
  8
0
100
AcDbLine
 10
36.750995223068
 20
1272.634635396485
 30
0.0
 11
36.967918049377
 21
1272.425266632485
 31
0.0
  0
LINE
  5
154C
330
1D
100
AcDbEntity
  8
0
100
AcDbLine
 10
39.260010811489
 20
1271.093013043388
 30
0.0
 11
40.177795223068
 21
1270.324635396485
 31
0.0
  0
LINE
  5
154D
330
1D
100
AcDbEntity
  8
0
100
AcDbLine
 10
39.839609208329
 20
1271.504560700979
 30
0.0
 11
41.087595223068
 21
1270.204635396485
 31
0.0
  0
LINE
  5
154E
330
1D
100
AcDbEntity
  8
0
100
AcDbLine
 10
39.554195223068
 20
1272.426635396485
 30
0.0
 11
40.570044919823
 21
1273.637184350615
 31
0.0
  0
LINE
  5
154F
330
1D
100
AcDbEntity
  8
0
100
AcDbLine
 10
39.209495223068
 20
1272.715635396485
 30
0.0
 11
39.554195223068
 21
1272.426635396485
 31
0.0
  0
LINE
  5
1550
330
1D
100
AcDbEntity
  8
0
100
AcDbLine
 10
36.785995223068
 20
1273.021635396485
 30
0.0
 11
37.697495223068
 21
1272.079635396485
 31
0.0
  0
LINE
  5
1551
330
1D
100
AcDbEntity
  8
0
100
AcDbLine
 10
39.857281584739
 20
1272.787811739111
 30
0.0
 11
40.543195223068
 21
1272.175635396485
 31
0.0
  0
LINE
  5
1552
330
1D
100
AcDbEntity
  8
0
100
AcDbLine
 10
35.872395223068
 20
1273.574635396485
 30
0.0
 11
36.313695223068
 21
1273.057635396485
 31
0.0
  0
LINE
  5
1553
330
1D
100
AcDbEntity
  8
0
100
AcDbLine
 10
37.256095223068
 20
1274.354635396485
 30
0.0
 11
37.600795223068
 21
1274.065635396485
 31
0.0
  0
LINE
  5
1554
330
1D
100
AcDbEntity
  8
0
100
AcDbLine
 10
37.256095223068
 20
1274.354635396485
 30
0.0
 11
38.373236731766
 21
1275.685931323027
 31
0.0
  0
LINE
  5
1555
330
1D
100
AcDbEntity
  8
0
100
AcDbLine
 10
35.959795223068
 20
1273.832635396485
 30
0.0
 11
36.785995223068
 21
1273.021635396485
 31
0.0
  0
LINE
  5
1556
330
1D
100
AcDbEntity
  8
0
100
AcDbLine
 10
35.441895223068
 20
1274.283635396485
 30
0.0
 11
35.959795223068
 21
1273.832635396485
 31
0.0
  0
LINE
  5
1557
330
1D
100
AcDbEntity
  8
0
100
AcDbLine
 10
35.441895223068
 20
1274.283635396485
 30
0.0
 11
35.962159290064
 21
1275.019143848786
 31
0.0
  0
LINE
  5
1558
330
1D
100
AcDbEntity
  8
0
100
AcDbLine
 10
35.441895223068
 20
1274.283635396485
 30
0.0
 11
35.962159290064
 21
1275.019143848786
 31
0.0
  0
LINE
  5
1559
330
1D
100
AcDbEntity
  8
0
100
AcDbLine
 10
37.600795223068
 20
1274.065635396485
 30
0.0
 11
38.405195223068
 21
1273.390635396485
 31
0.0
  0
LINE
  5
155A
330
1D
100
AcDbEntity
  8
0
100
AcDbLine
 10
38.405195223068
 20
1273.390635396485
 30
0.0
 11
39.209495223068
 21
1272.715635396485
 31
0.0
  0
LINE
  5
155B
330
1D
100
AcDbEntity
  8
0
100
AcDbLine
 10
37.295895223068
 20
1273.910635396485
 30
0.0
 11
38.112995223068
 21
1273.179635396485
 31
0.0
  0
LINE
  5
155C
330
1D
100
AcDbEntity
  8
0
100
AcDbLine
 10
38.112995223068
 20
1273.179635396485
 30
0.0
 11
39.839609208329
 21
1271.504560700979
 31
0.0
  0
LINE
  5
155D
330
1D
100
AcDbEntity
  8
0
100
AcDbLine
 10
35.091895223068
 20
1274.666635396485
 30
0.0
 11
35.470689362887
 21
1274.324342288536
 31
0.0
  0
LINE
  5
155E
330
1D
100
AcDbEntity
  8
0
100
AcDbLine
 10
40.177795223068
 20
1270.324635396485
 30
0.0
 11
40.982195223068
 21
1269.705635396485
 31
0.0
  0
LINE
  5
155F
330
1D
100
AcDbEntity
  8
0
100
AcDbLine
 10
35.048095223068
 20
1274.972635396485
 30
0.0
 11
35.568725490297
 21
1274.462938061175
 31
0.0
  0
LINE
  5
1560
330
1D
100
AcDbEntity
  8
0
100
AcDbLine
 10
34.312095223068
 20
1275.742635396485
 30
0.0
 11
35.048095223068
 21
1274.972635396485
 31
0.0
  0
LINE
  5
1561
330
1D
100
AcDbEntity
  8
0
100
AcDbLine
 10
35.620641642504
 20
1276.566939152257
 30
0.0
 11
37.612095223068
 21
1274.791635396485
 31
0.0
  0
LINE
  5
1562
330
1D
100
AcDbEntity
  8
0
100
AcDbLine
 10
35.265195223068
 20
1276.871635396485
 30
0.0
 11
35.620641642501
 21
1276.566939152259
 31
0.0
  0
LINE
  5
1563
330
1D
100
AcDbEntity
  8
0
100
AcDbLine
 10
34.050095223068
 20
1276.441635396485
 30
0.0
 11
34.498195223068
 21
1276.153635396485
 31
0.0
  0
LINE
  5
1564
330
1D
100
AcDbEntity
  8
0
100
AcDbLine
 10
34.498195223068
 20
1276.153635396485
 30
0.0
 11
35.404495223068
 21
1275.482635396485
 31
0.0
  0
LINE
  5
1565
330
1D
100
AcDbEntity
  8
0
100
AcDbLine
 10
35.404495223068
 20
1275.482635396485
 30
0.0
 11
37.295895223068
 21
1273.910635396485
 31
0.0
  0
LINE
  5
1566
330
1D
100
AcDbEntity
  8
0
100
AcDbLine
 10
35.496895223068
 20
1278.402635396485
 30
0.0
 11
36.502781518017
 21
1279.601311348462
 31
0.0
  0
LINE
  5
1567
330
1D
100
AcDbEntity
  8
0
100
AcDbLine
 10
34.347895223068
 20
1279.366635396485
 30
0.0
 11
35.152195223068
 21
1278.691635396485
 31
0.0
  0
LINE
  5
1568
330
1D
100
AcDbEntity
  8
0
100
AcDbLine
 10
35.152195223068
 20
1278.691635396485
 30
0.0
 11
35.496895223068
 21
1278.402635396485
 31
0.0
  0
LINE
  5
1569
330
1D
100
AcDbEntity
  8
0
100
AcDbLine
 10
36.772295223068
 20
1278.613635396485
 30
0.0
 11
36.926595223068
 21
1278.749635396485
 31
0.0
  0
LINE
  5
156A
330
1D
100
AcDbEntity
  8
0
100
AcDbLine
 10
35.695519412794
 20
1278.63932819258
 30
0.0
 11
38.044895223068
 21
1276.570635396485
 31
0.0
  0
LINE
  5
156B
330
1D
100
AcDbEntity
  8
0
100
AcDbLine
 10
36.276595223068
 20
1278.779635396485
 30
0.0
 11
36.772295223068
 21
1278.613635396485
 31
0.0
  0
LINE
  5
156C
330
1D
100
AcDbEntity
  8
0
100
AcDbLine
 10
35.985562395052
 20
1278.984961242377
 30
0.0
 11
36.276595223068
 21
1278.779635396485
 31
0.0
  0
LINE
  5
156D
330
1D
100
AcDbEntity
  8
0
100
AcDbLine
 10
36.823995223068
 20
1279.110635396485
 30
0.0
 11
36.926595223068
 21
1278.749635396485
 31
0.0
  0
LINE
  5
156E
330
1D
100
AcDbEntity
  8
0
100
AcDbLine
 10
34.056895223068
 20
1277.896635396485
 30
0.0
 11
35.265195223068
 21
1276.871635396485
 31
0.0
  0
LINE
  5
156F
330
1D
100
AcDbEntity
  8
0
100
AcDbLine
 10
37.495295223068
 20
1275.599635396485
 30
0.0
 11
37.912055067439
 21
1275.136341798035
 31
0.0
  0
LINE
  5
1570
330
1D
100
AcDbEntity
  8
0
100
AcDbLine
 10
38.805595223068
 20
1275.364635396485
 30
0.0
 11
39.592395223068
 21
1274.695635396485
 31
0.0
  0
LINE
  5
1571
330
1D
100
AcDbEntity
  8
0
100
AcDbLine
 10
38.012995223068
 20
1275.953635396485
 30
0.0
 11
38.805595223068
 21
1275.364635396485
 31
0.0
  0
LINE
  5
1572
330
1D
100
AcDbEntity
  8
0
100
AcDbLine
 10
37.434195223068
 20
1276.233635396485
 30
0.0
 11
38.012995223068
 21
1275.953635396485
 31
0.0
  0
LINE
  5
1573
330
1D
100
AcDbEntity
  8
0
100
AcDbLine
 10
37.180595223068
 20
1276.178635396485
 30
0.0
 11
37.495295223068
 21
1275.599635396485
 31
0.0
  0
LINE
  5
1574
330
1D
100
AcDbEntity
  8
0
100
AcDbLine
 10
37.180595223068
 20
1276.178635396485
 30
0.0
 11
37.434195223068
 21
1276.233635396485
 31
0.0
  0
LINE
  5
1575
330
1D
100
AcDbEntity
  8
0
100
AcDbLine
 10
39.264295223068
 20
1277.237635396485
 30
0.0
 11
39.608995223068
 21
1276.948635396485
 31
0.0
  0
LINE
  5
1576
330
1D
100
AcDbEntity
  8
0
100
AcDbLine
 10
39.264295223068
 20
1277.237635396485
 30
0.0
 11
40.445102708906
 21
1278.644801976267
 31
0.0
  0
LINE
  5
1577
330
1D
100
AcDbEntity
  8
0
100
AcDbLine
 10
38.044895223068
 20
1276.570635396485
 30
0.0
 11
42.589395223068
 21
1272.510635396485
 31
0.0
  0
LINE
  5
1578
330
1D
100
AcDbEntity
  8
0
100
AcDbLine
 10
39.608995223068
 20
1276.948635396485
 30
0.0
 11
40.413395223068
 21
1276.273635396485
 31
0.0
  0
LINE
  5
1579
330
1D
100
AcDbEntity
  8
0
100
AcDbLine
 10
40.175895223068
 20
1278.775635396485
 30
0.0
 11
41.011295223068
 21
1278.369635396485
 31
0.0
  0
LINE
  5
157A
330
1D
100
AcDbEntity
  8
0
100
AcDbLine
 10
39.778695223068
 20
1278.577635396485
 30
0.0
 11
40.003804364951
 21
1278.118907375518
 31
0.0
  0
LINE
  5
157B
330
1D
100
AcDbEntity
  8
0
100
AcDbLine
 10
39.778695223068
 20
1278.577635396485
 30
0.0
 11
40.175895223068
 21
1278.775635396485
 31
0.0
  0
LINE
  5
157C
330
1D
100
AcDbEntity
  8
0
100
AcDbLine
 10
39.592395223068
 20
1274.695635396485
 30
0.0
 11
40.528195223068
 21
1273.702635396485
 31
0.0
  0
LINE
  5
157D
330
1D
100
AcDbEntity
  8
0
100
AcDbLine
 10
27.246795223068
 20
1282.073635396485
 30
0.0
 11
27.806480737808
 21
1282.740611818108
 31
0.0
  0
LINE
  5
157E
330
1D
100
AcDbEntity
  8
0
100
AcDbLine
 10
26.641495223068
 20
1282.117635396485
 30
0.0
 11
26.869814560747
 21
1282.389723222276
 31
0.0
  0
LINE
  5
157F
330
1D
100
AcDbEntity
  8
0
100
AcDbLine
 10
26.097695223068
 20
1283.037635396485
 30
0.0
 11
26.902095223068
 21
1282.362635396485
 31
0.0
  0
LINE
  5
1580
330
1D
100
AcDbEntity
  8
0
100
AcDbLine
 10
25.492395223068
 20
1283.081635396485
 30
0.0
 11
26.296795223068
 21
1282.406635396485
 31
0.0
  0
LINE
  5
1581
330
1D
100
AcDbEntity
  8
0
100
AcDbLine
 10
26.902095223068
 20
1282.362635396485
 30
0.0
 11
27.246795223068
 21
1282.073635396485
 31
0.0
  0
LINE
  5
1582
330
1D
100
AcDbEntity
  8
0
100
AcDbLine
 10
26.296795223068
 20
1282.406635396485
 30
0.0
 11
26.641495223068
 21
1282.117635396485
 31
0.0
  0
LINE
  5
1583
330
1D
100
AcDbEntity
  8
0
100
AcDbLine
 10
27.436929057072
 20
1282.300217612557
 30
0.0
 11
27.482495223068
 21
1282.254635396485
 31
0.0
  0
LINE
  5
1584
330
1D
100
AcDbEntity
  8
0
100
AcDbLine
 10
27.482495223068
 20
1282.254635396485
 30
0.0
 11
29.867195223068
 21
1279.905635396485
 31
0.0
  0
LINE
  5
1585
330
1D
100
AcDbEntity
  8
0
100
AcDbLine
 10
27.920195223068
 20
1282.409635396485
 30
0.0
 11
28.264995223068
 21
1282.120635396485
 31
0.0
  0
LINE
  5
1586
330
1D
100
AcDbEntity
  8
0
100
AcDbLine
 10
27.920195223068
 20
1282.409635396485
 30
0.0
 11
28.866485344735
 21
1283.537587311889
 31
0.0
  0
LINE
  5
1587
330
1D
100
AcDbEntity
  8
0
100
AcDbLine
 10
28.264995223068
 20
1282.120635396485
 30
0.0
 11
28.354415455014
 21
1282.045590442409
 31
0.0
  0
LINE
  5
1588
330
1D
100
AcDbEntity
  8
0
100
AcDbLine
 10
28.264995223068
 20
1282.120635396485
 30
0.0
 11
29.069295223068
 21
1281.445635396485
 31
0.0
  0
LINE
  5
1589
330
1D
100
AcDbEntity
  8
0
100
AcDbLine
 10
27.475495223068
 20
1283.105635396485
 30
0.0
 11
27.905295223068
 21
1282.631635396485
 31
0.0
  0
LINE
  5
158A
330
1D
100
AcDbEntity
  8
0
100
AcDbLine
 10
27.905295223068
 20
1282.631635396485
 30
0.0
 11
28.005087081501
 21
1282.51082416738
 31
0.0
  0
LINE
  5
158B
330
1D
100
AcDbEntity
  8
0
100
AcDbLine
 10
27.437034846834
 20
1282.300343682064
 30
0.0
 11
27.482495223068
 21
1282.254635396485
 31
0.0
  0
LINE
  5
158C
330
1D
100
AcDbEntity
  8
0
100
AcDbLine
 10
25.293395223068
 20
1283.712635396485
 30
0.0
 11
26.097695223068
 21
1283.037635396485
 31
0.0
  0
LINE
  5
158D
330
1D
100
AcDbEntity
  8
0
100
AcDbLine
 10
24.948595223068
 20
1284.001635396485
 30
0.0
 11
25.293395223068
 21
1283.712635396485
 31
0.0
  0
LINE
  5
158E
330
1D
100
AcDbEntity
  8
0
100
AcDbLine
 10
24.948595223068
 20
1284.001635396485
 30
0.0
 11
25.679894294321
 21
1284.873096330804
 31
0.0
  0
LINE
  5
158F
330
1D
100
AcDbEntity
  8
0
100
AcDbLine
 10
24.688095223068
 20
1283.756635396485
 30
0.0
 11
25.492395223068
 21
1283.081635396485
 31
0.0
  0
LINE
  5
1590
330
1D
100
AcDbEntity
  8
0
100
AcDbLine
 10
24.343395223068
 20
1284.045635396485
 30
0.0
 11
24.688095223068
 21
1283.756635396485
 31
0.0
  0
LINE
  5
1591
330
1D
100
AcDbEntity
  8
0
100
AcDbLine
 10
24.343395223068
 20
1284.045635396485
 30
0.0
 11
24.977993771944
 21
1284.801885572967
 31
0.0
  0
LINE
  5
1592
330
1D
100
AcDbEntity
  8
0
100
AcDbLine
 10
26.975595223068
 20
1283.626635396485
 30
0.0
 11
27.475495223068
 21
1283.105635396485
 31
0.0
  0
LINE
  5
1593
330
1D
100
AcDbEntity
  8
0
100
AcDbLine
 10
28.582595223068
 20
1283.716635396485
 30
0.0
 11
29.142295223068
 21
1283.363635396485
 31
0.0
  0
LINE
  5
1594
330
1D
100
AcDbEntity
  8
0
100
AcDbLine
 10
28.453095223068
 20
1283.590635396485
 30
0.0
 11
28.582595223068
 21
1283.716635396485
 31
0.0
  0
LINE
  5
1595
330
1D
100
AcDbEntity
  8
0
100
AcDbLine
 10
28.453095223068
 20
1283.590635396485
 30
0.0
 11
28.657909628254
 21
1283.288970768691
 31
0.0
  0
LINE
  5
1596
330
1D
100
AcDbEntity
  8
0
100
AcDbLine
 10
29.069295223068
 20
1281.445635396485
 30
0.0
 11
29.873695223068
 21
1280.770635396485
 31
0.0
  0
LINE
  5
1597
330
1D
100
AcDbEntity
  8
0
100
AcDbLine
 10
29.142295223068
 20
1283.363635396485
 30
0.0
 11
30.270495223068
 21
1282.361635396485
 31
0.0
  0
LINE
  5
1598
330
1D
100
AcDbEntity
  8
0
100
AcDbLine
 10
29.873695223068
 20
1280.770635396485
 30
0.0
 11
30.218395223068
 21
1280.481635396485
 31
0.0
  0
LINE
  5
1599
330
1D
100
AcDbEntity
  8
0
100
AcDbLine
 10
29.867195223068
 20
1279.905635396485
 30
0.0
 11
29.920595223068
 21
1279.813635396485
 31
0.0
  0
LINE
  5
159A
330
1D
100
AcDbEntity
  8
0
100
AcDbLine
 10
22.284395223068
 20
1287.603635396485
 30
0.0
 11
24.572395223068
 21
1285.207635396485
 31
0.0
  0
LINE
  5
159B
330
1D
100
AcDbEntity
  8
0
100
AcDbLine
 10
22.252795223068
 20
1287.835635396485
 30
0.0
 11
22.262495223068
 21
1287.950635396485
 31
0.0
  0
LINE
  5
159C
330
1D
100
AcDbEntity
  8
0
100
AcDbLine
 10
22.233495223068
 20
1287.706635396485
 30
0.0
 11
22.284395223068
 21
1287.603635396485
 31
0.0
  0
LINE
  5
159D
330
1D
100
AcDbEntity
  8
0
100
AcDbLine
 10
22.233495223068
 20
1287.706635396485
 30
0.0
 11
22.248795223068
 21
1287.824635396485
 31
0.0
  0
LINE
  5
159E
330
1D
100
AcDbEntity
  8
0
100
AcDbLine
 10
24.572395223068
 20
1285.207635396485
 30
0.0
 11
24.685295223068
 21
1285.092635396485
 31
0.0
  0
LINE
  5
159F
330
1D
100
AcDbEntity
  8
0
100
AcDbLine
 10
24.572395223068
 20
1285.207635396485
 30
0.0
 11
24.669795837297
 21
1285.10884555004
 31
0.0
  0
LINE
  5
15A0
330
1D
100
AcDbEntity
  8
0
100
AcDbLine
 10
24.685295223068
 20
1285.092635396485
 30
0.0
 11
25.060795223068
 21
1284.719635396485
 31
0.0
  0
LINE
  5
15A1
330
1D
100
AcDbEntity
  8
0
100
AcDbLine
 10
25.060795223068
 20
1284.719635396485
 30
0.0
 11
25.324697928692
 21
1284.449822503685
 31
0.0
  0
LINE
  5
15A2
330
1D
100
AcDbEntity
  8
0
100
AcDbLine
 10
26.211895223068
 20
1284.388635396485
 30
0.0
 11
26.975595223068
 21
1283.626635396485
 31
0.0
  0
LINE
  5
15A3
330
1D
100
AcDbEntity
  8
0
100
AcDbLine
 10
25.331195223068
 20
1285.190635396485
 30
0.0
 11
26.211895223068
 21
1284.388635396485
 31
0.0
  0
LINE
  5
15A4
330
1D
100
AcDbEntity
  8
0
100
AcDbLine
 10
25.082895223068
 20
1285.188635396485
 30
0.0
 11
25.517406261919
 21
1284.679465601463
 31
0.0
  0
LINE
  5
15A5
330
1D
100
AcDbEntity
  8
0
100
AcDbLine
 10
25.412995223068
 20
1286.894635396485
 30
0.0
 11
25.757695223068
 21
1286.605635396485
 31
0.0
  0
LINE
  5
15A6
330
1D
100
AcDbEntity
  8
0
100
AcDbLine
 10
25.757695223068
 20
1286.605635396485
 30
0.0
 11
26.658046848092
 21
1287.678583130964
 31
0.0
  0
LINE
  5
15A7
330
1D
100
AcDbEntity
  8
0
100
AcDbLine
 10
25.76357965275
 20
1286.612647862859
 30
0.0
 11
26.642695223068
 21
1286.053635396485
 31
0.0
  0
LINE
  5
15A8
330
1D
100
AcDbEntity
  8
0
100
AcDbLine
 10
25.551295223068
 20
1286.747635396485
 30
0.0
 11
25.704595549083
 21
1286.650154705396
 31
0.0
  0
LINE
  5
15A9
330
1D
100
AcDbEntity
  8
0
100
AcDbLine
 10
24.608595223068
 20
1287.569635396485
 30
0.0
 11
25.412995223068
 21
1286.894635396485
 31
0.0
  0
LINE
  5
15AA
330
1D
100
AcDbEntity
  8
0
100
AcDbLine
 10
23.861395223068
 20
1287.564635396485
 30
0.0
 11
24.625795223068
 21
1287.242635396485
 31
0.0
  0
LINE
  5
15AB
330
1D
100
AcDbEntity
  8
0
100
AcDbLine
 10
24.625795223068
 20
1287.242635396485
 30
0.0
 11
25.551295223068
 21
1286.747635396485
 31
0.0
  0
LINE
  5
15AC
330
1D
100
AcDbEntity
  8
0
100
AcDbLine
 10
26.321728666903
 20
1287.277793238946
 30
0.0
 11
26.873495223068
 21
1286.985635396485
 31
0.0
  0
LINE
  5
15AD
330
1D
100
AcDbEntity
  8
0
100
AcDbLine
 10
26.873495223068
 20
1286.985635396485
 30
0.0
 11
26.897895223068
 21
1287.281635396485
 31
0.0
  0
LINE
  5
15AE
330
1D
100
AcDbEntity
  8
0
100
AcDbLine
 10
26.642695223068
 20
1286.053635396485
 30
0.0
 11
28.375095223068
 21
1284.806635396485
 31
0.0
  0
LINE
  5
15AF
330
1D
100
AcDbEntity
  8
0
100
AcDbLine
 10
26.626595223068
 20
1287.730635396485
 30
0.0
 11
26.897895223068
 21
1287.281635396485
 31
0.0
  0
LINE
  5
15B0
330
1D
100
AcDbEntity
  8
0
100
AcDbLine
 10
24.919995223068
 20
1285.461635396485
 30
0.0
 11
25.331195223068
 21
1285.190635396485
 31
0.0
  0
LINE
  5
15B1
330
1D
100
AcDbEntity
  8
0
100
AcDbLine
 10
24.919995223068
 20
1285.461635396485
 30
0.0
 11
25.082895223068
 21
1285.188635396485
 31
0.0
  0
LINE
  5
15B2
330
1D
100
AcDbEntity
  8
0
100
AcDbLine
 10
23.459495223068
 20
1288.533635396485
 30
0.0
 11
23.804295223068
 21
1288.244635396485
 31
0.0
  0
LINE
  5
15B3
330
1D
100
AcDbEntity
  8
0
100
AcDbLine
 10
23.459495223068
 20
1288.533635396485
 30
0.0
 11
24.541305087865
 21
1289.822786542152
 31
0.0
  0
LINE
  5
15B4
330
1D
100
AcDbEntity
  8
0
100
AcDbLine
 10
23.804295223068
 20
1288.244635396485
 30
0.0
 11
24.608595223068
 21
1287.569635396485
 31
0.0
  0
LINE
  5
15B5
330
1D
100
AcDbEntity
  8
0
100
AcDbLine
 10
19.142795223068
 20
1290.666635396485
 30
0.0
 11
19.55974470473
 21
1291.163513493117
 31
0.0
  0
LINE
  5
15B6
330
1D
100
AcDbEntity
  8
0
100
AcDbLine
 10
18.798095223068
 20
1290.955635396485
 30
0.0
 11
19.142795223068
 21
1290.666635396485
 31
0.0
  0
LINE
  5
15B7
330
1D
100
AcDbEntity
  8
0
100
AcDbLine
 10
19.452595503657
 20
1291.035823944559
 30
0.0
 11
19.546995223068
 21
1290.926635396485
 31
0.0
  0
LINE
  5
15B8
330
1D
100
AcDbEntity
  8
0
100
AcDbLine
 10
19.504000317838
 20
1291.097082987564
 30
0.0
 11
19.645095223068
 21
1290.948635396485
 31
0.0
  0
LINE
  5
15B9
330
1D
100
AcDbEntity
  8
0
100
AcDbLine
 10
20.912995223068
 20
1290.263635396485
 30
0.0
 11
21.343387878562
 21
1290.776533704006
 31
0.0
  0
LINE
  5
15BA
330
1D
100
AcDbEntity
  8
0
100
AcDbLine
 10
20.568295223068
 20
1290.552635396485
 30
0.0
 11
20.912995223068
 21
1290.263635396485
 31
0.0
  0
LINE
  5
15BB
330
1D
100
AcDbEntity
  8
0
100
AcDbLine
 10
19.645095223068
 20
1290.948635396485
 30
0.0
 11
19.874195223068
 21
1290.731635396485
 31
0.0
  0
LINE
  5
15BC
330
1D
100
AcDbEntity
  8
0
100
AcDbLine
 10
19.747595223068
 20
1290.937635396485
 30
0.0
 11
19.874195223068
 21
1290.731635396485
 31
0.0
  0
LINE
  5
15BD
330
1D
100
AcDbEntity
  8
0
100
AcDbLine
 10
21.125337572944
 20
1290.516683468929
 30
0.0
 11
21.343387878562
 21
1290.776533704006
 31
0.0
  0
LINE
  5
15BE
330
1D
100
AcDbEntity
  8
0
100
AcDbLine
 10
21.125337572944
 20
1290.516683468929
 30
0.0
 11
21.343387878562
 21
1290.776533704006
 31
0.0
  0
LINE
  5
15BF
330
1D
100
AcDbEntity
  8
0
100
AcDbLine
 10
21.094704093283
 20
1290.480177595347
 30
0.0
 11
21.402095223068
 21
1290.200635396485
 31
0.0
  0
LINE
  5
15C0
330
1D
100
AcDbEntity
  8
0
100
AcDbLine
 10
21.402095223068
 20
1290.200635396485
 30
0.0
 11
21.776695223068
 21
1289.934635396485
 31
0.0
  0
LINE
  5
15C1
330
1D
100
AcDbEntity
  8
0
100
AcDbLine
 10
21.573495223068
 20
1290.488635396485
 30
0.0
 11
21.829695223068
 21
1290.042635396485
 31
0.0
  0
LINE
  5
15C2
330
1D
100
AcDbEntity
  8
0
100
AcDbLine
 10
19.763895223068
 20
1291.227635396485
 30
0.0
 11
20.568295223068
 21
1290.552635396485
 31
0.0
  0
LINE
  5
15C3
330
1D
100
AcDbEntity
  8
0
100
AcDbLine
 10
23.903095223068
 20
1291.194635396485
 30
0.0
 11
25.726795223068
 21
1289.699635396485
 31
0.0
  0
LINE
  5
15C4
330
1D
100
AcDbEntity
  8
0
100
AcDbLine
 10
19.546995223068
 20
1290.926635396485
 30
0.0
 11
22.212395223068
 21
1288.045635396485
 31
0.0
  0
LINE
  5
15C5
330
1D
100
AcDbEntity
  8
0
100
AcDbLine
 10
21.776695223068
 20
1289.934635396485
 30
0.0
 11
21.829695223068
 21
1290.042635396485
 31
0.0
  0
LINE
  5
15C6
330
1D
100
AcDbEntity
  8
0
100
AcDbLine
 10
24.27599937285
 20
1289.506631940874
 30
0.0
 11
24.541305087865
 21
1289.822786542152
 31
0.0
  0
LINE
  5
15C7
330
1D
100
AcDbEntity
  8
0
100
AcDbLine
 10
25.244895223068
 20
1289.275635396485
 30
0.0
 11
26.160095223068
 21
1288.331635396485
 31
0.0
  0
LINE
  5
15C8
330
1D
100
AcDbEntity
  8
0
100
AcDbLine
 10
26.160095223068
 20
1288.331635396485
 30
0.0
 11
26.626595223068
 21
1287.730635396485
 31
0.0
  0
LINE
  5
15C9
330
1D
100
AcDbEntity
  8
0
100
AcDbLine
 10
24.423195223068
 20
1289.914635396485
 30
0.0
 11
25.244895223068
 21
1289.275635396485
 31
0.0
  0
LINE
  5
15CA
330
1D
100
AcDbEntity
  8
0
100
AcDbLine
 10
23.993195223068
 20
1290.033635396485
 30
0.0
 11
24.27599937285
 21
1289.506631940874
 31
0.0
  0
LINE
  5
15CB
330
1D
100
AcDbEntity
  8
0
100
AcDbLine
 10
23.993195223068
 20
1290.033635396485
 30
0.0
 11
24.423195223068
 21
1289.914635396485
 31
0.0
  0
LINE
  5
15CC
330
1D
100
AcDbEntity
  8
0
100
AcDbLine
 10
25.726795223068
 20
1289.699635396485
 30
0.0
 11
28.100895223068
 21
1287.688635396485
 31
0.0
  0
LINE
  5
15CD
330
1D
100
AcDbEntity
  8
0
100
AcDbLine
 10
7.562425223068
 20
1306.521635396485
 30
0.0
 11
7.608385223068
 21
1306.669635396485
 31
0.0
  0
LINE
  5
15CE
330
1D
100
AcDbEntity
  8
0
100
AcDbLine
 10
7.543645223068
 20
1306.419635396485
 30
0.0
 11
7.579165223068
 21
1306.322635396485
 31
0.0
  0
LINE
  5
15CF
330
1D
100
AcDbEntity
  8
0
100
AcDbLine
 10
7.543645223068
 20
1306.419635396485
 30
0.0
 11
7.562425223068
 21
1306.521635396485
 31
0.0
  0
LINE
  5
15D0
330
1D
100
AcDbEntity
  8
0
100
AcDbLine
 10
7.579165223068
 20
1306.322635396485
 30
0.0
 11
9.400535223068
 21
1303.766635396485
 31
0.0
  0
LINE
  5
15D1
330
1D
100
AcDbEntity
  8
0
100
AcDbLine
 10
16.844595223068
 20
1292.594635396485
 30
0.0
 11
17.189395223068
 21
1292.305635396485
 31
0.0
  0
LINE
  5
15D2
330
1D
100
AcDbEntity
  8
0
100
AcDbLine
 10
16.844595223068
 20
1292.594635396485
 30
0.0
 11
17.465280506136
 21
1293.334475259408
 31
0.0
  0
LINE
  5
15D3
330
1D
100
AcDbEntity
  8
0
100
AcDbLine
 10
17.189395223068
 20
1292.305635396485
 30
0.0
 11
17.993695223068
 21
1291.630635396485
 31
0.0
  0
LINE
  5
15D4
330
1D
100
AcDbEntity
  8
0
100
AcDbLine
 10
17.490097818337
 20
1293.364056816048
 30
0.0
 11
17.554242777067
 21
1293.440515850552
 31
0.0
  0
LINE
  5
15D5
330
1D
100
AcDbEntity
  8
0
100
AcDbLine
 10
17.490097818337
 20
1293.364056816048
 30
0.0
 11
17.554242777067
 21
1293.440515850552
 31
0.0
  0
LINE
  5
15D6
330
1D
100
AcDbEntity
  8
0
100
AcDbLine
 10
17.368695223068
 20
1293.643635396485
 30
0.0
 11
18.188095223068
 21
1292.746635396485
 31
0.0
  0
LINE
  5
15D7
330
1D
100
AcDbEntity
  8
0
100
AcDbLine
 10
17.035795223068
 20
1293.951635396485
 30
0.0
 11
17.368695223068
 21
1293.643635396485
 31
0.0
  0
LINE
  5
15D8
330
1D
100
AcDbEntity
  8
0
100
AcDbLine
 10
14.765995223068
 20
1296.456635396485
 30
0.0
 11
17.465280506136
 21
1293.334475259408
 31
0.0
  0
LINE
  5
15D9
330
1D
100
AcDbEntity
  8
0
100
AcDbLine
 10
14.751895223068
 20
1296.682635396485
 30
0.0
 11
14.765995223068
 21
1296.456635396485
 31
0.0
  0
LINE
  5
15DA
330
1D
100
AcDbEntity
  8
0
100
AcDbLine
 10
14.751895223068
 20
1296.682635396485
 30
0.0
 11
14.775595223068
 21
1296.785635396485
 31
0.0
  0
LINE
  5
15DB
330
1D
100
AcDbEntity
  8
0
100
AcDbLine
 10
15.297195223068
 20
1296.599635396485
 30
0.0
 11
15.535395223068
 21
1296.538635396485
 31
0.0
  0
LINE
  5
15DC
330
1D
100
AcDbEntity
  8
0
100
AcDbLine
 10
15.535395223068
 20
1296.538635396485
 30
0.0
 11
16.130595223068
 21
1296.338635396485
 31
0.0
  0
LINE
  5
15DD
330
1D
100
AcDbEntity
  8
0
100
AcDbLine
 10
16.130595223068
 20
1296.338635396485
 30
0.0
 11
16.983695223068
 21
1295.966635396485
 31
0.0
  0
LINE
  5
15DE
330
1D
100
AcDbEntity
  8
0
100
AcDbLine
 10
16.983695223068
 20
1295.966635396485
 30
0.0
 11
18.205767333246
 21
1295.300648776488
 31
0.0
  0
LINE
  5
15DF
330
1D
100
AcDbEntity
  8
0
100
AcDbLine
 10
18.614795223068
 20
1292.191635396485
 30
0.0
 11
18.959595223068
 21
1291.902635396485
 31
0.0
  0
LINE
  5
15E0
330
1D
100
AcDbEntity
  8
0
100
AcDbLine
 10
18.614795223068
 20
1292.191635396485
 30
0.0
 11
19.315164948568
 21
1293.026239020837
 31
0.0
  0
LINE
  5
15E1
330
1D
100
AcDbEntity
  8
0
100
AcDbLine
 10
17.993695223068
 20
1291.630635396485
 30
0.0
 11
18.798095223068
 21
1290.955635396485
 31
0.0
  0
LINE
  5
15E2
330
1D
100
AcDbEntity
  8
0
100
AcDbLine
 10
18.627495223068
 20
1293.298635396485
 30
0.0
 11
19.058796711596
 21
1292.72073486788
 31
0.0
  0
LINE
  5
15E3
330
1D
100
AcDbEntity
  8
0
100
AcDbLine
 10
18.188095223068
 20
1292.746635396485
 30
0.0
 11
18.645566659196
 21
1292.228304531634
 31
0.0
  0
LINE
  5
15E4
330
1D
100
AcDbEntity
  8
0
100
AcDbLine
 10
18.959595223068
 20
1291.902635396485
 30
0.0
 11
19.763895223068
 21
1291.227635396485
 31
0.0
  0
LINE
  5
15E5
330
1D
100
AcDbEntity
  8
0
100
AcDbLine
 10
18.857366083802
 20
1291.988320492912
 30
0.0
 11
19.353395223068
 21
1291.411635396485
 31
0.0
  0
LINE
  5
15E6
330
1D
100
AcDbEntity
  8
0
100
AcDbLine
 10
18.471395223068
 20
1293.655635396485
 30
0.0
 11
18.875695223068
 21
1293.438635396485
 31
0.0
  0
LINE
  5
15E7
330
1D
100
AcDbEntity
  8
0
100
AcDbLine
 10
18.471395223068
 20
1293.655635396485
 30
0.0
 11
18.627495223068
 21
1293.298635396485
 31
0.0
  0
LINE
  5
15E8
330
1D
100
AcDbEntity
  8
0
100
AcDbLine
 10
18.832295223068
 20
1295.971635396485
 30
0.0
 11
19.176995223068
 21
1295.682635396485
 31
0.0
  0
LINE
  5
15E9
330
1D
100
AcDbEntity
  8
0
100
AcDbLine
 10
18.832295223068
 20
1295.971635396485
 30
0.0
 11
19.680941235732
 21
1296.982965627203
 31
0.0
  0
LINE
  5
15EA
330
1D
100
AcDbEntity
  8
0
100
AcDbLine
 10
19.176995223068
 20
1295.682635396485
 30
0.0
 11
19.981395223068
 21
1295.007635396485
 31
0.0
  0
LINE
  5
15EB
330
1D
100
AcDbEntity
  8
0
100
AcDbLine
 10
19.155895223068
 20
1296.759635396485
 30
0.0
 11
19.273595223068
 21
1296.557635396485
 31
0.0
  0
LINE
  5
15EC
330
1D
100
AcDbEntity
  8
0
100
AcDbLine
 10
18.205767333246
 20
1295.300648776488
 30
0.0
 11
19.260595223068
 21
1294.645635396485
 31
0.0
  0
LINE
  5
15ED
330
1D
100
AcDbEntity
  8
0
100
AcDbLine
 10
18.875695223068
 20
1293.438635396485
 30
0.0
 11
19.713295223068
 21
1292.652635396485
 31
0.0
  0
LINE
  5
15EE
330
1D
100
AcDbEntity
  8
0
100
AcDbLine
 10
12.538495223068
 20
1299.423635396485
 30
0.0
 11
12.961704913809
 21
1299.927973775258
 31
0.0
  0
LINE
  5
15EF
330
1D
100
AcDbEntity
  8
0
100
AcDbLine
 10
13.952595223068
 20
1299.509635396485
 30
0.0
 11
14.756895223068
 21
1298.834635396485
 31
0.0
  0
LINE
  5
15F0
330
1D
100
AcDbEntity
  8
0
100
AcDbLine
 10
14.756895223068
 20
1298.834635396485
 30
0.0
 11
15.101695223068
 21
1298.545635396485
 31
0.0
  0
LINE
  5
15F1
330
1D
100
AcDbEntity
  8
0
100
AcDbLine
 10
14.736695223068
 20
1296.896635396485
 30
0.0
 11
14.775595223068
 21
1296.785635396485
 31
0.0
  0
LINE
  5
15F2
330
1D
100
AcDbEntity
  8
0
100
AcDbLine
 10
12.619631593567
 20
1299.520325492322
 30
0.0
 11
14.729595223068
 21
1296.904635396485
 31
0.0
  0
LINE
  5
15F3
330
1D
100
AcDbEntity
  8
0
100
AcDbLine
 10
15.101695223068
 20
1298.545635396485
 30
0.0
 11
15.560748503144
 21
1299.092688529031
 31
0.0
  0
LINE
  5
15F4
330
1D
100
AcDbEntity
  8
0
100
AcDbLine
 10
15.493095223068
 20
1298.457635396485
 30
0.0
 11
15.995695223068
 21
1298.132635396485
 31
0.0
  0
LINE
  5
15F5
330
1D
100
AcDbEntity
  8
0
100
AcDbLine
 10
15.241741102911
 20
1298.712527869741
 30
0.0
 11
15.493095223068
 21
1298.457635396485
 31
0.0
  0
LINE
  5
15F6
330
1D
100
AcDbEntity
  8
0
100
AcDbLine
 10
15.959795223068
 20
1298.485635396485
 30
0.0
 11
15.995695223068
 21
1298.132635396485
 31
0.0
  0
LINE
  5
15F7
330
1D
100
AcDbEntity
  8
0
100
AcDbLine
 10
18.995795223068
 20
1297.169635396485
 30
0.0
 11
19.155895223068
 21
1296.759635396485
 31
0.0
  0
LINE
  5
15F8
330
1D
100
AcDbEntity
  8
0
100
AcDbLine
 10
18.995795223068
 20
1297.169635396485
 30
0.0
 11
19.208295223068
 21
1297.304635396485
 31
0.0
  0
LINE
  5
15F9
330
1D
100
AcDbEntity
  8
0
100
AcDbLine
 10
17.714195223068
 20
1299.445635396485
 30
0.0
 11
19.847895223068
 21
1297.604635396485
 31
0.0
  0
LINE
  5
15FA
330
1D
100
AcDbEntity
  8
0
100
AcDbLine
 10
19.353395223068
 20
1291.411635396485
 30
0.0
 11
19.747595223068
 21
1290.937635396485
 31
0.0
  0
LINE
  5
15FB
330
1D
100
AcDbEntity
  8
0
100
AcDbLine
 10
19.208295223068
 20
1297.304635396485
 30
0.0
 11
19.956195223068
 21
1296.795635396485
 31
0.0
  0
LINE
  5
15FC
330
1D
100
AcDbEntity
  8
0
100
AcDbLine
 10
19.260595223068
 20
1294.645635396485
 30
0.0
 11
20.623795223068
 21
1293.692635396485
 31
0.0
  0
LINE
  5
15FD
330
1D
100
AcDbEntity
  8
0
100
AcDbLine
 10
20.702295223068
 20
1291.578635396485
 30
0.0
 11
21.573495223068
 21
1290.488635396485
 31
0.0
  0
LINE
  5
15FE
330
1D
100
AcDbEntity
  8
0
100
AcDbLine
 10
19.981395223068
 20
1295.007635396485
 30
0.0
 11
20.785695223068
 21
1294.332635396485
 31
0.0
  0
LINE
  5
15FF
330
1D
100
AcDbEntity
  8
0
100
AcDbLine
 10
19.956195223068
 20
1296.795635396485
 30
0.0
 11
20.850095223068
 21
1295.892635396485
 31
0.0
  0
LINE
  5
1600
330
1D
100
AcDbEntity
  8
0
100
AcDbLine
 10
19.847895223068
 20
1297.604635396485
 30
0.0
 11
22.274195223068
 21
1295.492635396485
 31
0.0
  0
LINE
  5
1601
330
1D
100
AcDbEntity
  8
0
100
AcDbLine
 10
21.130395223068
 20
1294.043635396485
 30
0.0
 11
21.696334222212
 21
1294.718043102372
 31
0.0
  0
LINE
  5
1602
330
1D
100
AcDbEntity
  8
0
100
AcDbLine
 10
20.785695223068
 20
1294.332635396485
 30
0.0
 11
21.130395223068
 21
1294.043635396485
 31
0.0
  0
LINE
  5
1603
330
1D
100
AcDbEntity
  8
0
100
AcDbLine
 10
20.850095223068
 20
1295.892635396485
 30
0.0
 11
21.388995223068
 21
1295.209635396485
 31
0.0
  0
LINE
  5
1604
330
1D
100
AcDbEntity
  8
0
100
AcDbLine
 10
21.388995223068
 20
1295.209635396485
 30
0.0
 11
21.716595223068
 21
1294.685635396485
 31
0.0
  0
LINE
  5
1605
330
1D
100
AcDbEntity
  8
0
100
AcDbLine
 10
21.377862673225
 20
1294.338532824644
 30
0.0
 11
21.523895223068
 21
1294.227635396485
 31
0.0
  0
LINE
  5
1606
330
1D
100
AcDbEntity
  8
0
100
AcDbLine
 10
21.716595223068
 20
1294.685635396485
 30
0.0
 11
21.870095223068
 21
1294.228635396485
 31
0.0
  0
LINE
  5
1607
330
1D
100
AcDbEntity
  8
0
100
AcDbLine
 10
21.523895223068
 20
1294.227635396485
 30
0.0
 11
21.870095223068
 21
1294.228635396485
 31
0.0
  0
LINE
  5
1608
330
1D
100
AcDbEntity
  8
0
100
AcDbLine
 10
20.623795223068
 20
1293.692635396485
 30
0.0
 11
21.961895223068
 21
1292.717635396485
 31
0.0
  0
LINE
  5
1609
330
1D
100
AcDbEntity
  8
0
100
AcDbLine
 10
22.274195223068
 20
1295.492635396485
 30
0.0
 11
23.068275086168
 21
1294.792735267567
 31
0.0
  0
LINE
  5
160A
330
1D
100
AcDbEntity
  8
0
100
AcDbLine
 10
21.961895223068
 20
1292.717635396485
 30
0.0
 11
23.903095223068
 21
1291.194635396485
 31
0.0
  0
LINE
  5
160B
330
1D
100
AcDbEntity
  8
0
100
AcDbLine
 10
19.713295223068
 20
1292.652635396485
 30
0.0
 11
20.702295223068
 21
1291.578635396485
 31
0.0
  0
LINE
  5
160C
330
1D
100
AcDbEntity
  8
0
100
AcDbLine
 10
9.402035223068
 20
1302.086635396485
 30
0.0
 11
9.746755223068
 21
1301.796635396485
 31
0.0
  0
LINE
  5
160D
330
1D
100
AcDbEntity
  8
0
100
AcDbLine
 10
9.402035223068
 20
1302.086635396485
 30
0.0
 11
10.062032146211
 21
1302.873138095846
 31
0.0
  0
LINE
  5
160E
330
1D
100
AcDbEntity
  8
0
100
AcDbLine
 10
10.585095223068
 20
1301.062635396485
 30
0.0
 11
11.389395223068
 21
1300.387635396485
 31
0.0
  0
LINE
  5
160F
330
1D
100
AcDbEntity
  8
0
100
AcDbLine
 10
10.240335223068
 20
1301.351635396485
 30
0.0
 11
10.585095223068
 21
1301.062635396485
 31
0.0
  0
LINE
  5
1610
330
1D
100
AcDbEntity
  8
0
100
AcDbLine
 10
10.240335223068
 20
1301.351635396485
 30
0.0
 11
11.096406596628
 21
1302.372061734121
 31
0.0
  0
LINE
  5
1611
330
1D
100
AcDbEntity
  8
0
100
AcDbLine
 10
9.746755223068
 20
1301.796635396485
 30
0.0
 11
10.255804937332
 21
1301.370075101816
 31
0.0
  0
LINE
  5
1612
330
1D
100
AcDbEntity
  8
0
100
AcDbLine
 10
10.351355223068
 20
1302.488635396485
 30
0.0
 11
10.751129798791
 21
1301.96049612269
 31
0.0
  0
LINE
  5
1613
330
1D
100
AcDbEntity
  8
0
100
AcDbLine
 10
11.389395223068
 20
1300.387635396485
 30
0.0
 11
12.193795223068
 21
1299.712635396485
 31
0.0
  0
LINE
  5
1614
330
1D
100
AcDbEntity
  8
0
100
AcDbLine
 10
11.043695223068
 20
1302.436635396485
 30
0.0
 11
11.930195223068
 21
1301.350635396485
 31
0.0
  0
LINE
  5
1615
330
1D
100
AcDbEntity
  8
0
100
AcDbLine
 10
9.608135223068
 20
1303.478635396485
 30
0.0
 11
9.923205223068
 21
1303.057635396485
 31
0.0
  0
LINE
  5
1616
330
1D
100
AcDbEntity
  8
0
100
AcDbLine
 10
9.923205223068
 20
1303.057635396485
 30
0.0
 11
10.351355223068
 21
1302.488635396485
 31
0.0
  0
LINE
  5
1617
330
1D
100
AcDbEntity
  8
0
100
AcDbLine
 10
10.642795223068
 20
1302.848635396485
 30
0.0
 11
10.672595223068
 21
1302.670635396485
 31
0.0
  0
LINE
  5
1618
330
1D
100
AcDbEntity
  8
0
100
AcDbLine
 10
10.642795223068
 20
1302.848635396485
 30
0.0
 11
11.043695223068
 21
1302.436635396485
 31
0.0
  0
LINE
  5
1619
330
1D
100
AcDbEntity
  8
0
100
AcDbLine
 10
10.672595223068
 20
1302.670635396485
 30
0.0
 11
10.966853309704
 21
1302.217635841388
 31
0.0
  0
LINE
  5
161A
330
1D
100
AcDbEntity
  8
0
100
AcDbLine
 10
9.400535223068
 20
1303.766635396485
 30
0.0
 11
9.541812223638
 21
1303.575043840772
 31
0.0
  0
LINE
  5
161B
330
1D
100
AcDbEntity
  8
0
100
AcDbLine
 10
9.400535223068
 20
1303.766635396485
 30
0.0
 11
9.608135223068
 21
1303.478635396485
 31
0.0
  0
LINE
  5
161C
330
1D
100
AcDbEntity
  8
0
100
AcDbLine
 10
10.450175223068
 20
1304.896635396485
 30
0.0
 11
11.359895223068
 21
1304.298635396485
 31
0.0
  0
LINE
  5
161D
330
1D
100
AcDbEntity
  8
0
100
AcDbLine
 10
11.359895223068
 20
1304.298635396485
 30
0.0
 11
12.383695223068
 21
1303.622635396485
 31
0.0
  0
LINE
  5
161E
330
1D
100
AcDbEntity
  8
0
100
AcDbLine
 10
12.193795223068
 20
1299.712635396485
 30
0.0
 11
12.538495223068
 21
1299.423635396485
 31
0.0
  0
LINE
  5
161F
330
1D
100
AcDbEntity
  8
0
100
AcDbLine
 10
12.803495223068
 20
1300.473635396485
 30
0.0
 11
13.148195223068
 21
1300.184635396485
 31
0.0
  0
LINE
  5
1620
330
1D
100
AcDbEntity
  8
0
100
AcDbLine
 10
12.803495223068
 20
1300.473635396485
 30
0.0
 11
13.638467336835
 21
1301.468899294382
 31
0.0
  0
LINE
  5
1621
330
1D
100
AcDbEntity
  8
0
100
AcDbLine
 10
12.853295223068
 20
1301.898635396485
 30
0.0
 11
12.885295223068
 21
1302.084635396485
 31
0.0
  0
LINE
  5
1622
330
1D
100
AcDbEntity
  8
0
100
AcDbLine
 10
12.853295223068
 20
1301.898635396485
 30
0.0
 11
12.996395223068
 21
1301.567635396485
 31
0.0
  0
LINE
  5
1623
330
1D
100
AcDbEntity
  8
0
100
AcDbLine
 10
12.728895223068
 20
1300.276635396485
 30
0.0
 11
13.086795223068
 21
1299.740635396485
 31
0.0
  0
LINE
  5
1624
330
1D
100
AcDbEntity
  8
0
100
AcDbLine
 10
12.885295223068
 20
1302.084635396485
 30
0.0
 11
13.298795223068
 21
1301.786635396485
 31
0.0
  0
LINE
  5
1625
330
1D
100
AcDbEntity
  8
0
100
AcDbLine
 10
12.383695223068
 20
1303.622635396485
 30
0.0
 11
13.446995223068
 21
1302.851635396485
 31
0.0
  0
LINE
  5
1626
330
1D
100
AcDbEntity
  8
0
100
AcDbLine
 10
11.930195223068
 20
1301.350635396485
 30
0.0
 11
12.728895223068
 21
1300.276635396485
 31
0.0
  0
LINE
  5
1627
330
1D
100
AcDbEntity
  8
0
100
AcDbLine
 10
12.86045465534
 20
1299.807313988104
 30
0.0
 11
13.164795223068
 21
1299.521635396485
 31
0.0
  0
LINE
  5
1628
330
1D
100
AcDbEntity
  8
0
100
AcDbLine
 10
10.710595223068
 20
1305.414635396485
 30
0.0
 11
11.610708402458
 21
1306.487265600923
 31
0.0
  0
LINE
  5
1629
330
1D
100
AcDbEntity
  8
0
100
AcDbLine
 10
10.365895223068
 20
1305.703635396485
 30
0.0
 11
10.710595223068
 21
1305.414635396485
 31
0.0
  0
LINE
  5
162A
330
1D
100
AcDbEntity
  8
0
100
AcDbLine
 10
11.589995223068
 20
1305.571635396485
 30
0.0
 11
11.998995223068
 21
1305.366635396485
 31
0.0
  0
LINE
  5
162B
330
1D
100
AcDbEntity
  8
0
100
AcDbLine
 10
11.1861355538
 20
1305.98131849129
 30
0.0
 11
11.589995223068
 21
1305.571635396485
 31
0.0
  0
LINE
  5
162C
330
1D
100
AcDbEntity
  8
0
100
AcDbLine
 10
11.981995223068
 20
1305.771635396485
 30
0.0
 11
11.998995223068
 21
1305.366635396485
 31
0.0
  0
LINE
  5
162D
330
1D
100
AcDbEntity
  8
0
100
AcDbLine
 10
9.561545223068
 20
1306.378635396485
 30
0.0
 11
10.365895223068
 21
1305.703635396485
 31
0.0
  0
LINE
  5
162E
330
1D
100
AcDbEntity
  8
0
100
AcDbLine
 10
11.620495223068
 20
1306.471635396485
 30
0.0
 11
11.981995223068
 21
1305.771635396485
 31
0.0
  0
LINE
  5
162F
330
1D
100
AcDbEntity
  8
0
100
AcDbLine
 10
13.148195223068
 20
1300.184635396485
 30
0.0
 11
13.952595223068
 21
1299.509635396485
 31
0.0
  0
LINE
  5
1630
330
1D
100
AcDbEntity
  8
0
100
AcDbLine
 10
13.086795223068
 20
1299.740635396485
 30
0.0
 11
13.164795223068
 21
1299.521635396485
 31
0.0
  0
LINE
  5
1631
330
1D
100
AcDbEntity
  8
0
100
AcDbLine
 10
15.766695223068
 20
1301.049635396485
 30
0.0
 11
17.714195223068
 21
1299.445635396485
 31
0.0
  0
LINE
  5
1632
330
1D
100
AcDbEntity
  8
0
100
AcDbLine
 10
15.145995223068
 20
1299.723635396485
 30
0.0
 11
15.959795223068
 21
1298.485635396485
 31
0.0
  0
LINE
  5
1633
330
1D
100
AcDbEntity
  8
0
100
AcDbLine
 10
14.604095223068
 20
1300.408635396485
 30
0.0
 11
15.145995223068
 21
1299.723635396485
 31
0.0
  0
LINE
  5
1634
330
1D
100
AcDbEntity
  8
0
100
AcDbLine
 10
13.298795223068
 20
1301.786635396485
 30
0.0
 11
13.854695223068
 21
1301.266635396485
 31
0.0
  0
LINE
  5
1635
330
1D
100
AcDbEntity
  8
0
100
AcDbLine
 10
12.996395223068
 20
1301.567635396485
 30
0.0
 11
13.302807642428
 21
1301.068802129083
 31
0.0
  0
LINE
  5
1636
330
1D
100
AcDbEntity
  8
0
100
AcDbLine
 10
13.854695223068
 20
1301.266635396485
 30
0.0
 11
14.604095223068
 21
1300.408635396485
 31
0.0
  0
LINE
  5
1637
330
1D
100
AcDbEntity
  8
0
100
AcDbLine
 10
15.537895223068
 20
1302.229635396485
 30
0.0
 11
16.342195223068
 21
1301.554635396485
 31
0.0
  0
LINE
  5
1638
330
1D
100
AcDbEntity
  8
0
100
AcDbLine
 10
14.541995223068
 20
1302.018635396485
 30
0.0
 11
15.766695223068
 21
1301.049635396485
 31
0.0
  0
LINE
  5
1639
330
1D
100
AcDbEntity
  8
0
100
AcDbLine
 10
17.491295223068
 20
1300.590635396485
 30
0.0
 11
18.056030742918
 21
1301.263629901922
 31
0.0
  0
LINE
  5
163A
330
1D
100
AcDbEntity
  8
0
100
AcDbLine
 10
17.662643437095
 20
1300.794830816294
 30
0.0
 11
17.965495223068
 21
1300.605635396485
 31
0.0
  0
LINE
  5
163B
330
1D
100
AcDbEntity
  8
0
100
AcDbLine
 10
17.965495223068
 20
1300.605635396485
 30
0.0
 11
18.220895223068
 21
1300.858635396485
 31
0.0
  0
LINE
  5
163C
330
1D
100
AcDbEntity
  8
0
100
AcDbLine
 10
17.146495223068
 20
1300.879635396485
 30
0.0
 11
17.491295223068
 21
1300.590635396485
 31
0.0
  0
LINE
  5
163D
330
1D
100
AcDbEntity
  8
0
100
AcDbLine
 10
16.342195223068
 20
1301.554635396485
 30
0.0
 11
17.146495223068
 21
1300.879635396485
 31
0.0
  0
LINE
  5
163E
330
1D
100
AcDbEntity
  8
0
100
AcDbLine
 10
17.950595223068
 20
1301.522635396485
 30
0.0
 11
18.220895223068
 21
1300.858635396485
 31
0.0
  0
LINE
  5
163F
330
1D
100
AcDbEntity
  8
0
100
AcDbLine
 10
17.502595223068
 20
1302.165635396485
 30
0.0
 11
17.950595223068
 21
1301.522635396485
 31
0.0
  0
LINE
  5
1640
330
1D
100
AcDbEntity
  8
0
100
AcDbLine
 10
13.446995223068
 20
1302.851635396485
 30
0.0
 11
14.541995223068
 21
1302.018635396485
 31
0.0
  0
LINE
  5
1641
330
1D
100
AcDbEntity
  8
0
100
AcDbLine
 10
15.193095223068
 20
1302.518635396485
 30
0.0
 11
15.537895223068
 21
1302.229635396485
 31
0.0
  0
LINE
  5
1642
330
1D
100
AcDbEntity
  8
0
100
AcDbLine
 10
15.193095223068
 20
1302.518635396485
 30
0.0
 11
16.093821973189
 21
1303.59227702054
 31
0.0
  0
LINE
  5
1643
330
1D
100
AcDbEntity
  8
0
100
AcDbLine
 10
15.193095223068
 20
1302.518635396485
 30
0.0
 11
16.093821973189
 21
1303.59227702054
 31
0.0
  0
LINE
  5
1644
330
1D
100
AcDbEntity
  8
0
100
AcDbLine
 10
16.385495223068
 20
1303.388635396485
 30
0.0
 11
17.080795223068
 21
1302.678635396485
 31
0.0
  0
LINE
  5
1645
330
1D
100
AcDbEntity
  8
0
100
AcDbLine
 10
15.451595223068
 20
1303.547635396485
 30
0.0
 11
15.668607506105
 21
1303.085433018238
 31
0.0
  0
LINE
  5
1646
330
1D
100
AcDbEntity
  8
0
100
AcDbLine
 10
15.746695223068
 20
1303.834635396485
 30
0.0
 11
16.385495223068
 21
1303.388635396485
 31
0.0
  0
LINE
  5
1647
330
1D
100
AcDbEntity
  8
0
100
AcDbLine
 10
15.426895223068
 20
1303.821635396485
 30
0.0
 11
15.451595223068
 21
1303.547635396485
 31
0.0
  0
LINE
  5
1648
330
1D
100
AcDbEntity
  8
0
100
AcDbLine
 10
15.426895223068
 20
1303.821635396485
 30
0.0
 11
15.746695223068
 21
1303.834635396485
 31
0.0
  0
LINE
  5
1649
330
1D
100
AcDbEntity
  8
0
100
AcDbLine
 10
17.080795223068
 20
1302.678635396485
 30
0.0
 11
17.502595223068
 21
1302.165635396485
 31
0.0
  0
LINE
  5
164A
330
1D
100
AcDbEntity
  8
0
100
AcDbLine
 10
8.412475223068
 20
1307.342635396485
 30
0.0
 11
8.757195223068
 21
1307.053635396485
 31
0.0
  0
LINE
  5
164B
330
1D
100
AcDbEntity
  8
0
100
AcDbLine
 10
8.412475223068
 20
1307.342635396485
 30
0.0
 11
9.770039228403
 21
1308.960854799718
 31
0.0
  0
LINE
  5
164C
330
1D
100
AcDbEntity
  8
0
100
AcDbLine
 10
8.757195223068
 20
1307.053635396485
 30
0.0
 11
9.561545223068
 21
1306.378635396485
 31
0.0
  0
LINE
  5
164D
330
1D
100
AcDbEntity
  8
0
100
AcDbLine
 10
11.129595223068
 20
1307.255635396485
 30
0.0
 11
11.620495223068
 21
1306.471635396485
 31
0.0
  0
LINE
  5
164E
330
1D
100
AcDbEntity
  8
0
100
AcDbLine
 10
2.657675223068
 20
1311.997635396485
 30
0.0
 11
3.002385223068
 21
1311.708635396485
 31
0.0
  0
LINE
  5
164F
330
1D
100
AcDbEntity
  8
0
100
AcDbLine
 10
2.657675223068
 20
1311.997635396485
 30
0.0
 11
3.549870111459
 21
1313.061130437579
 31
0.0
  0
LINE
  5
1650
330
1D
100
AcDbEntity
  8
0
100
AcDbLine
 10
3.277425223068
 20
1311.191635396485
 30
0.0
 11
3.418323507081
 21
1311.35958542855
 31
0.0
  0
LINE
  5
1651
330
1D
100
AcDbEntity
  8
0
100
AcDbLine
 10
3.277425223068
 20
1311.191635396485
 30
0.0
 11
3.622145223068
 21
1310.902635396485
 31
0.0
  0
LINE
  5
1652
330
1D
100
AcDbEntity
  8
0
100
AcDbLine
 10
3.277425223068
 20
1311.191635396485
 30
0.0
 11
4.355243143153
 21
1312.47638883054
 31
0.0
  0
LINE
  5
1653
330
1D
100
AcDbEntity
  8
0
100
AcDbLine
 10
3.002385223068
 20
1311.708635396485
 30
0.0
 11
3.418323507081
 21
1311.35958542855
 31
0.0
  0
LINE
  5
1654
330
1D
100
AcDbEntity
  8
0
100
AcDbLine
 10
3.002385223068
 20
1311.708635396485
 30
0.0
 11
3.418323507081
 21
1311.35958542855
 31
0.0
  0
LINE
  5
1655
330
1D
100
AcDbEntity
  8
0
100
AcDbLine
 10
3.622145223068
 20
1310.902635396485
 30
0.0
 11
4.426495223068
 21
1310.227635396485
 31
0.0
  0
LINE
  5
1656
330
1D
100
AcDbEntity
  8
0
100
AcDbLine
 10
3.461915223068
 20
1313.206635396485
 30
0.0
 11
4.092587881716
 21
1312.163305105714
 31
0.0
  0
LINE
  5
1657
330
1D
100
AcDbEntity
  8
0
100
AcDbLine
 10
3.235305223068
 20
1313.589635396485
 30
0.0
 11
3.461915223068
 21
1313.206635396485
 31
0.0
  0
LINE
  5
1658
330
1D
100
AcDbEntity
  8
0
100
AcDbLine
 10
3.247145223068
 20
1313.568635396485
 30
0.0
 11
3.319319807095
 21
1313.447639960792
 31
0.0
  0
LINE
  5
1659
330
1D
100
AcDbEntity
  8
0
100
AcDbLine
 10
3.179675223068
 20
1313.682635396485
 30
0.0
 11
3.247145223068
 21
1313.568635396485
 31
0.0
  0
LINE
  5
165A
330
1D
100
AcDbEntity
  8
0
100
AcDbLine
 10
3.179675223068
 20
1313.682635396485
 30
0.0
 11
3.235305223068
 21
1313.589635396485
 31
0.0
  0
LINE
  5
165B
330
1D
100
AcDbEntity
  8
0
100
AcDbLine
 10
3.526705223068
 20
1313.658635396485
 30
0.0
 11
3.648255223068
 21
1313.331635396485
 31
0.0
  0
LINE
  5
165C
330
1D
100
AcDbEntity
  8
0
100
AcDbLine
 10
3.526705223068
 20
1313.658635396485
 30
0.0
 11
3.852385223068
 21
1313.229635396485
 31
0.0
  0
LINE
  5
165D
330
1D
100
AcDbEntity
  8
0
100
AcDbLine
 10
3.739663131501
 20
1313.378117886298
 30
0.0
 11
3.774936539765
 21
1313.329409300791
 31
0.0
  0
LINE
  5
165E
330
1D
100
AcDbEntity
  8
0
100
AcDbLine
 10
0.364212223068
 20
1320.314635396485
 30
0.0
 11
0.403998223068
 21
1321.467635396485
 31
0.0
  0
LINE
  5
165F
330
1D
100
AcDbEntity
  8
0
100
AcDbLine
 10
0.364212223068
 20
1320.314635396485
 30
0.0
 11
0.553807223068
 21
1319.136635396485
 31
0.0
  0
LINE
  5
1660
330
1D
100
AcDbEntity
  8
0
100
AcDbLine
 10
0.403998223068
 20
1321.467635396485
 30
0.0
 11
0.826717223068
 21
1322.973635396485
 31
0.0
  0
LINE
  5
1661
330
1D
100
AcDbEntity
  8
0
100
AcDbLine
 10
0.553807223068
 20
1319.136635396485
 30
0.0
 11
0.587213223068
 21
1319.072635396485
 31
0.0
  0
LINE
  5
1662
330
1D
100
AcDbEntity
  8
0
100
AcDbLine
 10
0.587431549359
 20
1319.072800358452
 30
0.0
 11
1.383018223068
 21
1316.993635396485
 31
0.0
  0
LINE
  5
1663
330
1D
100
AcDbEntity
  8
0
100
AcDbLine
 10
0.826717223068
 20
1322.973635396485
 30
0.0
 11
1.331381223068
 21
1323.970635396485
 31
0.0
  0
LINE
  5
1664
330
1D
100
AcDbEntity
  8
0
100
AcDbLine
 10
1.331381223068
 20
1323.970635396485
 30
0.0
 11
2.752945223068
 21
1326.026635396485
 31
0.0
  0
LINE
  5
1665
330
1D
100
AcDbEntity
  8
0
100
AcDbLine
 10
2.752945223068
 20
1326.026635396485
 30
0.0
 11
6.343685223068
 21
1330.781635396485
 31
0.0
  0
LINE
  5
1666
330
1D
100
AcDbEntity
  8
0
100
AcDbLine
 10
2.752945223068
 20
1326.026635396485
 30
0.0
 11
6.343685223068
 21
1330.781635396485
 31
0.0
  0
LINE
  5
1667
330
1D
100
AcDbEntity
  8
0
100
AcDbLine
 10
1.383018223068
 20
1316.993635396485
 30
0.0
 11
2.616295223068
 21
1314.661635396485
 31
0.0
  0
LINE
  5
1668
330
1D
100
AcDbEntity
  8
0
100
AcDbLine
 10
2.616295223068
 20
1314.661635396485
 30
0.0
 11
3.179675223068
 21
1313.682635396485
 31
0.0
  0
LINE
  5
1669
330
1D
100
AcDbEntity
  8
0
100
AcDbLine
 10
7.203545223068
 20
1308.202635396485
 30
0.0
 11
7.777843930845
 21
1308.887017821417
 31
0.0
  0
LINE
  5
166A
330
1D
100
AcDbEntity
  8
0
100
AcDbLine
 10
6.858825223068
 20
1308.492635396485
 30
0.0
 11
7.203545223068
 21
1308.202635396485
 31
0.0
  0
LINE
  5
166B
330
1D
100
AcDbEntity
  8
0
100
AcDbLine
 10
5.575565223068
 20
1309.263635396485
 30
0.0
 11
5.725696833919
 21
1309.442545350827
 31
0.0
  0
LINE
  5
166C
330
1D
100
AcDbEntity
  8
0
100
AcDbLine
 10
6.054475223068
 20
1309.166635396485
 30
0.0
 11
6.858825223068
 21
1308.492635396485
 31
0.0
  0
LINE
  5
166D
330
1D
100
AcDbEntity
  8
0
100
AcDbLine
 10
7.573003418247
 20
1308.642912715768
 30
0.0
 11
7.948725223068
 21
1308.223635396485
 31
0.0
  0
LINE
  5
166E
330
1D
100
AcDbEntity
  8
0
100
AcDbLine
 10
7.948725223068
 20
1308.223635396485
 30
0.0
 11
8.124405223068
 21
1308.187635396485
 31
0.0
  0
LINE
  5
166F
330
1D
100
AcDbEntity
  8
0
100
AcDbLine
 10
7.956865223068
 20
1308.584635396485
 30
0.0
 11
8.124405223068
 21
1308.187635396485
 31
0.0
  0
LINE
  5
1670
330
1D
100
AcDbEntity
  8
0
100
AcDbLine
 10
5.888578921266
 20
1309.305855134054
 30
0.0
 11
7.574145223068
 21
1306.769635396485
 31
0.0
  0
LINE
  5
1671
330
1D
100
AcDbEntity
  8
0
100
AcDbLine
 10
10.458125223068
 20
1308.180635396485
 30
0.0
 11
11.129595223068
 21
1307.255635396485
 31
0.0
  0
LINE
  5
1672
330
1D
100
AcDbEntity
  8
0
100
AcDbLine
 10
9.275225223068
 20
1308.533635396485
 30
0.0
 11
9.333762765059
 21
1308.440812256322
 31
0.0
  0
LINE
  5
1673
330
1D
100
AcDbEntity
  8
0
100
AcDbLine
 10
8.940455223068
 20
1309.187635396485
 30
0.0
 11
9.275225223068
 21
1308.533635396485
 31
0.0
  0
LINE
  5
1674
330
1D
100
AcDbEntity
  8
0
100
AcDbLine
 10
9.540935223068
 20
1309.220635396485
 30
0.0
 11
10.458125223068
 21
1308.180635396485
 31
0.0
  0
LINE
  5
1675
330
1D
100
AcDbEntity
  8
0
100
AcDbLine
 10
5.725696833919
 20
1309.442545350827
 30
0.0
 11
5.888578921266
 21
1309.305855134054
 31
0.0
  0
LINE
  5
1676
330
1D
100
AcDbEntity
  8
0
100
AcDbLine
 10
5.230845223068
 20
1309.552635396485
 30
0.0
 11
5.575565223068
 21
1309.263635396485
 31
0.0
  0
LINE
  5
1677
330
1D
100
AcDbEntity
  8
0
100
AcDbLine
 10
8.833765223068
 20
1309.555635396485
 30
0.0
 11
8.950915223068
 21
1309.668635396485
 31
0.0
  0
LINE
  5
1678
330
1D
100
AcDbEntity
  8
0
100
AcDbLine
 10
8.833765223068
 20
1309.555635396485
 30
0.0
 11
8.940455223068
 21
1309.187635396485
 31
0.0
  0
LINE
  5
1679
330
1D
100
AcDbEntity
  8
0
100
AcDbLine
 10
3.852385223068
 20
1313.229635396485
 30
0.0
 11
4.342455223068
 21
1312.496635396485
 31
0.0
  0
LINE
  5
167A
330
1D
100
AcDbEntity
  8
0
100
AcDbLine
 10
4.426495223068
 20
1310.227635396485
 30
0.0
 11
5.230845223068
 21
1309.552635396485
 31
0.0
  0
LINE
  5
167B
330
1D
100
AcDbEntity
  8
0
100
AcDbLine
 10
4.905415223068
 20
1310.131635396485
 30
0.0
 11
5.250135223068
 21
1309.841635396485
 31
0.0
  0
LINE
  5
167C
330
1D
100
AcDbEntity
  8
0
100
AcDbLine
 10
4.905415223068
 20
1310.131635396485
 30
0.0
 11
6.023183688332
 21
1311.463666032486
 31
0.0
  0
LINE
  5
167D
330
1D
100
AcDbEntity
  8
0
100
AcDbLine
 10
5.250135223068
 20
1309.841635396485
 30
0.0
 11
6.054475223068
 21
1309.166635396485
 31
0.0
  0
LINE
  5
167E
330
1D
100
AcDbEntity
  8
0
100
AcDbLine
 10
5.666115223068
 20
1311.743635396485
 30
0.0
 11
5.963615223068
 21
1311.539635396485
 31
0.0
  0
LINE
  5
167F
330
1D
100
AcDbEntity
  8
0
100
AcDbLine
 10
5.666115223068
 20
1311.743635396485
 30
0.0
 11
5.750185223068
 21
1311.463635396485
 31
0.0
  0
LINE
  5
1680
330
1D
100
AcDbEntity
  8
0
100
AcDbLine
 10
4.856585223068
 20
1311.682635396485
 30
0.0
 11
5.426801111545
 21
1310.752964408899
 31
0.0
  0
LINE
  5
1681
330
1D
100
AcDbEntity
  8
0
100
AcDbLine
 10
4.342455223068
 20
1312.496635396485
 30
0.0
 11
4.856585223068
 21
1311.682635396485
 31
0.0
  0
LINE
  5
1682
330
1D
100
AcDbEntity
  8
0
100
AcDbLine
 10
4.062665223068
 20
1312.562635396485
 30
0.0
 11
4.215009849435
 21
1312.309231463497
 31
0.0
  0
LINE
  5
1683
330
1D
100
AcDbEntity
  8
0
100
AcDbLine
 10
7.299705223068
 20
1309.694635396485
 30
0.0
 11
7.956865223068
 21
1308.584635396485
 31
0.0
  0
LINE
  5
1684
330
1D
100
AcDbEntity
  8
0
100
AcDbLine
 10
6.818925223068
 20
1310.411635396485
 30
0.0
 11
7.299705223068
 21
1309.694635396485
 31
0.0
  0
LINE
  5
1685
330
1D
100
AcDbEntity
  8
0
100
AcDbLine
 10
5.750185223068
 20
1311.463635396485
 30
0.0
 11
5.852990982964
 21
1311.260849523862
 31
0.0
  0
LINE
  5
1686
330
1D
100
AcDbEntity
  8
0
100
AcDbLine
 10
6.427025223068
 20
1310.948635396485
 30
0.0
 11
6.818925223068
 21
1310.411635396485
 31
0.0
  0
LINE
  5
1687
330
1D
100
AcDbEntity
  8
0
100
AcDbLine
 10
6.774825223068
 20
1331.036635396485
 30
0.0
 11
7.022285223068
 21
1331.053635396485
 31
0.0
  0
LINE
  5
1688
330
1D
100
AcDbEntity
  8
0
100
AcDbLine
 10
6.343685223068
 20
1330.781635396485
 30
0.0
 11
6.774825223068
 21
1331.036635396485
 31
0.0
  0
LINE
  5
1689
330
1D
100
AcDbEntity
  8
0
100
AcDbLine
 10
7.267915223068
 20
1330.986635396485
 30
0.0
 11
13.609895223068
 21
1327.863635396485
 31
0.0
  0
LINE
  5
168A
330
1D
100
AcDbEntity
  8
0
100
AcDbLine
 10
7.022285223068
 20
1331.053635396485
 30
0.0
 11
7.267915223068
 21
1330.986635396485
 31
0.0
  0
LINE
  5
168B
330
1D
100
AcDbEntity
  8
0
100
AcDbLine
 10
5.963615223068
 20
1311.539635396485
 30
0.0
 11
6.427025223068
 21
1310.948635396485
 31
0.0
  0
LINE
  5
168C
330
1D
100
AcDbEntity
  8
0
100
AcDbLine
 10
8.950915223068
 20
1309.668635396485
 30
0.0
 11
9.540935223068
 21
1309.220635396485
 31
0.0
  0
LINE
  5
168D
330
1D
100
AcDbEntity
  8
0
100
AcDbLine
 10
13.609895223068
 20
1327.863635396485
 30
0.0
 11
20.062395223068
 21
1324.433635396485
 31
0.0
  0
LINE
  5
168E
330
1D
100
AcDbEntity
  8
0
100
AcDbLine
 10
20.062395223068
 20
1324.433635396485
 30
0.0
 11
26.394895223068
 21
1320.810635396485
 31
0.0
  0
LINE
  5
168F
330
1D
100
AcDbEntity
  8
0
100
AcDbLine
 10
7.574145223068
 20
1306.769635396485
 30
0.0
 11
7.608385223068
 21
1306.669635396485
 31
0.0
  0
LINE
  5
1690
330
1D
100
AcDbEntity
  8
0
100
AcDbLine
 10
23.025395223068
 20
1294.741635396485
 30
0.0
 11
23.370095223068
 21
1294.451635396485
 31
0.0
  0
LINE
  5
1691
330
1D
100
AcDbEntity
  8
0
100
AcDbLine
 10
23.025395223068
 20
1294.741635396485
 30
0.0
 11
24.407127463283
 21
1296.388243716602
 31
0.0
  0
LINE
  5
1692
330
1D
100
AcDbEntity
  8
0
100
AcDbLine
 10
23.370095223068
 20
1294.451635396485
 30
0.0
 11
24.174495223068
 21
1293.776635396485
 31
0.0
  0
LINE
  5
1693
330
1D
100
AcDbEntity
  8
0
100
AcDbLine
 10
24.174495223068
 20
1293.776635396485
 30
0.0
 11
24.978795223068
 21
1293.102635396485
 31
0.0
  0
LINE
  5
1694
330
1D
100
AcDbEntity
  8
0
100
AcDbLine
 10
24.978795223068
 20
1293.102635396485
 30
0.0
 11
25.323495223068
 21
1292.812635396485
 31
0.0
  0
LINE
  5
1695
330
1D
100
AcDbEntity
  8
0
100
AcDbLine
 10
25.323495223068
 20
1292.812635396485
 30
0.0
 11
26.512381554506
 21
1294.229755351599
 31
0.0
  0
LINE
  5
1696
330
1D
100
AcDbEntity
  8
0
100
AcDbLine
 10
26.660595223068
 20
1293.004635396485
 30
0.0
 11
26.878195223068
 21
1293.121635396485
 31
0.0
  0
LINE
  5
1697
330
1D
100
AcDbEntity
  8
0
100
AcDbLine
 10
25.807349361162
 20
1293.389376281064
 30
0.0
 11
26.116495223068
 21
1293.163635396485
 31
0.0
  0
LINE
  5
1698
330
1D
100
AcDbEntity
  8
0
100
AcDbLine
 10
25.985295223068
 20
1294.987635396485
 30
0.0
 11
26.615395223068
 21
1294.081635396485
 31
0.0
  0
LINE
  5
1699
330
1D
100
AcDbEntity
  8
0
100
AcDbLine
 10
26.615395223068
 20
1294.081635396485
 30
0.0
 11
26.849595223068
 21
1293.545635396485
 31
0.0
  0
LINE
  5
169A
330
1D
100
AcDbEntity
  8
0
100
AcDbLine
 10
26.116495223068
 20
1293.163635396485
 30
0.0
 11
26.660595223068
 21
1293.004635396485
 31
0.0
  0
LINE
  5
169B
330
1D
100
AcDbEntity
  8
0
100
AcDbLine
 10
26.849595223068
 20
1293.545635396485
 30
0.0
 11
26.878195223068
 21
1293.121635396485
 31
0.0
  0
LINE
  5
169C
330
1D
100
AcDbEntity
  8
0
100
AcDbLine
 10
25.132760358807
 20
1292.973102790264
 30
0.0
 11
25.199095223068
 21
1292.914635396485
 31
0.0
  0
LINE
  5
169D
330
1D
100
AcDbEntity
  8
0
100
AcDbLine
 10
23.333095223068
 20
1296.613635396485
 30
0.0
 11
23.365695223068
 21
1296.241635396485
 31
0.0
  0
LINE
  5
169E
330
1D
100
AcDbEntity
  8
0
100
AcDbLine
 10
23.333095223068
 20
1296.613635396485
 30
0.0
 11
23.496195223068
 21
1296.753635396485
 31
0.0
  0
LINE
  5
169F
330
1D
100
AcDbEntity
  8
0
100
AcDbLine
 10
24.686595223068
 20
1296.200635396485
 30
0.0
 11
25.221095223068
 21
1295.755635396485
 31
0.0
  0
LINE
  5
16A0
330
1D
100
AcDbEntity
  8
0
100
AcDbLine
 10
25.221095223068
 20
1295.755635396485
 30
0.0
 11
25.985295223068
 21
1294.987635396485
 31
0.0
  0
LINE
  5
16A1
330
1D
100
AcDbEntity
  8
0
100
AcDbLine
 10
24.197995223068
 20
1296.528635396485
 30
0.0
 11
24.686595223068
 21
1296.200635396485
 31
0.0
  0
LINE
  5
16A2
330
1D
100
AcDbEntity
  8
0
100
AcDbLine
 10
26.394895223068
 20
1320.810635396485
 30
0.0
 11
35.265495223068
 21
1315.305635396485
 31
0.0
  0
LINE
  5
16A3
330
1D
100
AcDbEntity
  8
0
100
AcDbLine
 10
23.496195223068
 20
1296.753635396485
 30
0.0
 11
23.787495223068
 21
1296.717635396485
 31
0.0
  0
LINE
  5
16A4
330
1D
100
AcDbEntity
  8
0
100
AcDbLine
 10
23.787495223068
 20
1296.717635396485
 30
0.0
 11
24.197995223068
 21
1296.528635396485
 31
0.0
  0
LINE
  5
16A5
330
1D
100
AcDbEntity
  8
0
100
AcDbLine
 10
23.36103811054
 20
1296.29477790754
 30
0.0
 11
23.614177587036
 21
1295.710233609158
 31
0.0
  0
LINE
  5
16A6
330
1D
100
AcDbEntity
  8
0
100
AcDbLine
 10
23.585995223068
 20
1295.751635396485
 30
0.0
 11
23.714504763129
 21
1295.562846242632
 31
0.0
  0
LINE
  5
16A7
330
1D
100
AcDbEntity
  8
0
100
AcDbLine
 10
22.212395223068
 20
1288.045635396485
 30
0.0
 11
22.262495223068
 21
1287.950635396485
 31
0.0
  0
LINE
  5
16A8
330
1D
100
AcDbEntity
  8
0
100
AcDbLine
 10
28.332295223068
 20
1287.351635396485
 30
0.0
 11
28.676995223068
 21
1287.061635396485
 31
0.0
  0
LINE
  5
16A9
330
1D
100
AcDbEntity
  8
0
100
AcDbLine
 10
28.332295223068
 20
1287.351635396485
 30
0.0
 11
29.399966714283
 21
1288.62397797446
 31
0.0
  0
LINE
  5
16AA
330
1D
100
AcDbEntity
  8
0
100
AcDbLine
 10
28.375095223068
 20
1284.806635396485
 30
0.0
 11
31.046995223068
 21
1282.638635396485
 31
0.0
  0
LINE
  5
16AB
330
1D
100
AcDbEntity
  8
0
100
AcDbLine
 10
28.408295223068
 20
1288.702635396485
 30
0.0
 11
28.434295223068
 21
1288.965635396485
 31
0.0
  0
LINE
  5
16AC
330
1D
100
AcDbEntity
  8
0
100
AcDbLine
 10
28.408295223068
 20
1288.702635396485
 30
0.0
 11
28.602695223068
 21
1288.257635396485
 31
0.0
  0
LINE
  5
16AD
330
1D
100
AcDbEntity
  8
0
100
AcDbLine
 10
28.434295223068
 20
1288.965635396485
 30
0.0
 11
28.650795223068
 21
1289.022635396485
 31
0.0
  0
LINE
  5
16AE
330
1D
100
AcDbEntity
  8
0
100
AcDbLine
 10
28.100895223068
 20
1287.688635396485
 30
0.0
 11
28.397795001933
 21
1287.429691388599
 31
0.0
  0
LINE
  5
16AF
330
1D
100
AcDbEntity
  8
0
100
AcDbLine
 10
28.676995223068
 20
1287.061635396485
 30
0.0
 11
29.481295223068
 21
1286.386635396485
 31
0.0
  0
LINE
  5
16B0
330
1D
100
AcDbEntity
  8
0
100
AcDbLine
 10
28.602695223068
 20
1288.257635396485
 30
0.0
 11
28.82494499889
 21
1287.938725424612
 31
0.0
  0
LINE
  5
16B1
330
1D
100
AcDbEntity
  8
0
100
AcDbLine
 10
28.650795223068
 20
1289.022635396485
 30
0.0
 11
29.013195223068
 21
1288.903635396485
 31
0.0
  0
LINE
  5
16B2
330
1D
100
AcDbEntity
  8
0
100
AcDbLine
 10
29.481295223068
 20
1286.386635396485
 30
0.0
 11
30.285695223068
 21
1285.711635396485
 31
0.0
  0
LINE
  5
16B3
330
1D
100
AcDbEntity
  8
0
100
AcDbLine
 10
29.013195223068
 20
1288.903635396485
 30
0.0
 11
30.405895223068
 21
1287.896635396485
 31
0.0
  0
LINE
  5
16B4
330
1D
100
AcDbEntity
  8
0
100
AcDbLine
 10
29.916695223068
 20
1279.696635396485
 30
0.0
 11
29.920595223068
 21
1279.813635396485
 31
0.0
  0
LINE
  5
16B5
330
1D
100
AcDbEntity
  8
0
100
AcDbLine
 10
30.218395223068
 20
1280.481635396485
 30
0.0
 11
31.061508103913
 21
1281.486371801985
 31
0.0
  0
LINE
  5
16B6
330
1D
100
AcDbEntity
  8
0
100
AcDbLine
 10
30.285695223068
 20
1285.711635396485
 30
0.0
 11
30.630395223068
 21
1285.422635396485
 31
0.0
  0
LINE
  5
16B7
330
1D
100
AcDbEntity
  8
0
100
AcDbLine
 10
30.270495223068
 20
1282.361635396485
 30
0.0
 11
30.970395223068
 21
1281.615635396485
 31
0.0
  0
LINE
  5
16B8
330
1D
100
AcDbEntity
  8
0
100
AcDbLine
 10
30.630395223068
 20
1285.422635396485
 30
0.0
 11
31.590168996911
 21
1286.566396420107
 31
0.0
  0
LINE
  5
16B9
330
1D
100
AcDbEntity
  8
0
100
AcDbLine
 10
30.405895223068
 20
1287.896635396485
 30
0.0
 11
31.001195223068
 21
1287.307635396485
 31
0.0
  0
LINE
  5
16BA
330
1D
100
AcDbEntity
  8
0
100
AcDbLine
 10
30.739795223068
 20
1279.772635396485
 30
0.0
 11
31.328795223068
 21
1279.595635396485
 31
0.0
  0
LINE
  5
16BB
330
1D
100
AcDbEntity
  8
0
100
AcDbLine
 10
36.492095223068
 20
1279.617635396485
 30
0.0
 11
36.823995223068
 21
1279.110635396485
 31
0.0
  0
LINE
  5
16BC
330
1D
100
AcDbEntity
  8
0
100
AcDbLine
 10
31.328795223068
 20
1279.595635396485
 30
0.0
 11
32.274179032555
 21
1279.188588366484
 31
0.0
  0
LINE
  5
16BD
330
1D
100
AcDbEntity
  8
0
100
AcDbLine
 10
33.543495223068
 20
1280.041635396485
 30
0.0
 11
34.347895223068
 21
1279.366635396485
 31
0.0
  0
LINE
  5
16BE
330
1D
100
AcDbEntity
  8
0
100
AcDbLine
 10
36.097295223068
 20
1280.089635396485
 30
0.0
 11
36.492095223068
 21
1279.617635396485
 31
0.0
  0
LINE
  5
16BF
330
1D
100
AcDbEntity
  8
0
100
AcDbLine
 10
33.198795223068
 20
1280.330635396485
 30
0.0
 11
33.543495223068
 21
1280.041635396485
 31
0.0
  0
LINE
  5
16C0
330
1D
100
AcDbEntity
  8
0
100
AcDbLine
 10
33.198795223068
 20
1280.330635396485
 30
0.0
 11
34.302166464024
 21
1281.645521314797
 31
0.0
  0
LINE
  5
16C1
330
1D
100
AcDbEntity
  8
0
100
AcDbLine
 10
33.198795223068
 20
1280.330635396485
 30
0.0
 11
34.302166464024
 21
1281.645521314797
 31
0.0
  0
LINE
  5
16C2
330
1D
100
AcDbEntity
  8
0
100
AcDbLine
 10
35.605195223068
 20
1280.595635396485
 30
0.0
 11
36.097295223068
 21
1280.089635396485
 31
0.0
  0
LINE
  5
16C3
330
1D
100
AcDbEntity
  8
0
100
AcDbLine
 10
31.173995223068
 20
1280.870635396485
 30
0.0
 11
31.451595223068
 21
1280.804635396485
 31
0.0
  0
LINE
  5
16C4
330
1D
100
AcDbEntity
  8
0
100
AcDbLine
 10
36.952395223068
 20
1280.125635396485
 30
0.0
 11
39.671339450079
 21
1277.722709415419
 31
0.0
  0
LINE
  5
16C5
330
1D
100
AcDbEntity
  8
0
100
AcDbLine
 10
36.952395223068
 20
1280.125635396485
 30
0.0
 11
39.67040432222
 21
1277.721595024897
 31
0.0
  0
LINE
  5
16C6
330
1D
100
AcDbEntity
  8
0
100
AcDbLine
 10
30.78302012122
 20
1281.154498074204
 30
0.0
 11
31.173995223068
 21
1280.870635396485
 31
0.0
  0
LINE
  5
16C7
330
1D
100
AcDbEntity
  8
0
100
AcDbLine
 10
31.376395223068
 20
1281.039635396485
 30
0.0
 11
31.451595223068
 21
1280.804635396485
 31
0.0
  0
LINE
  5
16C8
330
1D
100
AcDbEntity
  8
0
100
AcDbLine
 10
30.970395223068
 20
1281.615635396485
 30
0.0
 11
31.376395223068
 21
1281.039635396485
 31
0.0
  0
LINE
  5
16C9
330
1D
100
AcDbEntity
  8
0
100
AcDbLine
 10
31.046995223068
 20
1282.638635396485
 30
0.0
 11
33.020395223068
 21
1280.965635396485
 31
0.0
  0
LINE
  5
16CA
330
1D
100
AcDbEntity
  8
0
100
AcDbLine
 10
30.979495223068
 20
1285.818635396485
 30
0.0
 11
31.446295223068
 21
1285.553635396485
 31
0.0
  0
LINE
  5
16CB
330
1D
100
AcDbEntity
  8
0
100
AcDbLine
 10
31.001195223068
 20
1287.307635396485
 30
0.0
 11
31.438995223068
 21
1286.789635396485
 31
0.0
  0
LINE
  5
16CC
330
1D
100
AcDbEntity
  8
0
100
AcDbLine
 10
31.446295223068
 20
1285.553635396485
 30
0.0
 11
31.915495223068
 21
1285.448635396485
 31
0.0
  0
LINE
  5
16CD
330
1D
100
AcDbEntity
  8
0
100
AcDbLine
 10
31.438995223068
 20
1286.789635396485
 30
0.0
 11
31.818895223068
 21
1286.228635396485
 31
0.0
  0
LINE
  5
16CE
330
1D
100
AcDbEntity
  8
0
100
AcDbLine
 10
31.915495223068
 20
1285.448635396485
 30
0.0
 11
32.008495223068
 21
1285.757635396485
 31
0.0
  0
LINE
  5
16CF
330
1D
100
AcDbEntity
  8
0
100
AcDbLine
 10
32.157595223068
 20
1287.047635396485
 30
0.0
 11
32.502295223068
 21
1286.758635396485
 31
0.0
  0
LINE
  5
16D0
330
1D
100
AcDbEntity
  8
0
100
AcDbLine
 10
32.157595223068
 20
1287.047635396485
 30
0.0
 11
33.245843089297
 21
1288.344498810922
 31
0.0
  0
LINE
  5
16D1
330
1D
100
AcDbEntity
  8
0
100
AcDbLine
 10
32.157595223068
 20
1287.047635396485
 30
0.0
 11
33.245843089297
 21
1288.344498810922
 31
0.0
  0
LINE
  5
16D2
330
1D
100
AcDbEntity
  8
0
100
AcDbLine
 10
32.502295223068
 20
1286.758635396485
 30
0.0
 11
33.306595223068
 21
1286.083635396485
 31
0.0
  0
LINE
  5
16D3
330
1D
100
AcDbEntity
  8
0
100
AcDbLine
 10
32.356795223068
 20
1288.412635396485
 30
0.0
 11
32.515095223068
 21
1287.754635396485
 31
0.0
  0
LINE
  5
16D4
330
1D
100
AcDbEntity
  8
0
100
AcDbLine
 10
32.356795223068
 20
1288.412635396485
 30
0.0
 11
32.700895223068
 21
1288.551635396485
 31
0.0
  0
LINE
  5
16D5
330
1D
100
AcDbEntity
  8
0
100
AcDbLine
 10
32.515095223068
 20
1287.754635396485
 30
0.0
 11
32.62773003282
 21
1287.607894371982
 31
0.0
  0
LINE
  5
16D6
330
1D
100
AcDbEntity
  8
0
100
AcDbLine
 10
31.818895223068
 20
1286.228635396485
 30
0.0
 11
32.008495223068
 21
1285.757635396485
 31
0.0
  0
LINE
  5
16D7
330
1D
100
AcDbEntity
  8
0
100
AcDbLine
 10
32.62773003282
 20
1287.607894371982
 30
0.0
 11
33.245843089297
 21
1288.344498810922
 31
0.0
  0
LINE
  5
16D8
330
1D
100
AcDbEntity
  8
0
100
AcDbLine
 10
33.035895223068
 20
1288.454635396485
 30
0.0
 11
33.462895223068
 21
1288.230635396485
 31
0.0
  0
LINE
  5
16D9
330
1D
100
AcDbEntity
  8
0
100
AcDbLine
 10
32.700895223068
 20
1288.551635396485
 30
0.0
 11
33.035895223068
 21
1288.454635396485
 31
0.0
  0
LINE
  5
16DA
330
1D
100
AcDbEntity
  8
0
100
AcDbLine
 10
33.826289857172
 20
1281.078419847968
 30
0.0
 11
34.302166464024
 21
1281.645521314797
 31
0.0
  0
LINE
  5
16DB
330
1D
100
AcDbEntity
  8
0
100
AcDbLine
 10
33.826289857172
 20
1281.078419847968
 30
0.0
 11
34.302166464024
 21
1281.645521314797
 31
0.0
  0
LINE
  5
16DC
330
1D
100
AcDbEntity
  8
0
100
AcDbLine
 10
33.404195223068
 20
1281.462635396485
 30
0.0
 11
33.76526420732
 21
1281.005695668954
 31
0.0
  0
LINE
  5
16DD
330
1D
100
AcDbEntity
  8
0
100
AcDbLine
 10
34.781995223068
 20
1281.332635396485
 30
0.0
 11
35.605195223068
 21
1280.595635396485
 31
0.0
  0
LINE
  5
16DE
330
1D
100
AcDbEntity
  8
0
100
AcDbLine
 10
33.872595223068
 20
1281.925635396485
 30
0.0
 11
34.781995223068
 21
1281.332635396485
 31
0.0
  0
LINE
  5
16DF
330
1D
100
AcDbEntity
  8
0
100
AcDbLine
 10
34.455695223068
 20
1285.119635396485
 30
0.0
 11
35.36920569236
 21
1286.208230635249
 31
0.0
  0
LINE
  5
16E0
330
1D
100
AcDbEntity
  8
0
100
AcDbLine
 10
33.306595223068
 20
1286.083635396485
 30
0.0
 11
34.110995223068
 21
1285.408635396485
 31
0.0
  0
LINE
  5
16E1
330
1D
100
AcDbEntity
  8
0
100
AcDbLine
 10
34.110995223068
 20
1285.408635396485
 30
0.0
 11
34.455695223068
 21
1285.119635396485
 31
0.0
  0
LINE
  5
16E2
330
1D
100
AcDbEntity
  8
0
100
AcDbLine
 10
34.242395223068
 20
1287.669635396485
 30
0.0
 11
34.892895223068
 21
1286.968635396485
 31
0.0
  0
LINE
  5
16E3
330
1D
100
AcDbEntity
  8
0
100
AcDbLine
 10
33.462895223068
 20
1288.230635396485
 30
0.0
 11
34.242395223068
 21
1287.669635396485
 31
0.0
  0
LINE
  5
16E4
330
1D
100
AcDbEntity
  8
0
100
AcDbLine
 10
34.270444520774
 20
1285.274951477028
 30
0.0
 11
37.045395223068
 21
1282.826635396485
 31
0.0
  0
LINE
  5
16E5
330
1D
100
AcDbEntity
  8
0
100
AcDbLine
 10
34.270444520774
 20
1285.274951477028
 30
0.0
 11
37.045395223068
 21
1282.826635396485
 31
0.0
  0
LINE
  5
16E6
330
1D
100
AcDbEntity
  8
0
100
AcDbLine
 10
35.123295223068
 20
1285.519635396485
 30
0.0
 11
35.508395223068
 21
1285.791635396485
 31
0.0
  0
LINE
  5
16E7
330
1D
100
AcDbEntity
  8
0
100
AcDbLine
 10
37.045395223068
 20
1282.826635396485
 30
0.0
 11
40.976825135411
 21
1279.385696555251
 31
0.0
  0
LINE
  5
16E8
330
1D
100
AcDbEntity
  8
0
100
AcDbLine
 10
35.293895223068
 20
1286.433635396485
 30
0.0
 11
35.508395223068
 21
1285.791635396485
 31
0.0
  0
LINE
  5
16E9
330
1D
100
AcDbEntity
  8
0
100
AcDbLine
 10
35.265495223068
 20
1315.305635396485
 30
0.0
 11
43.911395223068
 21
1309.451635396485
 31
0.0
  0
LINE
  5
16EA
330
1D
100
AcDbEntity
  8
0
100
AcDbLine
 10
34.892895223068
 20
1286.968635396485
 30
0.0
 11
35.293895223068
 21
1286.433635396485
 31
0.0
  0
LINE
  5
16EB
330
1D
100
AcDbEntity
  8
0
100
AcDbLine
 10
34.882934810582
 20
1285.628760356093
 30
0.0
 11
35.123295223068
 21
1285.519635396485
 31
0.0
  0
LINE
  5
16EC
330
1D
100
AcDbEntity
  8
0
100
AcDbLine
 10
33.257095223068
 20
1282.056635396485
 30
0.0
 11
33.404195223068
 21
1281.462635396485
 31
0.0
  0
LINE
  5
16ED
330
1D
100
AcDbEntity
  8
0
100
AcDbLine
 10
33.257095223068
 20
1282.056635396485
 30
0.0
 11
33.872595223068
 21
1281.925635396485
 31
0.0
  0
LINE
  5
16EE
330
1D
100
AcDbEntity
  8
0
100
AcDbLine
 10
33.020395223068
 20
1280.965635396485
 30
0.0
 11
33.431928635177
 21
1280.608460147839
 31
0.0
  0
LINE
  5
16EF
330
1D
100
AcDbEntity
  8
0
100
AcDbLine
 10
29.901395223068
 20
1279.571635396485
 30
0.0
 11
29.958795223068
 21
1279.467635396485
 31
0.0
  0
LINE
  5
16F0
330
1D
100
AcDbEntity
  8
0
100
AcDbLine
 10
29.901395223068
 20
1279.571635396485
 30
0.0
 11
29.912595223068
 21
1279.685635396485
 31
0.0
  0
LINE
  5
16F1
330
1D
100
AcDbEntity
  8
0
100
AcDbLine
 10
29.958795223068
 20
1279.467635396485
 30
0.0
 11
33.422495223068
 21
1276.158635396485
 31
0.0
  0
LINE
  5
16F2
330
1D
100
AcDbEntity
  8
0
100
AcDbLine
 10
53.505095223068
 20
1258.779635396485
 30
0.0
 11
53.621295223068
 21
1258.733635396485
 31
0.0
  0
LINE
  5
16F3
330
1D
100
AcDbEntity
  8
0
100
AcDbLine
 10
56.603895223068
 20
1255.400635396485
 30
0.0
 11
56.948595223068
 21
1255.111635396485
 31
0.0
  0
LINE
  5
16F4
330
1D
100
AcDbEntity
  8
0
100
AcDbLine
 10
56.603895223068
 20
1255.400635396485
 30
0.0
 11
57.161963703979
 21
1256.065684801224
 31
0.0
  0
LINE
  5
16F5
330
1D
100
AcDbEntity
  8
0
100
AcDbLine
 10
56.603895223068
 20
1255.400635396485
 30
0.0
 11
57.304465591389
 21
1256.23550409516
 31
0.0
  0
LINE
  5
16F6
330
1D
100
AcDbEntity
  8
0
100
AcDbLine
 10
56.948595223068
 20
1255.111635396485
 30
0.0
 11
57.752895223068
 21
1254.436635396485
 31
0.0
  0
LINE
  5
16F7
330
1D
100
AcDbEntity
  8
0
100
AcDbLine
 10
58.389495223068
 20
1255.395635396485
 30
0.0
 11
59.224857883382
 21
1256.391135875343
 31
0.0
  0
LINE
  5
16F8
330
1D
100
AcDbEntity
  8
0
100
AcDbLine
 10
58.044695223068
 20
1255.684635396485
 30
0.0
 11
58.389495223068
 21
1255.395635396485
 31
0.0
  0
LINE
  5
16F9
330
1D
100
AcDbEntity
  8
0
100
AcDbLine
 10
57.752895223068
 20
1254.436635396485
 30
0.0
 11
58.557295223068
 21
1253.761635396485
 31
0.0
  0
LINE
  5
16FA
330
1D
100
AcDbEntity
  8
0
100
AcDbLine
 10
58.557295223068
 20
1253.761635396485
 30
0.0
 11
58.901995223068
 21
1253.471635396485
 31
0.0
  0
LINE
  5
16FB
330
1D
100
AcDbEntity
  8
0
100
AcDbLine
 10
58.901995223068
 20
1253.471635396485
 30
0.0
 11
59.470051431894
 21
1254.148763912
 31
0.0
  0
LINE
  5
16FC
330
1D
100
AcDbEntity
  8
0
100
AcDbLine
 10
59.470051431894
 20
1254.148763912
 30
0.0
 11
62.462295223068
 21
1251.663635396485
 31
0.0
  0
LINE
  5
16FD
330
1D
100
AcDbEntity
  8
0
100
AcDbLine
 10
58.851995223068
 20
1254.991635396485
 30
0.0
 11
59.883195223068
 21
1254.068635396485
 31
0.0
  0
LINE
  5
16FE
330
1D
100
AcDbEntity
  8
0
100
AcDbLine
 10
57.670995223068
 20
1255.956635396485
 30
0.0
 11
58.851995223068
 21
1254.991635396485
 31
0.0
  0
LINE
  5
16FF
330
1D
100
AcDbEntity
  8
0
100
AcDbLine
 10
59.945195223068
 20
1253.862635396485
 30
0.0
 11
60.219695223068
 21
1253.710635396485
 31
0.0
  0
LINE
  5
1700
330
1D
100
AcDbEntity
  8
0
100
AcDbLine
 10
59.524006605918
 20
1254.213079003223
 30
0.0
 11
59.608841106205
 21
1254.314202551125
 31
0.0
  0
LINE
  5
1701
330
1D
100
AcDbEntity
  8
0
100
AcDbLine
 10
59.883195223068
 20
1254.068635396485
 30
0.0
 11
60.219695223068
 21
1253.710635396485
 31
0.0
  0
LINE
  5
1702
330
1D
100
AcDbEntity
  8
0
100
AcDbLine
 10
59.470051431894
 20
1254.148763912
 30
0.0
 11
62.462295223068
 21
1251.663635396485
 31
0.0
  0
LINE
  5
1703
330
1D
100
AcDbEntity
  8
0
100
AcDbLine
 10
56.091295223068
 20
1257.323635396485
 30
0.0
 11
56.435995223068
 21
1257.034635396485
 31
0.0
  0
LINE
  5
1704
330
1D
100
AcDbEntity
  8
0
100
AcDbLine
 10
56.091295223068
 20
1257.323635396485
 30
0.0
 11
56.90144304264
 21
1258.289309415397
 31
0.0
  0
LINE
  5
1705
330
1D
100
AcDbEntity
  8
0
100
AcDbLine
 10
56.435995223068
 20
1257.034635396485
 30
0.0
 11
57.240395223068
 21
1256.359635396485
 31
0.0
  0
LINE
  5
1706
330
1D
100
AcDbEntity
  8
0
100
AcDbLine
 10
57.240395223068
 20
1256.359635396485
 30
0.0
 11
58.044695223068
 21
1255.684635396485
 31
0.0
  0
LINE
  5
1707
330
1D
100
AcDbEntity
  8
0
100
AcDbLine
 10
57.206283177905
 20
1256.118500254454
 30
0.0
 11
57.304465591389
 21
1256.23550409516
 31
0.0
  0
LINE
  5
1708
330
1D
100
AcDbEntity
  8
0
100
AcDbLine
 10
58.991681454765
 20
1256.113259861279
 30
0.0
 11
59.151295223068
 21
1256.017635396485
 31
0.0
  0
LINE
  5
1709
330
1D
100
AcDbEntity
  8
0
100
AcDbLine
 10
59.430695223068
 20
1256.116635396485
 30
0.0
 11
59.465395223068
 21
1255.940635396485
 31
0.0
  0
LINE
  5
170A
330
1D
100
AcDbEntity
  8
0
100
AcDbLine
 10
58.252695223068
 20
1257.339635396485
 30
0.0
 11
59.159995223068
 21
1256.477635396485
 31
0.0
  0
LINE
  5
170B
330
1D
100
AcDbEntity
  8
0
100
AcDbLine
 10
59.159995223068
 20
1256.477635396485
 30
0.0
 11
59.430695223068
 21
1256.116635396485
 31
0.0
  0
LINE
  5
170C
330
1D
100
AcDbEntity
  8
0
100
AcDbLine
 10
59.151295223068
 20
1256.017635396485
 30
0.0
 11
59.465395223068
 21
1255.940635396485
 31
0.0
  0
LINE
  5
170D
330
1D
100
AcDbEntity
  8
0
100
AcDbLine
 10
65.380695223068
 20
1249.239635396485
 30
0.0
 11
65.555676058455
 21
1249.448159805935
 31
0.0
  0
LINE
  5
170E
330
1D
100
AcDbEntity
  8
0
100
AcDbLine
 10
65.380695223068
 20
1249.239635396485
 30
0.0
 11
65.725395223068
 21
1248.950635396485
 31
0.0
  0
LINE
  5
170F
330
1D
100
AcDbEntity
  8
0
100
AcDbLine
 10
65.380695223068
 20
1249.239635396485
 30
0.0
 11
66.13588801601
 21
1250.139597559891
 31
0.0
  0
LINE
  5
1710
330
1D
100
AcDbEntity
  8
0
100
AcDbLine
 10
67.946895223068
 20
1246.216635396485
 30
0.0
 11
68.583979844663
 21
1246.975824600191
 31
0.0
  0
LINE
  5
1711
330
1D
100
AcDbEntity
  8
0
100
AcDbLine
 10
67.602195223068
 20
1246.505635396485
 30
0.0
 11
67.946895223068
 21
1246.216635396485
 31
0.0
  0
LINE
  5
1712
330
1D
100
AcDbEntity
  8
0
100
AcDbLine
 10
69.233695223068
 20
1246.431635396485
 30
0.0
 11
71.775895223068
 21
1244.350635396485
 31
0.0
  0
LINE
  5
1713
330
1D
100
AcDbEntity
  8
0
100
AcDbLine
 10
68.879795223068
 20
1246.728635396485
 30
0.0
 11
69.233695223068
 21
1246.431635396485
 31
0.0
  0
LINE
  5
1714
330
1D
100
AcDbEntity
  8
0
100
AcDbLine
 10
66.529795223068
 20
1248.275635396485
 30
0.0
 11
67.334095223068
 21
1247.600635396485
 31
0.0
  0
LINE
  5
1715
330
1D
100
AcDbEntity
  8
0
100
AcDbLine
 10
65.648795223068
 20
1248.145635396485
 30
0.0
 11
65.993495223068
 21
1247.855635396485
 31
0.0
  0
LINE
  5
1716
330
1D
100
AcDbEntity
  8
0
100
AcDbLine
 10
65.648795223068
 20
1248.145635396485
 30
0.0
 11
66.076835138866
 21
1248.6557299475
 31
0.0
  0
LINE
  5
1717
330
1D
100
AcDbEntity
  8
0
100
AcDbLine
 10
65.993495223068
 20
1247.855635396485
 30
0.0
 11
66.797895223068
 21
1247.180635396485
 31
0.0
  0
LINE
  5
1718
330
1D
100
AcDbEntity
  8
0
100
AcDbLine
 10
67.678795223068
 20
1247.311635396485
 30
0.0
 11
68.470552336995
 21
1248.255141851476
 31
0.0
  0
LINE
  5
1719
330
1D
100
AcDbEntity
  8
0
100
AcDbLine
 10
67.334095223068
 20
1247.600635396485
 30
0.0
 11
67.678795223068
 21
1247.311635396485
 31
0.0
  0
LINE
  5
171A
330
1D
100
AcDbEntity
  8
0
100
AcDbLine
 10
66.797895223068
 20
1247.180635396485
 30
0.0
 11
67.602195223068
 21
1246.505635396485
 31
0.0
  0
LINE
  5
171B
330
1D
100
AcDbEntity
  8
0
100
AcDbLine
 10
65.725395223068
 20
1248.950635396485
 30
0.0
 11
66.076835138866
 21
1248.6557299475
 31
0.0
  0
LINE
  5
171C
330
1D
100
AcDbEntity
  8
0
100
AcDbLine
 10
65.725395223068
 20
1248.950635396485
 30
0.0
 11
66.529795223068
 21
1248.275635396485
 31
0.0
  0
LINE
  5
171D
330
1D
100
AcDbEntity
  8
0
100
AcDbLine
 10
67.885178490461
 20
1247.557574386564
 30
0.0
 11
68.077995223068
 21
1247.398635396485
 31
0.0
  0
LINE
  5
171E
330
1D
100
AcDbEntity
  8
0
100
AcDbLine
 10
67.185895223068
 20
1249.409635396485
 30
0.0
 11
68.037595223068
 21
1248.696635396485
 31
0.0
  0
LINE
  5
171F
330
1D
100
AcDbEntity
  8
0
100
AcDbLine
 10
68.077995223068
 20
1247.398635396485
 30
0.0
 11
68.879795223068
 21
1246.728635396485
 31
0.0
  0
LINE
  5
1720
330
1D
100
AcDbEntity
  8
0
100
AcDbLine
 10
68.273473230965
 20
1248.020290272106
 30
0.0
 11
68.741095223068
 21
1247.778635396485
 31
0.0
  0
LINE
  5
1721
330
1D
100
AcDbEntity
  8
0
100
AcDbLine
 10
68.686795223068
 20
1248.034635396485
 30
0.0
 11
68.741095223068
 21
1247.778635396485
 31
0.0
  0
LINE
  5
1722
330
1D
100
AcDbEntity
  8
0
100
AcDbLine
 10
68.037595223068
 20
1248.696635396485
 30
0.0
 11
68.686795223068
 21
1248.034635396485
 31
0.0
  0
LINE
  5
1723
330
1D
100
AcDbEntity
  8
0
100
AcDbLine
 10
65.454995223068
 20
1249.528635396485
 30
0.0
 11
65.555676058455
 21
1249.448159805935
 31
0.0
  0
LINE
  5
1724
330
1D
100
AcDbEntity
  8
0
100
AcDbLine
 10
65.926444192496
 20
1249.890003657137
 30
0.0
 11
66.13588801601
 21
1250.139597559891
 31
0.0
  0
LINE
  5
1725
330
1D
100
AcDbEntity
  8
0
100
AcDbLine
 10
65.379395223068
 20
1249.588635396485
 30
0.0
 11
65.454995223068
 21
1249.528635396485
 31
0.0
  0
LINE
  5
1726
330
1D
100
AcDbEntity
  8
0
100
AcDbLine
 10
65.518395223068
 20
1250.352635396485
 30
0.0
 11
65.645595223068
 21
1250.399635396485
 31
0.0
  0
LINE
  5
1727
330
1D
100
AcDbEntity
  8
0
100
AcDbLine
 10
65.518395223068
 20
1250.352635396485
 30
0.0
 11
65.926444192496
 21
1249.890003657137
 31
0.0
  0
LINE
  5
1728
330
1D
100
AcDbEntity
  8
0
100
AcDbLine
 10
66.190495223068
 20
1250.110635396485
 30
0.0
 11
67.185895223068
 21
1249.409635396485
 31
0.0
  0
LINE
  5
1729
330
1D
100
AcDbEntity
  8
0
100
AcDbLine
 10
65.519934191704
 20
1250.350890567334
 30
0.0
 11
65.597434501883
 21
1250.381840161456
 31
0.0
  0
LINE
  5
172A
330
1D
100
AcDbEntity
  8
0
100
AcDbLine
 10
62.576995223068
 20
1251.618635396485
 30
0.0
 11
62.684995223068
 21
1251.640635396485
 31
0.0
  0
LINE
  5
172B
330
1D
100
AcDbEntity
  8
0
100
AcDbLine
 10
65.645595223068
 20
1250.399635396485
 30
0.0
 11
66.190495223068
 21
1250.110635396485
 31
0.0
  0
LINE
  5
172C
330
1D
100
AcDbEntity
  8
0
100
AcDbLine
 10
67.167195223068
 20
1251.212635396485
 30
0.0
 11
67.869538631946
 21
1252.049590983294
 31
0.0
  0
LINE
  5
172D
330
1D
100
AcDbEntity
  8
0
100
AcDbLine
 10
66.822495223068
 20
1251.501635396485
 30
0.0
 11
67.167195223068
 21
1251.212635396485
 31
0.0
  0
LINE
  5
172E
330
1D
100
AcDbEntity
  8
0
100
AcDbLine
 10
67.303022972059
 20
1251.374496093011
 30
0.0
 11
67.864095223068
 21
1251.109635396485
 31
0.0
  0
LINE
  5
172F
330
1D
100
AcDbEntity
  8
0
100
AcDbLine
 10
68.264095223068
 20
1251.527635396485
 30
0.0
 11
68.369395223068
 21
1251.142635396485
 31
0.0
  0
LINE
  5
1730
330
1D
100
AcDbEntity
  8
0
100
AcDbLine
 10
67.864095223068
 20
1251.109635396485
 30
0.0
 11
68.369395223068
 21
1251.142635396485
 31
0.0
  0
LINE
  5
1731
330
1D
100
AcDbEntity
  8
0
100
AcDbLine
 10
62.907595223068
 20
1251.619635396485
 30
0.0
 11
65.379395223068
 21
1249.588635396485
 31
0.0
  0
LINE
  5
1732
330
1D
100
AcDbEntity
  8
0
100
AcDbLine
 10
74.105395223068
 20
1243.556635396485
 30
0.0
 11
74.206795223068
 21
1243.630635396485
 31
0.0
  0
LINE
  5
1733
330
1D
100
AcDbEntity
  8
0
100
AcDbLine
 10
74.105395223068
 20
1243.556635396485
 30
0.0
 11
74.285295223068
 21
1243.268635396485
 31
0.0
  0
LINE
  5
1734
330
1D
100
AcDbEntity
  8
0
100
AcDbLine
 10
72.124895223068
 20
1244.353635396485
 30
0.0
 11
72.221695223068
 21
1244.309635396485
 31
0.0
  0
LINE
  5
1735
330
1D
100
AcDbEntity
  8
0
100
AcDbLine
 10
72.009395223068
 20
1244.335635396485
 30
0.0
 11
72.124895223068
 21
1244.353635396485
 31
0.0
  0
LINE
  5
1736
330
1D
100
AcDbEntity
  8
0
100
AcDbLine
 10
71.891195223068
 20
1244.306635396485
 30
0.0
 11
72.009395223068
 21
1244.335635396485
 31
0.0
  0
LINE
  5
1737
330
1D
100
AcDbEntity
  8
0
100
AcDbLine
 10
72.221695223068
 20
1244.309635396485
 30
0.0
 11
74.673285787648
 21
1242.305605047794
 31
0.0
  0
LINE
  5
1738
330
1D
100
AcDbEntity
  8
0
100
AcDbLine
 10
71.775895223068
 20
1244.350635396485
 30
0.0
 11
71.891195223068
 21
1244.306635396485
 31
0.0
  0
LINE
  5
1739
330
1D
100
AcDbEntity
  8
0
100
AcDbLine
 10
74.357795223068
 20
1241.929635396485
 30
0.0
 11
74.702495223068
 21
1241.640635396485
 31
0.0
  0
LINE
  5
173A
330
1D
100
AcDbEntity
  8
0
100
AcDbLine
 10
74.357795223068
 20
1241.929635396485
 30
0.0
 11
74.673285787648
 21
1242.305605047794
 31
0.0
  0
LINE
  5
173B
330
1D
100
AcDbEntity
  8
0
100
AcDbLine
 10
74.357795223068
 20
1241.929635396485
 30
0.0
 11
75.283987525272
 21
1243.033377428733
 31
0.0
  0
LINE
  5
173C
330
1D
100
AcDbEntity
  8
0
100
AcDbLine
 10
74.704795223068
 20
1241.036635396485
 30
0.0
 11
75.049495223068
 21
1240.747635396485
 31
0.0
  0
LINE
  5
173D
330
1D
100
AcDbEntity
  8
0
100
AcDbLine
 10
74.704795223068
 20
1241.036635396485
 30
0.0
 11
75.001244378121
 21
1241.389913427492
 31
0.0
  0
LINE
  5
173E
330
1D
100
AcDbEntity
  8
0
100
AcDbLine
 10
74.702495223068
 20
1241.640635396485
 30
0.0
 11
75.001244378121
 21
1241.389913427492
 31
0.0
  0
LINE
  5
173F
330
1D
100
AcDbEntity
  8
0
100
AcDbLine
 10
74.702495223068
 20
1241.640635396485
 30
0.0
 11
75.506795223068
 21
1240.965635396485
 31
0.0
  0
LINE
  5
1740
330
1D
100
AcDbEntity
  8
0
100
AcDbLine
 10
74.285295223068
 20
1243.268635396485
 30
0.0
 11
74.856395223068
 21
1242.720635396485
 31
0.0
  0
LINE
  5
1741
330
1D
100
AcDbEntity
  8
0
100
AcDbLine
 10
81.306895223068
 20
1236.703635396485
 30
0.0
 11
82.179695223068
 21
1236.228635396485
 31
0.0
  0
LINE
  5
1742
330
1D
100
AcDbEntity
  8
0
100
AcDbLine
 10
77.002895223068
 20
1239.108635396485
 30
0.0
 11
77.646740772143
 21
1239.875905209783
 31
0.0
  0
LINE
  5
1743
330
1D
100
AcDbEntity
  8
0
100
AcDbLine
 10
76.658195223068
 20
1239.397635396485
 30
0.0
 11
77.002895223068
 21
1239.108635396485
 31
0.0
  0
LINE
  5
1744
330
1D
100
AcDbEntity
  8
0
100
AcDbLine
 10
78.133695223068
 20
1239.466635396485
 30
0.0
 11
81.306895223068
 21
1236.703635396485
 31
0.0
  0
LINE
  5
1745
330
1D
100
AcDbEntity
  8
0
100
AcDbLine
 10
94.773895223068
 20
1221.861435396485
 30
0.0
 11
95.771595223068
 21
1220.345735396485
 31
0.0
  0
LINE
  5
1746
330
1D
100
AcDbEntity
  8
0
100
AcDbLine
 10
95.771595223068
 20
1220.345735396485
 30
0.0
 11
96.557595223068
 21
1219.105635396485
 31
0.0
  0
LINE
  5
1747
330
1D
100
AcDbEntity
  8
0
100
AcDbLine
 10
95.229095223068
 20
1222.802935396485
 30
0.0
 11
95.876972971034
 21
1221.927075506999
 31
0.0
  0
LINE
  5
1748
330
1D
100
AcDbEntity
  8
0
100
AcDbLine
 10
95.876972971034
 20
1221.927075507
 30
0.0
 11
97.702295223068
 21
1219.260235396485
 31
0.0
  0
LINE
  5
1749
330
1D
100
AcDbEntity
  8
0
100
AcDbLine
 10
96.408195223068
 20
1211.278835396485
 30
0.0
 11
99.694795223068
 21
1205.161435396485
 31
0.0
  0
LINE
  5
174A
330
1D
100
AcDbEntity
  8
0
100
AcDbLine
 10
91.334795223068
 20
1223.364535396485
 30
0.0
 11
91.728895223068
 21
1222.848035396485
 31
0.0
  0
LINE
  5
174B
330
1D
100
AcDbEntity
  8
0
100
AcDbLine
 10
97.356295223068
 20
1217.807935396485
 30
0.0
 11
98.547395223068
 21
1215.778535396485
 31
0.0
  0
LINE
  5
174C
330
1D
100
AcDbEntity
  8
0
100
AcDbLine
 10
97.445895223068
 20
1213.686835396485
 30
0.0
 11
98.196095223068
 21
1212.220835396485
 31
0.0
  0
LINE
  5
174D
330
1D
100
AcDbEntity
  8
0
100
AcDbLine
 10
97.702295223068
 20
1219.260235396485
 30
0.0
 11
99.919295223068
 21
1215.726335396485
 31
0.0
  0
LINE
  5
174E
330
1D
100
AcDbEntity
  8
0
100
AcDbLine
 10
96.557595223068
 20
1219.105635396485
 30
0.0
 11
97.356295223068
 21
1217.807935396485
 31
0.0
  0
LINE
  5
174F
330
1D
100
AcDbEntity
  8
0
100
AcDbLine
 10
90.762495223068
 20
1224.074935396485
 30
0.0
 11
91.334795223068
 21
1223.364535396485
 31
0.0
  0
LINE
  5
1750
330
1D
100
AcDbEntity
  8
0
100
AcDbLine
 10
93.693295223068
 20
1223.410635396485
 30
0.0
 11
94.773895223068
 21
1221.861435396485
 31
0.0
  0
LINE
  5
1751
330
1D
100
AcDbEntity
  8
0
100
AcDbLine
 10
94.394195223068
 20
1223.890435396485
 30
0.0
 11
95.229095223068
 21
1222.802935396485
 31
0.0
  0
LINE
  5
1752
330
1D
100
AcDbEntity
  8
0
100
AcDbLine
 10
98.196095223068
 20
1212.220835396485
 30
0.0
 11
98.844795223068
 21
1210.813635396485
 31
0.0
  0
LINE
  5
1753
330
1D
100
AcDbEntity
  8
0
100
AcDbLine
 10
99.694795223068
 20
1205.161435396485
 30
0.0
 11
99.748295223068
 21
1205.339935396485
 31
0.0
  0
LINE
  5
1754
330
1D
100
AcDbEntity
  8
0
100
AcDbLine
 10
99.748295223068
 20
1205.339935396485
 30
0.0
 11
99.777895223068
 21
1205.424735396485
 31
0.0
  0
LINE
  5
1755
330
1D
100
AcDbEntity
  8
0
100
AcDbLine
 10
99.694795223068
 20
1205.161435396485
 30
0.0
 11
100.063395223068
 21
1204.550335396485
 31
0.0
  0
LINE
  5
1756
330
1D
100
AcDbEntity
  8
0
100
AcDbLine
 10
99.777895223068
 20
1205.424735396485
 30
0.0
 11
99.902595223068
 21
1205.948135396485
 31
0.0
  0
LINE
  5
1757
330
1D
100
AcDbEntity
  8
0
100
AcDbLine
 10
100.063395223068
 20
1204.550335396485
 30
0.0
 11
100.243795223068
 21
1204.438435396485
 31
0.0
  0
LINE
  5
1758
330
1D
100
AcDbEntity
  8
0
100
AcDbLine
 10
99.902595223068
 20
1205.948135396485
 30
0.0
 11
99.978295223068
 21
1206.688635396485
 31
0.0
  0
LINE
  5
1759
330
1D
100
AcDbEntity
  8
0
100
AcDbLine
 10
99.892195223068
 20
1207.733635396485
 30
0.0
 11
99.978295223068
 21
1206.688635396485
 31
0.0
  0
LINE
  5
175A
330
1D
100
AcDbEntity
  8
0
100
AcDbLine
 10
100.243795223068
 20
1204.438435396485
 30
0.0
 11
100.636095223068
 21
1204.463135396485
 31
0.0
  0
LINE
  5
175B
330
1D
100
AcDbEntity
  8
0
100
AcDbLine
 10
99.192772425639
 20
1209.964401012559
 30
0.0
 11
99.22847104857
 21
1209.877278931492
 31
0.0
  0
LINE
  5
175C
330
1D
100
AcDbEntity
  8
0
100
AcDbLine
 10
98.844795223068
 20
1210.813635396485
 30
0.0
 11
99.085295223068
 21
1210.246835396485
 31
0.0
  0
LINE
  5
175D
330
1D
100
AcDbEntity
  8
0
100
AcDbLine
 10
99.085295223068
 20
1210.246835396485
 30
0.0
 11
99.435695223068
 21
1209.326035396485
 31
0.0
  0
LINE
  5
175E
330
1D
100
AcDbEntity
  8
0
100
AcDbLine
 10
99.633095223068
 20
1208.639335396485
 30
0.0
 11
99.892195223068
 21
1207.733635396485
 31
0.0
  0
LINE
  5
175F
330
1D
100
AcDbEntity
  8
0
100
AcDbLine
 10
100.342995223068
 20
1212.357635396485
 30
0.0
 11
101.227095223068
 21
1210.250535396485
 31
0.0
  0
LINE
  5
1760
330
1D
100
AcDbEntity
  8
0
100
AcDbLine
 10
99.435695223068
 20
1209.326035396485
 30
0.0
 11
99.633095223068
 21
1208.639335396485
 31
0.0
  0
LINE
  5
1761
330
1D
100
AcDbEntity
  8
0
100
AcDbLine
 10
99.230325295664
 20
1209.872492865137
 30
0.0
 11
99.270213825572
 21
1209.760896329175
 31
0.0
  0
LINE
  5
1762
330
1D
100
AcDbEntity
  8
0
100
AcDbLine
 10
98.547395223068
 20
1215.778535396485
 30
0.0
 11
100.342995223068
 21
1212.357635396485
 31
0.0
  0
LINE
  5
1763
330
1D
100
AcDbEntity
  8
0
100
AcDbLine
 10
93.768495223068
 20
1224.671635396485
 30
0.0
 11
94.394195223068
 21
1223.890435396485
 31
0.0
  0
LINE
  5
1764
330
1D
100
AcDbEntity
  8
0
100
AcDbLine
 10
92.533695223068
 20
1224.935635396485
 30
0.0
 11
93.693295223068
 21
1223.410635396485
 31
0.0
  0
LINE
  5
1765
330
1D
100
AcDbEntity
  8
0
100
AcDbLine
 10
90.106595223068
 20
1224.773335396485
 30
0.0
 11
90.415095223068
 21
1224.461535396485
 31
0.0
  0
LINE
  5
1766
330
1D
100
AcDbEntity
  8
0
100
AcDbLine
 10
89.798595223068
 20
1225.035735396485
 30
0.0
 11
90.106595223068
 21
1224.773335396485
 31
0.0
  0
LINE
  5
1767
330
1D
100
AcDbEntity
  8
0
100
AcDbLine
 10
90.415095223068
 20
1224.461535396485
 30
0.0
 11
90.762495223068
 21
1224.074935396485
 31
0.0
  0
LINE
  5
1768
330
1D
100
AcDbEntity
  8
0
100
AcDbLine
 10
89.038095223068
 20
1225.436135396485
 30
0.0
 11
89.347595223068
 21
1225.337635396485
 31
0.0
  0
LINE
  5
1769
330
1D
100
AcDbEntity
  8
0
100
AcDbLine
 10
89.347595223068
 20
1225.337635396485
 30
0.0
 11
89.798595223068
 21
1225.035735396485
 31
0.0
  0
LINE
  5
176A
330
1D
100
AcDbEntity
  8
0
100
AcDbLine
 10
88.422895223068
 20
1226.232135396485
 30
0.0
 11
88.910977218286
 21
1225.49577644597
 31
0.0
  0
LINE
  5
176B
330
1D
100
AcDbEntity
  8
0
100
AcDbLine
 10
91.655195223068
 20
1226.002935396485
 30
0.0
 11
92.533695223068
 21
1224.935635396485
 31
0.0
  0
LINE
  5
176C
330
1D
100
AcDbEntity
  8
0
100
AcDbLine
 10
88.916695223068
 20
1225.486335396485
 30
0.0
 11
89.038095223068
 21
1225.436135396485
 31
0.0
  0
LINE
  5
176D
330
1D
100
AcDbEntity
  8
0
100
AcDbLine
 10
88.910977218286
 20
1225.49577644597
 30
0.0
 11
96.408195223068
 21
1211.278835396485
 31
0.0
  0
LINE
  5
176E
330
1D
100
AcDbEntity
  8
0
100
AcDbLine
 10
93.147495223068
 20
1225.417535396485
 30
0.0
 11
93.768495223068
 21
1224.671635396485
 31
0.0
  0
LINE
  5
176F
330
1D
100
AcDbEntity
  8
0
100
AcDbLine
 10
92.533495223068
 20
1226.124735396485
 30
0.0
 11
93.147495223068
 21
1225.417535396485
 31
0.0
  0
LINE
  5
1770
330
1D
100
AcDbEntity
  8
0
100
AcDbLine
 10
101.227095223068
 20
1210.250535396485
 30
0.0
 11
101.583095223068
 21
1209.060635396485
 31
0.0
  0
LINE
  5
1771
330
1D
100
AcDbEntity
  8
0
100
AcDbLine
 10
101.545095223068
 20
1205.338035396485
 30
0.0
 11
101.752095223068
 21
1206.000335396485
 31
0.0
  0
LINE
  5
1772
330
1D
100
AcDbEntity
  8
0
100
AcDbLine
 10
101.700362103367
 20
1208.631001737976
 30
0.0
 11
101.776095223068
 21
1208.152135396485
 31
0.0
  0
LINE
  5
1773
330
1D
100
AcDbEntity
  8
0
100
AcDbLine
 10
101.776095223068
 20
1208.152135396485
 30
0.0
 11
101.851095223068
 21
1207.568935396485
 31
0.0
  0
LINE
  5
1774
330
1D
100
AcDbEntity
  8
0
100
AcDbLine
 10
101.851095223068
 20
1207.568935396485
 30
0.0
 11
101.892095223068
 21
1206.817635396485
 31
0.0
  0
LINE
  5
1775
330
1D
100
AcDbEntity
  8
0
100
AcDbLine
 10
101.752095223068
 20
1206.000335396485
 30
0.0
 11
101.892095223068
 21
1206.817635396485
 31
0.0
  0
LINE
  5
1776
330
1D
100
AcDbEntity
  8
0
100
AcDbLine
 10
101.198813391557
 20
1213.33955212963
 30
0.0
 11
101.794375822022
 21
1212.020729558056
 31
0.0
  0
LINE
  5
1777
330
1D
100
AcDbEntity
  8
0
100
AcDbLine
 10
102.154095223068
 20
1211.177135396485
 30
0.0
 11
102.776095223068
 21
1209.271335396485
 31
0.0
  0
LINE
  5
1778
330
1D
100
AcDbEntity
  8
0
100
AcDbLine
 10
101.492095223068
 20
1205.091335396485
 30
0.0
 11
102.741095223068
 21
1202.618735396485
 31
0.0
  0
LINE
  5
1779
330
1D
100
AcDbEntity
  8
0
100
AcDbLine
 10
101.492095223068
 20
1205.091335396485
 30
0.0
 11
101.545095223068
 21
1205.338035396485
 31
0.0
  0
LINE
  5
177A
330
1D
100
AcDbEntity
  8
0
100
AcDbLine
 10
100.636095223068
 20
1204.463135396485
 30
0.0
 11
101.635210977295
 21
1205.626362275831
 31
0.0
  0
LINE
  5
177B
330
1D
100
AcDbEntity
  8
0
100
AcDbLine
 10
82.453095223068
 20
1235.900635396485
 30
0.0
 11
82.495595223068
 21
1235.837635396485
 31
0.0
  0
LINE
  5
177C
330
1D
100
AcDbEntity
  8
0
100
AcDbLine
 10
82.495595223068
 20
1235.837635396485
 30
0.0
 11
85.150895223068
 21
1233.217635396485
 31
0.0
  0
LINE
  5
177D
330
1D
100
AcDbEntity
  8
0
100
AcDbLine
 10
88.41341288602
 20
1226.585331472909
 30
0.0
 11
88.422895223068
 21
1226.232135396485
 31
0.0
  0
LINE
  5
177E
330
1D
100
AcDbEntity
  8
0
100
AcDbLine
 10
89.422395223068
 20
1228.110635396485
 30
0.0
 11
90.099395223068
 21
1227.593335396485
 31
0.0
  0
LINE
  5
177F
330
1D
100
AcDbEntity
  8
0
100
AcDbLine
 10
89.232095223068
 20
1228.261435396485
 30
0.0
 11
89.422395223068
 21
1228.110635396485
 31
0.0
  0
LINE
  5
1780
330
1D
100
AcDbEntity
  8
0
100
AcDbLine
 10
88.400295223068
 20
1226.827035396485
 30
0.0
 11
88.41341288602
 21
1226.585331472909
 31
0.0
  0
LINE
  5
1781
330
1D
100
AcDbEntity
  8
0
100
AcDbLine
 10
88.400295223068
 20
1226.827035396485
 30
0.0
 11
89.434427018297
 21
1228.10144182533
 31
0.0
  0
LINE
  5
1782
330
1D
100
AcDbEntity
  8
0
100
AcDbLine
 10
90.731295223068
 20
1227.004835396485
 30
0.0
 11
91.655195223068
 21
1226.002935396485
 31
0.0
  0
LINE
  5
1783
330
1D
100
AcDbEntity
  8
0
100
AcDbLine
 10
90.099395223068
 20
1227.593335396485
 30
0.0
 11
90.731295223068
 21
1227.004835396485
 31
0.0
  0
LINE
  5
1784
330
1D
100
AcDbEntity
  8
0
100
AcDbLine
 10
90.461295223068
 20
1228.264735396485
 30
0.0
 11
90.900395223068
 21
1227.846835396485
 31
0.0
  0
LINE
  5
1785
330
1D
100
AcDbEntity
  8
0
100
AcDbLine
 10
90.900395223068
 20
1227.846835396485
 30
0.0
 11
91.405495223068
 21
1227.340835396485
 31
0.0
  0
LINE
  5
1786
330
1D
100
AcDbEntity
  8
0
100
AcDbLine
 10
87.700595223068
 20
1230.296935396485
 30
0.0
 11
87.855346874082
 21
1230.220278868161
 31
0.0
  0
LINE
  5
1787
330
1D
100
AcDbEntity
  8
0
100
AcDbLine
 10
90.053795223068
 20
1228.632135396485
 30
0.0
 11
90.461295223068
 21
1228.264735396485
 31
0.0
  0
LINE
  5
1788
330
1D
100
AcDbEntity
  8
0
100
AcDbLine
 10
88.705222627674
 20
1229.7035394277
 30
0.0
 11
89.058911184763
 21
1229.454376060329
 31
0.0
  0
LINE
  5
1789
330
1D
100
AcDbEntity
  8
0
100
AcDbLine
 10
88.010376326524
 20
1230.142551189395
 30
0.0
 11
88.466864531365
 21
1229.86676738139
 31
0.0
  0
LINE
  5
178A
330
1D
100
AcDbEntity
  8
0
100
AcDbLine
 10
89.275295223068
 20
1229.275735396485
 30
0.0
 11
89.460227639218
 21
1229.128921304592
 31
0.0
  0
LINE
  5
178B
330
1D
100
AcDbEntity
  8
0
100
AcDbLine
 10
89.560795223068
 20
1229.051135396485
 30
0.0
 11
90.053795223068
 21
1228.632135396485
 31
0.0
  0
LINE
  5
178C
330
1D
100
AcDbEntity
  8
0
100
AcDbLine
 10
88.009295223068
 20
1229.842835396485
 30
0.0
 11
89.099695223068
 21
1228.363335396485
 31
0.0
  0
LINE
  5
178D
330
1D
100
AcDbEntity
  8
0
100
AcDbLine
 10
88.009295223068
 20
1229.842835396485
 30
0.0
 11
88.049895223068
 21
1230.079935396485
 31
0.0
  0
LINE
  5
178E
330
1D
100
AcDbEntity
  8
0
100
AcDbLine
 10
89.099695223068
 20
1228.363335396485
 30
0.0
 11
89.24372888227
 21
1228.252216501016
 31
0.0
  0
LINE
  5
178F
330
1D
100
AcDbEntity
  8
0
100
AcDbLine
 10
85.150895223068
 20
1233.217635396485
 30
0.0
 11
87.566595223068
 21
1230.359935396485
 31
0.0
  0
LINE
  5
1790
330
1D
100
AcDbEntity
  8
0
100
AcDbLine
 10
91.405495223068
 20
1227.340835396485
 30
0.0
 11
91.930695223068
 21
1226.788635396485
 31
0.0
  0
LINE
  5
1791
330
1D
100
AcDbEntity
  8
0
100
AcDbLine
 10
91.930695223068
 20
1226.788635396485
 30
0.0
 11
92.533495223068
 21
1226.124735396485
 31
0.0
  0
LINE
  5
1792
330
1D
100
AcDbEntity
  8
0
100
AcDbLine
 10
141.589095223068
 20
1139.615455396485
 30
0.0
 11
141.954095223068
 21
1139.616435396485
 31
0.0
  0
LINE
  5
1793
330
1D
100
AcDbEntity
  8
0
100
AcDbLine
 10
124.984095223068
 20
1165.511135396485
 30
0.0
 11
140.702095223068
 21
1140.488145396485
 31
0.0
  0
LINE
  5
1794
330
1D
100
AcDbEntity
  8
0
100
AcDbLine
 10
140.702095223068
 20
1140.488145396485
 30
0.0
 11
141.589095223068
 21
1139.615455396485
 31
0.0
  0
LINE
  5
1795
330
1D
100
AcDbEntity
  8
0
100
AcDbLine
 10
124.984095223068
 20
1165.511135396485
 30
0.0
 11
140.702095223068
 21
1140.488145396485
 31
0.0
  0
LINE
  5
1796
330
1D
100
AcDbEntity
  8
0
100
AcDbLine
 10
164.497095223068
 20
1153.624735396485
 30
0.0
 11
164.823095223068
 21
1154.018235396485
 31
0.0
  0
LINE
  5
1797
330
1D
100
AcDbEntity
  8
0
100
AcDbLine
 10
164.767095223068
 20
1154.776235396485
 30
0.0
 11
164.850095223068
 21
1154.514435396485
 31
0.0
  0
LINE
  5
1798
330
1D
100
AcDbEntity
  8
0
100
AcDbLine
 10
164.461095223068
 20
1155.333635396485
 30
0.0
 11
164.767095223068
 21
1154.776235396485
 31
0.0
  0
LINE
  5
1799
330
1D
100
AcDbEntity
  8
0
100
AcDbLine
 10
164.823095223068
 20
1154.018235396485
 30
0.0
 11
164.850095223068
 21
1154.514435396485
 31
0.0
  0
LINE
  5
179A
330
1D
100
AcDbEntity
  8
0
100
AcDbLine
 10
102.741095223068
 20
1202.618735396485
 30
0.0
 11
102.789095223068
 21
1202.757135396485
 31
0.0
  0
LINE
  5
179B
330
1D
100
AcDbEntity
  8
0
100
AcDbLine
 10
102.741095223068
 20
1202.618735396485
 30
0.0
 11
104.753095223068
 21
1199.059035396485
 31
0.0
  0
LINE
  5
179C
330
1D
100
AcDbEntity
  8
0
100
AcDbLine
 10
102.789095223068
 20
1202.757135396485
 30
0.0
 11
102.944095223068
 21
1203.143335396485
 31
0.0
  0
LINE
  5
179D
330
1D
100
AcDbEntity
  8
0
100
AcDbLine
 10
108.963095223068
 20
1192.048935396485
 30
0.0
 11
124.984095223068
 21
1165.511135396485
 31
0.0
  0
LINE
  5
179E
330
1D
100
AcDbEntity
  8
0
100
AcDbLine
 10
104.753095223068
 20
1199.059035396485
 30
0.0
 11
108.963095223068
 21
1192.048935396485
 31
0.0
  0
LINE
  5
179F
330
1D
100
AcDbEntity
  8
0
100
AcDbLine
 10
102.944095223068
 20
1203.143335396485
 30
0.0
 11
103.133095223068
 21
1203.712635396485
 31
0.0
  0
LINE
  5
17A0
330
1D
100
AcDbEntity
  8
0
100
AcDbLine
 10
102.776095223068
 20
1209.271335396485
 30
0.0
 11
103.199095223068
 21
1207.313735396485
 31
0.0
  0
LINE
  5
17A1
330
1D
100
AcDbEntity
  8
0
100
AcDbLine
 10
103.275477856813
 20
1206.437353792308
 30
0.0
 11
103.325751208018
 21
1205.406707488076
 31
0.0
  0
LINE
  5
17A2
330
1D
100
AcDbEntity
  8
0
100
AcDbLine
 10
103.133095223068
 20
1203.712635396485
 30
0.0
 11
103.287095223068
 21
1204.535535396485
 31
0.0
  0
LINE
  5
17A3
330
1D
100
AcDbEntity
  8
0
100
AcDbLine
 10
113.934095223068
 20
1235.945635396485
 30
0.0
 11
132.063095223068
 21
1207.228835396485
 31
0.0
  0
LINE
  5
17A4
330
1D
100
AcDbEntity
  8
0
100
AcDbLine
 10
148.345095223068
 20
1181.333335396485
 30
0.0
 11
164.461095223068
 21
1155.333635396485
 31
0.0
  0
LINE
  5
17A5
330
1D
100
AcDbEntity
  8
0
100
AcDbLine
 10
132.063095223068
 20
1207.228835396485
 30
0.0
 11
148.345095223068
 21
1181.333335396485
 31
0.0
  0
LINE
  5
17A6
330
1D
100
AcDbEntity
  8
0
100
AcDbLine
 10
75.506795223068
 20
1240.965635396485
 30
0.0
 11
76.311195223068
 21
1240.290635396485
 31
0.0
  0
LINE
  5
17A7
330
1D
100
AcDbEntity
  8
0
100
AcDbLine
 10
75.049495223068
 20
1240.747635396485
 30
0.0
 11
75.853895223068
 21
1240.072635396485
 31
0.0
  0
LINE
  5
17A8
330
1D
100
AcDbEntity
  8
0
100
AcDbLine
 10
76.655895223068
 20
1240.001635396485
 30
0.0
 11
77.602703522714
 21
1241.129945483184
 31
0.0
  0
LINE
  5
17A9
330
1D
100
AcDbEntity
  8
0
100
AcDbLine
 10
76.311195223068
 20
1240.290635396485
 30
0.0
 11
76.655895223068
 21
1240.001635396485
 31
0.0
  0
LINE
  5
17AA
330
1D
100
AcDbEntity
  8
0
100
AcDbLine
 10
75.853895223068
 20
1240.072635396485
 30
0.0
 11
76.658195223068
 21
1239.397635396485
 31
0.0
  0
LINE
  5
17AB
330
1D
100
AcDbEntity
  8
0
100
AcDbLine
 10
76.517395223068
 20
1243.037635396485
 30
0.0
 11
77.694322838307
 21
1244.440544539265
 31
0.0
  0
LINE
  5
17AC
330
1D
100
AcDbEntity
  8
0
100
AcDbLine
 10
74.856395223068
 20
1242.720635396485
 30
0.0
 11
74.951530141676
 21
1242.637188443646
 31
0.0
  0
LINE
  5
17AD
330
1D
100
AcDbEntity
  8
0
100
AcDbLine
 10
75.885695223068
 20
1242.630635396485
 30
0.0
 11
76.674395223068
 21
1242.028635396485
 31
0.0
  0
LINE
  5
17AE
330
1D
100
AcDbEntity
  8
0
100
AcDbLine
 10
77.001246198483
 20
1240.413189656369
 30
0.0
 11
77.378195223068
 21
1240.101635396485
 31
0.0
  0
LINE
  5
17AF
330
1D
100
AcDbEntity
  8
0
100
AcDbLine
 10
77.378195223068
 20
1240.101635396485
 30
0.0
 11
78.000395223068
 21
1239.578635396485
 31
0.0
  0
LINE
  5
17B0
330
1D
100
AcDbEntity
  8
0
100
AcDbLine
 10
78.000395223068
 20
1239.578635396485
 30
0.0
 11
78.133695223068
 21
1239.466635396485
 31
0.0
  0
LINE
  5
17B1
330
1D
100
AcDbEntity
  8
0
100
AcDbLine
 10
77.312945377272
 20
1240.784641118693
 30
0.0
 11
77.825795223068
 21
1240.470635396485
 31
0.0
  0
LINE
  5
17B2
330
1D
100
AcDbEntity
  8
0
100
AcDbLine
 10
77.956295223068
 20
1240.787635396485
 30
0.0
 11
78.146295223068
 21
1240.449635396485
 31
0.0
  0
LINE
  5
17B3
330
1D
100
AcDbEntity
  8
0
100
AcDbLine
 10
77.825795223068
 20
1240.470635396485
 30
0.0
 11
78.146295223068
 21
1240.449635396485
 31
0.0
  0
LINE
  5
17B4
330
1D
100
AcDbEntity
  8
0
100
AcDbLine
 10
76.674395223068
 20
1242.028635396485
 30
0.0
 11
77.956295223068
 21
1240.787635396485
 31
0.0
  0
LINE
  5
17B5
330
1D
100
AcDbEntity
  8
0
100
AcDbLine
 10
74.910095223068
 20
1243.283635396485
 30
0.0
 11
75.885695223068
 21
1242.630635396485
 31
0.0
  0
LINE
  5
17B6
330
1D
100
AcDbEntity
  8
0
100
AcDbLine
 10
110.252095223068
 20
1241.990635396485
 30
0.0
 11
113.934095223068
 21
1235.945635396485
 31
0.0
  0
LINE
  5
17B7
330
1D
100
AcDbEntity
  8
0
100
AcDbLine
 10
78.004696964412
 20
1239.575533926467
 30
0.0
 11
78.133695223068
 21
1239.466635396485
 31
0.0
  0
LINE
  5
17B8
330
1D
100
AcDbEntity
  8
0
100
AcDbLine
 10
74.206795223068
 20
1243.630635396485
 30
0.0
 11
74.910095223068
 21
1243.283635396485
 31
0.0
  0
LINE
  5
17B9
330
1D
100
AcDbEntity
  8
0
100
AcDbLine
 10
76.172595223068
 20
1243.327635396485
 30
0.0
 11
76.517395223068
 21
1243.037635396485
 31
0.0
  0
LINE
  5
17BA
330
1D
100
AcDbEntity
  8
0
100
AcDbLine
 10
75.368295223068
 20
1244.001635396485
 30
0.0
 11
76.172595223068
 21
1243.327635396485
 31
0.0
  0
LINE
  5
17BB
330
1D
100
AcDbEntity
  8
0
100
AcDbLine
 10
77.200299445699
 20
1243.851663859381
 30
0.0
 11
77.530695223068
 21
1243.754635396485
 31
0.0
  0
LINE
  5
17BC
330
1D
100
AcDbEntity
  8
0
100
AcDbLine
 10
77.530695223068
 20
1243.754635396485
 30
0.0
 11
77.958795223068
 21
1243.979635396485
 31
0.0
  0
LINE
  5
17BD
330
1D
100
AcDbEntity
  8
0
100
AcDbLine
 10
77.698895223068
 20
1244.435635396485
 30
0.0
 11
77.958795223068
 21
1243.979635396485
 31
0.0
  0
LINE
  5
17BE
330
1D
100
AcDbEntity
  8
0
100
AcDbLine
 10
74.563995223068
 20
1244.676635396485
 30
0.0
 11
75.368295223068
 21
1244.001635396485
 31
0.0
  0
LINE
  5
17BF
330
1D
100
AcDbEntity
  8
0
100
AcDbLine
 10
74.219195223068
 20
1244.966635396485
 30
0.0
 11
74.563995223068
 21
1244.676635396485
 31
0.0
  0
LINE
  5
17C0
330
1D
100
AcDbEntity
  8
0
100
AcDbLine
 10
74.219195223068
 20
1244.966635396485
 30
0.0
 11
75.215976085238
 21
1246.154460754952
 31
0.0
  0
LINE
  5
17C1
330
1D
100
AcDbEntity
  8
0
100
AcDbLine
 10
77.200595223068
 20
1244.970635396485
 30
0.0
 11
77.698895223068
 21
1244.435635396485
 31
0.0
  0
LINE
  5
17C2
330
1D
100
AcDbEntity
  8
0
100
AcDbLine
 10
74.197195223068
 20
1246.069635396485
 30
0.0
 11
74.454695223068
 21
1245.698635396485
 31
0.0
  0
LINE
  5
17C3
330
1D
100
AcDbEntity
  8
0
100
AcDbLine
 10
74.454695223068
 20
1245.698635396485
 30
0.0
 11
74.654947870094
 21
1245.485905041198
 31
0.0
  0
LINE
  5
17C4
330
1D
100
AcDbEntity
  8
0
100
AcDbLine
 10
75.549795223068
 20
1246.015635396485
 30
0.0
 11
76.425395223068
 21
1245.532635396485
 31
0.0
  0
LINE
  5
17C5
330
1D
100
AcDbEntity
  8
0
100
AcDbLine
 10
74.712995223068
 20
1246.363635396485
 30
0.0
 11
75.549795223068
 21
1246.015635396485
 31
0.0
  0
LINE
  5
17C6
330
1D
100
AcDbEntity
  8
0
100
AcDbLine
 10
75.205495223068
 20
1248.224635396485
 30
0.0
 11
76.479691500067
 21
1249.743093264155
 31
0.0
  0
LINE
  5
17C7
330
1D
100
AcDbEntity
  8
0
100
AcDbLine
 10
74.141995223068
 20
1246.375635396485
 30
0.0
 11
74.712995223068
 21
1246.363635396485
 31
0.0
  0
LINE
  5
17C8
330
1D
100
AcDbEntity
  8
0
100
AcDbLine
 10
74.141995223068
 20
1246.375635396485
 30
0.0
 11
74.197195223068
 21
1246.069635396485
 31
0.0
  0
LINE
  5
17C9
330
1D
100
AcDbEntity
  8
0
100
AcDbLine
 10
76.425395223068
 20
1245.532635396485
 30
0.0
 11
77.200595223068
 21
1244.970635396485
 31
0.0
  0
LINE
  5
17CA
330
1D
100
AcDbEntity
  8
0
100
AcDbLine
 10
107.451095223068
 20
1246.814635396485
 30
0.0
 11
110.252095223068
 21
1241.990635396485
 31
0.0
  0
LINE
  5
17CB
330
1D
100
AcDbEntity
  8
0
100
AcDbLine
 10
72.684995223068
 20
1250.624635396485
 30
0.0
 11
73.025146547846
 21
1250.29307428071
 31
0.0
  0
LINE
  5
17CC
330
1D
100
AcDbEntity
  8
0
100
AcDbLine
 10
72.371995223068
 20
1251.273635396485
 30
0.0
 11
72.684995223068
 21
1250.624635396485
 31
0.0
  0
LINE
  5
17CD
330
1D
100
AcDbEntity
  8
0
100
AcDbLine
 10
72.371995223068
 20
1251.273635396485
 30
0.0
 11
72.739895223068
 21
1251.521635396485
 31
0.0
  0
LINE
  5
17CE
330
1D
100
AcDbEntity
  8
0
100
AcDbLine
 10
74.860695223068
 20
1248.513635396485
 30
0.0
 11
75.205495223068
 21
1248.224635396485
 31
0.0
  0
LINE
  5
17CF
330
1D
100
AcDbEntity
  8
0
100
AcDbLine
 10
76.304995223068
 20
1248.620635396485
 30
0.0
 11
76.724295223068
 21
1248.703635396485
 31
0.0
  0
LINE
  5
17D0
330
1D
100
AcDbEntity
  8
0
100
AcDbLine
 10
74.056395223068
 20
1249.188635396485
 30
0.0
 11
74.860695223068
 21
1248.513635396485
 31
0.0
  0
LINE
  5
17D1
330
1D
100
AcDbEntity
  8
0
100
AcDbLine
 10
75.637488642612
 20
1248.739441332218
 30
0.0
 11
76.304995223068
 21
1248.620635396485
 31
0.0
  0
LINE
  5
17D2
330
1D
100
AcDbEntity
  8
0
100
AcDbLine
 10
76.724295223068
 20
1248.703635396485
 30
0.0
 11
76.946495223068
 21
1248.996635396485
 31
0.0
  0
LINE
  5
17D3
330
1D
100
AcDbEntity
  8
0
100
AcDbLine
 10
76.702295223068
 20
1249.490635396485
 30
0.0
 11
76.946495223068
 21
1248.996635396485
 31
0.0
  0
LINE
  5
17D4
330
1D
100
AcDbEntity
  8
0
100
AcDbLine
 10
72.907295223068
 20
1250.152635396485
 30
0.0
 11
73.251995223068
 21
1249.863635396485
 31
0.0
  0
LINE
  5
17D5
330
1D
100
AcDbEntity
  8
0
100
AcDbLine
 10
72.907295223068
 20
1250.152635396485
 30
0.0
 11
73.867188776179
 21
1251.296503569607
 31
0.0
  0
LINE
  5
17D6
330
1D
100
AcDbEntity
  8
0
100
AcDbLine
 10
73.251995223068
 20
1249.863635396485
 30
0.0
 11
74.056395223068
 21
1249.188635396485
 31
0.0
  0
LINE
  5
17D7
330
1D
100
AcDbEntity
  8
0
100
AcDbLine
 10
72.986762812218
 20
1250.330488670381
 30
0.0
 11
73.027551323881
 21
1250.295939959681
 31
0.0
  0
LINE
  5
17D8
330
1D
100
AcDbEntity
  8
0
100
AcDbLine
 10
75.621295223068
 20
1250.472635396485
 30
0.0
 11
76.368995223068
 21
1249.868635396485
 31
0.0
  0
LINE
  5
17D9
330
1D
100
AcDbEntity
  8
0
100
AcDbLine
 10
76.368995223068
 20
1249.868635396485
 30
0.0
 11
76.702295223068
 21
1249.490635396485
 31
0.0
  0
LINE
  5
17DA
330
1D
100
AcDbEntity
  8
0
100
AcDbLine
 10
74.546195223068
 20
1251.045635396485
 30
0.0
 11
75.621295223068
 21
1250.472635396485
 31
0.0
  0
LINE
  5
17DB
330
1D
100
AcDbEntity
  8
0
100
AcDbLine
 10
73.647595223068
 20
1251.377635396485
 30
0.0
 11
74.546195223068
 21
1251.045635396485
 31
0.0
  0
LINE
  5
17DC
330
1D
100
AcDbEntity
  8
0
100
AcDbLine
 10
72.739895223068
 20
1251.521635396485
 30
0.0
 11
73.647595223068
 21
1251.377635396485
 31
0.0
  0
LINE
  5
17DD
330
1D
100
AcDbEntity
  8
0
100
AcDbLine
 10
62.462295223068
 20
1251.663635396485
 30
0.0
 11
62.576995223068
 21
1251.618635396485
 31
0.0
  0
LINE
  5
17DE
330
1D
100
AcDbEntity
  8
0
100
AcDbLine
 10
62.685595223068
 20
1251.641635396485
 30
0.0
 11
62.799795223068
 21
1251.667635396485
 31
0.0
  0
LINE
  5
17DF
330
1D
100
AcDbEntity
  8
0
100
AcDbLine
 10
62.890695223068
 20
1251.788635396485
 30
0.0
 11
62.907595223068
 21
1251.619635396485
 31
0.0
  0
LINE
  5
17E0
330
1D
100
AcDbEntity
  8
0
100
AcDbLine
 10
62.799795223068
 20
1251.667635396485
 30
0.0
 11
62.907595223068
 21
1251.619635396485
 31
0.0
  0
LINE
  5
17E1
330
1D
100
AcDbEntity
  8
0
100
AcDbLine
 10
62.515395223068
 20
1254.220635396485
 30
0.0
 11
62.769195223068
 21
1253.258635396485
 31
0.0
  0
LINE
  5
17E2
330
1D
100
AcDbEntity
  8
0
100
AcDbLine
 10
61.356895223068
 20
1257.564635396485
 30
0.0
 11
62.161295223068
 21
1256.889635396485
 31
0.0
  0
LINE
  5
17E3
330
1D
100
AcDbEntity
  8
0
100
AcDbLine
 10
61.442195223068
 20
1256.458635396485
 30
0.0
 11
62.093795223068
 21
1255.298635396485
 31
0.0
  0
LINE
  5
17E4
330
1D
100
AcDbEntity
  8
0
100
AcDbLine
 10
62.093795223068
 20
1255.298635396485
 30
0.0
 11
62.515395223068
 21
1254.220635396485
 31
0.0
  0
LINE
  5
17E5
330
1D
100
AcDbEntity
  8
0
100
AcDbLine
 10
62.505995223068
 20
1256.600635396485
 30
0.0
 11
63.701004821842
 21
1258.024726613793
 31
0.0
  0
LINE
  5
17E6
330
1D
100
AcDbEntity
  8
0
100
AcDbLine
 10
62.161295223068
 20
1256.889635396485
 30
0.0
 11
62.505995223068
 21
1256.600635396485
 31
0.0
  0
LINE
  5
17E7
330
1D
100
AcDbEntity
  8
0
100
AcDbLine
 10
62.887395223068
 20
1252.442635396485
 30
0.0
 11
62.890695223068
 21
1251.788635396485
 31
0.0
  0
LINE
  5
17E8
330
1D
100
AcDbEntity
  8
0
100
AcDbLine
 10
66.018195223068
 20
1252.176635396485
 30
0.0
 11
66.083784656671
 21
1252.121590179921
 31
0.0
  0
LINE
  5
17E9
330
1D
100
AcDbEntity
  8
0
100
AcDbLine
 10
66.018195223068
 20
1252.176635396485
 30
0.0
 11
66.822495223068
 21
1251.501635396485
 31
0.0
  0
LINE
  5
17EA
330
1D
100
AcDbEntity
  8
0
100
AcDbLine
 10
67.849095223068
 20
1252.076635396485
 30
0.0
 11
68.264095223068
 21
1251.527635396485
 31
0.0
  0
LINE
  5
17EB
330
1D
100
AcDbEntity
  8
0
100
AcDbLine
 10
67.104795223068
 20
1252.729635396485
 30
0.0
 11
67.849095223068
 21
1252.076635396485
 31
0.0
  0
LINE
  5
17EC
330
1D
100
AcDbEntity
  8
0
100
AcDbLine
 10
64.291195223068
 20
1253.945635396485
 30
0.0
 11
64.656395223068
 21
1253.349635396485
 31
0.0
  0
LINE
  5
17ED
330
1D
100
AcDbEntity
  8
0
100
AcDbLine
 10
64.291195223068
 20
1253.945635396485
 30
0.0
 11
64.451195223068
 21
1254.120635396485
 31
0.0
  0
LINE
  5
17EE
330
1D
100
AcDbEntity
  8
0
100
AcDbLine
 10
64.792195223068
 20
1254.069635396485
 30
0.0
 11
66.204795223068
 21
1253.379635396485
 31
0.0
  0
LINE
  5
17EF
330
1D
100
AcDbEntity
  8
0
100
AcDbLine
 10
66.204795223068
 20
1253.379635396485
 30
0.0
 11
67.104795223068
 21
1252.729635396485
 31
0.0
  0
LINE
  5
17F0
330
1D
100
AcDbEntity
  8
0
100
AcDbLine
 10
64.656395223068
 20
1253.349635396485
 30
0.0
 11
64.873699317824
 21
1253.14612352213
 31
0.0
  0
LINE
  5
17F1
330
1D
100
AcDbEntity
  8
0
100
AcDbLine
 10
64.451195223068
 20
1254.120635396485
 30
0.0
 11
64.792195223068
 21
1254.069635396485
 31
0.0
  0
LINE
  5
17F2
330
1D
100
AcDbEntity
  8
0
100
AcDbLine
 10
63.328266378563
 20
1257.58053474791
 30
0.0
 11
63.742795223068
 21
1257.472635396485
 31
0.0
  0
LINE
  5
17F3
330
1D
100
AcDbEntity
  8
0
100
AcDbLine
 10
63.742795223068
 20
1257.472635396485
 30
0.0
 11
63.901195223068
 21
1257.738635396485
 31
0.0
  0
LINE
  5
17F4
330
1D
100
AcDbEntity
  8
0
100
AcDbLine
 10
67.508295223068
 20
1257.577635396485
 30
0.0
 11
67.862895223068
 21
1257.768635396485
 31
0.0
  0
LINE
  5
17F5
330
1D
100
AcDbEntity
  8
0
100
AcDbLine
 10
67.508295223068
 20
1257.577635396485
 30
0.0
 11
67.669295223068
 21
1257.100635396485
 31
0.0
  0
LINE
  5
17F6
330
1D
100
AcDbEntity
  8
0
100
AcDbLine
 10
68.262095223068
 20
1256.695635396485
 30
0.0
 11
69.066395223068
 21
1256.020635396485
 31
0.0
  0
LINE
  5
17F7
330
1D
100
AcDbEntity
  8
0
100
AcDbLine
 10
67.917395223068
 20
1256.984635396485
 30
0.0
 11
68.021017535667
 21
1256.897757391434
 31
0.0
  0
LINE
  5
17F8
330
1D
100
AcDbEntity
  8
0
100
AcDbLine
 10
67.917395223068
 20
1256.984635396485
 30
0.0
 11
68.477540832181
 21
1257.65216011191
 31
0.0
  0
LINE
  5
17F9
330
1D
100
AcDbEntity
  8
0
100
AcDbLine
 10
67.917395223068
 20
1256.984635396485
 30
0.0
 11
68.262095223068
 21
1256.695635396485
 31
0.0
  0
LINE
  5
17FA
330
1D
100
AcDbEntity
  8
0
100
AcDbLine
 10
69.066395223068
 20
1256.020635396485
 30
0.0
 11
69.870795223068
 21
1255.345635396485
 31
0.0
  0
LINE
  5
17FB
330
1D
100
AcDbEntity
  8
0
100
AcDbLine
 10
68.407595223068
 20
1256.360635396485
 30
0.0
 11
69.324895223068
 21
1255.717635396485
 31
0.0
  0
LINE
  5
17FC
330
1D
100
AcDbEntity
  8
0
100
AcDbLine
 10
67.862895223068
 20
1257.768635396485
 30
0.0
 11
68.365795223068
 21
1257.690635396485
 31
0.0
  0
LINE
  5
17FD
330
1D
100
AcDbEntity
  8
0
100
AcDbLine
 10
68.365795223068
 20
1257.690635396485
 30
0.0
 11
69.100595223068
 21
1257.437635396485
 31
0.0
  0
LINE
  5
17FE
330
1D
100
AcDbEntity
  8
0
100
AcDbLine
 10
69.100595223068
 20
1257.437635396485
 30
0.0
 11
69.814495223068
 21
1257.066635396485
 31
0.0
  0
LINE
  5
17FF
330
1D
100
AcDbEntity
  8
0
100
AcDbLine
 10
67.669295223068
 20
1257.100635396485
 30
0.0
 11
68.407595223068
 21
1256.360635396485
 31
0.0
  0
LINE
  5
1800
330
1D
100
AcDbEntity
  8
0
100
AcDbLine
 10
69.324895223068
 20
1255.717635396485
 30
0.0
 11
69.502334644066
 21
1255.654823475583
 31
0.0
  0
LINE
  5
1801
330
1D
100
AcDbEntity
  8
0
100
AcDbLine
 10
104.343095223068
 20
1253.113635396485
 30
0.0
 11
107.451095223068
 21
1246.814635396485
 31
0.0
  0
LINE
  5
1802
330
1D
100
AcDbEntity
  8
0
100
AcDbLine
 10
103.861095223068
 20
1254.668635396485
 30
0.0
 11
104.343095223068
 21
1253.113635396485
 31
0.0
  0
LINE
  5
1803
330
1D
100
AcDbEntity
  8
0
100
AcDbLine
 10
70.215495223068
 20
1255.056635396485
 30
0.0
 11
71.030557108672
 21
1256.027943471367
 31
0.0
  0
LINE
  5
1804
330
1D
100
AcDbEntity
  8
0
100
AcDbLine
 10
69.870795223068
 20
1255.345635396485
 30
0.0
 11
70.215495223068
 21
1255.056635396485
 31
0.0
  0
LINE
  5
1805
330
1D
100
AcDbEntity
  8
0
100
AcDbLine
 10
70.421395223068
 20
1256.644635396485
 30
0.0
 11
70.847195223068
 21
1256.263635396485
 31
0.0
  0
LINE
  5
1806
330
1D
100
AcDbEntity
  8
0
100
AcDbLine
 10
70.847195223068
 20
1256.263635396485
 30
0.0
 11
71.246295223068
 21
1255.750635396485
 31
0.0
  0
LINE
  5
1807
330
1D
100
AcDbEntity
  8
0
100
AcDbLine
 10
69.814495223068
 20
1257.066635396485
 30
0.0
 11
70.421395223068
 21
1256.644635396485
 31
0.0
  0
LINE
  5
1808
330
1D
100
AcDbEntity
  8
0
100
AcDbLine
 10
70.458987199634
 20
1255.34680443418
 30
0.0
 11
71.068395223068
 21
1255.334635396485
 31
0.0
  0
LINE
  5
1809
330
1D
100
AcDbEntity
  8
0
100
AcDbLine
 10
103.671095223068
 20
1255.899635396485
 30
0.0
 11
103.861095223068
 21
1254.668635396485
 31
0.0
  0
LINE
  5
180A
330
1D
100
AcDbEntity
  8
0
100
AcDbLine
 10
103.536095223068
 20
1256.454635396485
 30
0.0
 11
103.671095223068
 21
1255.899635396485
 31
0.0
  0
LINE
  5
180B
330
1D
100
AcDbEntity
  8
0
100
AcDbLine
 10
103.222095223068
 20
1256.928635396485
 30
0.0
 11
103.536095223068
 21
1256.454635396485
 31
0.0
  0
LINE
  5
180C
330
1D
100
AcDbEntity
  8
0
100
AcDbLine
 10
71.068395223068
 20
1255.334635396485
 30
0.0
 11
71.246295223068
 21
1255.750635396485
 31
0.0
  0
LINE
  5
180D
330
1D
100
AcDbEntity
  8
0
100
AcDbLine
 10
56.639169812606
 20
1257.976686906292
 30
0.0
 11
56.90144304264
 21
1258.289309415397
 31
0.0
  0
LINE
  5
180E
330
1D
100
AcDbEntity
  8
0
100
AcDbLine
 10
60.552595223068
 20
1258.239635396485
 30
0.0
 11
61.356895223068
 21
1257.564635396485
 31
0.0
  0
LINE
  5
180F
330
1D
100
AcDbEntity
  8
0
100
AcDbLine
 10
57.106795223068
 20
1258.170635396485
 30
0.0
 11
58.252695223068
 21
1257.339635396485
 31
0.0
  0
LINE
  5
1810
330
1D
100
AcDbEntity
  8
0
100
AcDbLine
 10
56.617095223068
 20
1258.453635396485
 30
0.0
 11
57.106795223068
 21
1258.170635396485
 31
0.0
  0
LINE
  5
1811
330
1D
100
AcDbEntity
  8
0
100
AcDbLine
 10
56.261395223068
 20
1258.380635396485
 30
0.0
 11
56.639169812606
 21
1257.976686906292
 31
0.0
  0
LINE
  5
1812
330
1D
100
AcDbEntity
  8
0
100
AcDbLine
 10
56.261395223068
 20
1258.380635396485
 30
0.0
 11
56.289495223068
 21
1258.579635396485
 31
0.0
  0
LINE
  5
1813
330
1D
100
AcDbEntity
  8
0
100
AcDbLine
 10
60.604095223068
 20
1257.827635396485
 30
0.0
 11
61.442195223068
 21
1256.458635396485
 31
0.0
  0
LINE
  5
1814
330
1D
100
AcDbEntity
  8
0
100
AcDbLine
 10
60.207895223068
 20
1258.528635396485
 30
0.0
 11
60.552595223068
 21
1258.239635396485
 31
0.0
  0
LINE
  5
1815
330
1D
100
AcDbEntity
  8
0
100
AcDbLine
 10
60.207895223068
 20
1258.528635396485
 30
0.0
 11
61.325352143793
 21
1259.860348635136
 31
0.0
  0
LINE
  5
1816
330
1D
100
AcDbEntity
  8
0
100
AcDbLine
 10
56.289495223068
 20
1258.579635396485
 30
0.0
 11
56.617095223068
 21
1258.453635396485
 31
0.0
  0
LINE
  5
1817
330
1D
100
AcDbEntity
  8
0
100
AcDbLine
 10
63.356095223068
 20
1258.517635396485
 30
0.0
 11
63.901195223068
 21
1257.738635396485
 31
0.0
  0
LINE
  5
1818
330
1D
100
AcDbEntity
  8
0
100
AcDbLine
 10
63.701004821842
 20
1258.024726613793
 30
0.0
 11
63.901195223068
 21
1257.738635396485
 31
0.0
  0
LINE
  5
1819
330
1D
100
AcDbEntity
  8
0
100
AcDbLine
 10
53.950795223068
 20
1258.732635396485
 30
0.0
 11
57.161963703979
 21
1256.065684801224
 31
0.0
  0
LINE
  5
181A
330
1D
100
AcDbEntity
  8
0
100
AcDbLine
 10
53.950795223068
 20
1258.732635396485
 30
0.0
 11
53.960095223068
 21
1258.892635396485
 31
0.0
  0
LINE
  5
181B
330
1D
100
AcDbEntity
  8
0
100
AcDbLine
 10
53.621295223068
 20
1258.733635396485
 30
0.0
 11
53.950795223068
 21
1258.732635396485
 31
0.0
  0
LINE
  5
181C
330
1D
100
AcDbEntity
  8
0
100
AcDbLine
 10
62.593095223068
 20
1259.124635396485
 30
0.0
 11
63.356095223068
 21
1258.517635396485
 31
0.0
  0
LINE
  5
181D
330
1D
100
AcDbEntity
  8
0
100
AcDbLine
 10
41.06393266591
 20
1269.193066496097
 30
0.0
 11
41.278095223068
 21
1268.992635396485
 31
0.0
  0
LINE
  5
181E
330
1D
100
AcDbEntity
  8
0
100
AcDbLine
 10
41.278095223068
 20
1268.992635396485
 30
0.0
 11
41.367695223068
 21
1268.909635396485
 31
0.0
  0
LINE
  5
181F
330
1D
100
AcDbEntity
  8
0
100
AcDbLine
 10
41.087595223068
 20
1270.204635396485
 30
0.0
 11
41.567695223068
 21
1269.577635396485
 31
0.0
  0
LINE
  5
1820
330
1D
100
AcDbEntity
  8
0
100
AcDbLine
 10
40.982195223068
 20
1269.705635396485
 30
0.0
 11
41.560395223068
 21
1269.360635396485
 31
0.0
  0
LINE
  5
1821
330
1D
100
AcDbEntity
  8
0
100
AcDbLine
 10
41.560395223068
 20
1269.360635396485
 30
0.0
 11
41.567695223068
 21
1269.577635396485
 31
0.0
  0
LINE
  5
1822
330
1D
100
AcDbEntity
  8
0
100
AcDbLine
 10
41.705264024746
 20
1271.297963314612
 30
0.0
 11
42.870695223068
 21
1270.187635396485
 31
0.0
  0
LINE
  5
1823
330
1D
100
AcDbEntity
  8
0
100
AcDbLine
 10
41.367695223068
 20
1268.909635396485
 30
0.0
 11
44.902695223068
 21
1265.801635396485
 31
0.0
  0
LINE
  5
1824
330
1D
100
AcDbEntity
  8
0
100
AcDbLine
 10
40.193550664383
 20
1273.188530648581
 30
0.0
 11
40.662295223068
 21
1272.932635396485
 31
0.0
  0
LINE
  5
1825
330
1D
100
AcDbEntity
  8
0
100
AcDbLine
 10
40.662295223068
 20
1272.932635396485
 30
0.0
 11
40.893295223068
 21
1273.131635396485
 31
0.0
  0
LINE
  5
1826
330
1D
100
AcDbEntity
  8
0
100
AcDbLine
 10
40.543195223068
 20
1272.175635396485
 30
0.0
 11
41.705264024749
 21
1271.297963314609
 31
0.0
  0
LINE
  5
1827
330
1D
100
AcDbEntity
  8
0
100
AcDbLine
 10
45.018995223068
 20
1265.753635396485
 30
0.0
 11
45.125095223068
 21
1265.773635396485
 31
0.0
  0
LINE
  5
1828
330
1D
100
AcDbEntity
  8
0
100
AcDbLine
 10
45.135295223068
 20
1265.778635396485
 30
0.0
 11
45.251295223068
 21
1265.791635396485
 31
0.0
  0
LINE
  5
1829
330
1D
100
AcDbEntity
  8
0
100
AcDbLine
 10
45.346095223068
 20
1265.746635396485
 30
0.0
 11
45.375195223068
 21
1265.941635396485
 31
0.0
  0
LINE
  5
182A
330
1D
100
AcDbEntity
  8
0
100
AcDbLine
 10
45.346095223068
 20
1265.746635396485
 30
0.0
 11
47.854595223068
 21
1263.579635396485
 31
0.0
  0
LINE
  5
182B
330
1D
100
AcDbEntity
  8
0
100
AcDbLine
 10
43.841695223068
 20
1269.174635396485
 30
0.0
 11
44.794795223068
 21
1267.982635396485
 31
0.0
  0
LINE
  5
182C
330
1D
100
AcDbEntity
  8
0
100
AcDbLine
 10
44.794795223068
 20
1267.982635396485
 30
0.0
 11
45.219295223068
 21
1267.188635396485
 31
0.0
  0
LINE
  5
182D
330
1D
100
AcDbEntity
  8
0
100
AcDbLine
 10
44.902695223068
 20
1265.801635396485
 30
0.0
 11
45.018995223068
 21
1265.753635396485
 31
0.0
  0
LINE
  5
182E
330
1D
100
AcDbEntity
  8
0
100
AcDbLine
 10
45.375195223068
 20
1265.941635396485
 30
0.0
 11
45.384595223068
 21
1266.457635396485
 31
0.0
  0
LINE
  5
182F
330
1D
100
AcDbEntity
  8
0
100
AcDbLine
 10
45.219295223068
 20
1267.188635396485
 30
0.0
 11
45.384595223068
 21
1266.457635396485
 31
0.0
  0
LINE
  5
1830
330
1D
100
AcDbEntity
  8
0
100
AcDbLine
 10
45.816895223068
 20
1266.235635396485
 30
0.0
 11
46.161595223068
 21
1265.945635396485
 31
0.0
  0
LINE
  5
1831
330
1D
100
AcDbEntity
  8
0
100
AcDbLine
 10
45.816895223068
 20
1266.235635396485
 30
0.0
 11
46.77112894777
 21
1267.372794351527
 31
0.0
  0
LINE
  5
1832
330
1D
100
AcDbEntity
  8
0
100
AcDbLine
 10
45.629195223068
 20
1269.312635396485
 30
0.0
 11
46.655698168103
 21
1270.535917477286
 31
0.0
  0
LINE
  5
1833
330
1D
100
AcDbEntity
  8
0
100
AcDbLine
 10
46.015195223068
 20
1267.623635396485
 30
0.0
 11
46.47181877599
 21
1267.016106851008
 31
0.0
  0
LINE
  5
1834
330
1D
100
AcDbEntity
  8
0
100
AcDbLine
 10
46.015195223068
 20
1267.623635396485
 30
0.0
 11
46.654495223068
 21
1267.447635396485
 31
0.0
  0
LINE
  5
1835
330
1D
100
AcDbEntity
  8
0
100
AcDbLine
 10
45.251295223068
 20
1265.791635396485
 30
0.0
 11
45.346095223068
 21
1265.746635396485
 31
0.0
  0
LINE
  5
1836
330
1D
100
AcDbEntity
  8
0
100
AcDbLine
 10
46.161595223068
 20
1265.945635396485
 30
0.0
 11
46.965995223068
 21
1265.270635396485
 31
0.0
  0
LINE
  5
1837
330
1D
100
AcDbEntity
  8
0
100
AcDbLine
 10
46.965995223068
 20
1265.270635396485
 30
0.0
 11
47.770295223068
 21
1264.595635396485
 31
0.0
  0
LINE
  5
1838
330
1D
100
AcDbEntity
  8
0
100
AcDbLine
 10
47.017995223068
 20
1262.544635396485
 30
0.0
 11
47.362695223068
 21
1262.254635396485
 31
0.0
  0
LINE
  5
1839
330
1D
100
AcDbEntity
  8
0
100
AcDbLine
 10
47.017995223068
 20
1262.544635396485
 30
0.0
 11
47.873283166968
 21
1263.563880807088
 31
0.0
  0
LINE
  5
183A
330
1D
100
AcDbEntity
  8
0
100
AcDbLine
 10
47.017995223068
 20
1262.544635396485
 30
0.0
 11
48.290462865246
 21
1264.06103325253
 31
0.0
  0
LINE
  5
183B
330
1D
100
AcDbEntity
  8
0
100
AcDbLine
 10
46.691593623663
 20
1267.423830248584
 30
0.0
 11
46.770873090257
 21
1267.372489446498
 31
0.0
  0
LINE
  5
183C
330
1D
100
AcDbEntity
  8
0
100
AcDbLine
 10
46.654495223068
 20
1267.447635396485
 30
0.0
 11
47.107995223068
 21
1267.156635396485
 31
0.0
  0
LINE
  5
183D
330
1D
100
AcDbEntity
  8
0
100
AcDbLine
 10
42.870695223068
 20
1270.187635396485
 30
0.0
 11
43.841695223068
 21
1269.174635396485
 31
0.0
  0
LINE
  5
183E
330
1D
100
AcDbEntity
  8
0
100
AcDbLine
 10
42.589395223068
 20
1272.510635396485
 30
0.0
 11
43.612545788768
 21
1271.57714836059
 31
0.0
  0
LINE
  5
183F
330
1D
100
AcDbEntity
  8
0
100
AcDbLine
 10
45.284395223068
 20
1269.601635396485
 30
0.0
 11
45.629195223068
 21
1269.312635396485
 31
0.0
  0
LINE
  5
1840
330
1D
100
AcDbEntity
  8
0
100
AcDbLine
 10
43.330995223068
 20
1271.241635396485
 30
0.0
 11
43.675695223068
 21
1270.951635396485
 31
0.0
  0
LINE
  5
1841
330
1D
100
AcDbEntity
  8
0
100
AcDbLine
 10
43.330995223068
 20
1271.241635396485
 30
0.0
 11
44.40143455705
 21
1272.51723671856
 31
0.0
  0
LINE
  5
1842
330
1D
100
AcDbEntity
  8
0
100
AcDbLine
 10
43.675695223068
 20
1270.951635396485
 30
0.0
 11
44.480095223068
 21
1270.276635396485
 31
0.0
  0
LINE
  5
1843
330
1D
100
AcDbEntity
  8
0
100
AcDbLine
 10
44.480095223068
 20
1270.276635396485
 30
0.0
 11
45.284395223068
 21
1269.601635396485
 31
0.0
  0
LINE
  5
1844
330
1D
100
AcDbEntity
  8
0
100
AcDbLine
 10
45.672995223068
 20
1271.607635396485
 30
0.0
 11
46.237695223068
 21
1271.051635396485
 31
0.0
  0
LINE
  5
1845
330
1D
100
AcDbEntity
  8
0
100
AcDbLine
 10
45.936260199651
 20
1269.678564286716
 30
0.0
 11
48.119895223068
 21
1267.614635396485
 31
0.0
  0
LINE
  5
1846
330
1D
100
AcDbEntity
  8
0
100
AcDbLine
 10
46.237695223068
 20
1271.051635396485
 30
0.0
 11
46.668895223068
 21
1270.519635396485
 31
0.0
  0
LINE
  5
1847
330
1D
100
AcDbEntity
  8
0
100
AcDbLine
 10
46.668895223068
 20
1270.519635396485
 30
0.0
 11
46.804995223068
 21
1270.117635396485
 31
0.0
  0
LINE
  5
1848
330
1D
100
AcDbEntity
  8
0
100
AcDbLine
 10
46.299068953031
 20
1270.11092295545
 30
0.0
 11
46.804995223068
 21
1270.117635396485
 31
0.0
  0
LINE
  5
1849
330
1D
100
AcDbEntity
  8
0
100
AcDbLine
 10
43.957097087277
 20
1271.987736871258
 30
0.0
 11
44.060243224338
 21
1272.11065214971
 31
0.0
  0
LINE
  5
184A
330
1D
100
AcDbEntity
  8
0
100
AcDbLine
 10
43.885595223068
 20
1272.062635396485
 30
0.0
 11
43.957097087277
 21
1271.987736871258
 31
0.0
  0
LINE
  5
184B
330
1D
100
AcDbEntity
  8
0
100
AcDbLine
 10
43.577595223068
 20
1272.605635396485
 30
0.0
 11
43.689395223068
 21
1272.763635396485
 31
0.0
  0
LINE
  5
184C
330
1D
100
AcDbEntity
  8
0
100
AcDbLine
 10
43.577595223068
 20
1272.605635396485
 30
0.0
 11
43.885595223068
 21
1272.062635396485
 31
0.0
  0
LINE
  5
184D
330
1D
100
AcDbEntity
  8
0
100
AcDbLine
 10
43.689395223068
 20
1272.763635396485
 30
0.0
 11
44.056295223068
 21
1272.692635396485
 31
0.0
  0
LINE
  5
184E
330
1D
100
AcDbEntity
  8
0
100
AcDbLine
 10
44.056295223068
 20
1272.692635396485
 30
0.0
 11
44.605295223068
 21
1272.413635396485
 31
0.0
  0
LINE
  5
184F
330
1D
100
AcDbEntity
  8
0
100
AcDbLine
 10
44.605295223068
 20
1272.413635396485
 30
0.0
 11
45.672995223068
 21
1271.607635396485
 31
0.0
  0
LINE
  5
1850
330
1D
100
AcDbEntity
  8
0
100
AcDbLine
 10
40.528195223068
 20
1273.702635396485
 30
0.0
 11
40.893295223068
 21
1273.131635396485
 31
0.0
  0
LINE
  5
1851
330
1D
100
AcDbEntity
  8
0
100
AcDbLine
 10
41.562395223068
 20
1275.308635396485
 30
0.0
 11
42.733472390745
 21
1276.704527316015
 31
0.0
  0
LINE
  5
1852
330
1D
100
AcDbEntity
  8
0
100
AcDbLine
 10
41.217695223068
 20
1275.598635396485
 30
0.0
 11
41.562395223068
 21
1275.308635396485
 31
0.0
  0
LINE
  5
1853
330
1D
100
AcDbEntity
  8
0
100
AcDbLine
 10
41.918540380002
 20
1275.733150672221
 30
0.0
 11
42.620095223068
 21
1275.112635396485
 31
0.0
  0
LINE
  5
1854
330
1D
100
AcDbEntity
  8
0
100
AcDbLine
 10
42.620095223068
 20
1275.112635396485
 30
0.0
 11
47.181095223068
 21
1271.139635396485
 31
0.0
  0
LINE
  5
1855
330
1D
100
AcDbEntity
  8
0
100
AcDbLine
 10
40.413395223068
 20
1276.273635396485
 30
0.0
 11
41.217695223068
 21
1275.598635396485
 31
0.0
  0
LINE
  5
1856
330
1D
100
AcDbEntity
  8
0
100
AcDbLine
 10
42.689295223068
 20
1275.912635396485
 30
0.0
 11
42.985995223068
 21
1276.220635396485
 31
0.0
  0
LINE
  5
1857
330
1D
100
AcDbEntity
  8
0
100
AcDbLine
 10
42.237689815175
 20
1276.113568060567
 30
0.0
 11
42.689295223068
 21
1275.912635396485
 31
0.0
  0
LINE
  5
1858
330
1D
100
AcDbEntity
  8
0
100
AcDbLine
 10
43.052495223068
 20
1277.191635396485
 30
0.0
 11
44.426867545608
 21
1278.829849574348
 31
0.0
  0
LINE
  5
1859
330
1D
100
AcDbEntity
  8
0
100
AcDbLine
 10
44.316195223068
 20
1277.437635396485
 30
0.0
 11
44.886395223068
 21
1277.678635396485
 31
0.0
  0
LINE
  5
185A
330
1D
100
AcDbEntity
  8
0
100
AcDbLine
 10
43.079284070628
 20
1277.220220809336
 30
0.0
 11
46.725795223068
 21
1274.112635396485
 31
0.0
  0
LINE
  5
185B
330
1D
100
AcDbEntity
  8
0
100
AcDbLine
 10
42.699495223068
 20
1276.769635396485
 30
0.0
 11
42.985995223068
 21
1276.220635396485
 31
0.0
  0
LINE
  5
185C
330
1D
100
AcDbEntity
  8
0
100
AcDbLine
 10
40.754395223068
 20
1279.120635396485
 30
0.0
 11
41.099095223068
 21
1278.830635396485
 31
0.0
  0
LINE
  5
185D
330
1D
100
AcDbEntity
  8
0
100
AcDbLine
 10
40.754395223068
 20
1279.120635396485
 30
0.0
 11
42.109368719256
 21
1280.735305119696
 31
0.0
  0
LINE
  5
185E
330
1D
100
AcDbEntity
  8
0
100
AcDbLine
 10
41.004795223068
 20
1280.367635396485
 30
0.0
 11
41.32977534981
 21
1279.806293730468
 31
0.0
  0
LINE
  5
185F
330
1D
100
AcDbEntity
  8
0
100
AcDbLine
 10
41.004795223068
 20
1280.367635396485
 30
0.0
 11
41.133095223068
 21
1280.896635396485
 31
0.0
  0
LINE
  5
1860
330
1D
100
AcDbEntity
  8
0
100
AcDbLine
 10
41.099095223068
 20
1278.830635396485
 30
0.0
 11
41.903495223068
 21
1278.155635396485
 31
0.0
  0
LINE
  5
1861
330
1D
100
AcDbEntity
  8
0
100
AcDbLine
 10
41.903495223068
 20
1278.155635396485
 30
0.0
 11
42.707795223068
 21
1277.481635396485
 31
0.0
  0
LINE
  5
1862
330
1D
100
AcDbEntity
  8
0
100
AcDbLine
 10
42.707795223068
 20
1277.481635396485
 30
0.0
 11
43.052495223068
 21
1277.191635396485
 31
0.0
  0
LINE
  5
1863
330
1D
100
AcDbEntity
  8
0
100
AcDbLine
 10
43.471695223068
 20
1279.820635396485
 30
0.0
 11
44.517695223068
 21
1278.735635396485
 31
0.0
  0
LINE
  5
1864
330
1D
100
AcDbEntity
  8
0
100
AcDbLine
 10
42.216295223068
 20
1280.717635396485
 30
0.0
 11
43.471695223068
 21
1279.820635396485
 31
0.0
  0
LINE
  5
1865
330
1D
100
AcDbEntity
  8
0
100
AcDbLine
 10
44.517695223068
 20
1278.735635396485
 30
0.0
 11
44.886395223068
 21
1277.678635396485
 31
0.0
  0
LINE
  5
1866
330
1D
100
AcDbEntity
  8
0
100
AcDbLine
 10
43.578172189094
 20
1277.818227946841
 30
0.0
 11
44.316195223068
 21
1277.437635396485
 31
0.0
  0
LINE
  5
1867
330
1D
100
AcDbEntity
  8
0
100
AcDbLine
 10
41.133095223068
 20
1280.896635396485
 30
0.0
 11
42.216295223068
 21
1280.717635396485
 31
0.0
  0
LINE
  5
1868
330
1D
100
AcDbEntity
  8
0
100
AcDbLine
 10
41.011295223068
 20
1278.369635396485
 30
0.0
 11
42.081495223068
 21
1277.479635396485
 31
0.0
  0
LINE
  5
1869
330
1D
100
AcDbEntity
  8
0
100
AcDbLine
 10
42.081495223068
 20
1277.479635396485
 30
0.0
 11
42.699495223068
 21
1276.769635396485
 31
0.0
  0
LINE
  5
186A
330
1D
100
AcDbEntity
  8
0
100
AcDbLine
 10
46.725795223068
 20
1274.112635396485
 30
0.0
 11
49.847695223068
 21
1271.425635396485
 31
0.0
  0
LINE
  5
186B
330
1D
100
AcDbEntity
  8
0
100
AcDbLine
 10
43.911395223068
 20
1309.451635396485
 30
0.0
 11
52.324795223068
 21
1303.289635396485
 31
0.0
  0
LINE
  5
186C
330
1D
100
AcDbEntity
  8
0
100
AcDbLine
 10
60.722395223068
 20
1259.291635396485
 30
0.0
 11
60.7920068548
 21
1259.224742045789
 31
0.0
  0
LINE
  5
186D
330
1D
100
AcDbEntity
  8
0
100
AcDbLine
 10
59.435395223068
 20
1259.349635396485
 30
0.0
 11
60.604095223068
 21
1257.827635396485
 31
0.0
  0
LINE
  5
186E
330
1D
100
AcDbEntity
  8
0
100
AcDbLine
 10
59.426095223068
 20
1259.358635396485
 30
0.0
 11
60.604095223068
 21
1257.827635396485
 31
0.0
  0
LINE
  5
186F
330
1D
100
AcDbEntity
  8
0
100
AcDbLine
 10
53.915095223068
 20
1259.489635396485
 30
0.0
 11
53.960095223068
 21
1258.892635396485
 31
0.0
  0
LINE
  5
1870
330
1D
100
AcDbEntity
  8
0
100
AcDbLine
 10
53.795795223068
 20
1260.162635396485
 30
0.0
 11
53.915095223068
 21
1259.489635396485
 31
0.0
  0
LINE
  5
1871
330
1D
100
AcDbEntity
  8
0
100
AcDbLine
 10
61.127993483445
 20
1259.625149285726
 30
0.0
 11
61.325352143793
 21
1259.860348635136
 31
0.0
  0
LINE
  5
1872
330
1D
100
AcDbEntity
  8
0
100
AcDbLine
 10
60.437295223068
 20
1259.864635396485
 30
0.0
 11
60.722395223068
 21
1259.291635396485
 31
0.0
  0
LINE
  5
1873
330
1D
100
AcDbEntity
  8
0
100
AcDbLine
 10
60.437295223068
 20
1259.864635396485
 30
0.0
 11
60.613595223068
 21
1260.015635396485
 31
0.0
  0
LINE
  5
1874
330
1D
100
AcDbEntity
  8
0
100
AcDbLine
 10
61.214095223068
 20
1259.917635396485
 30
0.0
 11
62.025895223068
 21
1259.499635396485
 31
0.0
  0
LINE
  5
1875
330
1D
100
AcDbEntity
  8
0
100
AcDbLine
 10
62.025895223068
 20
1259.499635396485
 30
0.0
 11
62.593095223068
 21
1259.124635396485
 31
0.0
  0
LINE
  5
1876
330
1D
100
AcDbEntity
  8
0
100
AcDbLine
 10
60.613595223068
 20
1260.015635396485
 30
0.0
 11
61.214095223068
 21
1259.917635396485
 31
0.0
  0
LINE
  5
1877
330
1D
100
AcDbEntity
  8
0
100
AcDbLine
 10
95.355095223068
 20
1260.226635396485
 30
0.0
 11
97.415195223068
 21
1259.049635396485
 31
0.0
  0
LINE
  5
1878
330
1D
100
AcDbEntity
  8
0
100
AcDbLine
 10
47.362695223068
 20
1262.254635396485
 30
0.0
 11
48.167095223068
 21
1261.579635396485
 31
0.0
  0
LINE
  5
1879
330
1D
100
AcDbEntity
  8
0
100
AcDbLine
 10
48.167095223068
 20
1261.579635396485
 30
0.0
 11
48.971395223068
 21
1260.904635396485
 31
0.0
  0
LINE
  5
187A
330
1D
100
AcDbEntity
  8
0
100
AcDbLine
 10
48.100711065535
 20
1263.834906306174
 30
0.0
 11
48.290462865246
 21
1264.06103325253
 31
0.0
  0
LINE
  5
187B
330
1D
100
AcDbEntity
  8
0
100
AcDbLine
 10
49.316095223068
 20
1260.615635396485
 30
0.0
 11
50.580810841917
 21
1262.122748283913
 31
0.0
  0
LINE
  5
187C
330
1D
100
AcDbEntity
  8
0
100
AcDbLine
 10
49.903295223068
 20
1260.621635396485
 30
0.0
 11
50.497567550474
 21
1261.329828872936
 31
0.0
  0
LINE
  5
187D
330
1D
100
AcDbEntity
  8
0
100
AcDbLine
 10
49.561520728374
 20
1260.908099517618
 30
0.0
 11
49.903295223068
 21
1260.621635396485
 31
0.0
  0
LINE
  5
187E
330
1D
100
AcDbEntity
  8
0
100
AcDbLine
 10
48.971395223068
 20
1260.904635396485
 30
0.0
 11
49.316095223068
 21
1260.615635396485
 31
0.0
  0
LINE
  5
187F
330
1D
100
AcDbEntity
  8
0
100
AcDbLine
 10
50.160424641797
 20
1261.621790242077
 30
0.0
 11
50.826895223068
 21
1261.044635396485
 31
0.0
  0
LINE
  5
1880
330
1D
100
AcDbEntity
  8
0
100
AcDbLine
 10
50.829995223068
 20
1261.041635396485
 30
0.0
 11
50.982095223068
 21
1260.909635396485
 31
0.0
  0
LINE
  5
1881
330
1D
100
AcDbEntity
  8
0
100
AcDbLine
 10
50.791017978183
 20
1261.075704623416
 30
0.0
 11
50.829995223068
 21
1261.041635396485
 31
0.0
  0
LINE
  5
1882
330
1D
100
AcDbEntity
  8
0
100
AcDbLine
 10
50.826895223068
 20
1261.044635396485
 30
0.0
 11
50.982095223068
 21
1260.909635396485
 31
0.0
  0
LINE
  5
1883
330
1D
100
AcDbEntity
  8
0
100
AcDbLine
 10
50.982095223068
 20
1260.909635396485
 30
0.0
 11
53.505095223068
 21
1258.779635396485
 31
0.0
  0
LINE
  5
1884
330
1D
100
AcDbEntity
  8
0
100
AcDbLine
 10
50.889995223068
 20
1261.523635396485
 30
0.0
 11
51.201095223068
 21
1261.359635396485
 31
0.0
  0
LINE
  5
1885
330
1D
100
AcDbEntity
  8
0
100
AcDbLine
 10
50.382975962357
 20
1261.886996078339
 30
0.0
 11
50.889995223068
 21
1261.523635396485
 31
0.0
  0
LINE
  5
1886
330
1D
100
AcDbEntity
  8
0
100
AcDbLine
 10
49.746895223068
 20
1262.915635396485
 30
0.0
 11
50.502095223068
 21
1262.201635396485
 31
0.0
  0
LINE
  5
1887
330
1D
100
AcDbEntity
  8
0
100
AcDbLine
 10
50.502095223068
 20
1262.201635396485
 30
0.0
 11
51.052895223068
 21
1261.649635396485
 31
0.0
  0
LINE
  5
1888
330
1D
100
AcDbEntity
  8
0
100
AcDbLine
 10
48.819495223068
 20
1263.657635396485
 30
0.0
 11
49.746895223068
 21
1262.915635396485
 31
0.0
  0
LINE
  5
1889
330
1D
100
AcDbEntity
  8
0
100
AcDbLine
 10
48.114995223068
 20
1264.306635396485
 30
0.0
 11
49.033935501152
 21
1265.401701129236
 31
0.0
  0
LINE
  5
188A
330
1D
100
AcDbEntity
  8
0
100
AcDbLine
 10
48.200495223068
 20
1264.129635396485
 30
0.0
 11
48.819495223068
 21
1263.657635396485
 31
0.0
  0
LINE
  5
188B
330
1D
100
AcDbEntity
  8
0
100
AcDbLine
 10
47.871395223068
 20
1264.044635396485
 30
0.0
 11
48.098881740666
 21
1263.832726302362
 31
0.0
  0
LINE
  5
188C
330
1D
100
AcDbEntity
  8
0
100
AcDbLine
 10
51.052895223068
 20
1261.649635396485
 30
0.0
 11
51.201095223068
 21
1261.359635396485
 31
0.0
  0
LINE
  5
188D
330
1D
100
AcDbEntity
  8
0
100
AcDbLine
 10
51.703595223068
 20
1263.801635396485
 30
0.0
 11
52.440431052491
 21
1262.826128450621
 31
0.0
  0
LINE
  5
188E
330
1D
100
AcDbEntity
  8
0
100
AcDbLine
 10
47.640495223068
 20
1264.518635396485
 30
0.0
 11
48.200495223068
 21
1264.129635396485
 31
0.0
  0
LINE
  5
188F
330
1D
100
AcDbEntity
  8
0
100
AcDbLine
 10
47.770295223068
 20
1264.595635396485
 30
0.0
 11
48.114995223068
 21
1264.306635396485
 31
0.0
  0
LINE
  5
1890
330
1D
100
AcDbEntity
  8
0
100
AcDbLine
 10
48.809158765169
 20
1265.133843351136
 30
0.0
 11
49.208095223068
 21
1264.951635396485
 31
0.0
  0
LINE
  5
1891
330
1D
100
AcDbEntity
  8
0
100
AcDbLine
 10
48.809158765169
 20
1265.133843351136
 30
0.0
 11
49.033935501152
 21
1265.401701129236
 31
0.0
  0
LINE
  5
1892
330
1D
100
AcDbEntity
  8
0
100
AcDbLine
 10
50.504895223068
 20
1265.179635396485
 30
0.0
 11
51.703595223068
 21
1263.801635396485
 31
0.0
  0
LINE
  5
1893
330
1D
100
AcDbEntity
  8
0
100
AcDbLine
 10
49.208095223068
 20
1264.951635396485
 30
0.0
 11
49.244295223068
 21
1265.130635396485
 31
0.0
  0
LINE
  5
1894
330
1D
100
AcDbEntity
  8
0
100
AcDbLine
 10
47.443195223068
 20
1264.525635396485
 30
0.0
 11
47.871395223068
 21
1264.044635396485
 31
0.0
  0
LINE
  5
1895
330
1D
100
AcDbEntity
  8
0
100
AcDbLine
 10
47.443195223068
 20
1264.525635396485
 30
0.0
 11
47.640495223068
 21
1264.518635396485
 31
0.0
  0
LINE
  5
1896
330
1D
100
AcDbEntity
  8
0
100
AcDbLine
 10
48.780995223068
 20
1265.727635396485
 30
0.0
 11
49.244295223068
 21
1265.130635396485
 31
0.0
  0
LINE
  5
1897
330
1D
100
AcDbEntity
  8
0
100
AcDbLine
 10
52.286195223068
 20
1266.586635396485
 30
0.0
 11
54.240895223068
 21
1264.681635396485
 31
0.0
  0
LINE
  5
1898
330
1D
100
AcDbEntity
  8
0
100
AcDbLine
 10
54.701195223068
 20
1260.853635396485
 30
0.0
 11
55.784289936495
 21
1262.144317646774
 31
0.0
  0
LINE
  5
1899
330
1D
100
AcDbEntity
  8
0
100
AcDbLine
 10
54.356495223068
 20
1261.142635396485
 30
0.0
 11
54.701195223068
 21
1260.853635396485
 31
0.0
  0
LINE
  5
189A
330
1D
100
AcDbEntity
  8
0
100
AcDbLine
 10
53.539795223068
 20
1260.915635396485
 30
0.0
 11
53.795795223068
 21
1260.162635396485
 31
0.0
  0
LINE
  5
189B
330
1D
100
AcDbEntity
  8
0
100
AcDbLine
 10
53.552195223068
 20
1261.817635396485
 30
0.0
 11
54.356495223068
 21
1261.142635396485
 31
0.0
  0
LINE
  5
189C
330
1D
100
AcDbEntity
  8
0
100
AcDbLine
 10
55.935795223068
 20
1261.997635396485
 30
0.0
 11
56.346095223068
 21
1261.339635396485
 31
0.0
  0
LINE
  5
189D
330
1D
100
AcDbEntity
  8
0
100
AcDbLine
 10
55.231095223068
 20
1261.476635396485
 30
0.0
 11
55.993995223068
 21
1261.120635396485
 31
0.0
  0
LINE
  5
189E
330
1D
100
AcDbEntity
  8
0
100
AcDbLine
 10
52.403095223068
 20
1262.781635396485
 30
0.0
 11
52.747795223068
 21
1262.492635396485
 31
0.0
  0
LINE
  5
189F
330
1D
100
AcDbEntity
  8
0
100
AcDbLine
 10
52.403095223068
 20
1262.781635396485
 30
0.0
 11
53.401056322079
 21
1263.970904200496
 31
0.0
  0
LINE
  5
18A0
330
1D
100
AcDbEntity
  8
0
100
AcDbLine
 10
52.747795223068
 20
1262.492635396485
 30
0.0
 11
53.552195223068
 21
1261.817635396485
 31
0.0
  0
LINE
  5
18A1
330
1D
100
AcDbEntity
  8
0
100
AcDbLine
 10
52.578242789648
 20
1262.634789888096
 30
0.0
 11
53.134095223068
 21
1261.746635396485
 31
0.0
  0
LINE
  5
18A2
330
1D
100
AcDbEntity
  8
0
100
AcDbLine
 10
55.250995223068
 20
1262.660635396485
 30
0.0
 11
55.935795223068
 21
1261.997635396485
 31
0.0
  0
LINE
  5
18A3
330
1D
100
AcDbEntity
  8
0
100
AcDbLine
 10
54.388695223068
 20
1263.381635396485
 30
0.0
 11
55.250995223068
 21
1262.660635396485
 31
0.0
  0
LINE
  5
18A4
330
1D
100
AcDbEntity
  8
0
100
AcDbLine
 10
55.932295223068
 20
1263.108635396485
 30
0.0
 11
57.302195223068
 21
1261.736635396485
 31
0.0
  0
LINE
  5
18A5
330
1D
100
AcDbEntity
  8
0
100
AcDbLine
 10
55.993995223068
 20
1261.120635396485
 30
0.0
 11
56.346095223068
 21
1261.339635396485
 31
0.0
  0
LINE
  5
18A6
330
1D
100
AcDbEntity
  8
0
100
AcDbLine
 10
53.435595223068
 20
1263.955635396485
 30
0.0
 11
54.388695223068
 21
1263.381635396485
 31
0.0
  0
LINE
  5
18A7
330
1D
100
AcDbEntity
  8
0
100
AcDbLine
 10
52.797695223068
 20
1264.237635396485
 30
0.0
 11
53.435595223068
 21
1263.955635396485
 31
0.0
  0
LINE
  5
18A8
330
1D
100
AcDbEntity
  8
0
100
AcDbLine
 10
53.420995223068
 20
1266.012635396485
 30
0.0
 11
54.225018392419
 21
1266.970788649111
 31
0.0
  0
LINE
  5
18A9
330
1D
100
AcDbEntity
  8
0
100
AcDbLine
 10
53.076195223068
 20
1266.301635396485
 30
0.0
 11
53.420995223068
 21
1266.012635396485
 31
0.0
  0
LINE
  5
18AA
330
1D
100
AcDbEntity
  8
0
100
AcDbLine
 10
53.568379932454
 20
1266.188273542335
 30
0.0
 11
53.768295223068
 21
1266.075635396485
 31
0.0
  0
LINE
  5
18AB
330
1D
100
AcDbEntity
  8
0
100
AcDbLine
 10
53.768295223068
 20
1266.075635396485
 30
0.0
 11
54.337995223068
 21
1265.940635396485
 31
0.0
  0
LINE
  5
18AC
330
1D
100
AcDbEntity
  8
0
100
AcDbLine
 10
54.337995223068
 20
1265.940635396485
 30
0.0
 11
54.606595223068
 21
1266.026635396485
 31
0.0
  0
LINE
  5
18AD
330
1D
100
AcDbEntity
  8
0
100
AcDbLine
 10
54.240895223068
 20
1264.681635396485
 30
0.0
 11
55.932295223068
 21
1263.108635396485
 31
0.0
  0
LINE
  5
18AE
330
1D
100
AcDbEntity
  8
0
100
AcDbLine
 10
54.606595223068
 20
1266.026635396485
 30
0.0
 11
54.628795223068
 21
1266.397635396485
 31
0.0
  0
LINE
  5
18AF
330
1D
100
AcDbEntity
  8
0
100
AcDbLine
 10
52.774695223068
 20
1263.485635396485
 30
0.0
 11
52.893003184805
 21
1263.365458008717
 31
0.0
  0
LINE
  5
18B0
330
1D
100
AcDbEntity
  8
0
100
AcDbLine
 10
52.370295223068
 20
1264.140635396485
 30
0.0
 11
52.774695223068
 21
1263.485635396485
 31
0.0
  0
LINE
  5
18B1
330
1D
100
AcDbEntity
  8
0
100
AcDbLine
 10
52.370295223068
 20
1264.140635396485
 30
0.0
 11
52.797695223068
 21
1264.237635396485
 31
0.0
  0
LINE
  5
18B2
330
1D
100
AcDbEntity
  8
0
100
AcDbLine
 10
47.107995223068
 20
1267.156635396485
 30
0.0
 11
47.778195223068
 21
1266.651635396485
 31
0.0
  0
LINE
  5
18B3
330
1D
100
AcDbEntity
  8
0
100
AcDbLine
 10
48.119895223068
 20
1267.614635396485
 30
0.0
 11
50.504895223068
 21
1265.179635396485
 31
0.0
  0
LINE
  5
18B4
330
1D
100
AcDbEntity
  8
0
100
AcDbLine
 10
49.918195223068
 20
1271.219635396485
 30
0.0
 11
50.262995223068
 21
1270.930635396485
 31
0.0
  0
LINE
  5
18B5
330
1D
100
AcDbEntity
  8
0
100
AcDbLine
 10
49.918195223068
 20
1271.219635396485
 30
0.0
 11
51.148266479917
 21
1272.685463932183
 31
0.0
  0
LINE
  5
18B6
330
1D
100
AcDbEntity
  8
0
100
AcDbLine
 10
50.262995223068
 20
1270.930635396485
 30
0.0
 11
51.067295223068
 21
1270.255635396485
 31
0.0
  0
LINE
  5
18B7
330
1D
100
AcDbEntity
  8
0
100
AcDbLine
 10
50.271995223068
 20
1272.539635396485
 30
0.0
 11
50.534891370966
 21
1271.954528441429
 31
0.0
  0
LINE
  5
18B8
330
1D
100
AcDbEntity
  8
0
100
AcDbLine
 10
50.271995223068
 20
1272.539635396485
 30
0.0
 11
50.663195223068
 21
1272.821635396485
 31
0.0
  0
LINE
  5
18B9
330
1D
100
AcDbEntity
  8
0
100
AcDbLine
 10
49.847695223068
 20
1271.425635396485
 30
0.0
 11
49.989132187573
 21
1271.304168244666
 31
0.0
  0
LINE
  5
18BA
330
1D
100
AcDbEntity
  8
0
100
AcDbLine
 10
49.847695223068
 20
1271.425635396485
 30
0.0
 11
49.989132187573
 21
1271.304168244666
 31
0.0
  0
LINE
  5
18BB
330
1D
100
AcDbEntity
  8
0
100
AcDbLine
 10
50.722895223068
 20
1268.723635396485
 30
0.0
 11
51.048095223068
 21
1268.162635396485
 31
0.0
  0
LINE
  5
18BC
330
1D
100
AcDbEntity
  8
0
100
AcDbLine
 10
51.122795223068
 20
1267.940635396485
 30
0.0
 11
51.467495223068
 21
1267.651635396485
 31
0.0
  0
LINE
  5
18BD
330
1D
100
AcDbEntity
  8
0
100
AcDbLine
 10
51.122795223068
 20
1267.940635396485
 30
0.0
 11
51.889169177056
 21
1268.85389371751
 31
0.0
  0
LINE
  5
18BE
330
1D
100
AcDbEntity
  8
0
100
AcDbLine
 10
51.048095223068
 20
1268.162635396485
 30
0.0
 11
51.189841506342
 21
1268.020531869708
 31
0.0
  0
LINE
  5
18BF
330
1D
100
AcDbEntity
  8
0
100
AcDbLine
 10
50.951095223068
 20
1269.157635396485
 30
0.0
 11
51.473195223068
 21
1269.048635396485
 31
0.0
  0
LINE
  5
18C0
330
1D
100
AcDbEntity
  8
0
100
AcDbLine
 10
51.067295223068
 20
1270.255635396485
 30
0.0
 11
51.871595223068
 21
1269.580635396485
 31
0.0
  0
LINE
  5
18C1
330
1D
100
AcDbEntity
  8
0
100
AcDbLine
 10
50.695595223068
 20
1269.036635396485
 30
0.0
 11
50.951095223068
 21
1269.157635396485
 31
0.0
  0
LINE
  5
18C2
330
1D
100
AcDbEntity
  8
0
100
AcDbLine
 10
50.695595223068
 20
1269.036635396485
 30
0.0
 11
50.722895223068
 21
1268.723635396485
 31
0.0
  0
LINE
  5
18C3
330
1D
100
AcDbEntity
  8
0
100
AcDbLine
 10
50.663195223068
 20
1272.821635396485
 30
0.0
 11
51.275895223068
 21
1272.649635396485
 31
0.0
  0
LINE
  5
18C4
330
1D
100
AcDbEntity
  8
0
100
AcDbLine
 10
47.778195223068
 20
1266.651635396485
 30
0.0
 11
48.780995223068
 21
1265.727635396485
 31
0.0
  0
LINE
  5
18C5
330
1D
100
AcDbEntity
  8
0
100
AcDbLine
 10
51.467495223068
 20
1267.651635396485
 30
0.0
 11
52.271895223068
 21
1266.976635396485
 31
0.0
  0
LINE
  5
18C6
330
1D
100
AcDbEntity
  8
0
100
AcDbLine
 10
52.054195223068
 20
1268.776635396485
 30
0.0
 11
52.802595223068
 21
1268.302635396485
 31
0.0
  0
LINE
  5
18C7
330
1D
100
AcDbEntity
  8
0
100
AcDbLine
 10
52.216395223068
 20
1269.291635396485
 30
0.0
 11
53.50073476704
 21
1270.822180980794
 31
0.0
  0
LINE
  5
18C8
330
1D
100
AcDbEntity
  8
0
100
AcDbLine
 10
51.871595223068
 20
1269.580635396485
 30
0.0
 11
52.216395223068
 21
1269.291635396485
 31
0.0
  0
LINE
  5
18C9
330
1D
100
AcDbEntity
  8
0
100
AcDbLine
 10
51.791895223068
 20
1272.390635396485
 30
0.0
 11
52.590695223068
 21
1271.851635396485
 31
0.0
  0
LINE
  5
18CA
330
1D
100
AcDbEntity
  8
0
100
AcDbLine
 10
51.473195223068
 20
1269.048635396485
 30
0.0
 11
52.054195223068
 21
1268.776635396485
 31
0.0
  0
LINE
  5
18CB
330
1D
100
AcDbEntity
  8
0
100
AcDbLine
 10
52.271895223068
 20
1266.976635396485
 30
0.0
 11
53.076195223068
 21
1266.301635396485
 31
0.0
  0
LINE
  5
18CC
330
1D
100
AcDbEntity
  8
0
100
AcDbLine
 10
52.802595223068
 20
1268.302635396485
 30
0.0
 11
54.063095223068
 21
1267.200635396485
 31
0.0
  0
LINE
  5
18CD
330
1D
100
AcDbEntity
  8
0
100
AcDbLine
 10
54.063095223068
 20
1267.200635396485
 30
0.0
 11
54.628795223068
 21
1266.397635396485
 31
0.0
  0
LINE
  5
18CE
330
1D
100
AcDbEntity
  8
0
100
AcDbLine
 10
52.893323091113
 20
1270.098329361641
 30
0.0
 11
53.722395223068
 21
1270.152635396485
 31
0.0
  0
LINE
  5
18CF
330
1D
100
AcDbEntity
  8
0
100
AcDbLine
 10
53.540995223068
 20
1270.765635396485
 30
0.0
 11
53.722395223068
 21
1270.152635396485
 31
0.0
  0
LINE
  5
18D0
330
1D
100
AcDbEntity
  8
0
100
AcDbLine
 10
53.256195223068
 20
1271.165635396485
 30
0.0
 11
53.540995223068
 21
1270.765635396485
 31
0.0
  0
LINE
  5
18D1
330
1D
100
AcDbEntity
  8
0
100
AcDbLine
 10
52.590695223068
 20
1271.851635396485
 30
0.0
 11
53.256195223068
 21
1271.165635396485
 31
0.0
  0
LINE
  5
18D2
330
1D
100
AcDbEntity
  8
0
100
AcDbLine
 10
52.339214480072
 20
1269.437998928121
 30
0.0
 11
59.199611647656
 21
1263.720859364033
 31
0.0
  0
LINE
  5
18D3
330
1D
100
AcDbEntity
  8
0
100
AcDbLine
 10
53.069195223068
 20
1291.268635396485
 30
0.0
 11
57.997252228547
 21
1287.331410612671
 31
0.0
  0
LINE
  5
18D4
330
1D
100
AcDbEntity
  8
0
100
AcDbLine
 10
52.324795223068
 20
1303.289635396485
 30
0.0
 11
60.002595223068
 21
1297.259635396485
 31
0.0
  0
LINE
  5
18D5
330
1D
100
AcDbEntity
  8
0
100
AcDbLine
 10
51.275895223068
 20
1272.649635396485
 30
0.0
 11
51.791895223068
 21
1272.390635396485
 31
0.0
  0
LINE
  5
18D6
330
1D
100
AcDbEntity
  8
0
100
AcDbLine
 10
61.412895223068
 20
1261.657635396485
 30
0.0
 11
62.789412886737
 21
1263.298029513244
 31
0.0
  0
LINE
  5
18D7
330
1D
100
AcDbEntity
  8
0
100
AcDbLine
 10
57.997252228547
 20
1287.331410612671
 30
0.0
 11
58.770495223068
 21
1286.713635396485
 31
0.0
  0
LINE
  5
18D8
330
1D
100
AcDbEntity
  8
0
100
AcDbLine
 10
59.459495223068
 20
1263.296635396485
 30
0.0
 11
60.263795223068
 21
1262.621635396485
 31
0.0
  0
LINE
  5
18D9
330
1D
100
AcDbEntity
  8
0
100
AcDbLine
 10
61.068195223068
 20
1261.946635396485
 30
0.0
 11
61.412895223068
 21
1261.657635396485
 31
0.0
  0
LINE
  5
18DA
330
1D
100
AcDbEntity
  8
0
100
AcDbLine
 10
59.114695223068
 20
1263.585635396485
 30
0.0
 11
59.459495223068
 21
1263.296635396485
 31
0.0
  0
LINE
  5
18DB
330
1D
100
AcDbEntity
  8
0
100
AcDbLine
 10
59.114695223068
 20
1263.585635396485
 30
0.0
 11
60.387194538472
 21
1265.102023815277
 31
0.0
  0
LINE
  5
18DC
330
1D
100
AcDbEntity
  8
0
100
AcDbLine
 10
59.025595223068
 20
1264.674635396485
 30
0.0
 11
59.521298942534
 21
1264.070169387012
 31
0.0
  0
LINE
  5
18DD
330
1D
100
AcDbEntity
  8
0
100
AcDbLine
 10
60.473295223068
 20
1265.083635396485
 30
0.0
 11
61.313995223068
 21
1264.601635396485
 31
0.0
  0
LINE
  5
18DE
330
1D
100
AcDbEntity
  8
0
100
AcDbLine
 10
61.313995223068
 20
1264.601635396485
 30
0.0
 11
61.910895223068
 21
1264.172635396485
 31
0.0
  0
LINE
  5
18DF
330
1D
100
AcDbEntity
  8
0
100
AcDbLine
 10
60.324526456657
 20
1265.11540776151
 30
0.0
 11
60.378203352054
 21
1265.091309364754
 31
0.0
  0
LINE
  5
18E0
330
1D
100
AcDbEntity
  8
0
100
AcDbLine
 10
58.770495223068
 20
1286.713635396485
 30
0.0
 11
62.955495223068
 21
1283.420635396485
 31
0.0
  0
LINE
  5
18E1
330
1D
100
AcDbEntity
  8
0
100
AcDbLine
 10
59.148195223068
 20
1265.366635396485
 30
0.0
 11
60.473295223068
 21
1265.083635396485
 31
0.0
  0
LINE
  5
18E2
330
1D
100
AcDbEntity
  8
0
100
AcDbLine
 10
60.002595223068
 20
1297.259635396485
 30
0.0
 11
67.493095223068
 21
1290.998635396485
 31
0.0
  0
LINE
  5
18E3
330
1D
100
AcDbEntity
  8
0
100
AcDbLine
 10
58.923095223068
 20
1265.132635396485
 30
0.0
 11
59.025595223068
 21
1264.674635396485
 31
0.0
  0
LINE
  5
18E4
330
1D
100
AcDbEntity
  8
0
100
AcDbLine
 10
58.923095223068
 20
1265.132635396485
 30
0.0
 11
59.148195223068
 21
1265.366635396485
 31
0.0
  0
LINE
  5
18E5
330
1D
100
AcDbEntity
  8
0
100
AcDbLine
 10
62.014848446053
 20
1262.374982185132
 30
0.0
 11
62.607695223068
 21
1262.244635396485
 31
0.0
  0
LINE
  5
18E6
330
1D
100
AcDbEntity
  8
0
100
AcDbLine
 10
93.500995223068
 20
1261.313635396485
 30
0.0
 11
95.355095223068
 21
1260.226635396485
 31
0.0
  0
LINE
  5
18E7
330
1D
100
AcDbEntity
  8
0
100
AcDbLine
 10
92.920495223068
 20
1261.654635396485
 30
0.0
 11
93.48586437103
 21
1261.323021520165
 31
0.0
  0
LINE
  5
18E8
330
1D
100
AcDbEntity
  8
0
100
AcDbLine
 10
62.607695223068
 20
1262.244635396485
 30
0.0
 11
63.149995223068
 21
1262.349635396485
 31
0.0
  0
LINE
  5
18E9
330
1D
100
AcDbEntity
  8
0
100
AcDbLine
 10
62.911895223068
 20
1263.156635396485
 30
0.0
 11
63.149995223068
 21
1262.349635396485
 31
0.0
  0
LINE
  5
18EA
330
1D
100
AcDbEntity
  8
0
100
AcDbLine
 10
82.801295223068
 20
1268.450635396485
 30
0.0
 11
85.121195223068
 21
1266.807635396485
 31
0.0
  0
LINE
  5
18EB
330
1D
100
AcDbEntity
  8
0
100
AcDbLine
 10
87.337795223068
 20
1265.276635396485
 30
0.0
 11
89.453195223068
 21
1263.861635396485
 31
0.0
  0
LINE
  5
18EC
330
1D
100
AcDbEntity
  8
0
100
AcDbLine
 10
85.121195223068
 20
1266.807635396485
 30
0.0
 11
87.337795223068
 21
1265.276635396485
 31
0.0
  0
LINE
  5
18ED
330
1D
100
AcDbEntity
  8
0
100
AcDbLine
 10
80.405295223068
 20
1270.182635396485
 30
0.0
 11
82.801295223068
 21
1268.450635396485
 31
0.0
  0
LINE
  5
18EE
330
1D
100
AcDbEntity
  8
0
100
AcDbLine
 10
67.991395223068
 20
1279.518635396485
 30
0.0
 11
73.010395223068
 21
1275.688635396485
 31
0.0
  0
LINE
  5
18EF
330
1D
100
AcDbEntity
  8
0
100
AcDbLine
 10
78.198795223068
 20
1281.426635396485
 30
0.0
 11
88.612595223068
 21
1271.522635396485
 31
0.0
  0
LINE
  5
18F0
330
1D
100
AcDbEntity
  8
0
100
AcDbLine
 10
67.493095223068
 20
1290.998635396485
 30
0.0
 11
78.198795223068
 21
1281.426635396485
 31
0.0
  0
LINE
  5
18F1
330
1D
100
AcDbEntity
  8
0
100
AcDbLine
 10
88.612595223068
 20
1271.522635396485
 30
0.0
 11
103.222095223068
 21
1256.928635396485
 31
0.0
  0
LINE
  5
18F2
330
1D
100
AcDbEntity
  8
0
100
AcDbLine
 10
89.453195223068
 20
1263.861635396485
 30
0.0
 11
91.375295223068
 21
1262.617635396485
 31
0.0
  0
LINE
  5
18F3
330
1D
100
AcDbEntity
  8
0
100
AcDbLine
 10
62.429395223068
 20
1263.713635396485
 30
0.0
 11
62.911895223068
 21
1263.156635396485
 31
0.0
  0
LINE
  5
18F4
330
1D
100
AcDbEntity
  8
0
100
AcDbLine
 10
61.910895223068
 20
1264.172635396485
 30
0.0
 11
62.429395223068
 21
1263.713635396485
 31
0.0
  0
LINE
  5
18F5
330
1D
100
AcDbEntity
  8
0
100
AcDbLine
 10
57.302195223068
 20
1261.736635396485
 30
0.0
 11
59.426095223068
 21
1259.358635396485
 31
0.0
  0
LINE
  5
18F6
330
1D
100
AcDbEntity
  8
0
100
AcDbLine
 10
91.375295223068
 20
1262.617635396485
 30
0.0
 11
92.920495223068
 21
1261.654635396485
 31
0.0
  0
LINE
  5
18F7
330
1D
100
AcDbEntity
  8
0
100
AcDbLine
 10
97.415195223068
 20
1259.049635396485
 30
0.0
 11
100.850808984498
 21
1257.382654195666
 31
0.0
  0
LINE
  5
18F8
330
1D
100
AcDbEntity
  8
0
100
AcDbLine
 10
100.850808984498
 20
1257.382654195666
 30
0.0
 11
103.536095223068
 21
1256.454635396485
 31
0.0
  0
LINE
  5
18F9
330
1D
100
AcDbEntity
  8
0
100
AcDbLine
 10
141.954095223068
 20
1139.616435396485
 30
0.0
 11
143.770559161757
 21
1140.636874111354
 31
0.0
  0
LINE
  5
18FA
330
1D
100
AcDbEntity
  8
0
100
AcDbLine
 10
143.770559161757
 20
1140.636874111354
 30
0.0
 11
163.276022544783
 21
1152.824299092427
 31
0.0
  0
LINE
  5
18FB
330
1D
100
AcDbEntity
  8
0
100
AcDbLine
 10
163.276022544783
 20
1152.824299092427
 30
0.0
 11
164.497095223068
 21
1153.624735396485
 31
0.0
  0
LINE
  5
18FC
330
1D
100
AcDbEntity
  8
0
100
AcDbLine
 10
101.700362103367
 20
1208.631001737976
 30
0.0
 11
101.583095223068
 21
1209.060635396485
 31
0.0
  0
LINE
  5
18FD
330
1D
100
AcDbEntity
  8
0
100
AcDbLine
 10
103.275477856813
 20
1206.437353792308
 30
0.0
 11
103.199095223068
 21
1207.313735396485
 31
0.0
  0
LINE
  5
18FE
330
1D
100
AcDbEntity
  8
0
100
AcDbLine
 10
103.325751208018
 20
1205.406707488076
 30
0.0
 11
103.287095223068
 21
1204.535535396485
 31
0.0
  0
LINE
  5
18FF
330
1D
100
AcDbEntity
  8
0
100
AcDbLine
 10
97.445895223068
 20
1213.686835396485
 30
0.0
 11
96.029378115222
 21
1216.517222827538
 31
0.0
  0
LINE
  5
1900
330
1D
100
AcDbEntity
  8
0
100
AcDbLine
 10
96.029378115222
 20
1216.517222827538
 30
0.0
 11
94.473875978786
 21
1219.099356374021
 31
0.0
  0
LINE
  5
1901
330
1D
100
AcDbEntity
  8
0
100
AcDbLine
 10
91.728895223068
 20
1222.848035396485
 30
0.0
 11
93.444427325399
 21
1220.393265022916
 31
0.0
  0
LINE
  5
1902
330
1D
100
AcDbEntity
  8
0
100
AcDbLine
 10
93.444427325399
 20
1220.393265022916
 30
0.0
 11
94.473875978786
 21
1219.099356374021
 31
0.0
  0
LINE
  5
1903
330
1D
100
AcDbEntity
  8
0
100
AcDbLine
 10
87.566595223068
 20
1230.359935396485
 30
0.0
 11
87.700595223068
 21
1230.296935396485
 31
0.0
  0
LINE
  5
1904
330
1D
100
AcDbEntity
  8
0
100
AcDbLine
 10
87.855346874082
 20
1230.220278868161
 30
0.0
 11
88.010376326524
 21
1230.142551189395
 31
0.0
  0
LINE
  5
1905
330
1D
100
AcDbEntity
  8
0
100
AcDbLine
 10
88.049895223068
 20
1230.079935396485
 30
0.0
 11
88.010376326524
 21
1230.142551189395
 31
0.0
  0
LINE
  5
1906
330
1D
100
AcDbEntity
  8
0
100
AcDbLine
 10
88.466864531365
 20
1229.86676738139
 30
0.0
 11
88.705222627674
 21
1229.7035394277
 31
0.0
  0
LINE
  5
1907
330
1D
100
AcDbEntity
  8
0
100
AcDbLine
 10
89.058911184763
 20
1229.454376060329
 30
0.0
 11
89.275295223068
 21
1229.275735396485
 31
0.0
  0
LINE
  5
1908
330
1D
100
AcDbEntity
  8
0
100
AcDbLine
 10
89.460227639218
 20
1229.128921304592
 30
0.0
 11
89.560795223068
 21
1229.051135396485
 31
0.0
  0
LINE
  5
1909
330
1D
100
AcDbEntity
  8
0
100
AcDbLine
 10
101.794375822022
 20
1212.020729558056
 30
0.0
 11
102.154095223068
 21
1211.177135396485
 31
0.0
  0
LINE
  5
190A
330
1D
100
AcDbEntity
  8
0
100
AcDbLine
 10
101.198813391557
 20
1213.33955212963
 30
0.0
 11
99.919295223068
 21
1215.726335396485
 31
0.0
  0
LINE
  5
190B
330
1D
100
AcDbEntity
  8
0
100
AcDbLine
 10
82.453095223068
 20
1235.900635396485
 30
0.0
 11
82.443095223068
 21
1235.928635396485
 31
0.0
  0
LINE
  5
190C
330
1D
100
AcDbEntity
  8
0
100
AcDbLine
 10
82.443095223068
 20
1235.928635396485
 30
0.0
 11
82.66515629301
 21
1237.475802254263
 31
0.0
  0
LINE
  5
190D
330
1D
100
AcDbEntity
  8
0
100
AcDbLine
 10
82.66515629301
 20
1237.475802254263
 30
0.0
 11
83.025355151784
 21
1240.160202894831
 31
0.0
  0
LINE
  5
190E
330
1D
100
AcDbEntity
  8
0
100
AcDbLine
 10
83.025355151784
 20
1240.160202894831
 30
0.0
 11
83.176910472732
 21
1242.165396371985
 31
0.0
  0
LINE
  5
190F
330
1D
100
AcDbEntity
  8
0
100
AcDbLine
 10
83.176910472732
 20
1242.165396371985
 30
0.0
 11
83.193122553575
 21
1243.125698291661
 31
0.0
  0
LINE
  5
1910
330
1D
100
AcDbEntity
  8
0
100
AcDbLine
 10
83.193122553575
 20
1243.125698291661
 30
0.0
 11
83.099321719548
 21
1244.454543440377
 31
0.0
  0
LINE
  5
1911
330
1D
100
AcDbEntity
  8
0
100
AcDbLine
 10
83.099321719548
 20
1244.454543440377
 30
0.0
 11
82.896086579156
 21
1245.767755116754
 31
0.0
  0
LINE
  5
1912
330
1D
100
AcDbEntity
  8
0
100
AcDbLine
 10
82.896086579156
 20
1245.767755116754
 30
0.0
 11
82.411448936683
 21
1247.23730151651
 31
0.0
  0
LINE
  5
1913
330
1D
100
AcDbEntity
  8
0
100
AcDbLine
 10
82.411448936683
 20
1247.23730151651
 30
0.0
 11
81.911177821873
 21
1248.347278052496
 31
0.0
  0
LINE
  5
1914
330
1D
100
AcDbEntity
  8
0
100
AcDbLine
 10
81.911177821873
 20
1248.347278052496
 30
0.0
 11
81.332739345373
 21
1249.410354171469
 31
0.0
  0
LINE
  5
1915
330
1D
100
AcDbEntity
  8
0
100
AcDbLine
 10
81.332739345373
 20
1249.410354171469
 30
0.0
 11
80.535432256144
 21
1250.520330707455
 31
0.0
  0
LINE
  5
1916
330
1D
100
AcDbEntity
  8
0
100
AcDbLine
 10
80.535432256144
 20
1250.520330707455
 30
0.0
 11
79.91009336263
 21
1251.364538213698
 31
0.0
  0
LINE
  5
1917
330
1D
100
AcDbEntity
  8
0
100
AcDbLine
 10
79.91009336263
 20
1251.364538213698
 30
0.0
 11
78.640719853867
 21
1252.819197795455
 31
0.0
  0
LINE
  5
1918
330
1D
100
AcDbEntity
  8
0
100
AcDbLine
 10
78.640719853867
 20
1252.819197795455
 30
0.0
 11
77.244142562784
 21
1254.18991254411
 31
0.0
  0
LINE
  5
1919
330
1D
100
AcDbEntity
  8
0
100
AcDbLine
 10
77.244142562784
 20
1254.18991254411
 30
0.0
 11
75.563077304999
 21
1255.71580254733
 31
0.0
  0
LINE
  5
191A
330
1D
100
AcDbEntity
  8
0
100
AcDbLine
 10
75.563077304999
 20
1255.71580254733
 30
0.0
 11
73.700974250222
 21
1257.34514272026
 31
0.0
  0
LINE
  5
191B
330
1D
100
AcDbEntity
  8
0
100
AcDbLine
 10
73.700974250222
 20
1257.34514272026
 30
0.0
 11
67.994012694848
 21
1262.283325608663
 31
0.0
  0
LINE
  5
191C
330
1D
100
AcDbEntity
  8
0
100
AcDbLine
 10
67.994012694848
 20
1262.283325608663
 30
0.0
 11
62.393514916472
 21
1266.835601877717
 31
0.0
  0
LINE
  5
191D
330
1D
100
AcDbEntity
  8
0
100
AcDbLine
 10
62.393514916472
 20
1266.835601877717
 30
0.0
 11
54.71315942334
 21
1273.404960058048
 31
0.0
  0
LINE
  5
191E
330
1D
100
AcDbEntity
  8
0
100
AcDbLine
 10
54.71315942334
 20
1273.404960058048
 30
0.0
 11
50.811482079187
 21
1276.786413756315
 31
0.0
  0
LINE
  5
191F
330
1D
100
AcDbEntity
  8
0
100
AcDbLine
 10
50.811482079187
 20
1276.786413756315
 30
0.0
 11
44.507262409294
 21
1282.175683077872
 31
0.0
  0
LINE
  5
1920
330
1D
100
AcDbEntity
  8
0
100
AcDbLine
 10
44.507262409294
 20
1282.175683077872
 30
0.0
 11
32.232401482269
 21
1292.643614632356
 31
0.0
  0
LINE
  5
1921
330
1D
100
AcDbEntity
  8
0
100
AcDbLine
 10
32.232401482269
 20
1292.643614632356
 30
0.0
 11
27.21885317971
 21
1296.875830731919
 31
0.0
  0
LINE
  5
1922
330
1D
100
AcDbEntity
  8
0
100
AcDbLine
 10
27.21885317971
 20
1296.875830731919
 30
0.0
 11
16.949101411519
 21
1305.971264208332
 31
0.0
  0
LINE
  5
1923
330
1D
100
AcDbEntity
  8
0
100
AcDbLine
 10
16.949101411519
 20
1305.971264208332
 30
0.0
 11
5.602184041255
 21
1315.363138383044
 31
0.0
  0
LINE
  5
1924
330
1D
100
AcDbEntity
  8
0
100
AcDbLine
 10
5.602184041255
 20
1315.363138383044
 30
0.0
 11
0.563519251438
 21
1319.175044463583
 31
0.0
  0
LINE
  5
1925
330
1D
100
AcDbEntity
  8
0
100
AcDbLine
 10
68.009708217227
 20
1279.496357245374
 30
0.0
 11
62.955495223069
 21
1283.420635396484
 31
0.0
  0
LINE
  5
1926
330
1D
100
AcDbEntity
  8
0
100
AcDbLine
 10
6.343685223068
 20
1330.781635396485
 30
0.0
 11
11.446807812075
 21
1326.323062479178
 31
0.0
  0
LINE
  5
1927
330
1D
100
AcDbEntity
  8
0
100
AcDbLine
 10
11.446807812075
 20
1326.323062479178
 30
0.0
 11
15.408807900016
 21
1323.062031637564
 31
0.0
  0
LINE
  5
1928
330
1D
100
AcDbEntity
  8
0
100
AcDbLine
 10
15.408807900016
 20
1323.062031637564
 30
0.0
 11
39.356097109505
 21
1303.215020656392
 31
0.0
  0
LINE
  5
1929
330
1D
100
AcDbEntity
  8
0
100
AcDbLine
 10
39.356097109505
 20
1303.215020656392
 30
0.0
 11
53.069195223068
 21
1291.268635396485
 31
0.0
  0
LINE
  5
192A
330
1D
100
AcDbEntity
  8
0
100
AcDbLine
 10
73.010395223068
 20
1275.688635396485
 30
0.0
 11
80.405295223068
 21
1270.182635396485
 31
0.0
  0
LINE
  5
192B
330
1D
100
AcDbEntity
  8
0
100
AcDbLine
 10
82.179695223068
 20
1236.228635396485
 30
0.0
 11
82.443095223068
 21
1235.928635396485
 31
0.0
  0
LINE
  5
192C
330
1D
100
AcDbEntity
  8
0
100
AcDbLine
 10
3.648255223068
 20
1313.331635396485
 30
0.0
 11
4.062665223068
 21
1312.562635396485
 31
0.0
  0
LINE
  5
192D
330
1D
100
AcDbEntity
  8
0
100
AcDbLine
 10
72.221695223068
 20
1244.309635396485
 30
0.0
 11
72.361269988307
 21
1246.326965169989
 31
0.0
  0
LINE
  5
192E
330
1D
100
AcDbEntity
  8
0
100
AcDbLine
 10
72.361269988307
 20
1246.326965169989
 30
0.0
 11
72.145232561125
 21
1247.93893674204
 31
0.0
  0
LINE
  5
192F
330
1D
100
AcDbEntity
  8
0
100
AcDbLine
 10
72.145232561125
 20
1247.93893674204
 30
0.0
 11
71.580211597726
 21
1249.83341879579
 31
0.0
  0
LINE
  5
1930
330
1D
100
AcDbEntity
  8
0
100
AcDbLine
 10
71.580211597726
 20
1249.83341879579
 30
0.0
 11
70.317223561892
 21
1252.060266122128
 31
0.0
  0
LINE
  5
1931
330
1D
100
AcDbEntity
  8
0
100
AcDbLine
 10
70.317223561892
 20
1252.060266122128
 30
0.0
 11
69.00867037638
 21
1253.973845271379
 31
0.0
  0
LINE
  5
1932
330
1D
100
AcDbEntity
  8
0
100
AcDbLine
 10
69.00867037638
 20
1253.973845271379
 30
0.0
 11
67.977896576287
 21
1255.22429217641
 31
0.0
  0
LINE
  5
1933
330
1D
100
AcDbEntity
  8
0
100
AcDbLine
 10
67.977896576287
 20
1255.22429217641
 30
0.0
 11
66.440184841721
 21
1256.914085291318
 31
0.0
  0
LINE
  5
1934
330
1D
100
AcDbEntity
  8
0
100
AcDbLine
 10
66.440184841721
 20
1256.914085291318
 30
0.0
 11
65.625639946763
 21
1257.760439610451
 31
0.0
  0
LINE
  5
1935
330
1D
100
AcDbEntity
  8
0
100
AcDbLine
 10
65.625639946763
 20
1257.760439610451
 30
0.0
 11
61.412895223068
 21
1261.657635396485
 31
0.0
  0
LINE
  5
1936
330
1D
100
AcDbEntity
  8
0
100
AcDbLine
 10
61.412895223068
 20
1261.657635396485
 30
0.0
 11
60.263795223068
 21
1262.621635396485
 31
0.0
  0
LINE
  5
1937
330
1D
100
AcDbEntity
  8
0
100
AcDbLine
 10
62.887395223068
 20
1252.442635396485
 30
0.0
 11
62.769195223068
 21
1253.258635396485
 31
0.0
  0
LINE
  5
1938
330
1D
100
AcDbEntity
  8
0
100
AcDbLine
 10
66.018195223068
 20
1252.176635396485
 30
0.0
 11
64.873699317824
 21
1253.14612352213
 31
0.0
  0
LINE
  5
1939
330
1D
100
AcDbEntity
  8
0
100
AcDbLine
 10
64.977798006079
 20
1253.061129705743
 30
0.0
 11
65.560721765961
 21
1253.681307991632
 31
0.0
  0
LINE
  5
193A
330
1D
100
AcDbEntity
  8
0
100
AcDbLine
 10
52.288261642226
 20
1266.585369146021
 30
0.0
 11
49.940959231315
 21
1268.869676669631
 31
0.0
  0
LINE
  5
193B
330
1D
100
AcDbEntity
  8
0
100
AcDbLine
 10
49.940959231315
 20
1268.869676669631
 30
0.0
 11
47.18113889169
 21
1271.139622222098
 31
0.0
  0
LINE
  5
193C
330
1D
100
AcDbEntity
  8
0
100
AcDbLine
 10
32.153499277343
 20
1287.040900678736
 30
0.0
 11
25.40855957199
 21
1292.837818904765
 31
0.0
  0
LINE
  5
193D
330
1D
100
AcDbEntity
  8
0
100
AcDbLine
 10
7.579165223068
 20
1306.322635396485
 30
0.0
 11
9.472519596554
 21
1305.421377702257
 31
0.0
  0
LINE
  5
193E
330
1D
100
AcDbEntity
  8
0
100
AcDbLine
 10
9.472519596554
 20
1305.421377702257
 30
0.0
 11
10.450175223068
 21
1304.896635396485
 31
0.0
  0
LINE
  5
193F
330
1D
100
AcDbEntity
  8
0
100
AcDbLine
 10
53.539795223068
 20
1260.915635396485
 30
0.0
 11
53.134095223068
 21
1261.746635396485
 31
0.0
  0
LINE
  5
1940
330
1D
100
AcDbEntity
  8
0
100
AcDbLine
 10
38.772395223068
 20
1270.835635396485
 30
0.0
 11
38.338595223068
 21
1271.177635396485
 31
0.0
  0
LINE
  5
1941
330
1D
100
AcDbEntity
  8
0
100
AcDbLine
 10
35.872395223068
 20
1273.574635396485
 30
0.0
 11
35.459995223068
 21
1274.020635396485
 31
0.0
  0
LINE
  5
1942
330
1D
100
AcDbEntity
  8
0
100
AcDbLine
 10
35.459995223068
 20
1274.020635396485
 30
0.0
 11
35.441895223068
 21
1274.283635396485
 31
0.0
  0
LWPOLYLINE
  5
1943
330
1D
100
AcDbEntity
  8
0
100
AcDbPolyline
 90
        2
 70
     0
 43
0.0
 10
36.313695223068
 20
1273.057635396485
 10
36.750995223068
 20
1272.634635396485
  0
LWPOLYLINE
  5
1944
330
1D
100
AcDbEntity
  8
0
100
AcDbPolyline
 90
        2
 70
     0
 43
0.0
 10
36.967918049377
 20
1272.425266632485
 10
37.362095223068
 20
1272.010635396485
  0
LINE
  5
1945
330
1D
100
AcDbEntity
  8
0
100
AcDbLine
 10
33.822982219237
 20
1275.80072332834
 30
0.0
 11
35.091895223068
 21
1274.666635396485
 31
0.0
  0
LINE
  5
1946
330
1D
100
AcDbEntity
  8
0
100
AcDbLine
 10
41.06393266591
 20
1269.193066496097
 30
0.0
 11
39.063739027814
 21
1271.007259489046
 31
0.0
  0
LINE
  5
1947
330
1D
100
AcDbEntity
  8
0
100
AcDbLine
 10
36.952395223068
 20
1280.125635396485
 30
0.0
 11
30.630395223068
 21
1285.422635396485
 31
0.0
  0
LINE
  5
1948
330
1D
100
AcDbEntity
  8
0
100
AcDbLine
 10
15.297195223068
 20
1296.599635396485
 30
0.0
 11
14.751895223068
 21
1296.682635396485
 31
0.0
  0
LINE
  5
1949
330
1D
100
AcDbEntity
  8
0
100
AcDbLine
 10
23.861395223068
 20
1287.564635396485
 30
0.0
 11
22.982144374352
 21
1287.821750289091
 31
0.0
  0
LINE
  5
194A
330
1D
100
AcDbEntity
  8
0
100
AcDbLine
 10
22.982144374352
 20
1287.821750289091
 30
0.0
 11
22.262495223068
 21
1287.950635396485
 31
0.0
  0
LINE
  5
194B
330
1D
100
AcDbEntity
  8
0
100
AcDbLine
 10
30.739795223068
 20
1279.772635396485
 30
0.0
 11
29.920595223068
 21
1279.813635396485
 31
0.0
  0
LINE
  5
1A51
330
1D
100
AcDbEntity
  8
0
100
AcDbLine
 10
127.6215
 20
59.85886
 30
0.0
 11
128.0215
 21
59.85886
 31
0.0
  0
LINE
  5
1A52
330
1D
100
AcDbEntity
  8
0
100
AcDbLine
 10
128.0215
 20
59.85886
 30
0.0
 11
129.0215
 21
59.85886
 31
0.0
  0
LINE
  5
1A53
330
1D
100
AcDbEntity
  8
0
100
AcDbLine
 10
140.0215
 20
-0.11486
 30
0.0
 11
141.8215
 21
-0.03996
 31
0.0
  0
LINE
  5
1A54
330
1D
100
AcDbEntity
  8
0
100
AcDbLine
 10
138.1215
 20
-0.14116
 30
0.0
 11
140.0215
 21
-0.11486
 31
0.0
  0
LINE
  5
1A55
330
1D
100
AcDbEntity
  8
0
100
AcDbLine
 10
130.6215
 20
59.85886
 30
0.0
 11
130.6215
 21
4.12064
 31
0.0
  0
LINE
  5
1A56
330
1D
100
AcDbEntity
  8
0
100
AcDbLine
 10
130.6215
 20
59.85886
 30
0.0
 11
130.9215
 21
59.85886
 31
0.0
  0
LINE
  5
1A57
330
1D
100
AcDbEntity
  8
0
100
AcDbLine
 10
130.9215
 20
5.47004
 30
0.0
 11
131.6215
 21
6.66944
 31
0.0
  0
LINE
  5
1A58
330
1D
100
AcDbEntity
  8
0
100
AcDbLine
 10
130.7215
 20
59.85886
 30
0.0
 11
132.9215
 21
59.85886
 31
0.0
  0
LINE
  5
1A59
330
1D
100
AcDbEntity
  8
0
100
AcDbLine
 10
130.9215
 20
59.85886
 30
0.0
 11
131.6215
 21
59.85886
 31
0.0
  0
LINE
  5
1A5A
330
1D
100
AcDbEntity
  8
0
100
AcDbLine
 10
131.6215
 20
59.85886
 30
0.0
 11
132.8215
 21
59.85886
 31
0.0
  0
LINE
  5
1A5B
330
1D
100
AcDbEntity
  8
0
100
AcDbLine
 10
131.6215
 20
6.66944
 30
0.0
 11
132.8215
 21
7.86886
 31
0.0
  0
LINE
  5
1A5C
330
1D
100
AcDbEntity
  8
0
100
AcDbLine
 10
130.6215
 20
4.12064
 30
0.0
 11
130.9215
 21
2.13404
 31
0.0
  0
LINE
  5
1A5D
330
1D
100
AcDbEntity
  8
0
100
AcDbLine
 10
130.6215
 20
4.12064
 30
0.0
 11
130.6215
 21
59.85886
 31
0.0
  0
LINE
  5
1A5E
330
1D
100
AcDbEntity
  8
0
100
AcDbLine
 10
130.6215
 20
4.12064
 30
0.0
 11
130.9215
 21
5.47004
 31
0.0
  0
LINE
  5
1A5F
330
1D
100
AcDbEntity
  8
0
100
AcDbLine
 10
130.9215
 20
2.13404
 30
0.0
 11
131.6215
 21
1.00954
 31
0.0
  0
LINE
  5
1A60
330
1D
100
AcDbEntity
  8
0
100
AcDbLine
 10
132.8215
 20
7.86886
 30
0.0
 11
134.4215
 21
8.91836
 31
0.0
  0
LINE
  5
1A61
330
1D
100
AcDbEntity
  8
0
100
AcDbLine
 10
132.9215
 20
59.85886
 30
0.0
 11
135.4215
 21
59.85886
 31
0.0
  0
LINE
  5
1A62
330
1D
100
AcDbEntity
  8
0
100
AcDbLine
 10
132.8215
 20
59.85886
 30
0.0
 11
134.4215
 21
59.85886
 31
0.0
  0
LINE
  5
1A63
330
1D
100
AcDbEntity
  8
0
100
AcDbLine
 10
134.4215
 20
59.85886
 30
0.0
 11
136.2215
 21
59.85886
 31
0.0
  0
LINE
  5
1A64
330
1D
100
AcDbEntity
  8
0
100
AcDbLine
 10
134.4215
 20
8.91836
 30
0.0
 11
136.2215
 21
9.63056
 31
0.0
  0
LINE
  5
1A65
330
1D
100
AcDbEntity
  8
0
100
AcDbLine
 10
131.6215
 20
1.00954
 30
0.0
 11
132.8215
 21
0.33494
 31
0.0
  0
LINE
  5
1A66
330
1D
100
AcDbEntity
  8
0
100
AcDbLine
 10
132.8215
 20
0.33494
 30
0.0
 11
134.4215
 21
-0.03996
 31
0.0
  0
LINE
  5
1A67
330
1D
100
AcDbEntity
  8
0
100
AcDbLine
 10
143.4215
 20
0.33494
 30
0.0
 11
144.6215
 21
1.00954
 31
0.0
  0
LINE
  5
1A68
330
1D
100
AcDbEntity
  8
0
100
AcDbLine
 10
141.8215
 20
-0.03996
 30
0.0
 11
143.4215
 21
0.33494
 31
0.0
  0
LINE
  5
1A69
330
1D
100
AcDbEntity
  8
0
100
AcDbLine
 10
145.3215
 20
2.13404
 30
0.0
 11
145.6215
 21
4.12064
 31
0.0
  0
LINE
  5
1A6A
330
1D
100
AcDbEntity
  8
0
100
AcDbLine
 10
144.6215
 20
1.00954
 30
0.0
 11
145.3215
 21
2.13404
 31
0.0
  0
LINE
  5
1A6B
330
1D
100
AcDbEntity
  8
0
100
AcDbLine
 10
145.3215
 20
5.47004
 30
0.0
 11
145.6215
 21
4.12064
 31
0.0
  0
LINE
  5
1A6C
330
1D
100
AcDbEntity
  8
0
100
AcDbLine
 10
145.6215
 20
4.12064
 30
0.0
 11
145.6215
 21
59.85886
 31
0.0
  0
LINE
  5
1A6D
330
1D
100
AcDbEntity
  8
0
100
AcDbLine
 10
144.6215
 20
6.66944
 30
0.0
 11
145.3215
 21
5.47004
 31
0.0
  0
LINE
  5
1A6E
330
1D
100
AcDbEntity
  8
0
100
AcDbLine
 10
143.4215
 20
7.86886
 30
0.0
 11
144.6215
 21
6.66944
 31
0.0
  0
LINE
  5
1A6F
330
1D
100
AcDbEntity
  8
0
100
AcDbLine
 10
141.8215
 20
8.91836
 30
0.0
 11
143.4215
 21
7.86886
 31
0.0
  0
LINE
  5
1A70
330
1D
100
AcDbEntity
  8
0
100
AcDbLine
 10
140.0215
 20
9.63056
 30
0.0
 11
141.8215
 21
8.91836
 31
0.0
  0
LINE
  5
1A71
330
1D
100
AcDbEntity
  8
0
100
AcDbLine
 10
135.4215
 20
59.85886
 30
0.0
 11
138.1215
 21
59.85886
 31
0.0
  0
LINE
  5
1A72
330
1D
100
AcDbEntity
  8
0
100
AcDbLine
 10
140.0215
 20
59.85886
 30
0.0
 11
141.8215
 21
59.85886
 31
0.0
  0
LINE
  5
1A73
330
1D
100
AcDbEntity
  8
0
100
AcDbLine
 10
138.1215
 20
9.85886
 30
0.0
 11
140.0215
 21
9.63056
 31
0.0
  0
LINE
  5
1A74
330
1D
100
AcDbEntity
  8
0
100
AcDbLine
 10
145.3215
 20
59.85886
 30
0.0
 11
145.6215
 21
59.85886
 31
0.0
  0
LINE
  5
1A75
330
1D
100
AcDbEntity
  8
0
100
AcDbLine
 10
144.6215
 20
59.85886
 30
0.0
 11
145.3215
 21
59.85886
 31
0.0
  0
LINE
  5
1A76
330
1D
100
AcDbEntity
  8
0
100
AcDbLine
 10
143.4215
 20
59.85886
 30
0.0
 11
144.6215
 21
59.85886
 31
0.0
  0
LINE
  5
1A77
330
1D
100
AcDbEntity
  8
0
100
AcDbLine
 10
141.8215
 20
59.85886
 30
0.0
 11
143.4215
 21
59.85886
 31
0.0
  0
LINE
  5
1A78
330
1D
100
AcDbEntity
  8
0
100
AcDbLine
 10
145.5215
 20
59.85886
 30
0.0
 11
147.2215
 21
59.85886
 31
0.0
  0
LINE
  5
1A79
330
1D
100
AcDbEntity
  8
0
100
AcDbLine
 10
143.3215
 20
59.85886
 30
0.0
 11
145.5215
 21
59.85886
 31
0.0
  0
LINE
  5
1A7A
330
1D
100
AcDbEntity
  8
0
100
AcDbLine
 10
140.8215
 20
59.85886
 30
0.0
 11
143.3215
 21
59.85886
 31
0.0
  0
LINE
  5
1A7B
330
1D
100
AcDbEntity
  8
0
100
AcDbLine
 10
138.1215
 20
59.85886
 30
0.0
 11
140.8215
 21
59.85886
 31
0.0
  0
LINE
  5
1A7C
330
1D
100
AcDbEntity
  8
0
100
AcDbLine
 10
138.1215
 20
59.85886
 30
0.0
 11
140.0215
 21
59.85886
 31
0.0
  0
LINE
  5
1A7D
330
1D
100
AcDbEntity
  8
0
100
AcDbLine
 10
148.2217
 20
59.85886
 30
0.0
 11
148.6217
 21
59.85886
 31
0.0
  0
LINE
  5
1A7E
330
1D
100
AcDbEntity
  8
0
100
AcDbLine
 10
148.6217
 20
59.85886
 30
0.0
 11
149.506052677682
 21
86.389440330458
 31
0.0
  0
LINE
  5
1A7F
330
1D
100
AcDbEntity
  8
0
100
AcDbLine
 10
147.2215
 20
59.85886
 30
0.0
 11
148.2217
 21
59.85886
 31
0.0
  0
LINE
  5
1A80
330
1D
100
AcDbEntity
  8
0
100
AcDbLine
 10
145.6215
 20
59.85886
 30
0.0
 11
147.2215
 21
59.85886
 31
0.0
  0
LINE
  5
1A81
330
1D
100
AcDbEntity
  8
0
100
AcDbLine
 10
145.6215
 20
59.85886
 30
0.0
 11
145.6215
 21
4.12064
 31
0.0
  0
LINE
  5
1A82
330
1D
100
AcDbEntity
  8
0
100
AcDbLine
 10
136.2215
 20
59.85886
 30
0.0
 11
138.1215
 21
59.85886
 31
0.0
  0
LINE
  5
1A83
330
1D
100
AcDbEntity
  8
0
100
AcDbLine
 10
136.2215
 20
9.63056
 30
0.0
 11
138.1215
 21
9.85886
 31
0.0
  0
LINE
  5
1A84
330
1D
100
AcDbEntity
  8
0
100
AcDbLine
 10
134.4215
 20
-0.03996
 30
0.0
 11
136.2215
 21
-0.11486
 31
0.0
  0
LINE
  5
1A85
330
1D
100
AcDbEntity
  8
0
100
AcDbLine
 10
136.2215
 20
-0.11486
 30
0.0
 11
138.1215
 21
-0.14116
 31
0.0
  0
LINE
  5
1A86
330
1D
100
AcDbEntity
  8
0
100
AcDbLine
 10
129.0215
 20
59.85886
 30
0.0
 11
130.6215
 21
59.85886
 31
0.0
  0
LINE
  5
1A87
330
1D
100
AcDbEntity
  8
0
100
AcDbLine
 10
129.0215
 20
59.85886
 30
0.0
 11
130.7215
 21
59.85886
 31
0.0
  0
LINE
  5
1A88
330
1D
100
AcDbEntity
  8
0
100
AcDbLine
 10
206.4707
 20
80.48396
 30
0.0
 11
206.806737919523
 21
80.411649618058
 31
0.0
  0
LINE
  5
1A89
330
1D
100
AcDbEntity
  8
0
100
AcDbLine
 10
206.4707
 20
80.48396
 30
0.0
 11
206.806737919514
 21
80.41164961806
 31
0.0
  0
LINE
  5
1A8A
330
1D
100
AcDbEntity
  8
0
100
AcDbLine
 10
207.4577
 20
80.27146
 30
0.0
 11
207.7487
 21
80.29646
 31
0.0
  0
LINE
  5
1A8B
330
1D
100
AcDbEntity
  8
0
100
AcDbLine
 10
207.4577
 20
80.27146
 30
0.0
 11
207.7487
 21
80.29636
 31
0.0
  0
LINE
  5
1A8C
330
1D
100
AcDbEntity
  8
0
100
AcDbLine
 10
72.5627
 20
91.59606
 30
0.0
 11
72.5627
 21
91.88546
 31
0.0
  0
LINE
  5
1A8D
330
1D
100
AcDbEntity
  8
0
100
AcDbLine
 10
72.5627
 20
91.59606
 30
0.0
 11
73.0627
 21
91.59606
 31
0.0
  0
LINE
  5
1A8E
330
1D
100
AcDbEntity
  8
0
100
AcDbLine
 10
73.0627
 20
91.30136
 30
0.0
 11
73.0627
 21
91.18366
 31
0.0
  0
LINE
  5
1A8F
330
1D
100
AcDbEntity
  8
0
100
AcDbLine
 10
73.0627
 20
91.30136
 30
0.0
 11
73.0627
 21
91.63196
 31
0.0
  0
LINE
  5
1A90
330
1D
100
AcDbEntity
  8
0
100
AcDbLine
 10
73.0627
 20
91.18366
 30
0.0
 11
73.2737
 21
90.10406
 31
0.0
  0
LINE
  5
1A91
330
1D
100
AcDbEntity
  8
0
100
AcDbLine
 10
73.0627
 20
91.18366
 30
0.0
 11
73.0627
 21
91.30136
 31
0.0
  0
LINE
  5
1A92
330
1D
100
AcDbEntity
  8
0
100
AcDbLine
 10
59.7838
 20
92.71496
 30
0.0
 11
60.3838
 21
92.71496
 31
0.0
  0
LINE
  5
1A93
330
1D
100
AcDbEntity
  8
0
100
AcDbLine
 10
59.4074
 20
92.71496
 30
0.0
 11
59.7838
 21
92.71496
 31
0.0
  0
LINE
  5
1A94
330
1D
100
AcDbEntity
  8
0
100
AcDbLine
 10
59.2662
 20
92.71496
 30
0.0
 11
59.4074
 21
92.71496
 31
0.0
  0
LINE
  5
1A95
330
1D
100
AcDbEntity
  8
0
100
AcDbLine
 10
60.3838
 20
92.71496
 30
0.0
 11
61.1838
 21
92.71496
 31
0.0
  0
LINE
  5
1A96
330
1D
100
AcDbEntity
  8
0
100
AcDbLine
 10
60.3015
 20
92.79196
 30
0.0
 11
61.125
 21
92.79196
 31
0.0
  0
LINE
  5
1A97
330
1D
100
AcDbEntity
  8
0
100
AcDbLine
 10
61.125
 20
92.79196
 30
0.0
 11
62.0779
 21
92.79196
 31
0.0
  0
LINE
  5
1A98
330
1D
100
AcDbEntity
  8
0
100
AcDbLine
 10
62.0779
 20
92.79196
 30
0.0
 11
63.0897
 21
92.79196
 31
0.0
  0
LINE
  5
1A99
330
1D
100
AcDbEntity
  8
0
100
AcDbLine
 10
59.6779
 20
92.79196
 30
0.0
 11
60.3015
 21
92.79196
 31
0.0
  0
LINE
  5
1A9A
330
1D
100
AcDbEntity
  8
0
100
AcDbLine
 10
59.2897
 20
92.79196
 30
0.0
 11
59.6779
 21
92.79196
 31
0.0
  0
LINE
  5
1A9B
330
1D
100
AcDbEntity
  8
0
100
AcDbLine
 10
59.1485
 20
92.79196
 30
0.0
 11
59.2662
 21
92.71496
 31
0.0
  0
LINE
  5
1A9C
330
1D
100
AcDbEntity
  8
0
100
AcDbLine
 10
59.1485
 20
92.79196
 30
0.0
 11
59.2897
 21
92.79196
 31
0.0
  0
LINE
  5
1A9D
330
1D
100
AcDbEntity
  8
0
100
AcDbLine
 10
61.1838
 20
92.71496
 30
0.0
 11
62.1015
 21
92.71496
 31
0.0
  0
LINE
  5
1A9E
330
1D
100
AcDbEntity
  8
0
100
AcDbLine
 10
64.9956
 20
92.71496
 30
0.0
 11
65.7956
 21
92.71496
 31
0.0
  0
LINE
  5
1A9F
330
1D
100
AcDbEntity
  8
0
100
AcDbLine
 10
64.0779
 20
92.71496
 30
0.0
 11
64.9956
 21
92.71496
 31
0.0
  0
LINE
  5
1AA0
330
1D
100
AcDbEntity
  8
0
100
AcDbLine
 10
63.0897
 20
92.71496
 30
0.0
 11
64.0779
 21
92.71496
 31
0.0
  0
LINE
  5
1AA1
330
1D
100
AcDbEntity
  8
0
100
AcDbLine
 10
65.0544
 20
92.79196
 30
0.0
 11
65.878
 21
92.79196
 31
0.0
  0
LINE
  5
1AA2
330
1D
100
AcDbEntity
  8
0
100
AcDbLine
 10
64.1015
 20
92.79196
 30
0.0
 11
65.0544
 21
92.79196
 31
0.0
  0
LINE
  5
1AA3
330
1D
100
AcDbEntity
  8
0
100
AcDbLine
 10
63.0897
 20
92.79196
 30
0.0
 11
64.1015
 21
92.79196
 31
0.0
  0
LINE
  5
1AA4
330
1D
100
AcDbEntity
  8
0
100
AcDbLine
 10
65.7956
 20
92.71496
 30
0.0
 11
66.3956
 21
92.71496
 31
0.0
  0
LINE
  5
1AA5
330
1D
100
AcDbEntity
  8
0
100
AcDbLine
 10
66.3956
 20
92.71496
 30
0.0
 11
66.7721
 21
92.71496
 31
0.0
  0
LINE
  5
1AA6
330
1D
100
AcDbEntity
  8
0
100
AcDbLine
 10
66.7721
 20
92.71496
 30
0.0
 11
66.9132
 21
92.71496
 31
0.0
  0
LINE
  5
1AA7
330
1D
100
AcDbEntity
  8
0
100
AcDbLine
 10
66.9132
 20
92.71496
 30
0.0
 11
67.0309
 21
92.79196
 31
0.0
  0
LINE
  5
1AA8
330
1D
100
AcDbEntity
  8
0
100
AcDbLine
 10
65.878
 20
92.79196
 30
0.0
 11
66.5015
 21
92.79196
 31
0.0
  0
LINE
  5
1AA9
330
1D
100
AcDbEntity
  8
0
100
AcDbLine
 10
66.5015
 20
92.79196
 30
0.0
 11
66.8897
 21
92.79196
 31
0.0
  0
LINE
  5
1AAA
330
1D
100
AcDbEntity
  8
0
100
AcDbLine
 10
72.5627
 20
92.58026
 30
0.0
 11
72.5627
 21
93.73816
 31
0.0
  0
LINE
  5
1AAB
330
1D
100
AcDbEntity
  8
0
100
AcDbLine
 10
72.5627
 20
92.58026
 30
0.0
 11
72.5627
 21
91.88546
 31
0.0
  0
LINE
  5
1AAC
330
1D
100
AcDbEntity
  8
0
100
AcDbLine
 10
72.5627
 20
91.88546
 30
0.0
 11
72.5627
 21
92.58026
 31
0.0
  0
LINE
  5
1AAD
330
1D
100
AcDbEntity
  8
0
100
AcDbLine
 10
72.5627
 20
91.88546
 30
0.0
 11
72.5627
 21
91.59606
 31
0.0
  0
LINE
  5
1AAE
330
1D
100
AcDbEntity
  8
0
100
AcDbLine
 10
67.0309
 20
92.79196
 30
0.0
 11
67.0897
 21
92.94576
 31
0.0
  0
LINE
  5
1AAF
330
1D
100
AcDbEntity
  8
0
100
AcDbLine
 10
66.8897
 20
92.79196
 30
0.0
 11
67.0309
 21
92.79196
 31
0.0
  0
LINE
  5
1AB0
330
1D
100
AcDbEntity
  8
0
100
AcDbLine
 10
62.1015
 20
92.71496
 30
0.0
 11
63.0897
 21
92.71496
 31
0.0
  0
LINE
  5
1AB1
330
1D
100
AcDbEntity
  8
0
100
AcDbLine
 10
73.0627
 20
91.63196
 30
0.0
 11
73.0627
 21
91.30136
 31
0.0
  0
LINE
  5
1AB2
330
1D
100
AcDbEntity
  8
0
100
AcDbLine
 10
73.0627
 20
91.63196
 30
0.0
 11
73.0627
 21
92.17296
 31
0.0
  0
LINE
  5
1AB3
330
1D
100
AcDbEntity
  8
0
100
AcDbLine
 10
73.0627
 20
92.17296
 30
0.0
 11
73.0627
 21
91.63196
 31
0.0
  0
LINE
  5
1AB4
330
1D
100
AcDbEntity
  8
0
100
AcDbLine
 10
73.0627
 20
92.17296
 30
0.0
 11
73.0627
 21
92.92046
 31
0.0
  0
LINE
  5
1AB5
330
1D
100
AcDbEntity
  8
0
100
AcDbLine
 10
72.5627
 20
93.73816
 30
0.0
 11
72.5627
 21
95.27236
 31
0.0
  0
LINE
  5
1AB6
330
1D
100
AcDbEntity
  8
0
100
AcDbLine
 10
72.5627
 20
93.73816
 30
0.0
 11
72.5627
 21
92.58026
 31
0.0
  0
LINE
  5
1AB7
330
1D
100
AcDbEntity
  8
0
100
AcDbLine
 10
67.0897
 20
92.94576
 30
0.0
 11
67.0897
 21
98.652584435988
 31
0.0
  0
LINE
  5
1AB8
330
1D
100
AcDbEntity
  8
0
100
AcDbLine
 10
59.0897
 20
92.94576
 30
0.0
 11
59.1485
 21
92.79196
 31
0.0
  0
LINE
  5
1AB9
330
1D
100
AcDbEntity
  8
0
100
AcDbLine
 10
59.0897
 20
92.94576
 30
0.0
 11
59.0897
 21
98.777505588235
 31
0.0
  0
LINE
  5
1ABA
330
1D
100
AcDbEntity
  8
0
100
AcDbLine
 10
73.0627
 20
92.92046
 30
0.0
 11
73.0627
 21
92.17296
 31
0.0
  0
LINE
  5
1ABB
330
1D
100
AcDbEntity
  8
0
100
AcDbLine
 10
73.0627
 20
92.92046
 30
0.0
 11
73.0627
 21
93.86786
 31
0.0
  0
LINE
  5
1ABC
330
1D
100
AcDbEntity
  8
0
100
AcDbLine
 10
73.0627
 20
93.86786
 30
0.0
 11
73.0627
 21
92.92046
 31
0.0
  0
LINE
  5
1ABD
330
1D
100
AcDbEntity
  8
0
100
AcDbLine
 10
73.0627
 20
93.86786
 30
0.0
 11
73.0627
 21
95.00806
 31
0.0
  0
LINE
  5
1ABE
330
1D
100
AcDbEntity
  8
0
100
AcDbLine
 10
72.5627
 20
97.32716
 30
0.0
 11
72.5627
 21
98.641954520548
 31
0.0
  0
LINE
  5
1ABF
330
1D
100
AcDbEntity
  8
0
100
AcDbLine
 10
72.5627
 20
97.32716
 30
0.0
 11
72.5627
 21
95.27236
 31
0.0
  0
LINE
  5
1AC0
330
1D
100
AcDbEntity
  8
0
100
AcDbLine
 10
72.5627
 20
95.27236
 30
0.0
 11
72.5627
 21
97.32716
 31
0.0
  0
LINE
  5
1AC1
330
1D
100
AcDbEntity
  8
0
100
AcDbLine
 10
72.5627
 20
95.27236
 30
0.0
 11
72.5627
 21
93.73816
 31
0.0
  0
LINE
  5
1AC2
330
1D
100
AcDbEntity
  8
0
100
AcDbLine
 10
73.0627
 20
95.00806
 30
0.0
 11
73.0627
 21
93.86786
 31
0.0
  0
LINE
  5
1AC3
330
1D
100
AcDbEntity
  8
0
100
AcDbLine
 10
73.0627
 20
95.00806
 30
0.0
 11
73.0627
 21
96.45176
 31
0.0
  0
LINE
  5
1AC4
330
1D
100
AcDbEntity
  8
0
100
AcDbLine
 10
73.0627
 20
96.45176
 30
0.0
 11
73.0627
 21
95.00806
 31
0.0
  0
LINE
  5
1AC5
330
1D
100
AcDbEntity
  8
0
100
AcDbLine
 10
73.0627
 20
96.45176
 30
0.0
 11
73.0627
 21
98.64016
 31
0.0
  0
LINE
  5
1AC6
330
1D
100
AcDbEntity
  8
0
100
AcDbLine
 10
47.5657
 20
99.69716
 30
0.0
 11
47.8037
 21
99.40116
 31
0.0
  0
LINE
  5
1AC7
330
1D
100
AcDbEntity
  8
0
100
AcDbLine
 10
47.8037
 20
99.40116
 30
0.0
 11
48.0487
 21
99.33216
 31
0.0
  0
LINE
  5
1AC8
330
1D
100
AcDbEntity
  8
0
100
AcDbLine
 10
72.5627
 20
98.641954520548
 30
0.0
 11
72.5627
 21
97.32716
 31
0.0
  0
LINE
  5
1AC9
330
1D
100
AcDbEntity
  8
0
100
AcDbLine
 10
67.0897
 20
98.641204794521
 30
0.0
 11
72.5627
 21
98.641954520548
 31
0.0
  0
LINE
  5
1ACA
330
1D
100
AcDbEntity
  8
0
100
AcDbLine
 10
67.0897
 20
98.652584435988
 30
0.0
 11
67.0897
 21
92.94576
 31
0.0
  0
LINE
  5
1ACB
330
1D
100
AcDbEntity
  8
0
100
AcDbLine
 10
59.0897
 20
98.777505588235
 30
0.0
 11
59.0897
 21
92.94576
 31
0.0
  0
LINE
  5
1ACC
330
1D
100
AcDbEntity
  8
0
100
AcDbLine
 10
47.6357
 20
138.67816
 30
0.0
 11
47.6917
 21
138.79016
 31
0.0
  0
LINE
  5
1ACD
330
1D
100
AcDbEntity
  8
0
100
AcDbLine
 10
47.5577
 20
138.40916
 30
0.0
 11
47.6357
 21
138.67816
 31
0.0
  0
LINE
  5
1ACE
330
1D
100
AcDbEntity
  8
0
100
AcDbLine
 10
47.6917
 20
138.79016
 30
0.0
 11
47.8987
 21
138.85916
 31
0.0
  0
LINE
  5
1ACF
330
1D
100
AcDbEntity
  8
0
100
AcDbLine
 10
48.0487
 20
138.90916
 30
0.0
 11
53.3697
 21
138.99816
 31
0.0
  0
LINE
  5
1AD0
330
1D
100
AcDbEntity
  8
0
100
AcDbLine
 10
47.8987
 20
138.85916
 30
0.0
 11
48.0487
 21
138.90916
 31
0.0
  0
LINE
  5
1AD1
330
1D
100
AcDbEntity
  8
0
100
AcDbLine
 10
48.0487
 20
138.90916
 30
0.0
 11
53.3697
 21
138.99816
 31
0.0
  0
LINE
  5
1AD2
330
1D
100
AcDbEntity
  8
0
100
AcDbLine
 10
53.597059834269
 20
139.009967392785
 30
0.0
 11
53.75663360996
 21
139.020106058091
 31
0.0
  0
LINE
  5
1AD3
330
1D
100
AcDbEntity
  8
0
100
AcDbLine
 10
53.6627
 20
139.01116
 30
0.0
 11
53.9777
 21
139.04116
 31
0.0
  0
LINE
  5
1AD4
330
1D
100
AcDbEntity
  8
0
100
AcDbLine
 10
54.075068821881
 20
139.042975236258
 30
0.0
 11
54.1307
 21
139.06316
 31
0.0
  0
LINE
  5
1AD5
330
1D
100
AcDbEntity
  8
0
100
AcDbLine
 10
54.1417
 20
139.06516
 30
0.0
 11
71.2497
 21
139.36316
 31
0.0
  0
LINE
  5
1AD6
330
1D
100
AcDbEntity
  8
0
100
AcDbLine
 10
54.1417
 20
139.06516
 30
0.0
 11
71.2497
 21
139.36316
 31
0.0
  0
LINE
  5
1AD7
330
1D
100
AcDbEntity
  8
0
100
AcDbLine
 10
54.074331578949
 20
139.055054736842
 30
0.0
 11
54.1417
 21
139.06516
 31
0.0
  0
LINE
  5
1AD8
330
1D
100
AcDbEntity
  8
0
100
AcDbLine
 10
71.2497
 20
139.36316
 30
0.0
 11
71.5847
 21
139.40116
 31
0.0
  0
LINE
  5
1AD9
330
1D
100
AcDbEntity
  8
0
100
AcDbLine
 10
71.5847
 20
139.40116
 30
0.0
 11
72.1087
 21
139.61116
 31
0.0
  0
LINE
  5
1ADA
330
1D
100
AcDbEntity
  8
0
100
AcDbLine
 10
53.9777
 20
139.04116
 30
0.0
 11
54.1307
 21
139.06316
 31
0.0
  0
LINE
  5
1ADB
330
1D
100
AcDbEntity
  8
0
100
AcDbLine
 10
53.875596551723
 20
139.031435862069
 30
0.0
 11
54.058801503759
 21
139.052821654135
 31
0.0
  0
LINE
  5
1ADC
330
1D
100
AcDbEntity
  8
0
100
AcDbLine
 10
53.3697
 20
138.99816
 30
0.0
 11
53.6627
 21
139.01116
 31
0.0
  0
LINE
  5
1ADD
330
1D
100
AcDbEntity
  8
0
100
AcDbLine
 10
72.5627
 20
138.52016
 30
0.0
 11
72.5627
 21
140.86416
 31
0.0
  0
LINE
  5
1ADE
330
1D
100
AcDbEntity
  8
0
100
AcDbLine
 10
72.5627
 20
139.64116
 30
0.0
 11
72.5627
 21
140.86416
 31
0.0
  0
LINE
  5
1ADF
330
1D
100
AcDbEntity
  8
0
100
AcDbLine
 10
72.5627
 20
140.86416
 30
0.0
 11
72.5627
 21
142.92016
 31
0.0
  0
LINE
  5
1AE0
330
1D
100
AcDbEntity
  8
0
100
AcDbLine
 10
72.5627
 20
140.86416
 30
0.0
 11
72.5627
 21
139.64116
 31
0.0
  0
LINE
  5
1AE1
330
1D
100
AcDbEntity
  8
0
100
AcDbLine
 10
72.5627
 20
140.86416
 30
0.0
 11
72.5627
 21
138.52016
 31
0.0
  0
LINE
  5
1AE2
330
1D
100
AcDbEntity
  8
0
100
AcDbLine
 10
72.5627
 20
142.92016
 30
0.0
 11
72.5627
 21
144.45416
 31
0.0
  0
LINE
  5
1AE3
330
1D
100
AcDbEntity
  8
0
100
AcDbLine
 10
72.5627
 20
142.92016
 30
0.0
 11
72.5627
 21
140.86416
 31
0.0
  0
LINE
  5
1AE4
330
1D
100
AcDbEntity
  8
0
100
AcDbLine
 10
72.5627
 20
144.45416
 30
0.0
 11
72.5627
 21
145.61216
 31
0.0
  0
LINE
  5
1AE5
330
1D
100
AcDbEntity
  8
0
100
AcDbLine
 10
72.5627
 20
144.45416
 30
0.0
 11
72.5627
 21
142.92016
 31
0.0
  0
LINE
  5
1AE6
330
1D
100
AcDbEntity
  8
0
100
AcDbLine
 10
72.5627
 20
145.61216
 30
0.0
 11
72.5627
 21
146.30616
 31
0.0
  0
LINE
  5
1AE7
330
1D
100
AcDbEntity
  8
0
100
AcDbLine
 10
72.5627
 20
145.61216
 30
0.0
 11
72.5627
 21
144.45416
 31
0.0
  0
LINE
  5
1AE8
330
1D
100
AcDbEntity
  8
0
100
AcDbLine
 10
72.5627
 20
146.30616
 30
0.0
 11
72.5627
 21
146.59616
 31
0.0
  0
LINE
  5
1AE9
330
1D
100
AcDbEntity
  8
0
100
AcDbLine
 10
72.5627
 20
146.30616
 30
0.0
 11
72.5627
 21
145.61216
 31
0.0
  0
LINE
  5
1AEA
330
1D
100
AcDbEntity
  8
0
100
AcDbLine
 10
72.5627
 20
146.59616
 30
0.0
 11
73.0627
 21
146.59616
 31
0.0
  0
LINE
  5
1AEB
330
1D
100
AcDbEntity
  8
0
100
AcDbLine
 10
72.5627
 20
146.59616
 30
0.0
 11
72.5627
 21
146.30616
 31
0.0
  0
LINE
  5
1AEC
330
1D
100
AcDbEntity
  8
0
100
AcDbLine
 10
72.3587
 20
139.64116
 30
0.0
 11
72.5627
 21
139.64116
 31
0.0
  0
LINE
  5
1AED
330
1D
100
AcDbEntity
  8
0
100
AcDbLine
 10
72.1087
 20
139.61116
 30
0.0
 11
72.3587
 21
139.64116
 31
0.0
  0
LINE
  5
1AEE
330
1D
100
AcDbEntity
  8
0
100
AcDbLine
 10
73.0627
 20
98.64016
 30
0.0
 11
73.0627
 21
96.45176
 31
0.0
  0
LINE
  5
1AEF
330
1D
100
AcDbEntity
  8
0
100
AcDbLine
 10
73.0627
 20
146.59616
 30
0.0
 11
73.0627
 21
148.84116
 31
0.0
  0
LINE
  5
1AF0
330
1D
100
AcDbEntity
  8
0
100
AcDbLine
 10
73.1027
 20
148.99116
 30
0.0
 11
73.2127
 21
149.10116
 31
0.0
  0
LINE
  5
1AF1
330
1D
100
AcDbEntity
  8
0
100
AcDbLine
 10
73.0627
 20
148.84116
 30
0.0
 11
73.1027
 21
148.99116
 31
0.0
  0
LINE
  5
1AF2
330
1D
100
AcDbEntity
  8
0
100
AcDbLine
 10
73.0627
 20
148.84116
 30
0.0
 11
73.0627
 21
146.59616
 31
0.0
  0
LINE
  5
1AF3
330
1D
100
AcDbEntity
  8
0
100
AcDbLine
 10
73.2737
 20
90.10406
 30
0.0
 11
73.8757
 21
89.18366
 31
0.0
  0
LINE
  5
1AF4
330
1D
100
AcDbEntity
  8
0
100
AcDbLine
 10
73.8757
 20
89.18366
 30
0.0
 11
74.7807
 21
88.55746
 31
0.0
  0
LINE
  5
1AF5
330
1D
100
AcDbEntity
  8
0
100
AcDbLine
 10
74.7807
 20
88.55746
 30
0.0
 11
75.8537
 21
88.31826
 31
0.0
  0
LINE
  5
1AF6
330
1D
100
AcDbEntity
  8
0
100
AcDbLine
 10
75.8537
 20
88.31826
 30
0.0
 11
175.6087
 21
85.70586
 31
0.0
  0
LINE
  5
1AF7
330
1D
100
AcDbEntity
  8
0
100
AcDbLine
 10
75.8537
 20
88.31826
 30
0.0
 11
175.6087
 21
85.70586
 31
0.0
  0
LINE
  5
1AF8
330
1D
100
AcDbEntity
  8
0
100
AcDbLine
 10
190.502445446143
 20
83.922902582098
 30
0.0
 11
207.4577
 21
80.27146
 31
0.0
  0
LINE
  5
1AF9
330
1D
100
AcDbEntity
  8
0
100
AcDbLine
 10
202.366783421896
 20
81.367827472169
 30
0.0
 11
202.4567
 21
81.34846
 31
0.0
  0
LINE
  5
1AFA
330
1D
100
AcDbEntity
  8
0
100
AcDbLine
 10
202.366783421967
 20
81.367827472154
 30
0.0
 11
202.4567
 21
81.34846
 31
0.0
  0
LINE
  5
1AFB
330
1D
100
AcDbEntity
  8
0
100
AcDbLine
 10
183.0727
 20
85.16576
 30
0.0
 11
190.502445446143
 21
83.922902582098
 31
0.0
  0
LINE
  5
1AFC
330
1D
100
AcDbEntity
  8
0
100
AcDbLine
 10
126.717254098116
 20
86.986237056529
 30
0.0
 11
127.6215
 21
59.85886
 31
0.0
  0
LINE
  5
1AFD
330
1D
100
AcDbEntity
  8
0
100
AcDbLine
 10
126.717254098116
 20
86.986237056529
 30
0.0
 11
127.6215
 21
59.85886
 31
0.0
  0
LINE
  5
1AFE
330
1D
100
AcDbEntity
  8
0
100
AcDbLine
 10
175.6087
 20
85.70586
 30
0.0
 11
183.0727
 21
85.16576
 31
0.0
  0
LINE
  5
1AFF
330
1D
100
AcDbEntity
  8
0
100
AcDbLine
 10
91.2627
 20
149.14116
 30
0.0
 11
207.5627
 21
149.14116
 31
0.0
  0
LINE
  5
1B00
330
1D
100
AcDbEntity
  8
0
100
AcDbLine
 10
203.3637
 20
81.15306
 30
0.0
 11
204.312662727636
 21
80.948767614705
 31
0.0
  0
LINE
  5
1B01
330
1D
100
AcDbEntity
  8
0
100
AcDbLine
 10
203.3637
 20
81.15306
 30
0.0
 11
204.312662727642
 21
80.948767614704
 31
0.0
  0
LINE
  5
1B02
330
1D
100
AcDbEntity
  8
0
100
AcDbLine
 10
87.0567
 20
149.14116
 30
0.0
 11
91.2627
 21
149.14116
 31
0.0
  0
LINE
  5
1B03
330
1D
100
AcDbEntity
  8
0
100
AcDbLine
 10
83.8177
 20
149.14116
 30
0.0
 11
87.0567
 21
149.14116
 31
0.0
  0
LINE
  5
1B04
330
1D
100
AcDbEntity
  8
0
100
AcDbLine
 10
77.8757
 20
149.14116
 30
0.0
 11
80.5917
 21
149.14116
 31
0.0
  0
LINE
  5
1B05
330
1D
100
AcDbEntity
  8
0
100
AcDbLine
 10
75.7047
 20
149.14116
 30
0.0
 11
77.8757
 21
149.14116
 31
0.0
  0
LINE
  5
1B06
330
1D
100
AcDbEntity
  8
0
100
AcDbLine
 10
74.2567
 20
149.14116
 30
0.0
 11
75.7047
 21
149.14116
 31
0.0
  0
LINE
  5
1B07
330
1D
100
AcDbEntity
  8
0
100
AcDbLine
 10
73.4627
 20
149.14116
 30
0.0
 11
74.2567
 21
149.14116
 31
0.0
  0
LINE
  5
1B08
330
1D
100
AcDbEntity
  8
0
100
AcDbLine
 10
73.3627
 20
149.14116
 30
0.0
 11
73.4627
 21
149.14116
 31
0.0
  0
LINE
  5
1B09
330
1D
100
AcDbEntity
  8
0
100
AcDbLine
 10
73.2127
 20
149.10116
 30
0.0
 11
73.3627
 21
149.14116
 31
0.0
  0
LINE
  5
1B0A
330
1D
100
AcDbEntity
  8
0
100
AcDbLine
 10
72.8707
 20
149.94116
 30
0.0
 11
73.5127
 21
149.94116
 31
0.0
  0
LINE
  5
1B0B
330
1D
100
AcDbEntity
  8
0
100
AcDbLine
 10
72.8537
 20
149.94116
 30
0.0
 11
73.3077
 21
149.94116
 31
0.0
  0
LINE
  5
1B0C
330
1D
100
AcDbEntity
  8
0
100
AcDbLine
 10
88.3957
 20
149.94116
 30
0.0
 11
91.2627
 21
149.94116
 31
0.0
  0
LINE
  5
1B0D
330
1D
100
AcDbEntity
  8
0
100
AcDbLine
 10
88.2457
 20
149.94116
 30
0.0
 11
91.2627
 21
149.94116
 31
0.0
  0
LINE
  5
1B0E
330
1D
100
AcDbEntity
  8
0
100
AcDbLine
 10
85.6057
 20
149.94116
 30
0.0
 11
88.3957
 21
149.94116
 31
0.0
  0
LINE
  5
1B0F
330
1D
100
AcDbEntity
  8
0
100
AcDbLine
 10
84.7897
 20
149.94116
 30
0.0
 11
88.2457
 21
149.94116
 31
0.0
  0
LINE
  5
1B10
330
1D
100
AcDbEntity
  8
0
100
AcDbLine
 10
83.2007
 20
149.94116
 30
0.0
 11
85.6057
 21
149.94116
 31
0.0
  0
LINE
  5
1B11
330
1D
100
AcDbEntity
  8
0
100
AcDbLine
 10
81.5767
 20
149.94116
 30
0.0
 11
84.7897
 21
149.94116
 31
0.0
  0
LINE
  5
1B12
330
1D
100
AcDbEntity
  8
0
100
AcDbLine
 10
80.5777
 20
149.94116
 30
0.0
 11
83.2007
 21
149.94116
 31
0.0
  0
LINE
  5
1B13
330
1D
100
AcDbEntity
  8
0
100
AcDbLine
 10
79.3937
 20
149.94116
 30
0.0
 11
81.5767
 21
149.94116
 31
0.0
  0
LINE
  5
1B14
330
1D
100
AcDbEntity
  8
0
100
AcDbLine
 10
79.0547
 20
149.94116
 30
0.0
 11
80.5777
 21
149.94116
 31
0.0
  0
LINE
  5
1B15
330
1D
100
AcDbEntity
  8
0
100
AcDbLine
 10
77.4717
 20
149.94116
 30
0.0
 11
79.3937
 21
149.94116
 31
0.0
  0
LINE
  5
1B16
330
1D
100
AcDbEntity
  8
0
100
AcDbLine
 10
77.6727
 20
149.94116
 30
0.0
 11
79.0547
 21
149.94116
 31
0.0
  0
LINE
  5
1B17
330
1D
100
AcDbEntity
  8
0
100
AcDbLine
 10
76.2767
 20
149.94116
 30
0.0
 11
77.4717
 21
149.94116
 31
0.0
  0
LINE
  5
1B18
330
1D
100
AcDbEntity
  8
0
100
AcDbLine
 10
76.0257
 20
149.94116
 30
0.0
 11
77.6727
 21
149.94116
 31
0.0
  0
LINE
  5
1B19
330
1D
100
AcDbEntity
  8
0
100
AcDbLine
 10
75.2577
 20
149.94116
 30
0.0
 11
76.2767
 21
149.94116
 31
0.0
  0
LINE
  5
1B1A
330
1D
100
AcDbEntity
  8
0
100
AcDbLine
 10
74.7197
 20
149.94116
 30
0.0
 11
76.0257
 21
149.94116
 31
0.0
  0
LINE
  5
1B1B
330
1D
100
AcDbEntity
  8
0
100
AcDbLine
 10
74.0207
 20
149.94116
 30
0.0
 11
75.2577
 21
149.94116
 31
0.0
  0
LINE
  5
1B1C
330
1D
100
AcDbEntity
  8
0
100
AcDbLine
 10
73.5127
 20
149.94116
 30
0.0
 11
74.7197
 21
149.94116
 31
0.0
  0
LINE
  5
1B1D
330
1D
100
AcDbEntity
  8
0
100
AcDbLine
 10
73.3077
 20
149.94116
 30
0.0
 11
74.0207
 21
149.94116
 31
0.0
  0
LINE
  5
1B1E
330
1D
100
AcDbEntity
  8
0
100
AcDbLine
 10
72.4557
 20
150.89516
 30
0.0
 11
72.7127
 21
149.94116
 31
0.0
  0
LINE
  5
1B1F
330
1D
100
AcDbEntity
  8
0
100
AcDbLine
 10
72.7127
 20
149.94116
 30
0.0
 11
72.8537
 21
149.94116
 31
0.0
  0
LINE
  5
1B20
330
1D
100
AcDbEntity
  8
0
100
AcDbLine
 10
72.7127
 20
149.94116
 30
0.0
 11
72.8707
 21
149.94116
 31
0.0
  0
LINE
  5
1B21
330
1D
100
AcDbEntity
  8
0
100
AcDbLine
 10
72.2127
 20
151.94116
 30
0.0
 11
72.4557
 21
150.89516
 31
0.0
  0
LINE
  5
1B22
330
1D
100
AcDbEntity
  8
0
100
AcDbLine
 10
72.2127
 20
151.94116
 30
0.0
 11
72.4557
 21
152.98716
 31
0.0
  0
LINE
  5
1B23
330
1D
100
AcDbEntity
  8
0
100
AcDbLine
 10
72.4557
 20
152.98716
 30
0.0
 11
72.7127
 21
153.94116
 31
0.0
  0
LINE
  5
1B24
330
1D
100
AcDbEntity
  8
0
100
AcDbLine
 10
72.8537
 20
153.94116
 30
0.0
 11
73.3077
 21
153.94116
 31
0.0
  0
LINE
  5
1B25
330
1D
100
AcDbEntity
  8
0
100
AcDbLine
 10
88.2457
 20
153.94116
 30
0.0
 11
91.2627
 21
153.94116
 31
0.0
  0
LINE
  5
1B26
330
1D
100
AcDbEntity
  8
0
100
AcDbLine
 10
84.7897
 20
153.94116
 30
0.0
 11
88.2457
 21
153.94116
 31
0.0
  0
LINE
  5
1B27
330
1D
100
AcDbEntity
  8
0
100
AcDbLine
 10
81.5777
 20
153.94116
 30
0.0
 11
84.7897
 21
153.94116
 31
0.0
  0
LINE
  5
1B28
330
1D
100
AcDbEntity
  8
0
100
AcDbLine
 10
79.3937
 20
153.94116
 30
0.0
 11
81.5777
 21
153.94116
 31
0.0
  0
LINE
  5
1B29
330
1D
100
AcDbEntity
  8
0
100
AcDbLine
 10
77.4707
 20
153.94116
 30
0.0
 11
79.3937
 21
153.94116
 31
0.0
  0
LINE
  5
1B2A
330
1D
100
AcDbEntity
  8
0
100
AcDbLine
 10
76.2757
 20
153.94116
 30
0.0
 11
77.4707
 21
153.94116
 31
0.0
  0
LINE
  5
1B2B
330
1D
100
AcDbEntity
  8
0
100
AcDbLine
 10
75.2577
 20
153.94116
 30
0.0
 11
76.2757
 21
153.94116
 31
0.0
  0
LINE
  5
1B2C
330
1D
100
AcDbEntity
  8
0
100
AcDbLine
 10
74.0217
 20
153.94116
 30
0.0
 11
75.2577
 21
153.94116
 31
0.0
  0
LINE
  5
1B2D
330
1D
100
AcDbEntity
  8
0
100
AcDbLine
 10
73.3077
 20
153.94116
 30
0.0
 11
74.0217
 21
153.94116
 31
0.0
  0
LINE
  5
1B2E
330
1D
100
AcDbEntity
  8
0
100
AcDbLine
 10
72.7127
 20
153.94116
 30
0.0
 11
72.8537
 21
153.94116
 31
0.0
  0
LINE
  5
1B2F
330
1D
100
AcDbEntity
  8
0
100
AcDbLine
 10
91.2627
 20
153.94116
 30
0.0
 11
206.0627
 21
153.94116
 31
0.0
  0
LINE
  5
1B30
330
1D
100
AcDbEntity
  8
0
100
AcDbLine
 10
91.2627
 20
149.94116
 30
0.0
 11
206.0627
 21
149.94116
 31
0.0
  0
LINE
  5
1B31
330
1D
100
AcDbEntity
  8
0
100
AcDbLine
 10
80.5917
 20
149.14116
 30
0.0
 11
83.8177
 21
149.14116
 31
0.0
  0
LINE
  5
1B32
330
1D
100
AcDbEntity
  8
0
100
AcDbLine
 10
205.6717
 20
80.65606
 30
0.0
 11
206.4707
 21
80.48396
 31
0.0
  0
LINE
  5
1B33
330
1D
100
AcDbEntity
  8
0
100
AcDbLine
 10
206.0627
 20
149.94116
 30
0.0
 11
206.5627
 21
149.94116
 31
0.0
  0
LINE
  5
1B34
330
1D
100
AcDbEntity
  8
0
100
AcDbLine
 10
206.9297
 20
149.94116
 30
0.0
 11
207.0627
 21
149.94116
 31
0.0
  0
LINE
  5
1B35
330
1D
100
AcDbEntity
  8
0
100
AcDbLine
 10
206.5627
 20
149.94116
 30
0.0
 11
206.9287
 21
149.94116
 31
0.0
  0
LINE
  5
1B36
330
1D
100
AcDbEntity
  8
0
100
AcDbLine
 10
206.5627
 20
149.94116
 30
0.0
 11
206.9297
 21
149.94116
 31
0.0
  0
LINE
  5
1B37
330
1D
100
AcDbEntity
  8
0
100
AcDbLine
 10
206.5627
 20
153.94116
 30
0.0
 11
206.9287
 21
153.94116
 31
0.0
  0
LINE
  5
1B38
330
1D
100
AcDbEntity
  8
0
100
AcDbLine
 10
206.9287
 20
153.94116
 30
0.0
 11
207.0627
 21
153.94116
 31
0.0
  0
LINE
  5
1B39
330
1D
100
AcDbEntity
  8
0
100
AcDbLine
 10
206.0627
 20
153.94116
 30
0.0
 11
206.5627
 21
153.94116
 31
0.0
  0
LINE
  5
1B3A
330
1D
100
AcDbEntity
  8
0
100
AcDbLine
 10
207.0627
 20
153.94116
 30
0.0
 11
207.5627
 21
151.94116
 31
0.0
  0
LINE
  5
1B3B
330
1D
100
AcDbEntity
  8
0
100
AcDbLine
 10
206.9287
 20
149.94116
 30
0.0
 11
207.0627
 21
149.94116
 31
0.0
  0
LINE
  5
1B3C
330
1D
100
AcDbEntity
  8
0
100
AcDbLine
 10
207.5627
 20
149.14116
 30
0.0
 11
207.6627
 21
149.14116
 31
0.0
  0
LINE
  5
1B3D
330
1D
100
AcDbEntity
  8
0
100
AcDbLine
 10
205.450622039834
 20
80.703699451555
 30
0.0
 11
205.6727
 21
80.65586
 31
0.0
  0
LINE
  5
1B3E
330
1D
100
AcDbEntity
  8
0
100
AcDbLine
 10
205.6727
 20
80.65586
 30
0.0
 11
205.851922116799
 21
80.61727643829
 31
0.0
  0
LINE
  5
1B3F
330
1D
100
AcDbEntity
  8
0
100
AcDbLine
 10
207.7487
 20
80.29636
 30
0.0
 11
207.9767
 21
80.48036
 31
0.0
  0
LINE
  5
1B40
330
1D
100
AcDbEntity
  8
0
100
AcDbLine
 10
207.7487
 20
80.29636
 30
0.0
 11
207.9767
 21
80.48036
 31
0.0
  0
LINE
  5
1B41
330
1D
100
AcDbEntity
  8
0
100
AcDbLine
 10
208.0627
 20
80.76026
 30
0.0
 11
208.0627
 21
81.25686
 31
0.0
  0
LINE
  5
1B42
330
1D
100
AcDbEntity
  8
0
100
AcDbLine
 10
207.9767
 20
80.48036
 30
0.0
 11
208.0627
 21
80.76026
 31
0.0
  0
LINE
  5
1B43
330
1D
100
AcDbEntity
  8
0
100
AcDbLine
 10
208.0627
 20
81.25686
 30
0.0
 11
208.0627
 21
81.94956
 31
0.0
  0
LINE
  5
1B44
330
1D
100
AcDbEntity
  8
0
100
AcDbLine
 10
208.0627
 20
81.94956
 30
0.0
 11
208.0627
 21
82.85386
 31
0.0
  0
LINE
  5
1B45
330
1D
100
AcDbEntity
  8
0
100
AcDbLine
 10
207.7487
 20
80.29646
 30
0.0
 11
207.9767
 21
80.48036
 31
0.0
  0
LINE
  5
1B46
330
1D
100
AcDbEntity
  8
0
100
AcDbLine
 10
208.0627
 20
82.85386
 30
0.0
 11
208.0627
 21
83.86546
 31
0.0
  0
LINE
  5
1B47
330
1D
100
AcDbEntity
  8
0
100
AcDbLine
 10
207.8497
 20
149.12816
 30
0.0
 11
207.9127
 21
149.10116
 31
0.0
  0
LINE
  5
1B48
330
1D
100
AcDbEntity
  8
0
100
AcDbLine
 10
207.7627
 20
149.14116
 30
0.0
 11
207.8497
 21
149.12816
 31
0.0
  0
LINE
  5
1B49
330
1D
100
AcDbEntity
  8
0
100
AcDbLine
 10
208.0227
 20
148.99116
 30
0.0
 11
208.0627
 21
148.84116
 31
0.0
  0
LINE
  5
1B4A
330
1D
100
AcDbEntity
  8
0
100
AcDbLine
 10
207.9127
 20
149.10116
 30
0.0
 11
208.0227
 21
148.99116
 31
0.0
  0
LINE
  5
1B4B
330
1D
100
AcDbEntity
  8
0
100
AcDbLine
 10
208.0627
 20
83.86546
 30
0.0
 11
208.0627
 21
148.84116
 31
0.0
  0
LINE
  5
1B4C
330
1D
100
AcDbEntity
  8
0
100
AcDbLine
 10
207.6627
 20
149.14116
 30
0.0
 11
207.7357
 21
149.14116
 31
0.0
  0
LINE
  5
1B4D
330
1D
100
AcDbEntity
  8
0
100
AcDbLine
 10
207.0627
 20
149.94116
 30
0.0
 11
207.5627
 21
151.94116
 31
0.0
  0
LINE
  5
1B4E
330
1D
100
AcDbEntity
  8
0
100
AcDbLine
 10
47.5657
 20
99.69716
 30
0.0
 11
47.5577
 21
138.40916
 31
0.0
  0
LINE
  5
1B4F
330
1D
100
AcDbEntity
  8
0
100
AcDbLine
 10
48.0487
 20
99.33216
 30
0.0
 11
59.0897
 21
98.777505588235
 31
0.0
  0
LINE
  5
1B50
330
1D
100
AcDbEntity
  8
0
100
AcDbLine
 10
59.0897
 20
98.777505588235
 30
0.0
 11
67.0897
 21
98.652584435988
 31
0.0
  0
LINE
  5
1B51
330
1D
100
AcDbEntity
  8
0
100
AcDbLine
 10
73.0627
 20
98.64016
 30
0.0
 11
73.0627
 21
146.59616
 31
0.0
  0
LINE
  5
1B52
330
1D
100
AcDbEntity
  8
0
100
AcDbLine
 10
72.5627
 20
138.52016
 30
0.0
 11
72.5627
 21
98.64016
 31
0.0
  0
ENDSEC
  0
SECTION
  2
OBJECTS
  0
DICTIONARY
  5
C
330
0
100
AcDbDictionary
281
     1
  3
ACAD_GROUP
350
D
  3
ACAD_LAYOUT
350
1A
  3
ACAD_MLEADERSTYLE
350
1B55
  3
ACAD_MLINESTYLE
350
17
  3
ACAD_PLOTSETTINGS
350
19
  3
ACAD_PLOTSTYLENAME
350
E
  3
ACAD_SCALELIST
350
EB9
  3
AcDbVariableDictionary
350
1B53
  3
DWGPROPS
350
1B58
  0
DICTIONARY
  5
D
102
{ACAD_REACTORS
330
C
102
}
330
C
100
AcDbDictionary
281
     1
  0
DICTIONARY
  5
1A
102
{ACAD_REACTORS
330
C
102
}
330
C
100
AcDbDictionary
281
     1
  3
Layout1
350
1C
  3
Model
350
1E
  0
DICTIONARY
  5
1B55
102
{ACAD_REACTORS
330
C
102
}
330
C
100
AcDbDictionary
281
     1
  0
DICTIONARY
  5
17
102
{ACAD_REACTORS
330
C
102
}
330
C
100
AcDbDictionary
281
     1
  3
Standard
350
18
  0
DICTIONARY
  5
19
102
{ACAD_REACTORS
330
C
102
}
330
C
100
AcDbDictionary
281
     1
  0
ACDBDICTIONARYWDFLT
  5
E
102
{ACAD_REACTORS
330
C
102
}
330
C
100
AcDbDictionary
281
     1
  3
Normal
350
F
100
AcDbDictionaryWithDefault
340
F
  0
DICTIONARY
  5
EB9
102
{ACAD_REACTORS
330
C
102
}
330
C
100
AcDbDictionary
281
     1
  3
A0
350
EBA
  3
A1
350
EBB
  3
A2
350
EBC
  3
A3
350
EBD
  3
A4
350
EBE
  3
A5
350
EBF
  3
A6
350
EC0
  3
A7
350
EC1
  3
A8
350
EC2
  3
A9
350
EC3
  3
B0
350
EC4
  3
B1
350
EC5
  3
B2
350
EC6
  3
B3
350
EC7
  3
B4
350
EC8
  3
B5
350
EC9
  3
B6
350
ECA
  3
B7
350
ECB
  3
B8
350
ECC
  3
B9
350
ECD
  3
C0
350
ECE
  3
C1
350
ECF
  3
C2
350
ED0
  3
C3
350
ED1
  3
C4
350
ED2
  3
C5
350
ED3
  3
C6
350
ED4
  3
C7
350
ED5
  3
C8
350
ED6
  3
C9
350
ED7
  3
D0
350
ED8
  3
D1
350
ED9
  3
D2
350
EDA
  0
DICTIONARY
  5
1B53
102
{ACAD_REACTORS
330
C
102
}
330
C
100
AcDbDictionary
281
     1
  3
CANNOSCALE
350
1B56
  0
XRECORD
  5
1B58
102
{ACAD_REACTORS
330
C
102
}
330
C
100
AcDbXrecord
280
     1
  1
DWGPROPS COOKIE
  2

  3

  4

  6

  7

  8
MARTIN
  9

300
=
301
=
302
=
303
=
304
=
305
=
306
=
307
=
308
=
309
=
 40
0.0
 41
2456462.816297917
 42
2456462.819243877
  1

 90
        0
  0
LAYOUT
  5
1C
102
{ACAD_REACTORS
330
1A
102
}
330
1A
100
AcDbPlotSettings
  1

  2
none_device
  4

  6

 40
0.0
 41
0.0
 42
0.0
 43
0.0
 44
0.0
 45
0.0
 46
0.0
 47
0.0
 48
0.0
 49
0.0
140
0.0
141
0.0
142
1.0
143
1.0
 70
   688
 72
     0
 73
     0
 74
     5
  7

 75
    16
147
1.0
148
0.0
149
0.0
100
AcDbLayout
  1
Layout1
 70
     1
 71
     1
 10
0.0
 20
0.0
 11
12.0
 21
9.0
 12
0.0
 22
0.0
 32
0.0
 14
1.000000000000E+20
 24
1.000000000000E+20
 34
1.000000000000E+20
 15
-1.000000000000E+20
 25
-1.000000000000E+20
 35
-1.000000000000E+20
146
0.0
 13
0.0
 23
0.0
 33
0.0
 16
1.0
 26
0.0
 36
0.0
 17
0.0
 27
1.0
 37
0.0
 76
     0
330
1B
  0
LAYOUT
  5
1E
102
{ACAD_REACTORS
330
1A
102
}
330
1A
100
AcDbPlotSettings
  1

  2
none_device
  4

  6

 40
0.0
 41
0.0
 42
0.0
 43
0.0
 44
0.0
 45
0.0
 46
0.0
 47
0.0
 48
0.0
 49
0.0
140
0.0
141
0.0
142
1.0
143
1.0
 70
  1712
 72
     0
 73
     0
 74
     0
  7

 75
     0
147
1.0
148
0.0
149
0.0
100
AcDbLayout
  1
Model
 70
     1
 71
     0
 10
0.0
 20
0.0
 11
12.0
 21
9.0
 12
0.0
 22
0.0
 32
0.0
 14
0.364212223068
 24
-0.14116
 34
0.0
 15
208.8217
 25
1402.14116
 35
0.0
146
0.0
 13
0.0
 23
0.0
 33
0.0
 16
1.0
 26
0.0
 36
0.0
 17
0.0
 27
1.0
 37
0.0
 76
     0
330
1D
331
EB4
  0
MLINESTYLE
  5
18
102
{ACAD_REACTORS
330
17
102
}
330
17
100
AcDbMlineStyle
  2
Standard
 70
     0
  3

 62
   256
 51
90.0
 52
90.0
 71
     2
 49
0.5
 62
   256
  6
BYLAYER
 49
-0.5
 62
   256
  6
BYLAYER
  0
ACDBPLACEHOLDER
  5
F
102
{ACAD_REACTORS
330
E
102
}
330
E
  0
SCALE
  5
EBA
102
{ACAD_REACTORS
330
EB9
102
}
330
EB9
100
AcDbScale
 70
     0
300
1:1
140
1.0
141
1.0
290
     1
  0
SCALE
  5
EBB
102
{ACAD_REACTORS
330
EB9
102
}
330
EB9
100
AcDbScale
 70
     0
300
1:2
140
1.0
141
2.0
290
     0
  0
SCALE
  5
EBC
102
{ACAD_REACTORS
330
EB9
102
}
330
EB9
100
AcDbScale
 70
     0
300
1:4
140
1.0
141
4.0
290
     0
  0
SCALE
  5
EBD
102
{ACAD_REACTORS
330
EB9
102
}
330
EB9
100
AcDbScale
 70
     0
300
1:5
140
1.0
141
5.0
290
     0
  0
SCALE
  5
EBE
102
{ACAD_REACTORS
330
EB9
102
}
330
EB9
100
AcDbScale
 70
     0
300
1:8
140
1.0
141
8.0
290
     0
  0
SCALE
  5
EBF
102
{ACAD_REACTORS
330
EB9
102
}
330
EB9
100
AcDbScale
 70
     0
300
1:10
140
1.0
141
10.0
290
     0
  0
SCALE
  5
EC0
102
{ACAD_REACTORS
330
EB9
102
}
330
EB9
100
AcDbScale
 70
     0
300
1:16
140
1.0
141
16.0
290
     0
  0
SCALE
  5
EC1
102
{ACAD_REACTORS
330
EB9
102
}
330
EB9
100
AcDbScale
 70
     0
300
1:20
140
1.0
141
20.0
290
     0
  0
SCALE
  5
EC2
102
{ACAD_REACTORS
330
EB9
102
}
330
EB9
100
AcDbScale
 70
     0
300
1:30
140
1.0
141
30.0
290
     0
  0
SCALE
  5
EC3
102
{ACAD_REACTORS
330
EB9
102
}
330
EB9
100
AcDbScale
 70
     0
300
1:40
140
1.0
141
40.0
290
     0
  0
SCALE
  5
EC4
102
{ACAD_REACTORS
330
EB9
102
}
330
EB9
100
AcDbScale
 70
     0
300
1:50
140
1.0
141
50.0
290
     0
  0
SCALE
  5
EC5
102
{ACAD_REACTORS
330
EB9
102
}
330
EB9
100
AcDbScale
 70
     0
300
1:100
140
1.0
141
100.0
290
     0
  0
SCALE
  5
EC6
102
{ACAD_REACTORS
330
EB9
102
}
330
EB9
100
AcDbScale
 70
     0
300
2:1
140
2.0
141
1.0
290
     0
  0
SCALE
  5
EC7
102
{ACAD_REACTORS
330
EB9
102
}
330
EB9
100
AcDbScale
 70
     0
300
4:1
140
4.0
141
1.0
290
     0
  0
SCALE
  5
EC8
102
{ACAD_REACTORS
330
EB9
102
}
330
EB9
100
AcDbScale
 70
     0
300
8:1
140
8.0
141
1.0
290
     0
  0
SCALE
  5
EC9
102
{ACAD_REACTORS
330
EB9
102
}
330
EB9
100
AcDbScale
 70
     0
300
10:1
140
10.0
141
1.0
290
     0
  0
SCALE
  5
ECA
102
{ACAD_REACTORS
330
EB9
102
}
330
EB9
100
AcDbScale
 70
     0
300
100:1
140
100.0
141
1.0
290
     0
  0
SCALE
  5
ECB
102
{ACAD_REACTORS
330
EB9
102
}
330
EB9
100
AcDbScale
 70
     0
300
1/128" = 1'-0"
140
0.0078125
141
12.0
290
     0
  0
SCALE
  5
ECC
102
{ACAD_REACTORS
330
EB9
102
}
330
EB9
100
AcDbScale
 70
     0
300
1/64" = 1'-0"
140
0.015625
141
12.0
290
     0
  0
SCALE
  5
ECD
102
{ACAD_REACTORS
330
EB9
102
}
330
EB9
100
AcDbScale
 70
     0
300
1/32" = 1'-0"
140
0.03125
141
12.0
290
     0
  0
SCALE
  5
ECE
102
{ACAD_REACTORS
330
EB9
102
}
330
EB9
100
AcDbScale
 70
     0
300
1/16" = 1'-0"
140
0.0625
141
12.0
290
     0
  0
SCALE
  5
ECF
102
{ACAD_REACTORS
330
EB9
102
}
330
EB9
100
AcDbScale
 70
     0
300
3/32" = 1'-0"
140
0.09375
141
12.0
290
     0
  0
SCALE
  5
ED0
102
{ACAD_REACTORS
330
EB9
102
}
330
EB9
100
AcDbScale
 70
     0
300
1/8" = 1'-0"
140
0.125
141
12.0
290
     0
  0
SCALE
  5
ED1
102
{ACAD_REACTORS
330
EB9
102
}
330
EB9
100
AcDbScale
 70
     0
300
3/16" = 1'-0"
140
0.1875
141
12.0
290
     0
  0
SCALE
  5
ED2
102
{ACAD_REACTORS
330
EB9
102
}
330
EB9
100
AcDbScale
 70
     0
300
1/4" = 1'-0"
140
0.25
141
12.0
290
     0
  0
SCALE
  5
ED3
102
{ACAD_REACTORS
330
EB9
102
}
330
EB9
100
AcDbScale
 70
     0
300
3/8" = 1'-0"
140
0.375
141
12.0
290
     0
  0
SCALE
  5
ED4
102
{ACAD_REACTORS
330
EB9
102
}
330
EB9
100
AcDbScale
 70
     0
300
1/2" = 1'-0"
140
0.5
141
12.0
290
     0
  0
SCALE
  5
ED5
102
{ACAD_REACTORS
330
EB9
102
}
330
EB9
100
AcDbScale
 70
     0
300
3/4" = 1'-0"
140
0.75
141
12.0
290
     0
  0
SCALE
  5
ED6
102
{ACAD_REACTORS
330
EB9
102
}
330
EB9
100
AcDbScale
 70
     0
300
1" = 1'-0"
140
1.0
141
12.0
290
     0
  0
SCALE
  5
ED7
102
{ACAD_REACTORS
330
EB9
102
}
330
EB9
100
AcDbScale
 70
     0
300
1-1/2" = 1'-0"
140
1.5
141
12.0
290
     0
  0
SCALE
  5
ED8
102
{ACAD_REACTORS
330
EB9
102
}
330
EB9
100
AcDbScale
 70
     0
300
3" = 1'-0"
140
3.0
141
12.0
290
     0
  0
SCALE
  5
ED9
102
{ACAD_REACTORS
330
EB9
102
}
330
EB9
100
AcDbScale
 70
     0
300
6" = 1'-0"
140
6.0
141
12.0
290
     0
  0
SCALE
  5
EDA
102
{ACAD_REACTORS
330
EB9
102
}
330
EB9
100
AcDbScale
 70
     0
300
1'-0" = 1'-0"
140
12.0
141
12.0
290
     0
  0
DICTIONARYVAR
  5
1B56
102
{ACAD_REACTORS
330
1B53
102
}
330
1B53
100
DictionaryVariables
280
     0
  1
1:1
  0
ENDSEC
  0
SECTION
  2
THUMBNAILIMAGE
 90
    16364
310
28000000B40000005500000001000800000000000000000000000000000000000000000000000000FFFFFF000000FF0000FFFF0000FF0000FFFF0000FF000000FF00FF000000000080808000C0C0C0000000FF007F7FFF000000A5005252A50000007F003F3F7F0000004C0026264C000000260013132600003FFF007F9FFF
310
000029A5005267A500001F7F003F4F7F0000134C00262F4C000009260013172600007FFF007FBFFF000052A500527CA500003F7F003F5F7F0000264C0026394C0000132600131C260000BFFF007FDFFF00007CA5005291A500005F7F003F6F7F0000394C0026424C00001C26001321260000FFFF007FFFFF0000A5A50052A5
310
A500007F7F003F7F7F00004C4C00264C4C00002626001326260000FFBF007FFFDF0000A57C0052A59100007F5F003F7F6F00004C3900264C420000261C001326210000FF7F007FFFBF0000A5520052A57C00007F3F003F7F5F00004C2600264C39000026130013261C0000FF3F007FFF9F0000A5290052A56700007F1F003F
310
7F4F00004C1300264C2F00002609001326170000FF00007FFF7F0000A5000052A55200007F00003F7F3F00004C0000264C260000260000132613003FFF00009FFF7F0029A5000067A552001F7F00004F7F3F00134C00002F4C260009260000172613007FFF0000BFFF7F0052A500007CA552003F7F00005F7F3F00264C0000
310
394C2600132600001C261300BFFF0000DFFF7F007CA5000091A552005F7F00006F7F3F00394C0000424C26001C26000021261300FFFF0000FFFF7F00A5A50000A5A552007F7F00007F7F3F004C4C00004C4C26002626000026261300FFBF0000FFDF7F00A57C0000A59152007F5F00007F6F3F004C3900004C422600261C00
310
0026211300FF7F0000FFBF7F00A5520000A57C52007F3F00007F5F3F004C2600004C39260026130000261C1300FF3F0000FF9F7F00A5290000A56752007F1F00007F4F3F004C1300004C2F26002609000026171300FF000000FF7F7F00A5000000A55252007F0000007F3F3F004C0000004C2626002600000026131300FF00
310
3F00FF7F9F00A5002900A55267007F001F007F3F4F004C0013004C262F002600090026131700FF007F00FF7FBF00A5005200A5527C007F003F007F3F5F004C0026004C2639002600130026131C00FF00BF00FF7FDF00A5007C00A55291007F005F007F3F6F004C0039004C26420026001C0026132100FF00FF00FF7FFF00A5
310
00A500A552A5007F007F007F3F7F004C004C004C264C002600260026132600BF00FF00DF7FFF007C00A5009152A5005F007F006F3F7F0039004C0042264C001C002600211326007F00FF00BF7FFF005200A5007C52A5003F007F005F3F7F0026004C0039264C00130026001C1326003F00FF009F7FFF002900A5006752A500
310
1F007F004F3F7F0013004C002F264C000900260017132600000000002D2D2D005B5B5B0089898900B7B7B700B3B3B30000000000000000000000000000000000000000000000000000000000000000000000000000000000000000000000000000000000000000000000000000000000000000000000000000000000000000
310
00000000000000000000000000070000000000000000000000000000000000000000000000000000000000000000000000000000000000000000000000000000000000000000000000000000000000000000000000000000000000000000000000000000000000000000000000000000000000000000000000000000000000
310
00000000000000000000000000000000000000000000000000000000000000000000000000000000000000000000000000000000000000000000000000000000000007000000000000000000000000000000000000000000000000000000000000000000000000000000000000000000000000000000000000000000000000
310
00000000000000000000000000000000000000000000000000000000000000000000000000000000000000000000000000000000000000000000000000000000000000000000000000000000000000000000000000000000000000000000000000000000000000000000000000000000000000000000000700000000000000
310
00000000000000000000000000000000000000000000000000000000000000000000000000000000000000000000000000000000000000000000000000000000000000000000000000000000000000000000000000000000000000000000000000000000000000000000000000000000000000000000000000000000000000
310
00000000000000000000000000000000000000000000000000000000000000000000000000000000000000000707070000000000000000000000000000000000000000000000000000000000000000000000000000000000000000000000000000000000000000000000000000000000000000000000000000000000000000
310
00000000000000000000000000000000000000000000000000000000000000000000000000000000000000000000000000000000000000000000000000000000000000000000000000000000000000000000000000000000000000000000000000070007000000000000000000000000000000000000000000000000000000
310
00000000000000000000000000000000000000000000000000000000000000000000000000000000000000000000000000000000000000000000000000000000000000000000000000000000000000000000000000000000000000000000000000000000000000000000000000000000000000000000000000000000000000
310
00000000000000000000000000000000000000070707070707070707070000000000000000000000000000000000000000000000000000000000000000000000000000000000000000000000000000000000000000000000000000000000000000000000000000000000000000000000000000000000000000000000000000
310
00000000000000000000000000000000000000000000000000000000000000000000000000000000000000000000000000000000000000000000000000000000000000000000000007070000000000000007000000000000000000000000000000000000000000000000000000000000000000000000000000000000000000
310
00000000000000000000000000000000000000000000000000000000000000000000000000000000000000000000000000000000000000000000000000000000000000000000000000000000000000000000000000000000000000000000000000000000000000000000000000000000000000000000000000000000000707
310
00000000000000070000000000000000000000000000000000000000000000000000000000000000000000000000000000000000000000000000000000000000000000000000000000000000000000000000000000000000000000000000000000000000000000000000000000000000000000000000000000000000000000
310
00000000000000000000000000000000000000000000000000000000000000000000000000000000000000000000000000000007070000000000000007000000000000000000000000000000000000000000000000000000000000000000000000000000000000000000000000000000000000000000000000000000000000
310
00000000000000000000000000000000000000000000000000000000000000000000000000000000000000000000000000000000000000000000000000000000000000000000000000000000000000000000000000000000000000000000000000000000000000000007070707070707070700000000000000000000000000
310
00000000000000000000000000000000000000000000000000000000000000000000000000000000000000000000000000000000000000000000000000000000000000000000000000000000000000000000000000000000000000000000000000000000000000000000000000000000000000000000000000000000000000
310
00000000000000000000000000000000000000000000000000000000000000000000000000000000000000000000000000000000000000000000000000000000000000000000000000000000000000000000000000000000000000000000000000000000000000000000000000000000000000000000000000000000000000
310
00000000000000000000000000000000000000000000000000000000000000000000000000000000000000000000000000000000000000000000000000000000000000000000000000000000000000000000000000000000000000000000000000000000000000000000000000000000000000000000000000000000000000
310
00000000000000000000000000000000000000000000000000000000000000000000000000000000000000000000000000000000000000000000000000000000000000000000000000000000000000000000000000000000000000000000000000000000000000000000000000000000000000000000000000000000000000
310
00000000000000000000000000000000000000000000000000000000000000000000000000000000000000000000000000000000000000000000000000000000000000000000000000000000000000000000000000000000000000000000000000000000000000000000000000000000000000000000000000000000000000
310
00000000000000000000000000000000000000000000000000000000000000000000000000000000000000000000000000000000000000000000000000000000000000000000000000000000000000000000000000000000000000000000000000000000000000000000000000000000000000000000000000000000000000
310
00000000000000000000000000000000000000000000000000000000000000000000000000000000000000000000000000000000000000000000000000000000000000000000000000000000000000000000000000000000000000000000000000000000000000000000000000000000000000000000000000000000000000
310
00000000000000000000000000000000000000000000000000000000000000000000000000000000000000000000000000000000000000000000000000000000000000000000000000000000000000000000000000000000000000000000000000000000000000000000000000000000000000000000000000000000000000
310
00000000000000000000000000000000000000000000000000000000000000000000000000000000000000000000000000000000000000000000000000000000000000000000000000000000000000000000000000000000000000000000000000000000000000000000000000000000000000000000000000000000000000
310
00000000000000000000000000000000000000000000000000000000000000000000000000000000000000000000000000000000000000000000000000000000000000000000000000000000000000000000000000000000000000000000000000000000000000000000000000000000000000000000000000000000000000
310
00000000000000000000000000000000000000000000000000000000000000000000000000000000000000000000000000000000000000000000000000000000000000000000000000000000000000000000000000000000000000000000000000000000000000000000000000000000000000000000000000000000000000
310
00000000000000000000000000000000000000000000000000000000000000000000000000000000000000000000000000000000000000000000000000000000000000000000000000000000000000000000000000000000000000000000000000000000000000000000000000000000000000000000000000000000000000
310
00000000000000000000000000000000000000000000000000000000000000000000000000000000000000000000000000000000000000000000000000000000000000000000000000000000000000000000000000000000000000000000000000000000000000000000000000000000000000000000000000000000000000
310
00000000000000000000000000000000000000000000000000000000000000000000000000000000000000000000000000000000000000000000000000000000000000000000000000000000000000000000000000000000000000000000000000000000000000000000000000000000000000000000000000000000000000
310
00000000000000000000000000000000000000000000000000000000000000000000000000000000000000000000000000000000000000000000000000000000000000000000000000000000000000000000000000000000000000000000000000000000000000000000000000000000000000000000000000000000000000
310
00000000000000000000000000000000000000000000000000000000000000000000000000000000000000000000000000000000000000000000000000000000000000000000000000000000000000000000000000000000000000000000000000000000000000000000000000000000000000000000000000000000000000
310
00000000000000000000000000000000000000000000000000000000000000000000000000000000000000000000000000000000000000000000000000000000000000000000000000000000000000000000000000000000000000000000000000000000000000000000000000000000000000000000000000000000000000
310
00000000000000000000000000000000000000000000000000000000000000000000000000000000000000000000000000000000000000000000000000000000000000000000000000000000000000000000000000000000000000000000000000000000000000000000000000000000000000000000000000000000000000
310
00000000000000000000000000000000000000000000000000000000000000000000000000000000000000000000000000000000000000000000000000000000000000000000000000000000000000000000000000000000000000000000000000000000000000000000000000000000000000000000000000000000000000
310
00000000000000000000000000000000000000000000000000000000000000000000000000000000000000000000000000000000000000000000000000000000000000000000000000000000000000000000000000000000000000000000000000000000000000000000000000000000000000000000000000000000000000
310
00000000000000000000000000000000000000000000000000000000000000000000000000000000000000000000000000000000000000000000000000000000000000000000000000000000000000000000000000000000000000000000000000000000000000000000000000000000000000000000000000000000000000
310
00000000000000000000000000000000000000000000000000000000000000000000000000000000000000000000000000000000000000000000000000000000000000000000000000000000000000000000000000000000000000000000000000000000000000000000000000000000000000000000000000000000000000
310
00000000000000000000000000000000000000000000000000000000000000000000000000000000000000000000000000000000000000000000000000000000000000000000000000000000000000000000000000000000000000000000000000000000000000000000000000000000000000000000000000000000000000
310
00000000000000000000000000000000000000000000000000000000000000000000000000000000000000000000000000000000000000000000000000000000000000000000000000000000000000000000000000000000000000000000000000000000000000000000000000000000000000000000000000000000070700
310
00000000000000000000000000000000000000000000000000000000000000000000000000000000000000000000000000000000000000000000000000000000000000000000000000000000000000000000000000000000000000000000000000000000000000000000000000000000000000000000000000000000000000
310
00000000000000000000000000000000000000000000000000000000000000000000000000000000000000000000000000000707000000000000000000000000000000000000000000000000000000000000000000000000000000000000000000000000000000000000000000000000000000000000000000000000000000
310
00000000000000000000000000000000000000000000000000000000000000000000000000000000000000000000000000000000000000000000000000000000000000000000000000000000000000000000000000000000000000000000000000000000000000070700000000000000000000000000000000000000000000
310
00000000000000000000000000000000000000000000000000000000000000000000000000000000000000000000000000000000000000000000000000000000000000000000000000000000000000000000000000000000000000000000000000000000000000000000000000000000000000000000000000000000000000
310
00000000000000000000000000000000000000000000000000000000000707000000000000000000000000000000000000000000000000000000000000000000000000000000000000000000000000000000000000000000000000000000000000000000000000000000000000000000000000000000000000000000000000
310
00000000000000000000000000000000000000000000000000000000000000000000000000000000000000000000000000000000000000000000000000000000000000000000000000000000000000000000070700000000000000000000000000000000000000000000000000000000000000000000000000000000000000
310
00000000000000000000000000000000000000000000000000000000000000000000000000000000000000000000000000000000000000000000000000000000000000000000000000000000000000000000000000000000000000000000000000000000000000000000000000000000000000000000000000000000000000
310
00000000000000000707000000000000000000000000000000000000000000000000000000000000000000000000000000000000000000000000000000000000000000000000000000000000000000000000000000000000000000000000000000000000000000000000000000000000000000000000000000000000000000
310
00000000000000000000000000000000000000000000000000000000000000000000000000000000000000000000000000000000000000000000000000070700000000000000000000000000000000000000000000000000000000000000000000000000000000000000000000000000000000000000000000000000000000
310
00000000000000000000000000000000000000000000000000000000000000000000000000000000000000000000000000000000000000000000000000000000000000000000000000000000000000000000000000000000000000000000000000000000000000000000000000000000000007070000000000000000000000
310
00000000000000000000000000000000000000000000000000000000000000000000000000000000000000000000000000000000000000000000000000000000000000000000000000000000000000000000000000000000000000000000000000000000000000000000000000000000000000000000000000000000000000
310
00000000000000000000000000000000000000000000000000000000000000000000000000000000070700000000000000000000000000000000000000000000000000000000000000000000000000000000000000000000000000000000000000000000000000000000000000000000000000000000000000000000000000
310
00000000000000000000000000000000000000000000000000000000000000000000000000000000000000000000000000000000000000000000000000000000000000000000000000000000000000000000000000000000000000000007070000000000000000000000000000000000000000000000000000000000000000
310
00000000000000000000000000000000000000000000000000000000000000000000000000000000000000000000000000000000000000000000000000000000000000000000000000000000000000000000000000000000000000000000000000000000000000000000000000000000000000000000000000000000000000
310
00000000000000000000000000000000000000070700000000000000000000000000000000000000000000000000000000000000000000000000000000000000000000000000000000000000000000000000000000000000000000000000000000000000000000000000000000000000000000000000000000000000000000
310
00000000000000000000000000000000000000000000000000000000000000000000000000000000000000000000000000000000000000000000000000000000000000000000000007070000000000000000000000000000000000000000000000000000000000000000000000000000000000000000000000000000000000
310
00000000000000000000000000000000000000000000000000000000000000000000000000000000000000000000000000000000000000000000000000000000000000000000000000000000000000000000000000000000000000000000000000000000000000000000000000000000000000000000000000000007070707
310
00000000000000000000000000000000000000000000000000000000000000000000000000000000000000000000000000000000000000000000000000000000000000000000000000000000000000000000000000000000000000000000000000000000000000000000000000000000000000000000000000000000000000
310
00000000000000000000000000000000000000000000000000000000000000000000000000000000000000000000000000070707070000000000000000000000000000000000000000000000000000000000000000000000000000000000000000000000000000000000000000000000000000000000000000000000000000
310
00000000000000000000000000000000000000000000000000000000000000000000000000000000000000000000000000000000000000000000000000000000000000000000000000000000000000000000000000000000000000000000000000000000000007070707000000000000000000000000000000000000000000
310
00000000000000000000000000000000000000000000000000000000000000000000000000000000000000000000000000000000000000000000000000000000000000000000000000000000000000000000000000000000000000000000000000000000000000000000000000000000000000000000000000000000000000
310
00000000000000000000000000000000000000000000000000000000070007070000000000000000000000000000000000000000000000000000000000000000000000000000000000000000000000000000000000000000000000000000000000000000000000000000000000000000000000000000000000000000000000
310
00000000000000000000000000000000000000000000000000000000000000000000000000000000000000000000000000000000000000000000000000000000000000000000000000000000000000000007070707000000000000000000000000000000000000000000000000000000000000000000000000000000000000
310
00000000000000000000000000000000000000000000000000000000000000000000000000000000000000000000000000000000000000000000000000000000000000000000000000000000000000000000000000000000000000000000000000000000000000000000000000000000000000000000000000000000000000
310
00000000000000070707070000000000000000000000000000000000000000000000000000000000000000000000000000000000000000000000000000000000000000000000000000000000000000000000000000000000000000000000000000000000000000000000000000000000000000000000000000000000000000
310
00000000000000000000000000000000000000000000000000000000000000000000000000000000000000000000000000000000000000000000000007070707000000000000000000000000000000000000000000000000000000000000000000000000000000000000000000000000000000000000000000000000000000
310
00000000000000000000000000000000000000000000000000000000000000000000000000000000000000000000000000000000000000000000000000000000000000000000000000000000000000000000000000000000000000000000000000000000000000000000000000000000000707070700000000000000000000
310
00000000000000000000000000000000000000000000000000000000000000000000000000000000000000000000000000000000000000000000000000000000000000000000000000000000000000000000000000000000000000000000000000000000000000000000000000000000000000000000000000000000000000
310
00000000000000000000000000000000000000000000000000000000000000000000000000000007070707000000000000000000000000000000000000000000000000000000000000000000000000000000000000000000000000000000000000000000000000000000000000000000000000000000000000000000000000
310
00000000000000000000000000000000000000000000000000000000000000000000000000000000000000000000000000000000000000000000000000000000000000000000000000000000000000000000000000070707070707070707070700000000000000000000000000000000000000000000000000000000000000
310
00000000000000000000000000000000000000000000000000000000000000000000000000000000000000000000000000000000000000000000000000000000000000000000000000000000000000000000000000000000000000000000000000000000000000000000000000000000000000000000000000000000000000
310
00000000000000000000000707070707070707070707000000000000000000000000000000000000000000000000000000000000000000000000000000000000000000000000000000000000000000000000000000000000000000000000000000000000000000000000000000000000000000000000000000000000000000
310
00000000000000000000000000000000000000000000000000000000000000000000000000000000000000000000000000000000000000000000000000000000000000000000000707070700000000000000000000000000000000000000000000000000000000000000000000000000000000000000000000000000000000
310
00000000000000000000000000000000000000000000000000000000000000000000000000000000000000000000000000000000000000000000000000000000000000000000000000000000000000000000000000000000000000000000000000000000000000000000000000000000000000000000000000000000070707
310
07000000000000000000000000000000000000000000000000000000000000000000000000000000000000000000000000000000000000000000000000000000000000000000000000000000000000000000000000000000000000000000000000000000000000000000000000000000000000000000000000000000000000
310
00000000000000000000000000000000000000000000000000000000000000000000000000000000000000000000000000000707070700000000000000000000000000000000000000000000000000000000000000000000000000000000000000000000000000000000000000000000000000000000000000000000000000
310
00000000000000000000000000000000000000000000000000000000000000000000000000000000000000000000000000000000000000000000000000000000000000000000000000000000000000000000000000000000000000000000000000000000000000070707070000000000000000000000000000000000000000
310
00000000000000000000000000000000000000000000000000000000000000000000000000000000000000000000000000000000000000000000000000000000000000000000000000000000000000000000000000000000000000000000000000000000000000000000000000000000000000000000000000000000000000
310
00000000000000000000000000000000000000000000000000000000000707070700000000000000000000000000000000000000000000000000000000000000000000000000000000000000000000000000000000000000000000000000000000000000000000000000000000000000000000000000000000000000000000
310
00000000000000000000000000000000000000000000000000000000000000000000000000000000000000000000000000000000000000000000000000000000000000000000000000000000000000000000070707070000000000000000000000000000000000000000000000000000000000000000000000000000000000
310
00000000000000000000000000000000000000000000000000000000000000000000000000000000000000000000000000000000000000000000000000000000000000000000000000000000000000000000000000000000000000000000000000000000000000000000000000000000000000000000000000000000000000
310
00000000000000000707070700000000000000000000000000000000000000000000000000000000000000000000000000000000000000000000000000000000000000000000000000000000000000000000000000000000000000000000000000000000000000000000000000000000000000000000000000000000000000
310
00000000000000000000000000000000000000000000000000000000000000000000000000000000000000000000000000000000000000000000000000070707070000000000000000000000000000000000000000000000000000000000000000000000000000000000000000000000000000000000000000000000000000
310
00000000000000000000000000000000000000000000000000000000000000000000000000000000000000000000000000000000000000000000000000000000000000000000000000000000000000000000000000000000000000000000000000000000000000000000000000000000000007070707000000000000000000
310
00000000000000000000000000000000000000000000000000000000000000000000000000000000000000000000000000000000000000000000000000000000000000000000000000000000000000000000000000000000000000000000000000000000000000000000000000000000000000000000000000000000000000
310
00000000000000000000000000000000000000000000000000000000000000000000000000000000070707070000000000000000000000000000000000000000000000000000000000000000000000000000000000000000000000000000000000000000000000000000000000000000000000000000000000000000000000
310
00000000000000000000000000000000000000000000000000000000000000000000000000000000000000000000000000000000000000000000000000000000000000000000000000000000000000000000000000000000000000000007070707000000000000000000000000000000000000000000000000000000000000
310
00000000000000000000000000000000000000000000000000000000000000000000000000000000000000000000000000000000000000000000000000000000000000000000000000000000000000000000000000000000000000000000000000000000000000000000000000000000000000000000000000000000000000
310
00000000000000000000000000000000000000070707070000000000000000000000000000000000000000000000000000000000000000000000000000000000000000000000000000000000000000000000000000000000000000000000000000000000000000000000000000000000000000000000000000000000000000
310
00000000000000000000000000000000000000000000000000000000000000000000000000000000000000000000000000000000000000000000000000000000000000000000000000070707000000000000000000000000000000000000000000000000000000000000000000000000000000000000000000000000000000
310
00000000000000000000000000000000000000000000000000000000000000000000000000000000000000000000000000000000000000000000000000000000000000000000000000000000000000000000000000000000000000000000000000000000000000000000000000000000000000000000000000000000000707
310
07070000000000000000000000000000000000000000000000000000000000000000000000000000000000000000000000000000000000000000000000000000000000000000000000000000000000000000000000000000000000000000000000000000000000000000000000000000000000000000000000000000000000
310
00000000000000000000000000000000000000000000000000000000000000000000000000000000000000000000000000000007070700000000000000000000000000000000000000000000000000000000000000000000000000000000000000000000000000000000000000000000000000000000000000000000000000
310
00000000000000000000000000000000000000000000000000000000000000000000000000000000000000000000000000000000000000000000000000000000000000000000000000000000000000000000000000000000000000000000000000000000000000000707070000000000000000000000000000000000000000
310
00000000000000000000000000000000000000000000000000000000000000000000000000000000000000000000000000000000000000000000000000000000000000000000000000000000000000000000000000000000000000000000000000000000000000000000000000000000000000000000000000000000000000
310
00000000000000000000000000000000000000000000000000000000000007070700000000000000000000000000000000000000000000000000000000000000000000000000000000000000000000000000000000000000000000000000000000000000000000000000000000000000000000000000000000000000000000
310
00000000000000000000000000000000000000000000000000000000000000000000000000000000000000000000000000000000000000000000000000000000000000000000000000000000000000000000000707070000000000000000000000000000000000000000000000000000000000000000000000000000000000
310
00000000000000000000000000000000000000000000000000000000000000000000000000000000000000000000000000000000000000000000000000000000000000000000000000000000000000000000000000000000000000000000000000000000000000000000000000000000000000000000000000000000000000
310
00000000000000000700070700000000000000000000000000000000000000000000000000000000000000000000000000000000000000000000000000000000000000000000000000000000000000000000000000000000000000000000000000000000000000000000000000000000000000000000000000000000000000
310
00000000000000000000000000000000000000000000000000000000000000000000000000000000000000000000000000000000000000000000000000070707000000000000000000000000000000000000000000000000000000000000000000000000000000000000000000000000000000000000000000000000000000
310
00000000000000000000000000000000000000000000000000000000000000000000000000000000000000000000000000000000000000000000000000000000000000000000000000000000000000000000000000000000000000000000000000000000000000000000000000000000000700070700000000000000000000
310
00000000000000000000000000000000000000000000000000000000000000000000000000000000000000000000000000000000000000000000000000000000000000000000000000000000000000000000000000000000000000000000000000000000000000000000000000000000000000000000000000000000000000
310
00000000000000000000000000000000000000000000000000000000000000000000000000000700000707000000000000000000000000000000000000000000000000000000000000000000000000000000000000000000000000000000000000000000000000000000000000000000000000000000000000000000000000
310
00000000000000000000000000000000000000000000000000000000000000000000000000000000000000000000000000000000000000000000000000000000000000000000000000000000000000000000000000000000000000070007070700000000000000000000000000000000000000000000000000000000000000
310
00000000000000000000000000000000000000000000000000000000000000000000000000000000000000000000000000000000000000000000000000000000000000000000000000000000000000000000000000000000000000000000000000000000000000000000000000000000000000000000000000000000000000
310
00000000000000000000000000000000070700070707000000000000000000000000000000000000000000000000000000000000000000000000000000000000000000000000000000000000000000000000000000000000000000000000000000000000000000000000000000000000000000000000000000000000000000
310
00000000000000000000000000000000000000000000000000000000000000000000000000000000000000000000000000000000000000000000000000000000000000000707000700070700000000000000000000000000000000000000000000000000000000000000000000000000000000000000000000000000000000
310
00000000000000000000000000000000000000000000000000000000000000000000000000000000000000000000000000000000000000000000000000000000000000000000000000000000000000000000000000000000000000000000000000000000000000000000000000000000000000000000000007070707000007
310
07000000000000000000000000000000000000000000000000000000000000000000000000000000000000000000000000000000000000000000000000000000000000000000000000000000000000000000000000000000000000000000000000000000000000000000000000000000000000000000000000000000000000
310
00000000000000000000000000000000000000000000000000000000000000000000000000000000000000000007070707070000070700000000000000000000000000000000000000000000000000000000000000000000000000000000000000000000000000000000000000000000000000000000000000000000000000
310
00000000000000000000000000000000000000000000000000000000000000000000000000000000000000000000000000000000000000000000000000000000000000000000000000000000000000000000000000000000000000000000000000070707070000000007070000000000000000000000000000000000000000
310
00000000000000000000000000000000000000000000000000000000000000000000000000000000000000000000000000000000000000000000000000000000000000000000000000000000000000000000000000000000000000000000000000000000000000000000000000000000000000000000000000000000000000
310
00000000000000000000000000000000000000000000070707070700000000070700000000000000000000000000000000000000000000000000000000000000000000000000000000000000000000000000000000000000000000000000000000000000000000000000000000000000000000000000000000000000000000
310
00000000000000000000000000000000000000000000000000000000000000000000000000000000000000000000000000000000000000000000000000000000000000000000000000000007070700000000000007070000000000000000000000000000000000000000000000000000000000000000000000000000000000
310
00000000000000000000000000000000000000000000000000000000000000000000000000000000000000000000000000000000000000000000000000000000000000000000000000000000000000000000000000000000000000000000000000000000000000000000000000000000000000000000000000000000000000
310
00070700000000000000070707070000000000000000000000000000000000000000000000000000000000000000000000000000000000000000000000000000000000000000000000000000000000000000000000000000000000000000000000000000000000000000000000000000000000000000000000000000000000
310
00000000000000000000000000000000000000000000000000000000000000000000000000000000000000000000000000000000000000000000000000000007000007000000000000000000000000000000000000000000000000000000000000000000000000000000000000000000000000000000000000000000000000
310
00000000000000000000000000000000000000000000000000000000000000000000000000000000000000000000000000000000000000000000000000000000000000000000000000000000000000000000000000000000000000000000000000000000000000000000000000000000000000000700000700000000000000
310
00000000000000000000000000000000000000000000000000000000000000000000000000000000000000000000000000000000000000000000000000000000000000000000000000000000000000000000000000000000000000000000000000000000000000000000000000000000000000000000000000000000000000
310
00000000000000000000000000000000000000000000000000000000000000000000000000000000000007070707000000000000000000000000000000000000000000000000000000000000000000000000000000000000000000000000000000000000000000000000000000000000000000000000000000000000000000
310
00000000000000000000000000000000000000000000000000000000000000000000000000000000000000000000000000000000000000000000000000000000000000000000000000000000000000000000000000000000000000000000000707000000000000000000000000000000000000000000000000000000000000
310
00000000000000000000000000000000000000000000000000000000000000000000000000000000000000000000000000000000000000000000000000000000000000000000000000000000000000000000000000000000000000000000000000000000000000000000000000000000000000000000000000000000000000
310
000000000000000000000000000000000000000000000000000000000000000000000000000000000000000000000000000000000000000000000000000000000000000000000000000000000000000000000000000000000000000000000000000000000000000000000000
  0
ENDSEC
  0
EOF
