  0
SECTION
  2
HEADER
  9
$ACADVER
  1
AC1015
  9
$ACADMAINTVER
 70
     6
  9
$DWGCODEPAGE
  3
ANSI_1252
  9
$INSBASE
 10
0.0
 20
0.0
 30
0.0
  9
$EXTMIN
 10
0.364212223068
 20
-0.1305
 30
0.0
  9
$EXTMAX
 10
208.8217
 20
1403.1305
 30
0.0
  9
$LIMMIN
 10
0.0
 20
0.0
  9
$LIMMAX
 10
12.0
 20
9.0
  9
$ORTHOMODE
 70
     0
  9
$REGENMODE
 70
     1
  9
$FILLMODE
 70
     1
  9
$QTEXTMODE
 70
     0
  9
$MIRRTEXT
 70
     1
  9
$LTSCALE
 40
1.0
  9
$ATTMODE
 70
     1
  9
$TEXTSIZE
 40
0.2
  9
$TRACEWID
 40
0.05
  9
$TEXTSTYLE
  7
Standard
  9
$CLAYER
  8
0
  9
$CELTYPE
  6
ByBlock
  9
$CECOLOR
 62
   256
  9
$CELTSCALE
 40
1.0
  9
$DISPSILH
 70
     0
  9
$DIMSCALE
 40
1.0
  9
$DIMASZ
 40
0.18
  9
$DIMEXO
 40
0.0625
  9
$DIMDLI
 40
0.38
  9
$DIMRND
 40
0.0
  9
$DIMDLE
 40
0.0
  9
$DIMEXE
 40
0.18
  9
$DIMTP
 40
0.0
  9
$DIMTM
 40
0.0
  9
$DIMTXT
 40
0.18
  9
$DIMCEN
 40
0.09
  9
$DIMTSZ
 40
0.0
  9
$DIMTOL
 70
     0
  9
$DIMLIM
 70
     0
  9
$DIMTIH
 70
     1
  9
$DIMTOH
 70
     1
  9
$DIMSE1
 70
     0
  9
$DIMSE2
 70
     0
  9
$DIMTAD
 70
     0
  9
$DIMZIN
 70
     0
  9
$DIMBLK
  1

  9
$DIMASO
 70
     1
  9
$DIMSHO
 70
     1
  9
$DIMPOST
  1

  9
$DIMAPOST
  1

  9
$DIMALT
 70
     0
  9
$DIMALTD
 70
     2
  9
$DIMALTF
 40
25.4
  9
$DIMLFAC
 40
1.0
  9
$DIMTOFL
 70
     0
  9
$DIMTVP
 40
0.0
  9
$DIMTIX
 70
     0
  9
$DIMSOXD
 70
     0
  9
$DIMSAH
 70
     0
  9
$DIMBLK1
  1

  9
$DIMBLK2
  1

  9
$DIMSTYLE
  2
Standard
  9
$DIMCLRD
 70
     0
  9
$DIMCLRE
 70
     0
  9
$DIMCLRT
 70
     0
  9
$DIMTFAC
 40
1.0
  9
$DIMGAP
 40
0.09
  9
$DIMJUST
 70
     0
  9
$DIMSD1
 70
     0
  9
$DIMSD2
 70
     0
  9
$DIMTOLJ
 70
     1
  9
$DIMTZIN
 70
     0
  9
$DIMALTZ
 70
     0
  9
$DIMALTTZ
 70
     0
  9
$DIMUPT
 70
     0
  9
$DIMDEC
 70
     4
  9
$DIMTDEC
 70
     4
  9
$DIMALTU
 70
     2
  9
$DIMALTTD
 70
     2
  9
$DIMTXSTY
  7
Standard
  9
$DIMAUNIT
 70
     0
  9
$DIMADEC
 70
     0
  9
$DIMALTRND
 40
0.0
  9
$DIMAZIN
 70
     0
  9
$DIMDSEP
 70
    46
  9
$DIMATFIT
 70
     3
  9
$DIMFRAC
 70
     0
  9
$DIMLDRBLK
  1

  9
$DIMLUNIT
 70
     2
  9
$DIMLWD
 70
    -2
  9
$DIMLWE
 70
    -2
  9
$DIMTMOVE
 70
     2
  9
$LUNITS
 70
     2
  9
$LUPREC
 70
     4
  9
$SKETCHINC
 40
0.1
  9
$FILLETRAD
 40
0.5
  9
$AUNITS
 70
     0
  9
$AUPREC
 70
     0
  9
$MENU
  1
.
  9
$ELEVATION
 40
0.0
  9
$PELEVATION
 40
0.0
  9
$THICKNESS
 40
0.0
  9
$LIMCHECK
 70
     0
  9
$CHAMFERA
 40
0.5
  9
$CHAMFERB
 40
0.5
  9
$CHAMFERC
 40
1.0
  9
$CHAMFERD
 40
0.0
  9
$SKPOLY
 70
     0
  9
$TDCREATE
 40
2456462.74162037
  9
$TDUCREATE
 40
2456462.658287037
  9
$TDUPDATE
 40
2456462.744139178
  9
$TDUUPDATE
 40
2456462.660805845
  9
$TDINDWG
 40
0.0025181019
  9
$TDUSRTIMER
 40
0.0025181019
  9
$USRTIMER
 70
     1
  9
$ANGBASE
 50
0.0
  9
$ANGDIR
 70
     0
  9
$PDMODE
 70
     0
  9
$PDSIZE
 40
0.0
  9
$PLINEWID
 40
0.0
  9
$SPLFRAME
 70
     0
  9
$SPLINETYPE
 70
     6
  9
$SPLINESEGS
 70
     8
  9
$HANDSEED
  5
1B90
  9
$SURFTAB1
 70
     6
  9
$SURFTAB2
 70
     6
  9
$SURFTYPE
 70
     6
  9
$SURFU
 70
     6
  9
$SURFV
 70
     6
  9
$UCSBASE
  2

  9
$UCSNAME
  2

  9
$UCSORG
 10
0.0
 20
0.0
 30
0.0
  9
$UCSXDIR
 10
1.0
 20
0.0
 30
0.0
  9
$UCSYDIR
 10
0.0
 20
1.0
 30
0.0
  9
$UCSORTHOREF
  2

  9
$UCSORTHOVIEW
 70
     0
  9
$UCSORGTOP
 10
0.0
 20
0.0
 30
0.0
  9
$UCSORGBOTTOM
 10
0.0
 20
0.0
 30
0.0
  9
$UCSORGLEFT
 10
0.0
 20
0.0
 30
0.0
  9
$UCSORGRIGHT
 10
0.0
 20
0.0
 30
0.0
  9
$UCSORGFRONT
 10
0.0
 20
0.0
 30
0.0
  9
$UCSORGBACK
 10
0.0
 20
0.0
 30
0.0
  9
$PUCSBASE
  2

  9
$PUCSNAME
  2

  9
$PUCSORG
 10
0.0
 20
0.0
 30
0.0
  9
$PUCSXDIR
 10
1.0
 20
0.0
 30
0.0
  9
$PUCSYDIR
 10
0.0
 20
1.0
 30
0.0
  9
$PUCSORTHOREF
  2

  9
$PUCSORTHOVIEW
 70
     0
  9
$PUCSORGTOP
 10
0.0
 20
0.0
 30
0.0
  9
$PUCSORGBOTTOM
 10
0.0
 20
0.0
 30
0.0
  9
$PUCSORGLEFT
 10
0.0
 20
0.0
 30
0.0
  9
$PUCSORGRIGHT
 10
0.0
 20
0.0
 30
0.0
  9
$PUCSORGFRONT
 10
0.0
 20
0.0
 30
0.0
  9
$PUCSORGBACK
 10
0.0
 20
0.0
 30
0.0
  9
$USERI1
 70
     0
  9
$USERI2
 70
     0
  9
$USERI3
 70
     0
  9
$USERI4
 70
     0
  9
$USERI5
 70
     0
  9
$USERR1
 40
0.0
  9
$USERR2
 40
0.0
  9
$USERR3
 40
0.0
  9
$USERR4
 40
0.0
  9
$USERR5
 40
0.0
  9
$WORLDVIEW
 70
     1
  9
$SHADEDGE
 70
     3
  9
$SHADEDIF
 70
    70
  9
$TILEMODE
 70
     1
  9
$MAXACTVP
 70
    64
  9
$PINSBASE
 10
0.0
 20
0.0
 30
0.0
  9
$PLIMCHECK
 70
     0
  9
$PEXTMIN
 10
1.000000000000E+20
 20
1.000000000000E+20
 30
1.000000000000E+20
  9
$PEXTMAX
 10
-1.000000000000E+20
 20
-1.000000000000E+20
 30
-1.000000000000E+20
  9
$PLIMMIN
 10
0.0
 20
0.0
  9
$PLIMMAX
 10
12.0
 20
9.0
  9
$UNITMODE
 70
     0
  9
$VISRETAIN
 70
     1
  9
$PLINEGEN
 70
     0
  9
$PSLTSCALE
 70
     1
  9
$TREEDEPTH
 70
  3020
  9
$CMLSTYLE
  2
Standard
  9
$CMLJUST
 70
     0
  9
$CMLSCALE
 40
1.0
  9
$PROXYGRAPHICS
 70
     1
  9
$MEASUREMENT
 70
     0
  9
$CELWEIGHT
370
    -1
  9
$ENDCAPS
280
     0
  9
$JOINSTYLE
280
     0
  9
$LWDISPLAY
290
     0
  9
$INSUNITS
 70
     0
  9
$HYPERLINKBASE
  1

  9
$STYLESHEET
  1

  9
$XEDIT
290
     1
  9
$CEPSNTYPE
380
     0
  9
$PSTYLEMODE
290
     1
  9
$FINGERPRINTGUID
  2
{392A5F38-28F6-4187-BDD2-7B892DE7EF84}
  9
$VERSIONGUID
  2
{FAEB1C32-E019-11D5-929B-00C0DF256EC4}
  9
$EXTNAMES
290
     1
  9
$PSVPSCALE
 40
0.0
  9
$OLESTARTUP
290
     0
  0
ENDSEC
  0
SECTION
  2
CLASSES
  0
CLASS
  1
ACDBDICTIONARYWDFLT
  2
AcDbDictionaryWithDefault
  3
ObjectDBX Classes
 90
        0
280
     0
281
     0
  0
CLASS
  1
SCALE
  2
AcDbScale
  3
ObjectDBX Classes
 90
     1153
280
     0
281
     0
  0
CLASS
  1
DICTIONARYVAR
  2
AcDbDictionaryVar
  3
ObjectDBX Classes
 90
        0
280
     0
281
     0
  0
CLASS
  1
ACDBPLACEHOLDER
  2
AcDbPlaceHolder
  3
ObjectDBX Classes
 90
        0
280
     0
281
     0
  0
CLASS
  1
LAYOUT
  2
AcDbLayout
  3
ObjectDBX Classes
 90
        0
280
     0
281
     0
  0
ENDSEC
  0
SECTION
  2
TABLES
  0
TABLE
  2
VPORT
  5
8
330
0
100
AcDbSymbolTable
 70
     1
  0
VPORT
  5
E7F
330
8
100
AcDbSymbolTableRecord
100
AcDbViewportTableRecord
  2
*Active
 70
     0
 10
0.0
 20
0.0
 11
1.0
 21
1.0
 12
104.41085
 22
701.5
 13
0.0
 23
0.0
 14
0.5
 24
0.5
 15
0.5
 25
0.5
 16
0.0
 26
0.0
 36
1.0
 17
0.0
 27
0.0
 37
0.0
 40
1431.32622
 41
1.863448275862
 42
50.0
 43
0.0
 44
0.0
 50
0.0
 51
0.0
 71
    16
 72
   100
 73
     1
 74
     3
 75
     0
 76
     0
 77
     0
 78
     0
281
     0
 65
     1
110
0.0
120
0.0
130
0.0
111
1.0
121
0.0
131
0.0
112
0.0
122
1.0
132
0.0
 79
     0
146
0.0
  0
ENDTAB
  0
TABLE
  2
LTYPE
  5
5
330
0
100
AcDbSymbolTable
 70
     1
  0
LTYPE
  5
14
330
5
100
AcDbSymbolTableRecord
100
AcDbLinetypeTableRecord
  2
ByBlock
 70
     0
  3

 72
    65
 73
     0
 40
0.0
  0
LTYPE
  5
15
330
5
100
AcDbSymbolTableRecord
100
AcDbLinetypeTableRecord
  2
ByLayer
 70
     0
  3

 72
    65
 73
     0
 40
0.0
  0
LTYPE
  5
16
330
5
100
AcDbSymbolTableRecord
100
AcDbLinetypeTableRecord
  2
Continuous
 70
     0
  3
Solid line
 72
    65
 73
     0
 40
0.0
  0
ENDTAB
  0
TABLE
  2
LAYER
  5
2
330
0
100
AcDbSymbolTable
 70
     1
  0
LAYER
  5
10
330
2
100
AcDbSymbolTableRecord
100
AcDbLayerTableRecord
  2
0
 70
     0
 62
     7
  6
Continuous
370
    -3
390
F
  0
ENDTAB
  0
TABLE
  2
STYLE
  5
3
330
0
100
AcDbSymbolTable
 70
     1
  0
STYLE
  5
11
330
3
100
AcDbSymbolTableRecord
100
AcDbTextStyleTableRecord
  2
Standard
 70
     0
 40
0.0
 41
1.0
 50
0.0
 71
     0
 42
0.2
  3
txt
  4

  0
ENDTAB
  0
TABLE
  2
VIEW
  5
6
330
0
100
AcDbSymbolTable
 70
     0
  0
ENDTAB
  0
TABLE
  2
UCS
  5
7
330
0
100
AcDbSymbolTable
 70
     0
  0
ENDTAB
  0
TABLE
  2
APPID
  5
9
330
0
100
AcDbSymbolTable
 70
     1
  0
APPID
  5
12
330
9
100
AcDbSymbolTableRecord
100
AcDbRegAppTableRecord
  2
ACAD
 70
     0
  0
ENDTAB
  0
TABLE
  2
DIMSTYLE
  5
A
330
0
100
AcDbSymbolTable
 70
     1
100
AcDbDimStyleTable
  0
DIMSTYLE
105
20
330
A
100
AcDbSymbolTableRecord
100
AcDbDimStyleTableRecord
  2
Standard
 70
     0
340
11
  0
ENDTAB
  0
TABLE
  2
BLOCK_RECORD
  5
1
330
0
100
AcDbSymbolTable
 70
     2
  0
BLOCK_RECORD
  5
1D
330
1
100
AcDbSymbolTableRecord
100
AcDbBlockTableRecord
  2
*Model_Space
340
1E
  0
BLOCK_RECORD
  5
1B
330
1
100
AcDbSymbolTableRecord
100
AcDbBlockTableRecord
  2
*Paper_Space
340
1C
  0
ENDTAB
  0
ENDSEC
  0
SECTION
  2
BLOCKS
  0
BLOCK
  5
E82
330
1D
100
AcDbEntity
  8
0
100
AcDbBlockBegin
  2
*Model_Space
 70
     0
 10
0.0
 20
0.0
 30
0.0
  3
*Model_Space
  1
*Model_Space
  0
ENDBLK
  5
E83
330
1D
100
AcDbEntity
  8
0
100
AcDbBlockEnd
  0
BLOCK
  5
E80
330
1B
100
AcDbEntity
 67
     1
  8
0
100
AcDbBlockBegin
  2
*Paper_Space
 70
     0
 10
0.0
 20
0.0
 30
0.0
  3
*Paper_Space
  1
*Paper_Space
  0
ENDBLK
  5
E81
330
1B
100
AcDbEntity
 67
     1
  8
0
100
AcDbBlockEnd
  0
ENDSEC
  0
SECTION
  2
ENTITIES
  0
LINE
  5
FD
330
1D
100
AcDbEntity
  8
0
100
AcDbLine
 10
140.7436
 20
4.2025
 30
0.0
 11
141.0248
 21
2.2125
 31
0.0
  0
LINE
  5
FF
330
1D
100
AcDbEntity
  8
0
100
AcDbLine
 10
140.7436
 20
4.2025
 30
0.0
 11
141.0564
 21
5.5485
 31
0.0
  0
LINE
  5
10B
330
1D
100
AcDbEntity
  8
0
100
AcDbLine
 10
141.0564
 20
5.5485
 30
0.0
 11
141.7677
 21
6.7415
 31
0.0
  0
LINE
  5
10C
330
1D
100
AcDbEntity
  8
0
100
AcDbLine
 10
141.0248
 20
2.2125
 30
0.0
 11
141.7141
 21
1.0815
 31
0.0
  0
LINE
  5
112
330
1D
100
AcDbEntity
  8
0
100
AcDbLine
 10
141.7677
 20
6.7415
 30
0.0
 11
142.979
 21
7.9295
 31
0.0
  0
LINE
  5
113
330
1D
100
AcDbEntity
  8
0
100
AcDbLine
 10
141.7141
 20
1.0815
 30
0.0
 11
142.9076
 21
0.3955
 31
0.0
  0
LINE
  5
117
330
1D
100
AcDbEntity
  8
0
100
AcDbLine
 10
142.979
 20
7.9295
 30
0.0
 11
144.5889
 21
8.9635
 31
0.0
  0
LINE
  5
118
330
1D
100
AcDbEntity
  8
0
100
AcDbLine
 10
142.9076
 20
0.3955
 30
0.0
 11
144.504
 21
0.0055
 31
0.0
  0
LINE
  5
CE2
330
1D
100
AcDbEntity
  8
0
100
AcDbLine
 10
144.5889
 20
8.9635
 30
0.0
 11
146.3955
 21
9.6585
 31
0.0
  0
LINE
  5
CE3
330
1D
100
AcDbEntity
  8
0
100
AcDbLine
 10
144.504
 20
0.0055
 30
0.0
 11
146.3032
 21
-0.0865
 31
0.0
  0
LINE
  5
CE4
330
1D
100
AcDbEntity
  8
0
100
AcDbLine
 10
146.3032
 20
-0.0865
 30
0.0
 11
148.2029
 21
-0.1305
 31
0.0
  0
LINE
  5
CE9
330
1D
100
AcDbEntity
  8
0
100
AcDbLine
 10
146.3955
 20
9.6585
 30
0.0
 11
148.2976
 21
9.8685
 31
0.0
  0
LINE
  5
CEB
330
1D
100
AcDbEntity
  8
0
100
AcDbLine
 10
150.1031
 20
-0.1225
 30
0.0
 11
151.9037
 21
-0.0645
 31
0.0
  0
LINE
  5
CEC
330
1D
100
AcDbEntity
  8
0
100
AcDbLine
 10
148.2029
 20
-0.1305
 30
0.0
 11
150.1031
 21
-0.1225
 31
0.0
  0
LINE
  5
CED
330
1D
100
AcDbEntity
  8
0
100
AcDbLine
 10
153.5072
 20
0.2955
 30
0.0
 11
154.7135
 21
0.9585
 31
0.0
  0
LINE
  5
CEE
330
1D
100
AcDbEntity
  8
0
100
AcDbLine
 10
151.9037
 20
-0.0645
 30
0.0
 11
153.5072
 21
0.2955
 31
0.0
  0
LINE
  5
CEF
330
1D
100
AcDbEntity
  8
0
100
AcDbLine
 10
155.4241
 20
2.0765
 30
0.0
 11
155.7429
 21
4.0595
 31
0.0
  0
LINE
  5
CF0
330
1D
100
AcDbEntity
  8
0
100
AcDbLine
 10
154.7135
 20
0.9585
 30
0.0
 11
155.4241
 21
2.0765
 31
0.0
  0
LINE
  5
CF1
330
1D
100
AcDbEntity
  8
0
100
AcDbLine
 10
155.4557
 20
5.4125
 30
0.0
 11
155.7429
 21
4.0595
 31
0.0
  0
LINE
  5
CF3
330
1D
100
AcDbEntity
  8
0
100
AcDbLine
 10
154.7671
 20
6.6185
 30
0.0
 11
155.4557
 21
5.4125
 31
0.0
  0
LINE
  5
CF4
330
1D
100
AcDbEntity
  8
0
100
AcDbLine
 10
153.5785
 20
7.8285
 30
0.0
 11
154.7671
 21
6.6185
 31
0.0
  0
LINE
  5
CF5
330
1D
100
AcDbEntity
  8
0
100
AcDbLine
 10
151.9885
 20
8.8935
 30
0.0
 11
153.5785
 21
7.8285
 31
0.0
  0
LINE
  5
CF6
330
1D
100
AcDbEntity
  8
0
100
AcDbLine
 10
150.1953
 20
9.6225
 30
0.0
 11
151.9885
 21
8.8935
 31
0.0
  0
LINE
  5
CF7
330
1D
100
AcDbEntity
  8
0
100
AcDbLine
 10
148.2976
 20
9.8685
 30
0.0
 11
150.1953
 21
9.6225
 31
0.0
  0
LINE
  5
E32
330
1D
100
AcDbEntity
  8
0
100
AcDbLine
 10
157.0627
 20
1402.7455
 30
0.0
 11
157.4587
 21
1402.7455
 31
0.0
  0
LINE
  5
E33
330
1D
100
AcDbEntity
  8
0
100
AcDbLine
 10
157.0627
 20
1402.7455
 30
0.0
 11
157.3267
 21
1403.1305
 31
0.0
  0
LINE
  5
E34
330
1D
100
AcDbEntity
  8
0
100
AcDbLine
 10
157.4587
 20
1402.7455
 30
0.0
 11
158.5147
 21
1402.7455
 31
0.0
  0
LINE
  5
E35
330
1D
100
AcDbEntity
  8
0
100
AcDbLine
 10
157.3267
 20
1403.1305
 30
0.0
 11
157.7227
 21
1403.1305
 31
0.0
  0
LINE
  5
E36
330
1D
100
AcDbEntity
  8
0
100
AcDbLine
 10
157.7227
 20
1403.1305
 30
0.0
 11
158.7787
 21
1403.1305
 31
0.0
  0
LINE
  5
E37
330
1D
100
AcDbEntity
  8
0
100
AcDbLine
 10
158.7787
 20
1403.1305
 30
0.0
 11
160.4947
 21
1403.1305
 31
0.0
  0
LINE
  5
E38
330
1D
100
AcDbEntity
  8
0
100
AcDbLine
 10
158.5147
 20
1402.7455
 30
0.0
 11
160.2747
 21
1402.7455
 31
0.0
  0
LINE
  5
E39
330
1D
100
AcDbEntity
  8
0
100
AcDbLine
 10
160.2747
 20
1402.7455
 30
0.0
 11
162.6067
 21
1402.7455
 31
0.0
  0
LINE
  5
E43
330
1D
100
AcDbEntity
  8
0
100
AcDbLine
 10
160.4947
 20
1403.1305
 30
0.0
 11
162.7387
 21
1403.1305
 31
0.0
  0
LINE
  5
E44
330
1D
100
AcDbEntity
  8
0
100
AcDbLine
 10
162.7387
 20
1403.1305
 30
0.0
 11
165.2907
 21
1403.1305
 31
0.0
  0
LINE
  5
E45
330
1D
100
AcDbEntity
  8
0
100
AcDbLine
 10
162.6067
 20
1402.7455
 30
0.0
 11
165.2467
 21
1402.7455
 31
0.0
  0
LINE
  5
E59
330
1D
100
AcDbEntity
  8
0
100
AcDbLine
 10
168.0627
 20
1403.1305
 30
0.0
 11
170.8347
 21
1403.1305
 31
0.0
  0
LINE
  5
E5D
330
1D
100
AcDbEntity
  8
0
100
AcDbLine
 10
178.6667
 20
1402.7455
 30
0.0
 11
179.0627
 21
1402.7455
 31
0.0
  0
LINE
  5
E5F
330
1D
100
AcDbEntity
  8
0
100
AcDbLine
 10
177.6107
 20
1402.7455
 30
0.0
 11
178.6667
 21
1402.7455
 31
0.0
  0
LINE
  5
E60
330
1D
100
AcDbEntity
  8
0
100
AcDbLine
 10
175.8507
 20
1402.7455
 30
0.0
 11
177.6107
 21
1402.7455
 31
0.0
  0
LINE
  5
E61
330
1D
100
AcDbEntity
  8
0
100
AcDbLine
 10
173.5187
 20
1402.7455
 30
0.0
 11
175.8507
 21
1402.7455
 31
0.0
  0
LINE
  5
E62
330
1D
100
AcDbEntity
  8
0
100
AcDbLine
 10
178.7987
 20
1403.1305
 30
0.0
 11
179.0627
 21
1402.7455
 31
0.0
  0
LINE
  5
E63
330
1D
100
AcDbEntity
  8
0
100
AcDbLine
 10
178.4027
 20
1403.1305
 30
0.0
 11
178.7987
 21
1403.1305
 31
0.0
  0
LINE
  5
E64
330
1D
100
AcDbEntity
  8
0
100
AcDbLine
 10
177.3467
 20
1403.1305
 30
0.0
 11
178.4027
 21
1403.1305
 31
0.0
  0
LINE
  5
E65
330
1D
100
AcDbEntity
  8
0
100
AcDbLine
 10
175.6307
 20
1403.1305
 30
0.0
 11
177.3467
 21
1403.1305
 31
0.0
  0
LINE
  5
E66
330
1D
100
AcDbEntity
  8
0
100
AcDbLine
 10
173.3867
 20
1403.1305
 30
0.0
 11
175.6307
 21
1403.1305
 31
0.0
  0
LINE
  5
E67
330
1D
100
AcDbEntity
  8
0
100
AcDbLine
 10
170.8347
 20
1403.1305
 30
0.0
 11
173.3867
 21
1403.1305
 31
0.0
  0
LINE
  5
E68
330
1D
100
AcDbEntity
  8
0
100
AcDbLine
 10
170.8787
 20
1402.7455
 30
0.0
 11
173.5187
 21
1402.7455
 31
0.0
  0
LINE
  5
E69
330
1D
100
AcDbEntity
  8
0
100
AcDbLine
 10
168.0627
 20
1402.7455
 30
0.0
 11
170.8787
 21
1402.7455
 31
0.0
  0
LINE
  5
E6A
330
1D
100
AcDbEntity
  8
0
100
AcDbLine
 10
165.2907
 20
1403.1305
 30
0.0
 11
168.0627
 21
1403.1305
 31
0.0
  0
LINE
  5
E6B
330
1D
100
AcDbEntity
  8
0
100
AcDbLine
 10
165.2467
 20
1402.7455
 30
0.0
 11
168.0627
 21
1402.7455
 31
0.0
  0
LINE
  5
FE1
330
1D
100
AcDbEntity
  8
0
100
AcDbLine
 10
140.1899
 20
89.949365118347
 30
0.0
 11
140.1899
 21
91.135470525381
 31
0.0
  0
LINE
  5
FE2
330
1D
100
AcDbEntity
  8
0
100
AcDbLine
 10
140.3556
 20
89.9478
 30
0.0
 11
141.9556
 21
89.9326
 31
0.0
  0
LINE
  5
FE3
330
1D
100
AcDbEntity
  8
0
100
AcDbLine
 10
139.7715
 20
59.952
 30
0.0
 11
140.0715
 21
59.9491
 31
0.0
  0
LINE
  5
FE4
330
1D
100
AcDbEntity
  8
0
100
AcDbLine
 10
140.1899
 20
91.135470525381
 30
0.0
 11
140.1899
 21
89.949365118347
 31
0.0
  0
LINE
  5
FE5
330
1D
100
AcDbEntity
  8
0
100
AcDbLine
 10
139.0557
 20
89.9601
 30
0.0
 11
139.4557
 21
89.9563
 31
0.0
  0
LINE
  5
FE6
330
1D
100
AcDbEntity
  8
0
100
AcDbLine
 10
139.4557
 20
89.9563
 30
0.0
 11
140.1899
 21
89.949365118347
 31
0.0
  0
LINE
  5
FE7
330
1D
100
AcDbEntity
  8
0
100
AcDbLine
 10
139.4557
 20
89.9563
 30
0.0
 11
140.3556
 21
89.9478
 31
0.0
  0
LINE
  5
FE8
330
1D
100
AcDbEntity
  8
0
100
AcDbLine
 10
138.0368
 20
87.9696
 30
0.0
 11
139.7715
 21
59.952
 31
0.0
  0
LINE
  5
FE9
330
1D
100
AcDbEntity
  8
0
100
AcDbLine
 10
138.0368
 20
87.9696
 30
0.0
 11
139.0557
 21
89.9601
 31
0.0
  0
LINE
  5
FEA
330
1D
100
AcDbEntity
  8
0
100
AcDbLine
 10
140.0715
 20
59.9491
 30
0.0
 11
140.9715
 21
59.9406
 31
0.0
  0
LINE
  5
FEB
330
1D
100
AcDbEntity
  8
0
100
AcDbLine
 10
140.7436
 20
4.2025
 30
0.0
 11
141.0248
 21
2.2125
 31
0.0
  0
LINE
  5
FEC
330
1D
100
AcDbEntity
  8
0
100
AcDbLine
 10
140.7436
 20
4.2025
 30
0.0
 11
141.271499524537
 21
59.937749800931
 31
0.0
  0
LINE
  5
FED
330
1D
100
AcDbEntity
  8
0
100
AcDbLine
 10
140.7436
 20
4.2025
 30
0.0
 11
141.0564
 21
5.5485
 31
0.0
  0
LINE
  5
FEE
330
1D
100
AcDbEntity
  8
0
100
AcDbLine
 10
141.0564
 20
5.5485
 30
0.0
 11
141.7677
 21
6.7415
 31
0.0
  0
LINE
  5
FEF
330
1D
100
AcDbEntity
  8
0
100
AcDbLine
 10
141.0248
 20
2.2125
 30
0.0
 11
141.7141
 21
1.0815
 31
0.0
  0
LINE
  5
FF0
330
1D
100
AcDbEntity
  8
0
100
AcDbLine
 10
141.7677
 20
6.7415
 30
0.0
 11
142.979
 21
7.9295
 31
0.0
  0
LINE
  5
FF1
330
1D
100
AcDbEntity
  8
0
100
AcDbLine
 10
141.7141
 20
1.0815
 30
0.0
 11
142.9076
 21
0.3955
 31
0.0
  0
LINE
  5
FF2
330
1D
100
AcDbEntity
  8
0
100
AcDbLine
 10
141.9556
 20
89.9326
 30
0.0
 11
144.0555
 21
89.9127
 31
0.0
  0
LINE
  5
FF3
330
1D
100
AcDbEntity
  8
0
100
AcDbLine
 10
142.3714
 20
59.9273
 30
0.0
 11
144.2713
 21
59.9093
 31
0.0
  0
LINE
  5
FF4
330
1D
100
AcDbEntity
  8
0
100
AcDbLine
 10
140.9715
 20
59.9406
 30
0.0
 11
141.271499524537
 21
59.937749800931
 31
0.0
  0
LINE
  5
FF5
330
1D
100
AcDbEntity
  8
0
100
AcDbLine
 10
140.9715
 20
59.9406
 30
0.0
 11
142.3714
 21
59.9273
 31
0.0
  0
LINE
  5
FF6
330
1D
100
AcDbEntity
  8
0
100
AcDbLine
 10
142.979
 20
7.9295
 30
0.0
 11
144.5889
 21
8.9635
 31
0.0
  0
LINE
  5
FF7
330
1D
100
AcDbEntity
  8
0
100
AcDbLine
 10
142.9076
 20
0.3955
 30
0.0
 11
144.504
 21
0.0055
 31
0.0
  0
LINE
  5
FF8
330
1D
100
AcDbEntity
  8
0
100
AcDbLine
 10
79.0627
 20
151.1305
 30
0.0
 11
79.5617
 21
153.1305
 31
0.0
  0
LINE
  5
FF9
330
1D
100
AcDbEntity
  8
0
100
AcDbLine
 10
79.0627
 20
151.1305
 30
0.0
 11
79.5617
 21
153.1305
 31
0.0
  0
LINE
  5
FFA
330
1D
100
AcDbEntity
  8
0
100
AcDbLine
 10
79.5617
 20
153.1305
 30
0.0
 11
80.0507
 21
153.1305
 31
0.0
  0
LINE
  5
FFB
330
1D
100
AcDbEntity
  8
0
100
AcDbLine
 10
144.0555
 20
89.9127
 30
0.0
 11
146.4554
 21
89.89
 31
0.0
  0
LINE
  5
FFC
330
1D
100
AcDbEntity
  8
0
100
AcDbLine
 10
144.5889
 20
8.9635
 30
0.0
 11
146.3955
 21
9.6585
 31
0.0
  0
LINE
  5
FFD
330
1D
100
AcDbEntity
  8
0
100
AcDbLine
 10
144.504
 20
0.0055
 30
0.0
 11
146.3032
 21
-0.0865
 31
0.0
  0
LINE
  5
FFE
330
1D
100
AcDbEntity
  8
0
100
AcDbLine
 10
146.3032
 20
-0.0865
 30
0.0
 11
148.2029
 21
-0.1305
 31
0.0
  0
LINE
  5
FFF
330
1D
100
AcDbEntity
  8
0
100
AcDbLine
 10
144.2713
 20
59.9093
 30
0.0
 11
146.4712
 21
59.8885
 31
0.0
  0
LINE
  5
1000
330
1D
100
AcDbEntity
  8
0
100
AcDbLine
 10
148.2029
 20
-0.1305
 30
0.0
 11
150.1031
 21
-0.1225
 31
0.0
  0
LINE
  5
1001
330
1D
100
AcDbEntity
  8
0
100
AcDbLine
 10
148.2976
 20
9.8685
 30
0.0
 11
150.1953
 21
9.6225
 31
0.0
  0
LINE
  5
1002
330
1D
100
AcDbEntity
  8
0
100
AcDbLine
 10
146.480860240613
 20
59.888408433738
 30
0.0
 11
146.8712
 21
59.8847
 31
0.0
  0
LINE
  5
1003
330
1D
100
AcDbEntity
  8
0
100
AcDbLine
 10
146.8712
 20
59.8847
 30
0.0
 11
148.7711
 21
59.8667
 31
0.0
  0
LINE
  5
1004
330
1D
100
AcDbEntity
  8
0
100
AcDbLine
 10
146.3955
 20
9.6585
 30
0.0
 11
148.2976
 21
9.8685
 31
0.0
  0
LINE
  5
1005
330
1D
100
AcDbEntity
  8
0
100
AcDbLine
 10
146.4554
 20
89.89
 30
0.0
 11
149.0552
 21
89.8654
 31
0.0
  0
LINE
  5
1006
330
1D
100
AcDbEntity
  8
0
100
AcDbLine
 10
146.4712
 20
59.8885
 30
0.0
 11
148.7711
 21
59.8667
 31
0.0
  0
LINE
  5
1007
330
1D
100
AcDbEntity
  8
0
100
AcDbLine
 10
151.9037
 20
-0.0645
 30
0.0
 11
153.5072
 21
0.2955
 31
0.0
  0
LINE
  5
1008
330
1D
100
AcDbEntity
  8
0
100
AcDbLine
 10
150.1031
 20
-0.1225
 30
0.0
 11
151.9037
 21
-0.0645
 31
0.0
  0
LINE
  5
1009
330
1D
100
AcDbEntity
  8
0
100
AcDbLine
 10
154.7135
 20
0.9585
 30
0.0
 11
155.4241
 21
2.0765
 31
0.0
  0
LINE
  5
100A
330
1D
100
AcDbEntity
  8
0
100
AcDbLine
 10
153.5072
 20
0.2955
 30
0.0
 11
154.7135
 21
0.9585
 31
0.0
  0
LINE
  5
100B
330
1D
100
AcDbEntity
  8
0
100
AcDbLine
 10
155.4241
 20
2.0765
 30
0.0
 11
155.7429
 21
4.0595
 31
0.0
  0
LINE
  5
100C
330
1D
100
AcDbEntity
  8
0
100
AcDbLine
 10
155.4557
 20
5.4125
 30
0.0
 11
155.7429
 21
4.0595
 31
0.0
  0
LINE
  5
100D
330
1D
100
AcDbEntity
  8
0
100
AcDbLine
 10
155.7429
 20
4.0595
 30
0.0
 11
156.2708
 21
59.7957
 31
0.0
  0
LINE
  5
100E
330
1D
100
AcDbEntity
  8
0
100
AcDbLine
 10
154.7671
 20
6.6185
 30
0.0
 11
155.4557
 21
5.4125
 31
0.0
  0
LINE
  5
100F
330
1D
100
AcDbEntity
  8
0
100
AcDbLine
 10
153.5785
 20
7.8285
 30
0.0
 11
154.7671
 21
6.6185
 31
0.0
  0
LINE
  5
1010
330
1D
100
AcDbEntity
  8
0
100
AcDbLine
 10
151.9885
 20
8.8935
 30
0.0
 11
153.5785
 21
7.8285
 31
0.0
  0
LINE
  5
1011
330
1D
100
AcDbEntity
  8
0
100
AcDbLine
 10
150.1953
 20
9.6225
 30
0.0
 11
151.9885
 21
8.8935
 31
0.0
  0
LINE
  5
1012
330
1D
100
AcDbEntity
  8
0
100
AcDbLine
 10
157.7707
 20
59.7815
 30
0.0
 11
160.0358
 21
87.7613
 31
0.0
  0
LINE
  5
1013
330
1D
100
AcDbEntity
  8
0
100
AcDbLine
 10
155.9708
 20
59.7985
 30
0.0
 11
156.2708
 21
59.7957
 31
0.0
  0
LINE
  5
1014
330
1D
100
AcDbEntity
  8
0
100
AcDbLine
 10
155.5708
 20
59.802328571429
 30
0.0
 11
156.5708
 21
59.7929
 31
0.0
  0
LINE
  5
1015
330
1D
100
AcDbEntity
  8
0
100
AcDbLine
 10
154.0709
 20
59.8165
 30
0.0
 11
154.434961517118
 21
59.813071468336
 31
0.0
  0
LINE
  5
1016
330
1D
100
AcDbEntity
  8
0
100
AcDbLine
 10
153.288886098489
 20
59.823929596414
 30
0.0
 11
154.0709
 21
59.8165
 31
0.0
  0
LINE
  5
1017
330
1D
100
AcDbEntity
  8
0
100
AcDbLine
 10
155.1708
 20
59.8061
 30
0.0
 11
156.5708
 21
59.7929
 31
0.0
  0
LINE
  5
1018
330
1D
100
AcDbEntity
  8
0
100
AcDbLine
 10
153.2709
 20
59.8241
 30
0.0
 11
155.1708
 21
59.8061
 31
0.0
  0
LINE
  5
1019
330
1D
100
AcDbEntity
  8
0
100
AcDbLine
 10
156.1549
 20
89.7981
 30
0.0
 11
157.7549
 21
89.783
 31
0.0
  0
LINE
  5
101A
330
1D
100
AcDbEntity
  8
0
100
AcDbLine
 10
154.055
 20
89.818
 30
0.0
 11
156.1549
 21
89.7981
 31
0.0
  0
LINE
  5
101B
330
1D
100
AcDbEntity
  8
0
100
AcDbLine
 10
151.6551
 20
89.8408
 30
0.0
 11
154.055
 21
89.818
 31
0.0
  0
LINE
  5
101C
330
1D
100
AcDbEntity
  8
0
100
AcDbLine
 10
149.0552
 20
89.8654
 30
0.0
 11
151.6551
 21
89.8408
 31
0.0
  0
LINE
  5
101D
330
1D
100
AcDbEntity
  8
0
100
AcDbLine
 10
151.071
 20
59.8449
 30
0.0
 11
153.2709
 21
59.8241
 31
0.0
  0
LINE
  5
101E
330
1D
100
AcDbEntity
  8
0
100
AcDbLine
 10
148.7711
 20
59.8667
 30
0.0
 11
151.071
 21
59.8449
 31
0.0
  0
LINE
  5
101F
330
1D
100
AcDbEntity
  8
0
100
AcDbLine
 10
155.570800000001
 20
59.802328571429
 30
0.0
 11
156.5708
 21
59.7929
 31
0.0
  0
LINE
  5
1020
330
1D
100
AcDbEntity
  8
0
100
AcDbLine
 10
155.570800000001
 20
59.802328571429
 30
0.0
 11
155.9708
 21
59.7985
 31
0.0
  0
LINE
  5
1021
330
1D
100
AcDbEntity
  8
0
100
AcDbLine
 10
158.1899
 20
89.778891210134
 30
0.0
 11
158.1899
 21
91.150465
 31
0.0
  0
LINE
  5
1022
330
1D
100
AcDbEntity
  8
0
100
AcDbLine
 10
157.7549
 20
89.783
 30
0.0
 11
158.6548
 21
89.7745
 31
0.0
  0
LINE
  5
1023
330
1D
100
AcDbEntity
  8
0
100
AcDbLine
 10
158.6548
 20
89.7745
 30
0.0
 11
159.0548
 21
89.7707
 31
0.0
  0
LINE
  5
1024
330
1D
100
AcDbEntity
  8
0
100
AcDbLine
 10
159.0548
 20
89.7707
 30
0.0
 11
160.0358
 21
87.7613
 31
0.0
  0
LINE
  5
1025
330
1D
100
AcDbEntity
  8
0
100
AcDbLine
 10
156.5708
 20
59.7929
 30
0.0
 11
157.4707
 21
59.7843
 31
0.0
  0
LINE
  5
1026
330
1D
100
AcDbEntity
  8
0
100
AcDbLine
 10
157.4707
 20
59.7843
 30
0.0
 11
157.7707
 21
59.7815
 31
0.0
  0
LINE
  5
1027
330
1D
100
AcDbEntity
  8
0
100
AcDbLine
 10
158.1899
 20
91.150465
 30
0.0
 11
158.1899
 21
89.778891210134
 31
0.0
  0
LINE
  5
1028
330
1D
100
AcDbEntity
  8
0
100
AcDbLine
 10
95.8947
 20
112.9594
 30
0.0
 11
97.3717
 21
110.3975
 31
0.0
  0
LINE
  5
1029
330
1D
100
AcDbEntity
  8
0
100
AcDbLine
 10
99.1787
 20
107.4332
 30
0.0
 11
100.9847
 21
104.6871
 31
0.0
  0
LINE
  5
102A
330
1D
100
AcDbEntity
  8
0
100
AcDbLine
 10
97.3717
 20
110.3975
 30
0.0
 11
99.1787
 21
107.4332
 31
0.0
  0
LINE
  5
102B
330
1D
100
AcDbEntity
  8
0
100
AcDbLine
 10
90.0304
 20
124.1631
 30
0.0
 11
91.5667
 21
121.0903
 31
0.0
  0
LINE
  5
102C
330
1D
100
AcDbEntity
  8
0
100
AcDbLine
 10
91.5667
 20
121.0903
 30
0.0
 11
93.1377
 21
118.0395
 31
0.0
  0
LINE
  5
102D
330
1D
100
AcDbEntity
  8
0
100
AcDbLine
 10
93.1377
 20
118.0395
 30
0.0
 11
94.8307
 21
114.8811
 31
0.0
  0
LINE
  5
102E
330
1D
100
AcDbEntity
  8
0
100
AcDbLine
 10
94.8307
 20
114.8811
 30
0.0
 11
95.8947
 21
112.9594
 31
0.0
  0
LINE
  5
102F
330
1D
100
AcDbEntity
  8
0
100
AcDbLine
 10
100.9847
 20
104.6871
 30
0.0
 11
102.8277
 21
102.1441
 31
0.0
  0
LINE
  5
1030
330
1D
100
AcDbEntity
  8
0
100
AcDbLine
 10
102.8277
 20
102.1441
 30
0.0
 11
105.256865683151
 21
99.384691351922
 31
0.0
  0
LINE
  5
1031
330
1D
100
AcDbEntity
  8
0
100
AcDbLine
 10
105.256865683151
 20
99.384691351922
 30
0.0
 11
105.3927
 21
99.2166
 31
0.0
  0
LINE
  5
1032
330
1D
100
AcDbEntity
  8
0
100
AcDbLine
 10
105.3927
 20
99.2166
 30
0.0
 11
106.0517
 21
98.4818
 31
0.0
  0
LINE
  5
1033
330
1D
100
AcDbEntity
  8
0
100
AcDbLine
 10
106.0517
 20
98.4818
 30
0.0
 11
107.7877
 21
96.9733
 31
0.0
  0
LINE
  5
1034
330
1D
100
AcDbEntity
  8
0
100
AcDbLine
 10
107.7877
 20
96.9733
 30
0.0
 11
109.6677
 21
95.6421
 31
0.0
  0
LINE
  5
1035
330
1D
100
AcDbEntity
  8
0
100
AcDbLine
 10
106.2837
 20
117.3894
 30
0.0
 11
106.8147
 21
114.7147
 31
0.0
  0
LINE
  5
1036
330
1D
100
AcDbEntity
  8
0
100
AcDbLine
 10
106.2837
 20
122.8716
 30
0.0
 11
106.8147
 21
125.5463
 31
0.0
  0
LINE
  5
1037
330
1D
100
AcDbEntity
  8
0
100
AcDbLine
 10
106.0627
 20
120.1305
 30
0.0
 11
106.2837
 21
117.3894
 31
0.0
  0
LINE
  5
1038
330
1D
100
AcDbEntity
  8
0
100
AcDbLine
 10
106.0627
 20
120.1305
 30
0.0
 11
106.2837
 21
122.8716
 31
0.0
  0
LINE
  5
1039
330
1D
100
AcDbEntity
  8
0
100
AcDbLine
 10
106.8147
 20
114.7147
 30
0.0
 11
107.6987
 21
112.1063
 31
0.0
  0
LINE
  5
103A
330
1D
100
AcDbEntity
  8
0
100
AcDbLine
 10
107.6987
 20
112.1063
 30
0.0
 11
108.8697
 21
109.6747
 31
0.0
  0
LINE
  5
103B
330
1D
100
AcDbEntity
  8
0
100
AcDbLine
 10
106.8147
 20
125.5463
 30
0.0
 11
107.6987
 21
128.1547
 31
0.0
  0
LINE
  5
103C
330
1D
100
AcDbEntity
  8
0
100
AcDbLine
 10
107.6987
 20
128.1547
 30
0.0
 11
108.8697
 21
130.5863
 31
0.0
  0
LINE
  5
103D
330
1D
100
AcDbEntity
  8
0
100
AcDbLine
 10
87.062
 20
130.3445
 30
0.0
 11
88.5332
 21
127.2438
 31
0.0
  0
LINE
  5
103E
330
1D
100
AcDbEntity
  8
0
100
AcDbLine
 10
85.6217
 20
133.4451
 30
0.0
 11
87.062
 21
130.3445
 31
0.0
  0
LINE
  5
103F
330
1D
100
AcDbEntity
  8
0
100
AcDbLine
 10
88.5332
 20
127.2438
 30
0.0
 11
90.0304
 21
124.1631
 31
0.0
  0
LINE
  5
1040
330
1D
100
AcDbEntity
  8
0
100
AcDbLine
 10
116.9547
 20
92.4777
 30
0.0
 11
120.4487
 21
91.7378
 31
0.0
  0
LINE
  5
1041
330
1D
100
AcDbEntity
  8
0
100
AcDbLine
 10
114.2857
 20
103.5073
 30
0.0
 11
116.6067
 21
101.9379
 31
0.0
  0
LINE
  5
1042
330
1D
100
AcDbEntity
  8
0
100
AcDbLine
 10
116.6067
 20
101.9379
 30
0.0
 11
119.0387
 21
100.7663
 31
0.0
  0
LINE
  5
1043
330
1D
100
AcDbEntity
  8
0
100
AcDbLine
 10
111.2857
 20
94.6991
 30
0.0
 11
114.0367
 21
93.4375
 31
0.0
  0
LINE
  5
1044
330
1D
100
AcDbEntity
  8
0
100
AcDbLine
 10
109.6677
 20
95.6421
 30
0.0
 11
111.2857
 21
94.6991
 31
0.0
  0
LINE
  5
1045
330
1D
100
AcDbEntity
  8
0
100
AcDbLine
 10
114.0367
 20
93.4375
 30
0.0
 11
116.9547
 21
92.4777
 31
0.0
  0
LINE
  5
1046
330
1D
100
AcDbEntity
  8
0
100
AcDbLine
 10
112.2297
 20
105.2979
 30
0.0
 11
114.2857
 21
103.5073
 31
0.0
  0
LINE
  5
1047
330
1D
100
AcDbEntity
  8
0
100
AcDbLine
 10
113.854389527865
 20
103.882934499711
 30
0.0
 11
114.070811854105
 21
103.69444917998
 31
0.0
  0
LINE
  5
1048
330
1D
100
AcDbEntity
  8
0
100
AcDbLine
 10
113.854389527865
 20
103.882934499711
 30
0.0
 11
114.070811854105
 21
103.69444917998
 31
0.0
  0
LINE
  5
1049
330
1D
100
AcDbEntity
  8
0
100
AcDbLine
 10
110.4397
 20
107.3537
 30
0.0
 11
112.2297
 21
105.2979
 31
0.0
  0
LINE
  5
104A
330
1D
100
AcDbEntity
  8
0
100
AcDbLine
 10
108.8697
 20
109.6747
 30
0.0
 11
110.4397
 21
107.3537
 31
0.0
  0
LINE
  5
104B
330
1D
100
AcDbEntity
  8
0
100
AcDbLine
 10
110.4397
 20
132.9073
 30
0.0
 11
112.2297
 21
134.9631
 31
0.0
  0
LINE
  5
104C
330
1D
100
AcDbEntity
  8
0
100
AcDbLine
 10
108.8697
 20
130.5863
 30
0.0
 11
110.4397
 21
132.9073
 31
0.0
  0
LINE
  5
104D
330
1D
100
AcDbEntity
  8
0
100
AcDbLine
 10
112.2297
 20
134.9631
 30
0.0
 11
114.2857
 21
136.7537
 31
0.0
  0
LINE
  5
104E
330
1D
100
AcDbEntity
  8
0
100
AcDbLine
 10
114.2857
 20
136.7537
 30
0.0
 11
116.6067
 21
138.3231
 31
0.0
  0
LINE
  5
104F
330
1D
100
AcDbEntity
  8
0
100
AcDbLine
 10
82.8013
 20
139.6842
 30
0.0
 11
83.9585
 21
137.0964
 31
0.0
  0
LINE
  5
1050
330
1D
100
AcDbEntity
  8
0
100
AcDbLine
 10
116.6067
 20
138.3231
 30
0.0
 11
119.0387
 21
139.4947
 31
0.0
  0
LINE
  5
1051
330
1D
100
AcDbEntity
  8
0
100
AcDbLine
 10
83.9585
 20
137.0964
 30
0.0
 11
85.6217
 21
133.4451
 31
0.0
  0
LINE
  5
1052
330
1D
100
AcDbEntity
  8
0
100
AcDbLine
 10
131.7137
 20
91.1415
 30
0.0
 11
135.3997
 21
91.1305
 31
0.0
  0
LINE
  5
1053
330
1D
100
AcDbEntity
  8
0
100
AcDbLine
 10
128.0487
 20
91.1873
 30
0.0
 11
131.7137
 21
91.1415
 31
0.0
  0
LINE
  5
1054
330
1D
100
AcDbEntity
  8
0
100
AcDbLine
 10
125.3817
 20
91.2719
 30
0.0
 11
128.0487
 21
91.1873
 31
0.0
  0
LINE
  5
1055
330
1D
100
AcDbEntity
  8
0
100
AcDbLine
 10
135.3997
 20
91.1305
 30
0.0
 11
137.8697
 21
91.1325
 31
0.0
  0
LINE
  5
1056
330
1D
100
AcDbEntity
  8
0
100
AcDbLine
 10
121.0627
 20
106.1305
 30
0.0
 11
121.0627
 21
134.1305
 31
0.0
  0
LINE
  5
1057
330
1D
100
AcDbEntity
  8
0
100
AcDbLine
 10
121.0627
 20
106.1305
 30
0.0
 11
121.2747
 21
104.5952
 31
0.0
  0
LINE
  5
1058
330
1D
100
AcDbEntity
  8
0
100
AcDbLine
 10
121.2747
 20
104.5952
 30
0.0
 11
121.8747
 21
103.1481
 31
0.0
  0
LINE
  5
1059
330
1D
100
AcDbEntity
  8
0
100
AcDbLine
 10
121.5397
 20
104.6481
 30
0.0
 11
122.1037
 21
103.2717
 31
0.0
  0
LINE
  5
105A
330
1D
100
AcDbEntity
  8
0
100
AcDbLine
 10
121.3277
 20
106.1305
 30
0.0
 11
121.3277
 21
134.1305
 31
0.0
  0
LINE
  5
105B
330
1D
100
AcDbEntity
  8
0
100
AcDbLine
 10
121.3277
 20
106.1305
 30
0.0
 11
121.5397
 21
104.6481
 31
0.0
  0
LINE
  5
105C
330
1D
100
AcDbEntity
  8
0
100
AcDbLine
 10
121.5397
 20
135.6129
 30
0.0
 11
122.1037
 21
136.9893
 31
0.0
  0
LINE
  5
105D
330
1D
100
AcDbEntity
  8
0
100
AcDbLine
 10
121.2747
 20
135.6658
 30
0.0
 11
121.8747
 21
137.1129
 31
0.0
  0
LINE
  5
105E
330
1D
100
AcDbEntity
  8
0
100
AcDbLine
 10
121.3277
 20
134.1305
 30
0.0
 11
121.3277
 21
106.1305
 31
0.0
  0
LINE
  5
105F
330
1D
100
AcDbEntity
  8
0
100
AcDbLine
 10
121.3277
 20
134.1305
 30
0.0
 11
121.5397
 21
135.6129
 31
0.0
  0
LINE
  5
1060
330
1D
100
AcDbEntity
  8
0
100
AcDbLine
 10
121.0627
 20
134.1305
 30
0.0
 11
121.0627
 21
106.1305
 31
0.0
  0
LINE
  5
1061
330
1D
100
AcDbEntity
  8
0
100
AcDbLine
 10
121.0627
 20
134.1305
 30
0.0
 11
121.2747
 21
135.6658
 31
0.0
  0
LINE
  5
1062
330
1D
100
AcDbEntity
  8
0
100
AcDbLine
 10
119.0387
 20
100.7663
 30
0.0
 11
121.6467
 21
99.8821
 31
0.0
  0
LINE
  5
1063
330
1D
100
AcDbEntity
  8
0
100
AcDbLine
 10
121.6467
 20
99.8821
 30
0.0
 11
122.0627
 21
99.799599813084
 31
0.0
  0
LINE
  5
1064
330
1D
100
AcDbEntity
  8
0
100
AcDbLine
 10
119.0387
 20
139.4947
 30
0.0
 11
121.6467
 21
140.3789
 31
0.0
  0
LINE
  5
1065
330
1D
100
AcDbEntity
  8
0
100
AcDbLine
 10
121.8747
 20
137.1129
 30
0.0
 11
122.8277
 21
138.3658
 31
0.0
  0
LINE
  5
1066
330
1D
100
AcDbEntity
  8
0
100
AcDbLine
 10
121.8747
 20
103.1481
 30
0.0
 11
122.0627
 21
102.900938195173
 31
0.0
  0
LINE
  5
1067
330
1D
100
AcDbEntity
  8
0
100
AcDbLine
 10
121.6467
 20
140.3789
 30
0.0
 11
124.3217
 21
140.9094
 31
0.0
  0
LINE
  5
1068
330
1D
100
AcDbEntity
  8
0
100
AcDbLine
 10
120.4487
 20
91.7378
 30
0.0
 11
121.9187
 21
91.5388
 31
0.0
  0
LINE
  5
1069
330
1D
100
AcDbEntity
  8
0
100
AcDbLine
 10
124.3567
 20
95.1305
 30
0.0
 11
125.1567
 21
95.1305
 31
0.0
  0
LINE
  5
106A
330
1D
100
AcDbEntity
  8
0
100
AcDbLine
 10
125.1567
 20
95.1305
 30
0.0
 11
126.0747
 21
95.1305
 31
0.0
  0
LINE
  5
106B
330
1D
100
AcDbEntity
  8
0
100
AcDbLine
 10
126.0747
 20
95.1305
 30
0.0
 11
127.0627
 21
95.1305
 31
0.0
  0
LINE
  5
106C
330
1D
100
AcDbEntity
  8
0
100
AcDbLine
 10
123.7567
 20
95.1305
 30
0.0
 11
124.3567
 21
95.1305
 31
0.0
  0
LINE
  5
106D
330
1D
100
AcDbEntity
  8
0
100
AcDbLine
 10
123.3807
 20
95.1305
 30
0.0
 11
123.7567
 21
95.1305
 31
0.0
  0
LINE
  5
106E
330
1D
100
AcDbEntity
  8
0
100
AcDbLine
 10
123.2387
 20
95.1305
 30
0.0
 11
123.3807
 21
95.1305
 31
0.0
  0
LINE
  5
106F
330
1D
100
AcDbEntity
  8
0
100
AcDbLine
 10
123.1217
 20
95.2843
 30
0.0
 11
123.2387
 21
95.1305
 31
0.0
  0
LINE
  5
1070
330
1D
100
AcDbEntity
  8
0
100
AcDbLine
 10
123.0627
 20
95.592
 30
0.0
 11
123.1217
 21
95.2843
 31
0.0
  0
LINE
  5
1071
330
1D
100
AcDbEntity
  8
0
100
AcDbLine
 10
123.0627
 20
95.592
 30
0.0
 11
123.0627
 21
99.1305
 31
0.0
  0
LINE
  5
1072
330
1D
100
AcDbEntity
  8
0
100
AcDbLine
 10
123.6037
 20
99.1305
 30
0.0
 11
124.2387
 21
99.1305
 31
0.0
  0
LINE
  5
1073
330
1D
100
AcDbEntity
  8
0
100
AcDbLine
 10
123.2037
 20
99.1305
 30
0.0
 11
123.6037
 21
99.1305
 31
0.0
  0
LINE
  5
1074
330
1D
100
AcDbEntity
  8
0
100
AcDbLine
 10
123.0627
 20
99.1305
 30
0.0
 11
123.0627
 21
95.592
 31
0.0
  0
LINE
  5
1075
330
1D
100
AcDbEntity
  8
0
100
AcDbLine
 10
123.0627
 20
99.1305
 30
0.0
 11
123.2037
 21
99.1305
 31
0.0
  0
LINE
  5
1076
330
1D
100
AcDbEntity
  8
0
100
AcDbLine
 10
124.2387
 20
99.1305
 30
0.0
 11
125.0747
 21
99.1305
 31
0.0
  0
LINE
  5
1077
330
1D
100
AcDbEntity
  8
0
100
AcDbLine
 10
125.0747
 20
99.1305
 30
0.0
 11
126.0397
 21
99.1305
 31
0.0
  0
LINE
  5
1078
330
1D
100
AcDbEntity
  8
0
100
AcDbLine
 10
123.6807
 20
99.1305
 30
0.0
 11
124.6807
 21
99.1305
 31
0.0
  0
LINE
  5
1079
330
1D
100
AcDbEntity
  8
0
100
AcDbLine
 10
124.6807
 20
99.1305
 30
0.0
 11
125.8277
 21
99.1305
 31
0.0
  0
LINE
  5
107A
330
1D
100
AcDbEntity
  8
0
100
AcDbLine
 10
126.0397
 20
99.1305
 30
0.0
 11
127.0627
 21
99.1305
 31
0.0
  0
LINE
  5
107B
330
1D
100
AcDbEntity
  8
0
100
AcDbLine
 10
125.8277
 20
99.1305
 30
0.0
 11
127.0627
 21
99.1305
 31
0.0
  0
LINE
  5
107C
330
1D
100
AcDbEntity
  8
0
100
AcDbLine
 10
122.9307
 20
99.1305
 30
0.0
 11
123.0627
 21
99.1305
 31
0.0
  0
LINE
  5
107D
330
1D
100
AcDbEntity
  8
0
100
AcDbLine
 10
122.9307
 20
99.1305
 30
0.0
 11
123.6807
 21
99.1305
 31
0.0
  0
LINE
  5
107E
330
1D
100
AcDbEntity
  8
0
100
AcDbLine
 10
122.4597
 20
99.1305
 30
0.0
 11
122.9307
 21
99.1305
 31
0.0
  0
LINE
  5
107F
330
1D
100
AcDbEntity
  8
0
100
AcDbLine
 10
122.1367
 20
99.3228
 30
0.0
 11
122.2837
 21
99.1305
 31
0.0
  0
LINE
  5
1080
330
1D
100
AcDbEntity
  8
0
100
AcDbLine
 10
122.2837
 20
99.1305
 30
0.0
 11
122.4597
 21
99.1305
 31
0.0
  0
LINE
  5
1081
330
1D
100
AcDbEntity
  8
0
100
AcDbLine
 10
122.0627
 20
99.7074
 30
0.0
 11
122.1367
 21
99.3228
 31
0.0
  0
LINE
  5
1082
330
1D
100
AcDbEntity
  8
0
100
AcDbLine
 10
122.0627
 20
99.7074
 30
0.0
 11
122.0627
 21
102.900938195173
 31
0.0
  0
LINE
  5
1083
330
1D
100
AcDbEntity
  8
0
100
AcDbLine
 10
123.0037
 20
102.0717
 30
0.0
 11
124.2037
 21
101.1717
 31
0.0
  0
LINE
  5
1084
330
1D
100
AcDbEntity
  8
0
100
AcDbLine
 10
124.2037
 20
101.1717
 30
0.0
 11
125.5807
 21
100.607
 31
0.0
  0
LINE
  5
1085
330
1D
100
AcDbEntity
  8
0
100
AcDbLine
 10
125.5807
 20
100.607
 30
0.0
 11
127.0627
 21
100.3952
 31
0.0
  0
LINE
  5
1086
330
1D
100
AcDbEntity
  8
0
100
AcDbLine
 10
122.1037
 20
136.9893
 30
0.0
 11
123.0037
 21
138.1893
 31
0.0
  0
LINE
  5
1087
330
1D
100
AcDbEntity
  8
0
100
AcDbLine
 10
123.0037
 20
138.1893
 30
0.0
 11
124.2037
 21
139.0893
 31
0.0
  0
LINE
  5
1088
330
1D
100
AcDbEntity
  8
0
100
AcDbLine
 10
124.2037
 20
139.0893
 30
0.0
 11
125.5807
 21
139.654
 31
0.0
  0
LINE
  5
1089
330
1D
100
AcDbEntity
  8
0
100
AcDbLine
 10
122.8277
 20
138.3658
 30
0.0
 11
124.0807
 21
139.3187
 31
0.0
  0
LINE
  5
108A
330
1D
100
AcDbEntity
  8
0
100
AcDbLine
 10
125.5807
 20
139.654
 30
0.0
 11
127.0627
 21
139.8658
 31
0.0
  0
LINE
  5
108B
330
1D
100
AcDbEntity
  8
0
100
AcDbLine
 10
124.0807
 20
139.3187
 30
0.0
 11
125.5277
 21
139.9187
 31
0.0
  0
LINE
  5
108C
330
1D
100
AcDbEntity
  8
0
100
AcDbLine
 10
122.1037
 20
103.2717
 30
0.0
 11
123.0037
 21
102.0717
 31
0.0
  0
LINE
  5
108D
330
1D
100
AcDbEntity
  8
0
100
AcDbLine
 10
122.0627
 20
102.900938195173
 30
0.0
 11
122.0627
 21
99.7074
 31
0.0
  0
LINE
  5
108E
330
1D
100
AcDbEntity
  8
0
100
AcDbLine
 10
125.5277
 20
139.9187
 30
0.0
 11
127.0627
 21
140.1305
 31
0.0
  0
LINE
  5
108F
330
1D
100
AcDbEntity
  8
0
100
AcDbLine
 10
121.9187
 20
91.5388
 30
0.0
 11
122.9807
 21
91.4372
 31
0.0
  0
LINE
  5
1090
330
1D
100
AcDbEntity
  8
0
100
AcDbLine
 10
122.9807
 20
91.4372
 30
0.0
 11
125.3817
 21
91.2719
 31
0.0
  0
LINE
  5
1091
330
1D
100
AcDbEntity
  8
0
100
AcDbLine
 10
137.8697
 20
91.1325
 30
0.0
 11
140.9847
 21
91.1365
 31
0.0
  0
LINE
  5
1092
330
1D
100
AcDbEntity
  8
0
100
AcDbLine
 10
140.9847
 20
91.1365
 30
0.0
 11
145.5707
 21
91.1435
 31
0.0
  0
LINE
  5
1093
330
1D
100
AcDbEntity
  8
0
100
AcDbLine
 10
81.078
 20
143.5935
 30
0.0
 11
81.9372
 21
141.6345
 31
0.0
  0
LINE
  5
1094
330
1D
100
AcDbEntity
  8
0
100
AcDbLine
 10
79.5208
 20
149.1305
 30
0.0
 11
80.2079
 21
149.1305
 31
0.0
  0
LINE
  5
1095
330
1D
100
AcDbEntity
  8
0
100
AcDbLine
 10
79.1767
 20
149.1305
 30
0.0
 11
79.5208
 21
149.1305
 31
0.0
  0
LINE
  5
1096
330
1D
100
AcDbEntity
  8
0
100
AcDbLine
 10
81.9372
 20
141.6345
 30
0.0
 11
82.8013
 21
139.6842
 31
0.0
  0
LINE
  5
1097
330
1D
100
AcDbEntity
  8
0
100
AcDbLine
 10
124.3217
 20
140.9094
 30
0.0
 11
127.0627
 21
141.1305
 31
0.0
  0
LINE
  5
1098
330
1D
100
AcDbEntity
  8
0
100
AcDbLine
 10
89.6894
 20
149.1305
 30
0.0
 11
207.1057
 21
149.1305
 31
0.0
  0
LINE
  5
1099
330
1D
100
AcDbEntity
  8
0
100
AcDbLine
 10
87.8391
 20
149.1305
 30
0.0
 11
89.6894
 21
149.1305
 31
0.0
  0
LINE
  5
109A
330
1D
100
AcDbEntity
  8
0
100
AcDbLine
 10
86.2928
 20
149.1305
 30
0.0
 11
87.8391
 21
149.1305
 31
0.0
  0
LINE
  5
109B
330
1D
100
AcDbEntity
  8
0
100
AcDbLine
 10
84.8166
 20
149.1305
 30
0.0
 11
86.2928
 21
149.1305
 31
0.0
  0
LINE
  5
109C
330
1D
100
AcDbEntity
  8
0
100
AcDbLine
 10
83.4534
 20
149.1305
 30
0.0
 11
84.8166
 21
149.1305
 31
0.0
  0
LINE
  5
109D
330
1D
100
AcDbEntity
  8
0
100
AcDbLine
 10
82.2352
 20
149.1305
 30
0.0
 11
83.4534
 21
149.1305
 31
0.0
  0
LINE
  5
109E
330
1D
100
AcDbEntity
  8
0
100
AcDbLine
 10
81.177
 20
149.1305
 30
0.0
 11
82.2352
 21
149.1305
 31
0.0
  0
LINE
  5
109F
330
1D
100
AcDbEntity
  8
0
100
AcDbLine
 10
80.2079
 20
149.1305
 30
0.0
 11
81.177
 21
149.1305
 31
0.0
  0
LINE
  5
10A0
330
1D
100
AcDbEntity
  8
0
100
AcDbLine
 10
79.1157
 20
148.1345
 30
0.0
 11
81.078
 21
143.5935
 31
0.0
  0
LINE
  5
10A1
330
1D
100
AcDbEntity
  8
0
100
AcDbLine
 10
79.0627
 20
151.1305
 30
0.0
 11
79.5617
 21
149.1305
 31
0.0
  0
LINE
  5
10A2
330
1D
100
AcDbEntity
  8
0
100
AcDbLine
 10
79.0627
 20
151.1305
 30
0.0
 11
79.5617
 21
153.1305
 31
0.0
  0
LINE
  5
10A3
330
1D
100
AcDbEntity
  8
0
100
AcDbLine
 10
81.4697
 20
153.1305
 30
0.0
 11
83.6797
 21
153.1305
 31
0.0
  0
LINE
  5
10A4
330
1D
100
AcDbEntity
  8
0
100
AcDbLine
 10
80.0507
 20
153.1305
 30
0.0
 11
81.4697
 21
153.1305
 31
0.0
  0
LINE
  5
10A5
330
1D
100
AcDbEntity
  8
0
100
AcDbLine
 10
83.6797
 20
153.1305
 30
0.0
 11
86.4647
 21
153.1305
 31
0.0
  0
LINE
  5
10A6
330
1D
100
AcDbEntity
  8
0
100
AcDbLine
 10
86.4647
 20
153.1305
 30
0.0
 11
89.5507
 21
153.1305
 31
0.0
  0
LINE
  5
10A7
330
1D
100
AcDbEntity
  8
0
100
AcDbLine
 10
89.5507
 20
153.1305
 30
0.0
 11
205.8017
 21
153.1305
 31
0.0
  0
LINE
  5
10A8
330
1D
100
AcDbEntity
  8
0
100
AcDbLine
 10
89.5507
 20
153.1305
 30
0.0
 11
205.8017
 21
153.1305
 31
0.0
  0
LINE
  5
10A9
330
1D
100
AcDbEntity
  8
0
100
AcDbLine
 10
79.5617
 20
153.1305
 30
0.0
 11
80.0507
 21
153.1305
 31
0.0
  0
LINE
  5
10AA
330
1D
100
AcDbEntity
  8
0
100
AcDbLine
 10
79.0627
 20
149.1305
 30
0.0
 11
79.1157
 21
148.1345
 31
0.0
  0
LINE
  5
10AB
330
1D
100
AcDbEntity
  8
0
100
AcDbLine
 10
79.0627
 20
149.1305
 30
0.0
 11
79.1767
 21
149.1305
 31
0.0
  0
LINE
  5
10AC
330
1D
100
AcDbEntity
  8
0
100
AcDbLine
 10
145.5707
 20
91.1435
 30
0.0
 11
151.2367
 21
91.1495
 31
0.0
  0
LINE
  5
10AD
330
1D
100
AcDbEntity
  8
0
100
AcDbLine
 10
172.3137
 20
91.1415
 30
0.0
 11
175.1647
 21
91.1395
 31
0.0
  0
LINE
  5
10AE
330
1D
100
AcDbEntity
  8
0
100
AcDbLine
 10
169.4657
 20
91.1435
 30
0.0
 11
172.3137
 21
91.1415
 31
0.0
  0
LINE
  5
10AF
330
1D
100
AcDbEntity
  8
0
100
AcDbLine
 10
164.0907
 20
91.1485
 30
0.0
 11
166.6207
 21
91.1465
 31
0.0
  0
LINE
  5
10B0
330
1D
100
AcDbEntity
  8
0
100
AcDbLine
 10
166.6207
 20
91.1465
 30
0.0
 11
169.4657
 21
91.1435
 31
0.0
  0
LINE
  5
10B1
330
1D
100
AcDbEntity
  8
0
100
AcDbLine
 10
180.9087
 20
91.1365
 30
0.0
 11
183.2057
 21
91.1365
 31
0.0
  0
LINE
  5
10B2
330
1D
100
AcDbEntity
  8
0
100
AcDbLine
 10
183.2057
 20
91.1365
 30
0.0
 11
185.6017
 21
91.1365
 31
0.0
  0
LINE
  5
10B3
330
1D
100
AcDbEntity
  8
0
100
AcDbLine
 10
185.6017
 20
91.1365
 30
0.0
 11
187.9927
 21
91.1365
 31
0.0
  0
LINE
  5
10B4
330
1D
100
AcDbEntity
  8
0
100
AcDbLine
 10
187.9927
 20
91.1365
 30
0.0
 11
191.1717
 21
91.1365
 31
0.0
  0
LINE
  5
10B5
330
1D
100
AcDbEntity
  8
0
100
AcDbLine
 10
194.4477
 20
91.1375
 30
0.0
 11
197.1397
 21
91.1375
 31
0.0
  0
LINE
  5
10B6
330
1D
100
AcDbEntity
  8
0
100
AcDbLine
 10
178.4027
 20
91.1375
 30
0.0
 11
180.9087
 21
91.1365
 31
0.0
  0
LINE
  5
10B7
330
1D
100
AcDbEntity
  8
0
100
AcDbLine
 10
191.1717
 20
91.1365
 30
0.0
 11
194.4477
 21
91.1375
 31
0.0
  0
LINE
  5
10B8
330
1D
100
AcDbEntity
  8
0
100
AcDbLine
 10
200.5197
 20
91.1365
 30
0.0
 11
203.2767
 21
91.1355
 31
0.0
  0
LINE
  5
10B9
330
1D
100
AcDbEntity
  8
0
100
AcDbLine
 10
197.1397
 20
91.1375
 30
0.0
 11
200.5197
 21
91.1365
 31
0.0
  0
LINE
  5
10BA
330
1D
100
AcDbEntity
  8
0
100
AcDbLine
 10
203.2767
 20
91.1355
 30
0.0
 11
207.1057
 21
91.1385
 31
0.0
  0
LINE
  5
10BB
330
1D
100
AcDbEntity
  8
0
100
AcDbLine
 10
175.1647
 20
91.1395
 30
0.0
 11
178.4027
 21
91.1375
 31
0.0
  0
LINE
  5
10BC
330
1D
100
AcDbEntity
  8
0
100
AcDbLine
 10
160.9257
 20
91.1505
 30
0.0
 11
164.0907
 21
91.1485
 31
0.0
  0
LINE
  5
10BD
330
1D
100
AcDbEntity
  8
0
100
AcDbLine
 10
158.0727
 20
91.1505
 30
0.0
 11
160.9257
 21
91.1505
 31
0.0
  0
LINE
  5
10BE
330
1D
100
AcDbEntity
  8
0
100
AcDbLine
 10
151.2367
 20
91.1495
 30
0.0
 11
154.6527
 21
91.1505
 31
0.0
  0
LINE
  5
10BF
330
1D
100
AcDbEntity
  8
0
100
AcDbLine
 10
154.6527
 20
91.1505
 30
0.0
 11
158.0727
 21
91.1505
 31
0.0
  0
LINE
  5
10C0
330
1D
100
AcDbEntity
  8
0
100
AcDbLine
 10
207.6927
 20
91.3267
 30
0.0
 11
208.0537
 21
91.8136
 31
0.0
  0
LINE
  5
10C1
330
1D
100
AcDbEntity
  8
0
100
AcDbLine
 10
207.1057
 20
91.1385
 30
0.0
 11
207.6927
 21
91.3267
 31
0.0
  0
LINE
  5
10C2
330
1D
100
AcDbEntity
  8
0
100
AcDbLine
 10
207.7017
 20
149.1305
 30
0.0
 11
208.0607
 21
149.1305
 31
0.0
  0
LINE
  5
10C3
330
1D
100
AcDbEntity
  8
0
100
AcDbLine
 10
207.1057
 20
149.1305
 30
0.0
 11
207.7017
 21
149.1305
 31
0.0
  0
LINE
  5
10C4
330
1D
100
AcDbEntity
  8
0
100
AcDbLine
 10
205.9387
 20
153.1305
 30
0.0
 11
206.8617
 21
153.1305
 31
0.0
  0
LINE
  5
10C5
330
1D
100
AcDbEntity
  8
0
100
AcDbLine
 10
205.8017
 20
153.1305
 30
0.0
 11
205.9387
 21
153.1305
 31
0.0
  0
LINE
  5
10C6
330
1D
100
AcDbEntity
  8
0
100
AcDbLine
 10
207.2547
 20
153.1305
 30
0.0
 11
207.5477
 21
153.1305
 31
0.0
  0
LINE
  5
10C7
330
1D
100
AcDbEntity
  8
0
100
AcDbLine
 10
206.8617
 20
153.1305
 30
0.0
 11
207.2547
 21
153.1305
 31
0.0
  0
LINE
  5
10C8
330
1D
100
AcDbEntity
  8
0
100
AcDbLine
 10
208.0537
 20
91.8136
 30
0.0
 11
208.0537
 21
149.1305
 31
0.0
  0
LINE
  5
10C9
330
1D
100
AcDbEntity
  8
0
100
AcDbLine
 10
208.0537
 20
149.1305
 30
0.0
 11
208.0537
 21
152.888659858163
 31
0.0
  0
LINE
  5
10CA
330
1D
100
AcDbEntity
  8
0
100
AcDbLine
 10
208.0537
 20
152.888659858163
 30
0.0
 11
207.907375346827
 21
153.127465630881
 31
0.0
  0
LINE
  5
10CB
330
1D
100
AcDbEntity
  8
0
100
AcDbLine
 10
207.907375346827
 20
153.127465630881
 30
0.0
 11
207.5477
 21
153.1305
 31
0.0
  0
LINE
  5
10CC
330
1D
100
AcDbEntity
  8
0
100
AcDbLine
 10
132.7977
 20
134.1305
 30
0.0
 11
132.5857
 21
135.6129
 31
0.0
  0
LINE
  5
10CD
330
1D
100
AcDbEntity
  8
0
100
AcDbLine
 10
133.0627
 20
134.1305
 30
0.0
 11
132.8507
 21
135.6658
 31
0.0
  0
LINE
  5
10CE
330
1D
100
AcDbEntity
  8
0
100
AcDbLine
 10
128.0507
 20
95.1305
 30
0.0
 11
127.0627
 21
95.1305
 31
0.0
  0
LINE
  5
10CF
330
1D
100
AcDbEntity
  8
0
100
AcDbLine
 10
128.0857
 20
99.1305
 30
0.0
 11
127.0627
 21
99.1305
 31
0.0
  0
LINE
  5
10D0
330
1D
100
AcDbEntity
  8
0
100
AcDbLine
 10
128.2977
 20
99.1305
 30
0.0
 11
127.0627
 21
99.1305
 31
0.0
  0
LINE
  5
10D1
330
1D
100
AcDbEntity
  8
0
100
AcDbLine
 10
128.5447
 20
100.607
 30
0.0
 11
127.0627
 21
100.3952
 31
0.0
  0
LINE
  5
10D2
330
1D
100
AcDbEntity
  8
0
100
AcDbLine
 10
133.0627
 20
106.1305
 30
0.0
 11
133.0627
 21
134.1305
 31
0.0
  0
LINE
  5
10D3
330
1D
100
AcDbEntity
  8
0
100
AcDbLine
 10
132.7977
 20
106.1305
 30
0.0
 11
132.7977
 21
134.1305
 31
0.0
  0
LINE
  5
10D4
330
1D
100
AcDbEntity
  8
0
100
AcDbLine
 10
132.7977
 20
134.1305
 30
0.0
 11
132.7977
 21
106.1305
 31
0.0
  0
LINE
  5
10D5
330
1D
100
AcDbEntity
  8
0
100
AcDbLine
 10
133.0627
 20
134.1305
 30
0.0
 11
133.0627
 21
106.1305
 31
0.0
  0
LINE
  5
10D6
330
1D
100
AcDbEntity
  8
0
100
AcDbLine
 10
135.0867
 20
100.7663
 30
0.0
 11
132.4787
 21
99.8821
 31
0.0
  0
LINE
  5
10D7
330
1D
100
AcDbEntity
  8
0
100
AcDbLine
 10
137.5187
 20
101.9379
 30
0.0
 11
135.0867
 21
100.7663
 31
0.0
  0
LINE
  5
10D8
330
1D
100
AcDbEntity
  8
0
100
AcDbLine
 10
132.0627
 20
99.7074
 30
0.0
 11
132.0627
 21
102.900938195173
 31
0.0
  0
LINE
  5
10D9
330
1D
100
AcDbEntity
  8
0
100
AcDbLine
 10
129.9217
 20
101.1717
 30
0.0
 11
128.5447
 21
100.607
 31
0.0
  0
LINE
  5
10DA
330
1D
100
AcDbEntity
  8
0
100
AcDbLine
 10
132.0627
 20
102.900938195173
 30
0.0
 11
132.0627
 21
99.7074
 31
0.0
  0
LINE
  5
10DB
330
1D
100
AcDbEntity
  8
0
100
AcDbLine
 10
130.7447
 20
95.1305
 30
0.0
 11
130.3687
 21
95.1305
 31
0.0
  0
LINE
  5
10DC
330
1D
100
AcDbEntity
  8
0
100
AcDbLine
 10
130.5217
 20
99.1305
 30
0.0
 11
129.8867
 21
99.1305
 31
0.0
  0
LINE
  5
10DD
330
1D
100
AcDbEntity
  8
0
100
AcDbLine
 10
130.4447
 20
99.1305
 30
0.0
 11
129.4447
 21
99.1305
 31
0.0
  0
LINE
  5
10DE
330
1D
100
AcDbEntity
  8
0
100
AcDbLine
 10
132.4787
 20
99.8821
 30
0.0
 11
132.0627
 21
99.799599813084
 31
0.0
  0
LINE
  5
10DF
330
1D
100
AcDbEntity
  8
0
100
AcDbLine
 10
130.8867
 20
95.1305
 30
0.0
 11
130.7447
 21
95.1305
 31
0.0
  0
LINE
  5
10E0
330
1D
100
AcDbEntity
  8
0
100
AcDbLine
 10
131.0037
 20
95.2843
 30
0.0
 11
130.8867
 21
95.1305
 31
0.0
  0
LINE
  5
10E1
330
1D
100
AcDbEntity
  8
0
100
AcDbLine
 10
131.0627
 20
95.592
 30
0.0
 11
131.0037
 21
95.2843
 31
0.0
  0
LINE
  5
10E2
330
1D
100
AcDbEntity
  8
0
100
AcDbLine
 10
131.0627
 20
95.592
 30
0.0
 11
131.0627
 21
99.1305
 31
0.0
  0
LINE
  5
10E3
330
1D
100
AcDbEntity
  8
0
100
AcDbLine
 10
130.9217
 20
99.1305
 30
0.0
 11
130.5217
 21
99.1305
 31
0.0
  0
LINE
  5
10E4
330
1D
100
AcDbEntity
  8
0
100
AcDbLine
 10
131.0627
 20
99.1305
 30
0.0
 11
131.0627
 21
95.592
 31
0.0
  0
LINE
  5
10E5
330
1D
100
AcDbEntity
  8
0
100
AcDbLine
 10
131.0627
 20
99.1305
 30
0.0
 11
130.9217
 21
99.1305
 31
0.0
  0
LINE
  5
10E6
330
1D
100
AcDbEntity
  8
0
100
AcDbLine
 10
131.1947
 20
99.1305
 30
0.0
 11
131.0627
 21
99.1305
 31
0.0
  0
LINE
  5
10E7
330
1D
100
AcDbEntity
  8
0
100
AcDbLine
 10
131.1947
 20
99.1305
 30
0.0
 11
130.4447
 21
99.1305
 31
0.0
  0
LINE
  5
10E8
330
1D
100
AcDbEntity
  8
0
100
AcDbLine
 10
131.6657
 20
99.1305
 30
0.0
 11
131.1947
 21
99.1305
 31
0.0
  0
LINE
  5
10E9
330
1D
100
AcDbEntity
  8
0
100
AcDbLine
 10
131.9887
 20
99.3228
 30
0.0
 11
131.8417
 21
99.1305
 31
0.0
  0
LINE
  5
10EA
330
1D
100
AcDbEntity
  8
0
100
AcDbLine
 10
131.8417
 20
99.1305
 30
0.0
 11
131.6657
 21
99.1305
 31
0.0
  0
LINE
  5
10EB
330
1D
100
AcDbEntity
  8
0
100
AcDbLine
 10
132.0627
 20
99.7074
 30
0.0
 11
131.9887
 21
99.3228
 31
0.0
  0
LINE
  5
10EC
330
1D
100
AcDbEntity
  8
0
100
AcDbLine
 10
129.7687
 20
95.1305
 30
0.0
 11
128.9687
 21
95.1305
 31
0.0
  0
LINE
  5
10ED
330
1D
100
AcDbEntity
  8
0
100
AcDbLine
 10
128.9687
 20
95.1305
 30
0.0
 11
128.0507
 21
95.1305
 31
0.0
  0
LINE
  5
10EE
330
1D
100
AcDbEntity
  8
0
100
AcDbLine
 10
130.3687
 20
95.1305
 30
0.0
 11
129.7687
 21
95.1305
 31
0.0
  0
LINE
  5
10EF
330
1D
100
AcDbEntity
  8
0
100
AcDbLine
 10
129.8867
 20
99.1305
 30
0.0
 11
129.0507
 21
99.1305
 31
0.0
  0
LINE
  5
10F0
330
1D
100
AcDbEntity
  8
0
100
AcDbLine
 10
129.0507
 20
99.1305
 30
0.0
 11
128.0857
 21
99.1305
 31
0.0
  0
LINE
  5
10F1
330
1D
100
AcDbEntity
  8
0
100
AcDbLine
 10
129.4447
 20
99.1305
 30
0.0
 11
128.2977
 21
99.1305
 31
0.0
  0
LINE
  5
10F2
330
1D
100
AcDbEntity
  8
0
100
AcDbLine
 10
133.0627
 20
106.1305
 30
0.0
 11
132.8507
 21
104.5952
 31
0.0
  0
LINE
  5
10F3
330
1D
100
AcDbEntity
  8
0
100
AcDbLine
 10
132.8507
 20
104.5952
 30
0.0
 11
132.2507
 21
103.1481
 31
0.0
  0
LINE
  5
10F4
330
1D
100
AcDbEntity
  8
0
100
AcDbLine
 10
132.5857
 20
104.6481
 30
0.0
 11
132.0217
 21
103.2717
 31
0.0
  0
LINE
  5
10F5
330
1D
100
AcDbEntity
  8
0
100
AcDbLine
 10
132.7977
 20
106.1305
 30
0.0
 11
132.5857
 21
104.6481
 31
0.0
  0
LINE
  5
10F6
330
1D
100
AcDbEntity
  8
0
100
AcDbLine
 10
132.2507
 20
103.1481
 30
0.0
 11
132.0627
 21
102.900938195173
 31
0.0
  0
LINE
  5
10F7
330
1D
100
AcDbEntity
  8
0
100
AcDbLine
 10
131.1217
 20
102.0717
 30
0.0
 11
129.9217
 21
101.1717
 31
0.0
  0
LINE
  5
10F8
330
1D
100
AcDbEntity
  8
0
100
AcDbLine
 10
132.0217
 20
103.2717
 30
0.0
 11
131.1217
 21
102.0717
 31
0.0
  0
LINE
  5
10F9
330
1D
100
AcDbEntity
  8
0
100
AcDbLine
 10
128.5447
 20
139.654
 30
0.0
 11
127.0627
 21
139.8658
 31
0.0
  0
LINE
  5
10FA
330
1D
100
AcDbEntity
  8
0
100
AcDbLine
 10
128.5977
 20
139.9187
 30
0.0
 11
127.0627
 21
140.1305
 31
0.0
  0
LINE
  5
10FB
330
1D
100
AcDbEntity
  8
0
100
AcDbLine
 10
129.8037
 20
140.9094
 30
0.0
 11
127.0627
 21
141.1305
 31
0.0
  0
LINE
  5
10FC
330
1D
100
AcDbEntity
  8
0
100
AcDbLine
 10
137.5187
 20
138.3231
 30
0.0
 11
135.0867
 21
139.4947
 31
0.0
  0
LINE
  5
10FD
330
1D
100
AcDbEntity
  8
0
100
AcDbLine
 10
132.5857
 20
135.6129
 30
0.0
 11
132.0217
 21
136.9893
 31
0.0
  0
LINE
  5
10FE
330
1D
100
AcDbEntity
  8
0
100
AcDbLine
 10
132.8507
 20
135.6658
 30
0.0
 11
132.2507
 21
137.1129
 31
0.0
  0
LINE
  5
10FF
330
1D
100
AcDbEntity
  8
0
100
AcDbLine
 10
135.0867
 20
139.4947
 30
0.0
 11
132.4787
 21
140.3789
 31
0.0
  0
LINE
  5
1100
330
1D
100
AcDbEntity
  8
0
100
AcDbLine
 10
132.2507
 20
137.1129
 30
0.0
 11
131.2977
 21
138.3658
 31
0.0
  0
LINE
  5
1101
330
1D
100
AcDbEntity
  8
0
100
AcDbLine
 10
132.4787
 20
140.3789
 30
0.0
 11
129.8037
 21
140.9094
 31
0.0
  0
LINE
  5
1102
330
1D
100
AcDbEntity
  8
0
100
AcDbLine
 10
132.0217
 20
136.9893
 30
0.0
 11
131.1217
 21
138.1893
 31
0.0
  0
LINE
  5
1103
330
1D
100
AcDbEntity
  8
0
100
AcDbLine
 10
131.1217
 20
138.1893
 30
0.0
 11
129.9217
 21
139.0893
 31
0.0
  0
LINE
  5
1104
330
1D
100
AcDbEntity
  8
0
100
AcDbLine
 10
129.9217
 20
139.0893
 30
0.0
 11
128.5447
 21
139.654
 31
0.0
  0
LINE
  5
1105
330
1D
100
AcDbEntity
  8
0
100
AcDbLine
 10
131.2977
 20
138.3658
 30
0.0
 11
130.0447
 21
139.3187
 31
0.0
  0
LINE
  5
1106
330
1D
100
AcDbEntity
  8
0
100
AcDbLine
 10
130.0447
 20
139.3187
 30
0.0
 11
128.5977
 21
139.9187
 31
0.0
  0
LINE
  5
1107
330
1D
100
AcDbEntity
  8
0
100
AcDbLine
 10
143.6857
 20
132.9073
 30
0.0
 11
141.8957
 21
134.9631
 31
0.0
  0
LINE
  5
1108
330
1D
100
AcDbEntity
  8
0
100
AcDbLine
 10
145.2557
 20
109.6747
 30
0.0
 11
143.6857
 21
107.3537
 31
0.0
  0
LINE
  5
1109
330
1D
100
AcDbEntity
  8
0
100
AcDbLine
 10
141.8957
 20
105.2979
 30
0.0
 11
139.8397
 21
103.5073
 31
0.0
  0
LINE
  5
110A
330
1D
100
AcDbEntity
  8
0
100
AcDbLine
 10
143.6857
 20
107.3537
 30
0.0
 11
141.8957
 21
105.2979
 31
0.0
  0
LINE
  5
110B
330
1D
100
AcDbEntity
  8
0
100
AcDbLine
 10
139.8397
 20
103.5073
 30
0.0
 11
137.5187
 21
101.9379
 31
0.0
  0
LINE
  5
110C
330
1D
100
AcDbEntity
  8
0
100
AcDbLine
 10
140.271010472135
 20
103.882934499711
 30
0.0
 11
140.054588145895
 21
103.69444917998
 31
0.0
  0
LINE
  5
110D
330
1D
100
AcDbEntity
  8
0
100
AcDbLine
 10
140.271010472135
 20
103.882934499711
 30
0.0
 11
140.054588145895
 21
103.69444917998
 31
0.0
  0
LINE
  5
110E
330
1D
100
AcDbEntity
  8
0
100
AcDbLine
 10
146.4267
 20
112.1063
 30
0.0
 11
145.2557
 21
109.6747
 31
0.0
  0
LINE
  5
110F
330
1D
100
AcDbEntity
  8
0
100
AcDbLine
 10
146.4267
 20
128.1547
 30
0.0
 11
145.2557
 21
130.5863
 31
0.0
  0
LINE
  5
1110
330
1D
100
AcDbEntity
  8
0
100
AcDbLine
 10
145.2557
 20
130.5863
 30
0.0
 11
143.6857
 21
132.9073
 31
0.0
  0
LINE
  5
1111
330
1D
100
AcDbEntity
  8
0
100
AcDbLine
 10
141.8957
 20
134.9631
 30
0.0
 11
139.8397
 21
136.7537
 31
0.0
  0
LINE
  5
1112
330
1D
100
AcDbEntity
  8
0
100
AcDbLine
 10
139.8397
 20
136.7537
 30
0.0
 11
137.5187
 21
138.3231
 31
0.0
  0
LINE
  5
1113
330
1D
100
AcDbEntity
  8
0
100
AcDbLine
 10
148.0627
 20
120.1305
 30
0.0
 11
147.8417
 21
122.8716
 31
0.0
  0
LINE
  5
1114
330
1D
100
AcDbEntity
  8
0
100
AcDbLine
 10
147.8417
 20
117.3894
 30
0.0
 11
147.3107
 21
114.7147
 31
0.0
  0
LINE
  5
1115
330
1D
100
AcDbEntity
  8
0
100
AcDbLine
 10
147.3107
 20
114.7147
 30
0.0
 11
146.4267
 21
112.1063
 31
0.0
  0
LINE
  5
1116
330
1D
100
AcDbEntity
  8
0
100
AcDbLine
 10
148.0627
 20
120.1305
 30
0.0
 11
147.8417
 21
117.3894
 31
0.0
  0
LINE
  5
1117
330
1D
100
AcDbEntity
  8
0
100
AcDbLine
 10
147.8417
 20
122.8716
 30
0.0
 11
147.3107
 21
125.5463
 31
0.0
  0
LINE
  5
1118
330
1D
100
AcDbEntity
  8
0
100
AcDbLine
 10
147.3107
 20
125.5463
 30
0.0
 11
146.4267
 21
128.1547
 31
0.0
  0
LINE
  5
1653
330
1D
100
AcDbEntity
  8
0
100
AcDbLine
 10
41.0627
 20
795.1305
 30
0.0
 11
41.1377
 21
795.1305
 31
0.0
  0
LINE
  5
1654
330
1D
100
AcDbEntity
  8
0
100
AcDbLine
 10
41.0627
 20
795.1305
 30
0.0
 11
41.0627
 21
815.1305
 31
0.0
  0
LINE
  5
1655
330
1D
100
AcDbEntity
  8
0
100
AcDbLine
 10
41.1377
 20
815.1305
 30
0.0
 11
41.1986
 21
815.1305
 31
0.0
  0
LINE
  5
1656
330
1D
100
AcDbEntity
  8
0
100
AcDbLine
 10
41.1377
 20
795.1305
 30
0.0
 11
41.1986
 21
795.1305
 31
0.0
  0
LINE
  5
1657
330
1D
100
AcDbEntity
  8
0
100
AcDbLine
 10
41.0627
 20
815.1305
 30
0.0
 11
41.0627
 21
795.1305
 31
0.0
  0
LINE
  5
1658
330
1D
100
AcDbEntity
  8
0
100
AcDbLine
 10
41.0627
 20
815.1305
 30
0.0
 11
41.1377
 21
815.1305
 31
0.0
  0
LINE
  5
1659
330
1D
100
AcDbEntity
  8
0
100
AcDbLine
 10
41.1986
 20
815.1305
 30
0.0
 11
41.3343
 21
815.1305
 31
0.0
  0
LINE
  5
165A
330
1D
100
AcDbEntity
  8
0
100
AcDbLine
 10
41.1986
 20
795.1305
 30
0.0
 11
41.3343
 21
795.1305
 31
0.0
  0
LINE
  5
165B
330
1D
100
AcDbEntity
  8
0
100
AcDbLine
 10
41.3343
 20
795.1305
 30
0.0
 11
41.4948
 21
795.1305
 31
0.0
  0
LINE
  5
165C
330
1D
100
AcDbEntity
  8
0
100
AcDbLine
 10
41.4948
 20
795.1305
 30
0.0
 11
41.6851
 21
795.1305
 31
0.0
  0
LINE
  5
165D
330
1D
100
AcDbEntity
  8
0
100
AcDbLine
 10
41.6851
 20
795.1305
 30
0.0
 11
41.9283
 21
795.1305
 31
0.0
  0
LINE
  5
165E
330
1D
100
AcDbEntity
  8
0
100
AcDbLine
 10
41.9283
 20
795.1305
 30
0.0
 11
42.1716
 21
795.1305
 31
0.0
  0
LINE
  5
165F
330
1D
100
AcDbEntity
  8
0
100
AcDbLine
 10
42.1716
 20
795.1305
 30
0.0
 11
42.6581
 21
795.1305
 31
0.0
  0
LINE
  5
1660
330
1D
100
AcDbEntity
  8
0
100
AcDbLine
 10
42.6581
 20
795.1305
 30
0.0
 11
43.5095
 21
795.1305
 31
0.0
  0
LINE
  5
1661
330
1D
100
AcDbEntity
  8
0
100
AcDbLine
 10
43.5095
 20
795.1305
 30
0.0
 11
44.5434
 21
795.1305
 31
0.0
  0
LINE
  5
1662
330
1D
100
AcDbEntity
  8
0
100
AcDbLine
 10
44.5434
 20
795.1305
 30
0.0
 11
45.6989
 21
795.1305
 31
0.0
  0
LINE
  5
1663
330
1D
100
AcDbEntity
  8
0
100
AcDbLine
 10
41.3343
 20
815.1305
 30
0.0
 11
41.4948
 21
815.1305
 31
0.0
  0
LINE
  5
1664
330
1D
100
AcDbEntity
  8
0
100
AcDbLine
 10
41.4948
 20
815.1305
 30
0.0
 11
41.6851
 21
815.1305
 31
0.0
  0
LINE
  5
1665
330
1D
100
AcDbEntity
  8
0
100
AcDbLine
 10
41.6851
 20
815.1305
 30
0.0
 11
41.9283
 21
815.1305
 31
0.0
  0
LINE
  5
1666
330
1D
100
AcDbEntity
  8
0
100
AcDbLine
 10
41.9283
 20
815.1305
 30
0.0
 11
42.1716
 21
815.1305
 31
0.0
  0
LINE
  5
1667
330
1D
100
AcDbEntity
  8
0
100
AcDbLine
 10
42.1716
 20
815.1305
 30
0.0
 11
42.6581
 21
815.1305
 31
0.0
  0
LINE
  5
1668
330
1D
100
AcDbEntity
  8
0
100
AcDbLine
 10
42.6581
 20
815.1305
 30
0.0
 11
43.5095
 21
815.1305
 31
0.0
  0
LINE
  5
1669
330
1D
100
AcDbEntity
  8
0
100
AcDbLine
 10
43.5095
 20
815.1305
 30
0.0
 11
44.5434
 21
815.1305
 31
0.0
  0
LINE
  5
166A
330
1D
100
AcDbEntity
  8
0
100
AcDbLine
 10
44.5434
 20
815.1305
 30
0.0
 11
45.6989
 21
815.1305
 31
0.0
  0
LINE
  5
166B
330
1D
100
AcDbEntity
  8
0
100
AcDbLine
 10
45.6989
 20
815.1305
 30
0.0
 11
46.976
 21
815.1305
 31
0.0
  0
LINE
  5
166C
330
1D
100
AcDbEntity
  8
0
100
AcDbLine
 10
46.976
 20
815.1305
 30
0.0
 11
48.4627
 21
815.1305
 31
0.0
  0
LINE
  5
166D
330
1D
100
AcDbEntity
  8
0
100
AcDbLine
 10
45.6989
 20
795.1305
 30
0.0
 11
46.976
 21
795.1305
 31
0.0
  0
LINE
  5
166E
330
1D
100
AcDbEntity
  8
0
100
AcDbLine
 10
56.208
 20
795.1305
 30
0.0
 11
59.0074
 21
795.1305
 31
0.0
  0
LINE
  5
166F
330
1D
100
AcDbEntity
  8
0
100
AcDbLine
 10
53.8953
 20
795.1305
 30
0.0
 11
56.208
 21
795.1305
 31
0.0
  0
LINE
  5
1670
330
1D
100
AcDbEntity
  8
0
100
AcDbLine
 10
51.9479
 20
795.1305
 30
0.0
 11
53.8953
 21
795.1305
 31
0.0
  0
LINE
  5
1671
330
1D
100
AcDbEntity
  8
0
100
AcDbLine
 10
50.183
 20
795.1305
 30
0.0
 11
51.9479
 21
795.1305
 31
0.0
  0
LINE
  5
1672
330
1D
100
AcDbEntity
  8
0
100
AcDbLine
 10
56.208
 20
815.1305
 30
0.0
 11
59.0074
 21
815.1305
 31
0.0
  0
LINE
  5
1673
330
1D
100
AcDbEntity
  8
0
100
AcDbLine
 10
53.8953
 20
815.1305
 30
0.0
 11
56.208
 21
815.1305
 31
0.0
  0
LINE
  5
1674
330
1D
100
AcDbEntity
  8
0
100
AcDbLine
 10
51.9479
 20
815.1305
 30
0.0
 11
53.8953
 21
815.1305
 31
0.0
  0
LINE
  5
1675
330
1D
100
AcDbEntity
  8
0
100
AcDbLine
 10
50.183
 20
815.1305
 30
0.0
 11
51.9479
 21
815.1305
 31
0.0
  0
LINE
  5
1676
330
1D
100
AcDbEntity
  8
0
100
AcDbLine
 10
48.4627
 20
815.1305
 30
0.0
 11
50.183
 21
815.1305
 31
0.0
  0
LINE
  5
1677
330
1D
100
AcDbEntity
  8
0
100
AcDbLine
 10
48.4627
 20
795.1305
 30
0.0
 11
50.183
 21
795.1305
 31
0.0
  0
LINE
  5
1678
330
1D
100
AcDbEntity
  8
0
100
AcDbLine
 10
46.976
 20
795.1305
 30
0.0
 11
48.4627
 21
795.1305
 31
0.0
  0
LINE
  5
1679
330
1D
100
AcDbEntity
  8
0
100
AcDbLine
 10
59.0074
 20
815.1305
 30
0.0
 11
61.9286
 21
815.1305
 31
0.0
  0
LINE
  5
167A
330
1D
100
AcDbEntity
  8
0
100
AcDbLine
 10
59.0074
 20
795.1305
 30
0.0
 11
61.9286
 21
795.1305
 31
0.0
  0
LINE
  5
167B
330
1D
100
AcDbEntity
  8
0
100
AcDbLine
 10
61.9286
 20
815.1305
 30
0.0
 11
65.0933
 21
815.1305
 31
0.0
  0
LINE
  5
167C
330
1D
100
AcDbEntity
  8
0
100
AcDbLine
 10
61.9286
 20
795.1305
 30
0.0
 11
65.0933
 21
795.1305
 31
0.0
  0
LINE
  5
167D
330
1D
100
AcDbEntity
  8
0
100
AcDbLine
 10
71.0822
 20
795.1305
 30
0.0
 11
74.186
 21
795.1305
 31
0.0
  0
LINE
  5
167E
330
1D
100
AcDbEntity
  8
0
100
AcDbLine
 10
68.197
 20
795.1305
 30
0.0
 11
71.0822
 21
795.1305
 31
0.0
  0
LINE
  5
167F
330
1D
100
AcDbEntity
  8
0
100
AcDbLine
 10
71.0822
 20
815.1305
 30
0.0
 11
74.186
 21
815.1305
 31
0.0
  0
LINE
  5
1680
330
1D
100
AcDbEntity
  8
0
100
AcDbLine
 10
68.197
 20
815.1305
 30
0.0
 11
71.0822
 21
815.1305
 31
0.0
  0
LINE
  5
1681
330
1D
100
AcDbEntity
  8
0
100
AcDbLine
 10
65.0933
 20
815.1305
 30
0.0
 11
68.197
 21
815.1305
 31
0.0
  0
LINE
  5
1682
330
1D
100
AcDbEntity
  8
0
100
AcDbLine
 10
65.0933
 20
795.1305
 30
0.0
 11
68.197
 21
795.1305
 31
0.0
  0
LINE
  5
1683
330
1D
100
AcDbEntity
  8
0
100
AcDbLine
 10
74.186
 20
815.1305
 30
0.0
 11
77.7518
 21
815.1305
 31
0.0
  0
LINE
  5
1684
330
1D
100
AcDbEntity
  8
0
100
AcDbLine
 10
77.7518
 20
815.1305
 30
0.0
 11
81.4641
 21
815.1305
 31
0.0
  0
LINE
  5
1685
330
1D
100
AcDbEntity
  8
0
100
AcDbLine
 10
77.7518
 20
795.1305
 30
0.0
 11
81.4641
 21
795.1305
 31
0.0
  0
LINE
  5
1686
330
1D
100
AcDbEntity
  8
0
100
AcDbLine
 10
74.186
 20
795.1305
 30
0.0
 11
77.7518
 21
795.1305
 31
0.0
  0
LINE
  5
1687
330
1D
100
AcDbEntity
  8
0
100
AcDbLine
 10
81.4641
 20
815.1305
 30
0.0
 11
85.0627
 21
815.1305
 31
0.0
  0
LINE
  5
1688
330
1D
100
AcDbEntity
  8
0
100
AcDbLine
 10
81.4641
 20
795.1305
 30
0.0
 11
85.0627
 21
795.1305
 31
0.0
  0
LINE
  5
1689
330
1D
100
AcDbEntity
  8
0
100
AcDbLine
 10
85.0627
 20
815.1305
 30
0.0
 11
95.0627
 21
815.1305
 31
0.0
  0
LINE
  5
168A
330
1D
100
AcDbEntity
  8
0
100
AcDbLine
 10
95.0627
 20
795.1305
 30
0.0
 11
105.0627
 21
795.1305
 31
0.0
  0
LINE
  5
168B
330
1D
100
AcDbEntity
  8
0
100
AcDbLine
 10
105.0627
 20
795.1305
 30
0.0
 11
108.6617
 21
795.1305
 31
0.0
  0
LINE
  5
168C
330
1D
100
AcDbEntity
  8
0
100
AcDbLine
 10
108.6617
 20
795.1305
 30
0.0
 11
112.3737
 21
795.1305
 31
0.0
  0
LINE
  5
168D
330
1D
100
AcDbEntity
  8
0
100
AcDbLine
 10
112.3737
 20
795.1305
 30
0.0
 11
115.9397
 21
795.1305
 31
0.0
  0
LINE
  5
168E
330
1D
100
AcDbEntity
  8
0
100
AcDbLine
 10
115.9397
 20
795.1305
 30
0.0
 11
119.0427
 21
795.1305
 31
0.0
  0
LINE
  5
168F
330
1D
100
AcDbEntity
  8
0
100
AcDbLine
 10
119.0427
 20
795.1305
 30
0.0
 11
121.9287
 21
795.1305
 31
0.0
  0
LINE
  5
1690
330
1D
100
AcDbEntity
  8
0
100
AcDbLine
 10
121.9287
 20
795.1305
 30
0.0
 11
125.0317
 21
795.1305
 31
0.0
  0
LINE
  5
1691
330
1D
100
AcDbEntity
  8
0
100
AcDbLine
 10
95.0627
 20
815.1305
 30
0.0
 11
105.0627
 21
815.1305
 31
0.0
  0
LINE
  5
1692
330
1D
100
AcDbEntity
  8
0
100
AcDbLine
 10
105.0627
 20
815.1305
 30
0.0
 11
108.6617
 21
815.1305
 31
0.0
  0
LINE
  5
1693
330
1D
100
AcDbEntity
  8
0
100
AcDbLine
 10
108.6617
 20
815.1305
 30
0.0
 11
112.3737
 21
815.1305
 31
0.0
  0
LINE
  5
1694
330
1D
100
AcDbEntity
  8
0
100
AcDbLine
 10
112.3737
 20
815.1305
 30
0.0
 11
115.9397
 21
815.1305
 31
0.0
  0
LINE
  5
1695
330
1D
100
AcDbEntity
  8
0
100
AcDbLine
 10
115.9397
 20
815.1305
 30
0.0
 11
119.0427
 21
815.1305
 31
0.0
  0
LINE
  5
1696
330
1D
100
AcDbEntity
  8
0
100
AcDbLine
 10
119.0427
 20
815.1305
 30
0.0
 11
121.9287
 21
815.1305
 31
0.0
  0
LINE
  5
1697
330
1D
100
AcDbEntity
  8
0
100
AcDbLine
 10
121.9287
 20
815.1305
 30
0.0
 11
125.0317
 21
815.1305
 31
0.0
  0
LINE
  5
1698
330
1D
100
AcDbEntity
  8
0
100
AcDbLine
 10
125.0317
 20
815.1305
 30
0.0
 11
128.1967
 21
815.1305
 31
0.0
  0
LINE
  5
1699
330
1D
100
AcDbEntity
  8
0
100
AcDbLine
 10
125.0317
 20
795.1305
 30
0.0
 11
128.1967
 21
795.1305
 31
0.0
  0
LINE
  5
169A
330
1D
100
AcDbEntity
  8
0
100
AcDbLine
 10
85.0627
 20
795.1305
 30
0.0
 11
95.0627
 21
795.1305
 31
0.0
  0
LINE
  5
169B
330
1D
100
AcDbEntity
  8
0
100
AcDbLine
 10
128.1967
 20
795.1305
 30
0.0
 11
131.1177
 21
795.1305
 31
0.0
  0
LINE
  5
169C
330
1D
100
AcDbEntity
  8
0
100
AcDbLine
 10
131.1177
 20
795.1305
 30
0.0
 11
133.9177
 21
795.1305
 31
0.0
  0
LINE
  5
169D
330
1D
100
AcDbEntity
  8
0
100
AcDbLine
 10
133.9177
 20
795.1305
 30
0.0
 11
136.2297
 21
795.1305
 31
0.0
  0
LINE
  5
169E
330
1D
100
AcDbEntity
  8
0
100
AcDbLine
 10
136.2297
 20
795.1305
 30
0.0
 11
138.1777
 21
795.1305
 31
0.0
  0
LINE
  5
169F
330
1D
100
AcDbEntity
  8
0
100
AcDbLine
 10
138.1777
 20
795.1305
 30
0.0
 11
139.9427
 21
795.1305
 31
0.0
  0
LINE
  5
16A0
330
1D
100
AcDbEntity
  8
0
100
AcDbLine
 10
128.1967
 20
815.1305
 30
0.0
 11
131.1177
 21
815.1305
 31
0.0
  0
LINE
  5
16A1
330
1D
100
AcDbEntity
  8
0
100
AcDbLine
 10
131.1177
 20
815.1305
 30
0.0
 11
133.9177
 21
815.1305
 31
0.0
  0
LINE
  5
16A2
330
1D
100
AcDbEntity
  8
0
100
AcDbLine
 10
133.9177
 20
815.1305
 30
0.0
 11
136.2297
 21
815.1305
 31
0.0
  0
LINE
  5
16A3
330
1D
100
AcDbEntity
  8
0
100
AcDbLine
 10
136.2297
 20
815.1305
 30
0.0
 11
138.1777
 21
815.1305
 31
0.0
  0
LINE
  5
16A4
330
1D
100
AcDbEntity
  8
0
100
AcDbLine
 10
138.1777
 20
815.1305
 30
0.0
 11
139.9427
 21
815.1305
 31
0.0
  0
LINE
  5
16A5
330
1D
100
AcDbEntity
  8
0
100
AcDbLine
 10
139.9427
 20
815.1305
 30
0.0
 11
141.6627
 21
815.1305
 31
0.0
  0
LINE
  5
16A6
330
1D
100
AcDbEntity
  8
0
100
AcDbLine
 10
139.9427
 20
795.1305
 30
0.0
 11
141.6627
 21
795.1305
 31
0.0
  0
LINE
  5
16A7
330
1D
100
AcDbEntity
  8
0
100
AcDbLine
 10
148.0627
 20
795.1305
 30
0.0
 11
154.0627
 21
795.1305
 31
0.0
  0
LINE
  5
16A8
330
1D
100
AcDbEntity
  8
0
100
AcDbLine
 10
148.9877
 20
795.1305
 30
0.0
 11
149.0627
 21
795.1305
 31
0.0
  0
LINE
  5
16A9
330
1D
100
AcDbEntity
  8
0
100
AcDbLine
 10
148.9267
 20
795.1305
 30
0.0
 11
148.9877
 21
795.1305
 31
0.0
  0
LINE
  5
16AA
330
1D
100
AcDbEntity
  8
0
100
AcDbLine
 10
148.7907
 20
795.1305
 30
0.0
 11
148.9267
 21
795.1305
 31
0.0
  0
LINE
  5
16AB
330
1D
100
AcDbEntity
  8
0
100
AcDbLine
 10
148.6307
 20
795.1305
 30
0.0
 11
148.7907
 21
795.1305
 31
0.0
  0
LINE
  5
16AC
330
1D
100
AcDbEntity
  8
0
100
AcDbLine
 10
148.4407
 20
795.1305
 30
0.0
 11
148.6307
 21
795.1305
 31
0.0
  0
LINE
  5
16AD
330
1D
100
AcDbEntity
  8
0
100
AcDbLine
 10
148.1967
 20
795.1305
 30
0.0
 11
148.4407
 21
795.1305
 31
0.0
  0
LINE
  5
16AE
330
1D
100
AcDbEntity
  8
0
100
AcDbLine
 10
147.9537
 20
795.1305
 30
0.0
 11
148.1967
 21
795.1305
 31
0.0
  0
LINE
  5
16AF
330
1D
100
AcDbEntity
  8
0
100
AcDbLine
 10
147.4677
 20
795.1305
 30
0.0
 11
147.9537
 21
795.1305
 31
0.0
  0
LINE
  5
16B0
330
1D
100
AcDbEntity
  8
0
100
AcDbLine
 10
146.6157
 20
795.1305
 30
0.0
 11
147.4677
 21
795.1305
 31
0.0
  0
LINE
  5
16B1
330
1D
100
AcDbEntity
  8
0
100
AcDbLine
 10
145.5817
 20
795.1305
 30
0.0
 11
146.6157
 21
795.1305
 31
0.0
  0
LINE
  5
16B2
330
1D
100
AcDbEntity
  8
0
100
AcDbLine
 10
144.4267
 20
795.1305
 30
0.0
 11
145.5817
 21
795.1305
 31
0.0
  0
LINE
  5
16B3
330
1D
100
AcDbEntity
  8
0
100
AcDbLine
 10
143.1497
 20
795.1305
 30
0.0
 11
144.4267
 21
795.1305
 31
0.0
  0
LINE
  5
16B4
330
1D
100
AcDbEntity
  8
0
100
AcDbLine
 10
148.98465
 20
814.1305
 30
0.0
 11
154.0627
 21
814.1305
 31
0.0
  0
LINE
  5
16B5
330
1D
100
AcDbEntity
  8
0
100
AcDbLine
 10
148.9877
 20
815.1305
 30
0.0
 11
149.0627
 21
815.1305
 31
0.0
  0
LINE
  5
16B6
330
1D
100
AcDbEntity
  8
0
100
AcDbLine
 10
148.9267
 20
815.1305
 30
0.0
 11
148.9877
 21
815.1305
 31
0.0
  0
LINE
  5
16B7
330
1D
100
AcDbEntity
  8
0
100
AcDbLine
 10
148.7907
 20
815.1305
 30
0.0
 11
148.9267
 21
815.1305
 31
0.0
  0
LINE
  5
16B8
330
1D
100
AcDbEntity
  8
0
100
AcDbLine
 10
148.6307
 20
815.1305
 30
0.0
 11
148.7907
 21
815.1305
 31
0.0
  0
LINE
  5
16B9
330
1D
100
AcDbEntity
  8
0
100
AcDbLine
 10
148.4407
 20
815.1305
 30
0.0
 11
148.6307
 21
815.1305
 31
0.0
  0
LINE
  5
16BA
330
1D
100
AcDbEntity
  8
0
100
AcDbLine
 10
148.1967
 20
815.1305
 30
0.0
 11
148.4407
 21
815.1305
 31
0.0
  0
LINE
  5
16BB
330
1D
100
AcDbEntity
  8
0
100
AcDbLine
 10
147.9537
 20
815.1305
 30
0.0
 11
148.1967
 21
815.1305
 31
0.0
  0
LINE
  5
16BC
330
1D
100
AcDbEntity
  8
0
100
AcDbLine
 10
147.4677
 20
815.1305
 30
0.0
 11
147.9537
 21
815.1305
 31
0.0
  0
LINE
  5
16BD
330
1D
100
AcDbEntity
  8
0
100
AcDbLine
 10
146.6157
 20
815.1305
 30
0.0
 11
147.4677
 21
815.1305
 31
0.0
  0
LINE
  5
16BE
330
1D
100
AcDbEntity
  8
0
100
AcDbLine
 10
145.5817
 20
815.1305
 30
0.0
 11
146.6157
 21
815.1305
 31
0.0
  0
LINE
  5
16BF
330
1D
100
AcDbEntity
  8
0
100
AcDbLine
 10
144.4267
 20
815.1305
 30
0.0
 11
145.5817
 21
815.1305
 31
0.0
  0
LINE
  5
16C0
330
1D
100
AcDbEntity
  8
0
100
AcDbLine
 10
143.1497
 20
815.1305
 30
0.0
 11
144.4267
 21
815.1305
 31
0.0
  0
LINE
  5
16C1
330
1D
100
AcDbEntity
  8
0
100
AcDbLine
 10
141.6627
 20
815.1305
 30
0.0
 11
143.1497
 21
815.1305
 31
0.0
  0
LINE
  5
16C2
330
1D
100
AcDbEntity
  8
0
100
AcDbLine
 10
141.6627
 20
795.1305
 30
0.0
 11
143.1497
 21
795.1305
 31
0.0
  0
LINE
  5
16C3
330
1D
100
AcDbEntity
  8
0
100
AcDbLine
 10
154.0627
 20
795.1305
 30
0.0
 11
154.0627
 21
814.1305
 31
0.0
  0
LINE
  5
16C4
330
1D
100
AcDbEntity
  8
0
100
AcDbLine
 10
154.0627
 20
795.1305
 30
0.0
 11
157.0627
 21
795.1305
 31
0.0
  0
LINE
  5
16C5
330
1D
100
AcDbEntity
  8
0
100
AcDbLine
 10
154.0627
 20
795.1305
 30
0.0
 11
168.0627
 21
795.1305
 31
0.0
  0
LINE
  5
16C6
330
1D
100
AcDbEntity
  8
0
100
AcDbLine
 10
149.0627
 20
815.1305
 30
0.0
 11
149.0627
 21
814.1305
 31
0.0
  0
LINE
  5
16C7
330
1D
100
AcDbEntity
  8
0
100
AcDbLine
 10
154.0627
 20
813.1305
 30
0.0
 11
168.0627
 21
813.1305
 31
0.0
  0
LINE
  5
16C8
330
1D
100
AcDbEntity
  8
0
100
AcDbLine
 10
154.0627
 20
814.1305
 30
0.0
 11
154.0627
 21
795.1305
 31
0.0
  0
LINE
  5
16C9
330
1D
100
AcDbEntity
  8
0
100
AcDbLine
 10
149.0627
 20
814.1305
 30
0.0
 11
149.0627
 21
815.1305
 31
0.0
  0
LINE
  5
16CA
330
1D
100
AcDbEntity
  8
0
100
AcDbLine
 10
152.6047
 20
1110.3045
 30
0.0
 11
154.1627
 21
1114.2065
 31
0.0
  0
LINE
  5
16CB
330
1D
100
AcDbEntity
  8
0
100
AcDbLine
 10
152.0027
 20
1106.1465
 30
0.0
 11
152.6537
 21
1102.0195
 31
0.0
  0
LINE
  5
16CC
330
1D
100
AcDbEntity
  8
0
100
AcDbLine
 10
152.0027
 20
1106.1465
 30
0.0
 11
152.6047
 21
1110.3045
 31
0.0
  0
LINE
  5
16CD
330
1D
100
AcDbEntity
  8
0
100
AcDbLine
 10
152.6537
 20
1102.0195
 30
0.0
 11
154.1847
 21
1098.1685
 31
0.0
  0
LINE
  5
16CE
330
1D
100
AcDbEntity
  8
0
100
AcDbLine
 10
157.0627
 20
645.515115
 30
0.0
 11
157.3267
 21
645.1305
 31
0.0
  0
LINE
  5
16CF
330
1D
100
AcDbEntity
  8
0
100
AcDbLine
 10
157.0627
 20
645.515115
 30
0.0
 11
157.0627
 21
714.7459
 31
0.0
  0
LINE
  5
16D0
330
1D
100
AcDbEntity
  8
0
100
AcDbLine
 10
157.3267
 20
645.1305
 30
0.0
 11
157.7227
 21
645.1305
 31
0.0
  0
LINE
  5
16D1
330
1D
100
AcDbEntity
  8
0
100
AcDbLine
 10
157.7227
 20
645.1305
 30
0.0
 11
158.7787
 21
645.1305
 31
0.0
  0
LINE
  5
16D2
330
1D
100
AcDbEntity
  8
0
100
AcDbLine
 10
157.0627
 20
714.7459
 30
0.0
 11
157.3267
 21
715.1305
 31
0.0
  0
LINE
  5
16D3
330
1D
100
AcDbEntity
  8
0
100
AcDbLine
 10
157.0627
 20
714.7459
 30
0.0
 11
157.0627
 21
645.515115
 31
0.0
  0
LINE
  5
16D4
330
1D
100
AcDbEntity
  8
0
100
AcDbLine
 10
157.0627
 20
715.7305
 30
0.0
 11
157.3267
 21
715.1305
 31
0.0
  0
LINE
  5
16D5
330
1D
100
AcDbEntity
  8
0
100
AcDbLine
 10
157.0627
 20
715.7305
 30
0.0
 11
157.0627
 21
795.1305
 31
0.0
  0
LINE
  5
16D6
330
1D
100
AcDbEntity
  8
0
100
AcDbLine
 10
157.0627
 20
795.1305
 30
0.0
 11
157.0627
 21
715.7305
 31
0.0
  0
LINE
  5
16D7
330
1D
100
AcDbEntity
  8
0
100
AcDbLine
 10
157.0627
 20
795.1305
 30
0.0
 11
163.0627
 21
795.1305
 31
0.0
  0
LINE
  5
16D8
330
1D
100
AcDbEntity
  8
0
100
AcDbLine
 10
157.0627
 20
813.1305
 30
0.0
 11
157.0627
 21
1024.1305
 31
0.0
  0
LINE
  5
16D9
330
1D
100
AcDbEntity
  8
0
100
AcDbLine
 10
157.3267
 20
715.1305
 30
0.0
 11
157.7227
 21
715.1305
 31
0.0
  0
LINE
  5
16DA
330
1D
100
AcDbEntity
  8
0
100
AcDbLine
 10
157.7227
 20
715.1305
 30
0.0
 11
158.7787
 21
715.1305
 31
0.0
  0
LINE
  5
16DB
330
1D
100
AcDbEntity
  8
0
100
AcDbLine
 10
158.7787
 20
645.1305
 30
0.0
 11
160.4947
 21
645.1305
 31
0.0
  0
LINE
  5
16DC
330
1D
100
AcDbEntity
  8
0
100
AcDbLine
 10
158.7787
 20
715.1305
 30
0.0
 11
160.4947
 21
715.1305
 31
0.0
  0
LINE
  5
16DD
330
1D
100
AcDbEntity
  8
0
100
AcDbLine
 10
160.4947
 20
645.1305
 30
0.0
 11
162.7387
 21
645.1305
 31
0.0
  0
LINE
  5
16DE
330
1D
100
AcDbEntity
  8
0
100
AcDbLine
 10
160.4947
 20
715.1305
 30
0.0
 11
162.7387
 21
715.1305
 31
0.0
  0
LINE
  5
16DF
330
1D
100
AcDbEntity
  8
0
100
AcDbLine
 10
160.0027
 20
1092.2905
 30
0.0
 11
163.9047
 21
1090.7325
 31
0.0
  0
LINE
  5
16E0
330
1D
100
AcDbEntity
  8
0
100
AcDbLine
 10
156.7537
 20
1094.9175
 30
0.0
 11
157.0627
 21
1094.667656048015
 31
0.0
  0
LINE
  5
16E1
330
1D
100
AcDbEntity
  8
0
100
AcDbLine
 10
156.7537
 20
1094.9175
 30
0.0
 11
160.0027
 21
1092.2905
 31
0.0
  0
LINE
  5
16E2
330
1D
100
AcDbEntity
  8
0
100
AcDbLine
 10
154.1847
 20
1098.1685
 30
0.0
 11
156.7537
 21
1094.9175
 31
0.0
  0
LINE
  5
16E3
330
1D
100
AcDbEntity
  8
0
100
AcDbLine
 10
154.1627
 20
1114.2065
 30
0.0
 11
156.7897
 21
1117.4555
 31
0.0
  0
LINE
  5
16E4
330
1D
100
AcDbEntity
  8
0
100
AcDbLine
 10
161.568412050105
 20
1112.979046574245
 30
0.0
 11
169.1137
 21
1095.3845
 31
0.0
  0
LINE
  5
16E5
330
1D
100
AcDbEntity
  8
0
100
AcDbLine
 10
162.7387
 20
645.1305
 30
0.0
 11
165.2907
 21
645.1305
 31
0.0
  0
LINE
  5
16E6
330
1D
100
AcDbEntity
  8
0
100
AcDbLine
 10
163.0627
 20
795.1305
 30
0.0
 11
168.0627
 21
795.1305
 31
0.0
  0
LINE
  5
16E7
330
1D
100
AcDbEntity
  8
0
100
AcDbLine
 10
162.7387
 20
715.1305
 30
0.0
 11
165.2907
 21
715.1305
 31
0.0
  0
LINE
  5
16E8
330
1D
100
AcDbEntity
  8
0
100
AcDbLine
 10
168.0627
 20
645.1305
 30
0.0
 11
170.8347
 21
645.1305
 31
0.0
  0
LINE
  5
16E9
330
1D
100
AcDbEntity
  8
0
100
AcDbLine
 10
165.2907
 20
645.1305
 30
0.0
 11
168.0627
 21
645.1305
 31
0.0
  0
LINE
  5
16EA
330
1D
100
AcDbEntity
  8
0
100
AcDbLine
 10
168.0627
 20
715.1305
 30
0.0
 11
170.8347
 21
715.1305
 31
0.0
  0
LINE
  5
16EB
330
1D
100
AcDbEntity
  8
0
100
AcDbLine
 10
168.0627
 20
813.1305
 30
0.0
 11
171.3907
 21
813.1305
 31
0.0
  0
LINE
  5
16EC
330
1D
100
AcDbEntity
  8
0
100
AcDbLine
 10
168.0627
 20
795.1305
 30
0.0
 11
171.3907
 21
795.1305
 31
0.0
  0
LINE
  5
16ED
330
1D
100
AcDbEntity
  8
0
100
AcDbLine
 10
168.0627
 20
795.1305
 30
0.0
 11
170.8787
 21
795.1305
 31
0.0
  0
LINE
  5
16EE
330
1D
100
AcDbEntity
  8
0
100
AcDbLine
 10
165.2907
 20
715.1305
 30
0.0
 11
168.0627
 21
715.1305
 31
0.0
  0
LINE
  5
16EF
330
1D
100
AcDbEntity
  8
0
100
AcDbLine
 10
168.0627
 20
1090.1305
 30
0.0
 11
170.785868140755
 21
1090.559953115221
 31
0.0
  0
LINE
  5
16F0
330
1D
100
AcDbEntity
  8
0
100
AcDbLine
 10
163.9047
 20
1090.7325
 30
0.0
 11
168.0627
 21
1090.1305
 31
0.0
  0
LINE
  5
16F1
330
1D
100
AcDbEntity
  8
0
100
AcDbLine
 10
169.1137
 20
1095.3845
 30
0.0
 11
177.0147
 21
1072.5885
 31
0.0
  0
LINE
  5
16F2
330
1D
100
AcDbEntity
  8
0
100
AcDbLine
 10
170.8347
 20
645.1305
 30
0.0
 11
173.3867
 21
645.1305
 31
0.0
  0
LINE
  5
16F3
330
1D
100
AcDbEntity
  8
0
100
AcDbLine
 10
175.6307
 20
645.1305
 30
0.0
 11
177.3467
 21
645.1305
 31
0.0
  0
LINE
  5
16F4
330
1D
100
AcDbEntity
  8
0
100
AcDbLine
 10
173.3867
 20
645.1305
 30
0.0
 11
175.6307
 21
645.1305
 31
0.0
  0
LINE
  5
16F5
330
1D
100
AcDbEntity
  8
0
100
AcDbLine
 10
178.4027
 20
645.1305
 30
0.0
 11
178.7987
 21
645.1305
 31
0.0
  0
LINE
  5
16F6
330
1D
100
AcDbEntity
  8
0
100
AcDbLine
 10
178.7987
 20
645.1305
 30
0.0
 11
179.0627
 21
645.515115
 31
0.0
  0
LINE
  5
16F7
330
1D
100
AcDbEntity
  8
0
100
AcDbLine
 10
177.3467
 20
645.1305
 30
0.0
 11
178.4027
 21
645.1305
 31
0.0
  0
LINE
  5
16F8
330
1D
100
AcDbEntity
  8
0
100
AcDbLine
 10
179.0627
 20
645.515115
 30
0.0
 11
179.0627
 21
670.1305
 31
0.0
  0
LINE
  5
16F9
330
1D
100
AcDbEntity
  8
0
100
AcDbLine
 10
172.580033532474
 20
670.1305
 30
0.0
 11
192.745205242343
 21
670.1305
 31
0.0
  0
LINE
  5
16FA
330
1D
100
AcDbEntity
  8
0
100
AcDbLine
 10
173.5187
 20
795.1305
 30
0.0
 11
175.8507
 21
795.1305
 31
0.0
  0
LINE
  5
16FB
330
1D
100
AcDbEntity
  8
0
100
AcDbLine
 10
170.8787
 20
795.1305
 30
0.0
 11
173.5187
 21
795.1305
 31
0.0
  0
LINE
  5
16FC
330
1D
100
AcDbEntity
  8
0
100
AcDbLine
 10
178.6667
 20
795.1305
 30
0.0
 11
179.0627
 21
795.1305
 31
0.0
  0
LINE
  5
16FD
330
1D
100
AcDbEntity
  8
0
100
AcDbLine
 10
177.6107
 20
795.1305
 30
0.0
 11
178.6667
 21
795.1305
 31
0.0
  0
LINE
  5
16FE
330
1D
100
AcDbEntity
  8
0
100
AcDbLine
 10
175.8507
 20
795.1305
 30
0.0
 11
177.6107
 21
795.1305
 31
0.0
  0
LINE
  5
16FF
330
1D
100
AcDbEntity
  8
0
100
AcDbLine
 10
177.2667
 20
795.1305
 30
0.0
 11
179.3467
 21
795.1305
 31
0.0
  0
LINE
  5
1700
330
1D
100
AcDbEntity
  8
0
100
AcDbLine
 10
174.5107
 20
795.1305
 30
0.0
 11
177.2667
 21
795.1305
 31
0.0
  0
LINE
  5
1701
330
1D
100
AcDbEntity
  8
0
100
AcDbLine
 10
171.3907
 20
795.1305
 30
0.0
 11
174.5107
 21
795.1305
 31
0.0
  0
LINE
  5
1702
330
1D
100
AcDbEntity
  8
0
100
AcDbLine
 10
179.0627
 20
715.7305
 30
0.0
 11
179.0627
 21
795.1305
 31
0.0
  0
LINE
  5
1703
330
1D
100
AcDbEntity
  8
0
100
AcDbLine
 10
178.7987
 20
715.1305
 30
0.0
 11
179.0627
 21
715.7305
 31
0.0
  0
LINE
  5
1704
330
1D
100
AcDbEntity
  8
0
100
AcDbLine
 10
177.2667
 20
813.1305
 30
0.0
 11
179.3467
 21
813.1305
 31
0.0
  0
LINE
  5
1705
330
1D
100
AcDbEntity
  8
0
100
AcDbLine
 10
174.5107
 20
813.1305
 30
0.0
 11
177.2667
 21
813.1305
 31
0.0
  0
LINE
  5
1706
330
1D
100
AcDbEntity
  8
0
100
AcDbLine
 10
171.3907
 20
813.1305
 30
0.0
 11
174.5107
 21
813.1305
 31
0.0
  0
LINE
  5
1707
330
1D
100
AcDbEntity
  8
0
100
AcDbLine
 10
179.0627
 20
795.1305
 30
0.0
 11
179.0627
 21
715.7305
 31
0.0
  0
LINE
  5
1708
330
1D
100
AcDbEntity
  8
0
100
AcDbLine
 10
179.0627
 20
795.1305
 30
0.0
 11
179.3467
 21
795.1305
 31
0.0
  0
LINE
  5
1709
330
1D
100
AcDbEntity
  8
0
100
AcDbLine
 10
181.0627
 20
795.1305
 30
0.0
 11
181.0627
 21
813.1305
 31
0.0
  0
LINE
  5
170A
330
1D
100
AcDbEntity
  8
0
100
AcDbLine
 10
180.5947
 20
795.1305
 30
0.0
 11
181.0627
 21
795.1305
 31
0.0
  0
LINE
  5
170B
330
1D
100
AcDbEntity
  8
0
100
AcDbLine
 10
180.5947
 20
813.1305
 30
0.0
 11
181.0627
 21
813.1305
 31
0.0
  0
LINE
  5
170C
330
1D
100
AcDbEntity
  8
0
100
AcDbLine
 10
179.3467
 20
813.1305
 30
0.0
 11
180.5947
 21
813.1305
 31
0.0
  0
LINE
  5
170D
330
1D
100
AcDbEntity
  8
0
100
AcDbLine
 10
181.0627
 20
813.1305
 30
0.0
 11
181.0627
 21
795.1305
 31
0.0
  0
LINE
  5
170E
330
1D
100
AcDbEntity
  8
0
100
AcDbLine
 10
179.3467
 20
795.1305
 30
0.0
 11
180.5947
 21
795.1305
 31
0.0
  0
LINE
  5
170F
330
1D
100
AcDbEntity
  8
0
100
AcDbLine
 10
179.0627
 20
1024.1305
 30
0.0
 11
179.0627
 21
1064.52962
 31
0.0
  0
LINE
  5
1710
330
1D
100
AcDbEntity
  8
0
100
AcDbLine
 10
179.0627
 20
1064.52962
 30
0.0
 11
179.0627
 21
1024.1305
 31
0.0
  0
LINE
  5
1711
330
1D
100
AcDbEntity
  8
0
100
AcDbLine
 10
179.0627
 20
813.1305
 30
0.0
 11
179.0627
 21
1024.1305
 31
0.0
  0
LINE
  5
1712
330
1D
100
AcDbEntity
  8
0
100
AcDbLine
 10
170.8347
 20
715.1305
 30
0.0
 11
192.710543695392
 21
715.1305
 31
0.0
  0
LINE
  5
1713
330
1D
100
AcDbEntity
  8
0
100
AcDbLine
 10
179.0627
 20
670.1305
 30
0.0
 11
192.745205242343
 21
670.1305
 31
0.0
  0
LINE
  5
1714
330
1D
100
AcDbEntity
  8
0
100
AcDbLine
 10
179.0627
 20
670.1305
 30
0.0
 11
179.0627
 21
645.515115
 31
0.0
  0
LINE
  5
1715
330
1D
100
AcDbEntity
  8
0
100
AcDbLine
 10
192.5137
 20
970.6865
 30
0.0
 11
192.9157
 21
448.7825
 31
0.0
  0
LINE
  5
1716
330
1D
100
AcDbEntity
  8
0
100
AcDbLine
 10
192.5137
 20
970.6865
 30
0.0
 11
192.9157
 21
448.7825
 31
0.0
  0
LINE
  5
1717
330
1D
100
AcDbEntity
  8
0
100
AcDbLine
 10
201.8317
 20
445.3445
 30
0.0
 11
204.7377
 21
445.8525
 31
0.0
  0
LINE
  5
1718
330
1D
100
AcDbEntity
  8
0
100
AcDbLine
 10
207.1297
 20
446.8035
 30
0.0
 11
208.5587
 21
448.1775
 31
0.0
  0
LINE
  5
1719
330
1D
100
AcDbEntity
  8
0
100
AcDbLine
 10
204.7377
 20
445.8525
 30
0.0
 11
207.1297
 21
446.8035
 31
0.0
  0
LINE
  5
171A
330
1D
100
AcDbEntity
  8
0
100
AcDbLine
 10
198.6887
 20
445.4735
 30
0.0
 11
201.8317
 21
445.3445
 31
0.0
  0
LINE
  5
171B
330
1D
100
AcDbEntity
  8
0
100
AcDbLine
 10
195.8897
 20
446.1765
 30
0.0
 11
198.6887
 21
445.4735
 31
0.0
  0
LINE
  5
171C
330
1D
100
AcDbEntity
  8
0
100
AcDbLine
 10
207.7917
 20
451.1475
 30
0.0
 11
208.8217
 21
449.7195
 31
0.0
  0
LINE
  5
171D
330
1D
100
AcDbEntity
  8
0
100
AcDbLine
 10
205.8557
 20
452.3235
 30
0.0
 11
207.7917
 21
451.1475
 31
0.0
  0
LINE
  5
171E
330
1D
100
AcDbEntity
  8
0
100
AcDbLine
 10
203.0617
 20
453.0265
 30
0.0
 11
205.8557
 21
452.3235
 31
0.0
  0
LINE
  5
171F
330
1D
100
AcDbEntity
  8
0
100
AcDbLine
 10
199.9187
 20
453.1585
 30
0.0
 11
203.0617
 21
453.0265
 31
0.0
  0
LINE
  5
1720
330
1D
100
AcDbEntity
  8
0
100
AcDbLine
 10
197.0087
 20
452.6525
 30
0.0
 11
199.9187
 21
453.1585
 31
0.0
  0
LINE
  5
1721
330
1D
100
AcDbEntity
  8
0
100
AcDbLine
 10
194.6137
 20
451.7005
 30
0.0
 11
197.0087
 21
452.6525
 31
0.0
  0
LINE
  5
1722
330
1D
100
AcDbEntity
  8
0
100
AcDbLine
 10
193.1807
 20
450.3275
 30
0.0
 11
194.6137
 21
451.7005
 31
0.0
  0
LINE
  5
1723
330
1D
100
AcDbEntity
  8
0
100
AcDbLine
 10
208.5137
 20
970.6905
 30
0.0
 11
208.8217
 21
449.7195
 31
0.0
  0
LINE
  5
1724
330
1D
100
AcDbEntity
  8
0
100
AcDbLine
 10
208.5137
 20
970.6905
 30
0.0
 11
208.8217
 21
449.7195
 31
0.0
  0
LINE
  5
1725
330
1D
100
AcDbEntity
  8
0
100
AcDbLine
 10
208.5587
 20
448.1775
 30
0.0
 11
208.8217
 21
449.7195
 31
0.0
  0
LINE
  5
1726
330
1D
100
AcDbEntity
  8
0
100
AcDbLine
 10
193.9497
 20
447.3525
 30
0.0
 11
195.8897
 21
446.1765
 31
0.0
  0
LINE
  5
1727
330
1D
100
AcDbEntity
  8
0
100
AcDbLine
 10
192.9157
 20
448.7825
 30
0.0
 11
193.9497
 21
447.3525
 31
0.0
  0
LINE
  5
1728
330
1D
100
AcDbEntity
  8
0
100
AcDbLine
 10
192.9157
 20
448.7825
 30
0.0
 11
193.1807
 21
450.3275
 31
0.0
  0
LINE
  5
1729
330
1D
100
AcDbEntity
  8
0
100
AcDbLine
 10
206.5137
 20
1005.0915
 30
0.0
 11
208.5137
 21
970.6905
 31
0.0
  0
LINE
  5
172A
330
1D
100
AcDbEntity
  8
0
100
AcDbLine
 10
190.7127
 20
1002.2885
 30
0.0
 11
192.5137
 21
970.6865
 31
0.0
  0
LINE
  5
172B
330
1D
100
AcDbEntity
  8
0
100
AcDbLine
 10
202.8137
 20
1029.4895
 30
0.0
 11
206.5137
 21
1005.0915
 31
0.0
  0
LINE
  5
172C
330
1D
100
AcDbEntity
  8
0
100
AcDbLine
 10
187.8137
 20
1023.9845
 30
0.0
 11
190.7127
 21
1002.2885
 31
0.0
  0
LINE
  5
172D
330
1D
100
AcDbEntity
  8
0
100
AcDbLine
 10
197.7137
 20
1054.8875
 30
0.0
 11
202.8137
 21
1029.4895
 31
0.0
  0
LINE
  5
172E
330
1D
100
AcDbEntity
  8
0
100
AcDbLine
 10
183.2147
 20
1048.1915
 30
0.0
 11
187.8137
 21
1023.9845
 31
0.0
  0
LINE
  5
172F
330
1D
100
AcDbEntity
  8
0
100
AcDbLine
 10
190.9137
 20
1080.5945
 30
0.0
 11
197.7137
 21
1054.8875
 31
0.0
  0
LINE
  5
1730
330
1D
100
AcDbEntity
  8
0
100
AcDbLine
 10
177.0147
 20
1072.5885
 30
0.0
 11
183.2147
 21
1048.1915
 31
0.0
  0
LINE
  5
1731
330
1D
100
AcDbEntity
  8
0
100
AcDbLine
 10
161.6357
 20
1112.8625
 30
0.0
 11
163.9737
 21
1114.2125
 31
0.0
  0
LINE
  5
1732
330
1D
100
AcDbEntity
  8
0
100
AcDbLine
 10
163.9737
 20
1114.2125
 30
0.0
 11
166.6587
 21
1115.7625
 31
0.0
  0
LINE
  5
1733
330
1D
100
AcDbEntity
  8
0
100
AcDbLine
 10
181.8977
 20
1114.1685
 30
0.0
 11
183.4277
 21
1110.3175
 31
0.0
  0
LINE
  5
1734
330
1D
100
AcDbEntity
  8
0
100
AcDbLine
 10
166.6587
 20
1115.7625
 30
0.0
 11
169.6027
 21
1117.4625
 31
0.0
  0
LINE
  5
1735
330
1D
100
AcDbEntity
  8
0
100
AcDbLine
 10
183.355750482196
 20
1101.729582786603
 30
0.0
 11
183.4767
 21
1102.0325
 31
0.0
  0
LINE
  5
1736
330
1D
100
AcDbEntity
  8
0
100
AcDbLine
 10
183.4767
 20
1102.0325
 30
0.0
 11
184.0787
 21
1106.1905
 31
0.0
  0
LINE
  5
1737
330
1D
100
AcDbEntity
  8
0
100
AcDbLine
 10
183.4277
 20
1110.3175
 30
0.0
 11
184.0787
 21
1106.1905
 31
0.0
  0
LINE
  5
1738
330
1D
100
AcDbEntity
  8
0
100
AcDbLine
 10
182.5147
 20
1104.0815
 30
0.0
 11
190.9137
 21
1080.5945
 31
0.0
  0
LINE
  5
1739
330
1D
100
AcDbEntity
  8
0
100
AcDbLine
 10
161.568412050105
 20
1112.979046574245
 30
0.0
 11
169.1137
 21
1095.3845
 31
0.0
  0
LINE
  5
173A
330
1D
100
AcDbEntity
  8
0
100
AcDbLine
 10
157.0627
 20
1094.526468859478
 30
0.0
 11
157.0627
 21
1024.1305
 31
0.0
  0
LINE
  5
173B
330
1D
100
AcDbEntity
  8
0
100
AcDbLine
 10
156.7897
 20
1117.4555
 30
0.0
 11
157.628256091299
 21
1118.11814244803
 31
0.0
  0
LINE
  5
173C
330
1D
100
AcDbEntity
  8
0
100
AcDbLine
 10
156.7897
 20
1117.4555
 30
0.0
 11
157.0627
 21
1117.671229621655
 31
0.0
  0
LINE
  5
173D
330
1D
100
AcDbEntity
  8
0
100
AcDbLine
 10
179.3277
 20
1117.4195
 30
0.0
 11
181.8977
 21
1114.1685
 31
0.0
  0
LINE
  5
173E
330
1D
100
AcDbEntity
  8
0
100
AcDbLine
 10
174.944866695237
 20
1120.499219704977
 30
0.0
 11
176.0787
 21
1120.0465
 31
0.0
  0
LINE
  5
173F
330
1D
100
AcDbEntity
  8
0
100
AcDbLine
 10
176.0787
 20
1120.0465
 30
0.0
 11
179.3277
 21
1117.4195
 31
0.0
  0
LINE
  5
1740
330
1D
100
AcDbEntity
  8
0
100
AcDbLine
 10
179.0627
 20
1117.633767466913
 30
0.0
 11
179.3277
 21
1117.4195
 31
0.0
  0
LINE
  5
1741
330
1D
100
AcDbEntity
  8
0
100
AcDbLine
 10
172.5477
 20
1119.1625
 30
0.0
 11
175.2317
 21
1120.7125
 31
0.0
  0
LINE
  5
1742
330
1D
100
AcDbEntity
  8
0
100
AcDbLine
 10
169.6027
 20
1117.4625
 30
0.0
 11
172.5477
 21
1119.1625
 31
0.0
  0
LINE
  5
1743
330
1D
100
AcDbEntity
  8
0
100
AcDbLine
 10
159.095765129815
 20
1117.261812334296
 30
0.0
 11
161.568412050105
 21
1112.979046574245
 31
0.0
  0
LINE
  5
1744
330
1D
100
AcDbEntity
  8
0
100
AcDbLine
 10
174.963300000113
 20
1120.557500000065
 30
0.0
 11
175.591546153429
 21
1120.920192307451
 31
0.0
  0
LINE
  5
1745
330
1D
100
AcDbEntity
  8
0
100
AcDbLine
 10
174.963300000114
 20
1120.557500000066
 30
0.0
 11
175.591546153429
 21
1120.920192307452
 31
0.0
  0
LINE
  5
1746
330
1D
100
AcDbEntity
  8
0
100
AcDbLine
 10
175.2317
 20
1120.7125
 30
0.0
 11
177.5707
 21
1122.0625
 31
0.0
  0
LINE
  5
1747
330
1D
100
AcDbEntity
  8
0
100
AcDbLine
 10
177.278325000386
 20
1121.893750000223
 30
0.0
 11
177.8307
 21
1122.2125
 31
0.0
  0
LINE
  5
1748
330
1D
100
AcDbEntity
  8
0
100
AcDbLine
 10
177.278325000389
 20
1121.893750000224
 30
0.0
 11
177.8307
 21
1122.2125
 31
0.0
  0
LINE
  5
1749
330
1D
100
AcDbEntity
  8
0
100
AcDbLine
 10
179.0627
 20
1122.923742440902
 30
0.0
 11
179.0627
 21
1117.633767466913
 31
0.0
  0
LINE
  5
174A
330
1D
100
AcDbEntity
  8
0
100
AcDbLine
 10
177.8307
 20
1122.2125
 30
0.0
 11
178.480199999527
 21
1122.587499999727
 31
0.0
  0
LINE
  5
174B
330
1D
100
AcDbEntity
  8
0
100
AcDbLine
 10
177.8307
 20
1122.2125
 30
0.0
 11
178.480199999528
 21
1122.587499999728
 31
0.0
  0
LINE
  5
174C
330
1D
100
AcDbEntity
  8
0
100
AcDbLine
 10
177.5707
 20
1122.0625
 30
0.0
 11
179.3897
 21
1123.1125
 31
0.0
  0
LINE
  5
174D
330
1D
100
AcDbEntity
  8
0
100
AcDbLine
 10
179.3897
 20
1123.1125
 30
0.0
 11
180.4287
 21
1123.7125
 31
0.0
  0
LINE
  5
174E
330
1D
100
AcDbEntity
  8
0
100
AcDbLine
 10
179.0627
 20
1127.0784708
 30
0.0
 11
179.0627
 21
1332.5305
 31
0.0
  0
LINE
  5
174F
330
1D
100
AcDbEntity
  8
0
100
AcDbLine
 10
180.4287
 20
1123.7125
 30
0.0
 11
180.8617
 21
1123.9625
 31
0.0
  0
LINE
  5
1750
330
1D
100
AcDbEntity
  8
0
100
AcDbLine
 10
174.92752169029
 20
1120.536838159445
 30
0.0
 11
182.5147
 21
1104.0815
 31
0.0
  0
LINE
  5
1751
330
1D
100
AcDbEntity
  8
0
100
AcDbLine
 10
158.7767
 20
1117.0775
 30
0.0
 11
159.095765129815
 21
1117.261812334296
 31
0.0
  0
LINE
  5
1752
330
1D
100
AcDbEntity
  8
0
100
AcDbLine
 10
158.4297
 20
1116.8775
 30
0.0
 11
158.7767
 21
1117.0775
 31
0.0
  0
LINE
  5
1753
330
1D
100
AcDbEntity
  8
0
100
AcDbLine
 10
142.794120920662
 20
1141.081518390746
 30
0.0
 11
158.4297
 21
1116.8775
 31
0.0
  0
LINE
  5
1754
330
1D
100
AcDbEntity
  8
0
100
AcDbLine
 10
157.0627
 20
1167.907645197319
 30
0.0
 11
157.0627
 21
1332.5305
 31
0.0
  0
LINE
  5
1755
330
1D
100
AcDbEntity
  8
0
100
AcDbLine
 10
163.505745003375
 20
1154.024005823011
 30
0.0
 11
180.8617
 21
1123.9625
 31
0.0
  0
LINE
  5
1756
330
1D
100
AcDbEntity
  8
0
100
AcDbLine
 10
163.505745003375
 20
1154.024005823011
 30
0.0
 11
180.8617
 21
1123.9625
 31
0.0
  0
LINE
  5
1757
330
1D
100
AcDbEntity
  8
0
100
AcDbLine
 10
157.0627
 20
1332.5305
 30
0.0
 11
157.3267
 21
1333.1305
 31
0.0
  0
LINE
  5
1758
330
1D
100
AcDbEntity
  8
0
100
AcDbLine
 10
157.3267
 20
1333.1305
 30
0.0
 11
157.7227
 21
1333.1305
 31
0.0
  0
LINE
  5
1759
330
1D
100
AcDbEntity
  8
0
100
AcDbLine
 10
157.0627
 20
1333.5155
 30
0.0
 11
157.3267
 21
1333.1305
 31
0.0
  0
LINE
  5
175A
330
1D
100
AcDbEntity
  8
0
100
AcDbLine
 10
157.0627
 20
1333.5155
 30
0.0
 11
157.0627
 21
1402.7455
 31
0.0
  0
LINE
  5
175B
330
1D
100
AcDbEntity
  8
0
100
AcDbLine
 10
157.7227
 20
1333.1305
 30
0.0
 11
158.7787
 21
1333.1305
 31
0.0
  0
LINE
  5
175C
330
1D
100
AcDbEntity
  8
0
100
AcDbLine
 10
158.7787
 20
1333.1305
 30
0.0
 11
160.4947
 21
1333.1305
 31
0.0
  0
LINE
  5
175D
330
1D
100
AcDbEntity
  8
0
100
AcDbLine
 10
160.4947
 20
1333.1305
 30
0.0
 11
162.7387
 21
1333.1305
 31
0.0
  0
LINE
  5
175E
330
1D
100
AcDbEntity
  8
0
100
AcDbLine
 10
162.7387
 20
1333.1305
 30
0.0
 11
165.2907
 21
1333.1305
 31
0.0
  0
LINE
  5
175F
330
1D
100
AcDbEntity
  8
0
100
AcDbLine
 10
203.0627
 20
1333.1305
 30
0.0
 11
203.0627
 21
1378.1305
 31
0.0
  0
LINE
  5
1760
330
1D
100
AcDbEntity
  8
0
100
AcDbLine
 10
178.7987
 20
1333.1305
 30
0.0
 11
179.0627
 21
1332.5305
 31
0.0
  0
LINE
  5
1761
330
1D
100
AcDbEntity
  8
0
100
AcDbLine
 10
178.7987
 20
1333.1305
 30
0.0
 11
203.0627
 21
1333.1305
 31
0.0
  0
LINE
  5
1762
330
1D
100
AcDbEntity
  8
0
100
AcDbLine
 10
178.4027
 20
1333.1305
 30
0.0
 11
178.7987
 21
1333.1305
 31
0.0
  0
LINE
  5
1763
330
1D
100
AcDbEntity
  8
0
100
AcDbLine
 10
177.3467
 20
1333.1305
 30
0.0
 11
178.4027
 21
1333.1305
 31
0.0
  0
LINE
  5
1764
330
1D
100
AcDbEntity
  8
0
100
AcDbLine
 10
175.6307
 20
1333.1305
 30
0.0
 11
177.3467
 21
1333.1305
 31
0.0
  0
LINE
  5
1765
330
1D
100
AcDbEntity
  8
0
100
AcDbLine
 10
173.3867
 20
1333.1305
 30
0.0
 11
175.6307
 21
1333.1305
 31
0.0
  0
LINE
  5
1766
330
1D
100
AcDbEntity
  8
0
100
AcDbLine
 10
170.8347
 20
1333.1305
 30
0.0
 11
173.3867
 21
1333.1305
 31
0.0
  0
LINE
  5
1767
330
1D
100
AcDbEntity
  8
0
100
AcDbLine
 10
170.8347
 20
1333.1305
 30
0.0
 11
203.0627
 21
1333.1305
 31
0.0
  0
LINE
  5
1768
330
1D
100
AcDbEntity
  8
0
100
AcDbLine
 10
168.0627
 20
1333.1305
 30
0.0
 11
170.8347
 21
1333.1305
 31
0.0
  0
LINE
  5
1769
330
1D
100
AcDbEntity
  8
0
100
AcDbLine
 10
165.2907
 20
1333.1305
 30
0.0
 11
168.0627
 21
1333.1305
 31
0.0
  0
LINE
  5
176A
330
1D
100
AcDbEntity
  8
0
100
AcDbLine
 10
157.0627
 20
1402.7455
 30
0.0
 11
157.0627
 21
1333.5155
 31
0.0
  0
LINE
  5
176B
330
1D
100
AcDbEntity
  8
0
100
AcDbLine
 10
157.0627
 20
1402.7455
 30
0.0
 11
157.3267
 21
1403.1305
 31
0.0
  0
LINE
  5
176C
330
1D
100
AcDbEntity
  8
0
100
AcDbLine
 10
157.3267
 20
1403.1305
 30
0.0
 11
157.7227
 21
1403.1305
 31
0.0
  0
LINE
  5
176D
330
1D
100
AcDbEntity
  8
0
100
AcDbLine
 10
157.7227
 20
1403.1305
 30
0.0
 11
158.7787
 21
1403.1305
 31
0.0
  0
LINE
  5
176E
330
1D
100
AcDbEntity
  8
0
100
AcDbLine
 10
158.7787
 20
1403.1305
 30
0.0
 11
160.4947
 21
1403.1305
 31
0.0
  0
LINE
  5
176F
330
1D
100
AcDbEntity
  8
0
100
AcDbLine
 10
160.4947
 20
1403.1305
 30
0.0
 11
162.7387
 21
1403.1305
 31
0.0
  0
LINE
  5
1770
330
1D
100
AcDbEntity
  8
0
100
AcDbLine
 10
162.7387
 20
1403.1305
 30
0.0
 11
165.2907
 21
1403.1305
 31
0.0
  0
LINE
  5
1771
330
1D
100
AcDbEntity
  8
0
100
AcDbLine
 10
168.0627
 20
1403.1305
 30
0.0
 11
170.8347
 21
1403.1305
 31
0.0
  0
LINE
  5
1772
330
1D
100
AcDbEntity
  8
0
100
AcDbLine
 10
171.817362429583
 20
1378.1305
 30
0.0
 11
203.0627
 21
1378.1305
 31
0.0
  0
LINE
  5
1773
330
1D
100
AcDbEntity
  8
0
100
AcDbLine
 10
203.0627
 20
1378.1305
 30
0.0
 11
203.0627
 21
1333.1305
 31
0.0
  0
LINE
  5
1774
330
1D
100
AcDbEntity
  8
0
100
AcDbLine
 10
179.0627
 20
1402.7455
 30
0.0
 11
179.0627
 21
1378.1305
 31
0.0
  0
LINE
  5
1775
330
1D
100
AcDbEntity
  8
0
100
AcDbLine
 10
179.0627
 20
1378.1305
 30
0.0
 11
179.0627
 21
1402.7455
 31
0.0
  0
LINE
  5
1776
330
1D
100
AcDbEntity
  8
0
100
AcDbLine
 10
178.7987
 20
1403.1305
 30
0.0
 11
179.0627
 21
1402.7455
 31
0.0
  0
LINE
  5
1777
330
1D
100
AcDbEntity
  8
0
100
AcDbLine
 10
178.4027
 20
1403.1305
 30
0.0
 11
178.7987
 21
1403.1305
 31
0.0
  0
LINE
  5
1778
330
1D
100
AcDbEntity
  8
0
100
AcDbLine
 10
177.3467
 20
1403.1305
 30
0.0
 11
178.4027
 21
1403.1305
 31
0.0
  0
LINE
  5
1779
330
1D
100
AcDbEntity
  8
0
100
AcDbLine
 10
175.6307
 20
1403.1305
 30
0.0
 11
177.3467
 21
1403.1305
 31
0.0
  0
LINE
  5
177A
330
1D
100
AcDbEntity
  8
0
100
AcDbLine
 10
173.3867
 20
1403.1305
 30
0.0
 11
175.6307
 21
1403.1305
 31
0.0
  0
LINE
  5
177B
330
1D
100
AcDbEntity
  8
0
100
AcDbLine
 10
170.8347
 20
1403.1305
 30
0.0
 11
173.3867
 21
1403.1305
 31
0.0
  0
LINE
  5
177C
330
1D
100
AcDbEntity
  8
0
100
AcDbLine
 10
165.2907
 20
1403.1305
 30
0.0
 11
168.0627
 21
1403.1305
 31
0.0
  0
LINE
  5
177D
330
1D
100
AcDbEntity
  8
0
100
AcDbLine
 10
33.052795223068
 20
1279.661975396485
 30
0.0
 11
34.056895223068
 21
1278.885975396485
 31
0.0
  0
LINE
  5
177E
330
1D
100
AcDbEntity
  8
0
100
AcDbLine
 10
33.511095223068
 20
1277.067975396485
 30
0.0
 11
33.822982219237
 21
1276.79006332834
 31
0.0
  0
LINE
  5
177F
330
1D
100
AcDbEntity
  8
0
100
AcDbLine
 10
33.422495223068
 20
1277.147975396485
 30
0.0
 11
33.511095223068
 21
1277.067975396485
 31
0.0
  0
LINE
  5
1780
330
1D
100
AcDbEntity
  8
0
100
AcDbLine
 10
33.867895223068
 20
1277.264975396485
 30
0.0
 11
34.312095223068
 21
1276.731975396485
 31
0.0
  0
LINE
  5
1781
330
1D
100
AcDbEntity
  8
0
100
AcDbLine
 10
33.758695223068
 20
1277.523975396485
 30
0.0
 11
34.050095223068
 21
1277.430975396485
 31
0.0
  0
LINE
  5
1782
330
1D
100
AcDbEntity
  8
0
100
AcDbLine
 10
33.758695223068
 20
1277.523975396485
 30
0.0
 11
33.867895223068
 21
1277.264975396485
 31
0.0
  0
LINE
  5
1783
330
1D
100
AcDbEntity
  8
0
100
AcDbLine
 10
32.273595223068
 20
1280.178975396485
 30
0.0
 11
33.052795223068
 21
1279.661975396485
 31
0.0
  0
LINE
  5
1784
330
1D
100
AcDbEntity
  8
0
100
AcDbLine
 10
37.362095223068
 20
1272.999975396485
 30
0.0
 11
38.013245032644
 21
1272.458074035134
 31
0.0
  0
LINE
  5
1785
330
1D
100
AcDbEntity
  8
0
100
AcDbLine
 10
37.697495223068
 20
1273.068975396485
 30
0.0
 11
38.706795223068
 21
1271.990975396485
 31
0.0
  0
LINE
  5
1786
330
1D
100
AcDbEntity
  8
0
100
AcDbLine
 10
38.013245032644
 20
1272.458074035134
 30
0.0
 11
38.338595223068
 21
1272.166975396485
 31
0.0
  0
LINE
  5
1787
330
1D
100
AcDbEntity
  8
0
100
AcDbLine
 10
38.772395223068
 20
1271.824975396485
 30
0.0
 11
39.839609208329
 21
1272.493900700979
 31
0.0
  0
LINE
  5
1788
330
1D
100
AcDbEntity
  8
0
100
AcDbLine
 10
38.706795223068
 20
1271.990975396485
 30
0.0
 11
38.772395223068
 21
1271.824975396485
 31
0.0
  0
LINE
  5
1789
330
1D
100
AcDbEntity
  8
0
100
AcDbLine
 10
36.750995223068
 20
1273.623975396485
 30
0.0
 11
36.967918049377
 21
1273.414606632485
 31
0.0
  0
LINE
  5
178A
330
1D
100
AcDbEntity
  8
0
100
AcDbLine
 10
39.260010811489
 20
1272.082353043388
 30
0.0
 11
40.177795223068
 21
1271.313975396485
 31
0.0
  0
LINE
  5
178B
330
1D
100
AcDbEntity
  8
0
100
AcDbLine
 10
39.839609208329
 20
1272.493900700979
 30
0.0
 11
41.087595223068
 21
1271.193975396485
 31
0.0
  0
LINE
  5
178C
330
1D
100
AcDbEntity
  8
0
100
AcDbLine
 10
39.554195223068
 20
1273.415975396485
 30
0.0
 11
40.570044919823
 21
1274.626524350615
 31
0.0
  0
LINE
  5
178D
330
1D
100
AcDbEntity
  8
0
100
AcDbLine
 10
39.209495223068
 20
1273.704975396485
 30
0.0
 11
39.554195223068
 21
1273.415975396485
 31
0.0
  0
LINE
  5
178E
330
1D
100
AcDbEntity
  8
0
100
AcDbLine
 10
36.785995223068
 20
1274.010975396485
 30
0.0
 11
37.697495223068
 21
1273.068975396485
 31
0.0
  0
LINE
  5
178F
330
1D
100
AcDbEntity
  8
0
100
AcDbLine
 10
39.857281584739
 20
1273.777151739111
 30
0.0
 11
40.543195223068
 21
1273.164975396485
 31
0.0
  0
LINE
  5
1790
330
1D
100
AcDbEntity
  8
0
100
AcDbLine
 10
35.872395223068
 20
1274.563975396485
 30
0.0
 11
36.313695223068
 21
1274.046975396485
 31
0.0
  0
LINE
  5
1791
330
1D
100
AcDbEntity
  8
0
100
AcDbLine
 10
37.256095223068
 20
1275.343975396485
 30
0.0
 11
37.600795223068
 21
1275.054975396485
 31
0.0
  0
LINE
  5
1792
330
1D
100
AcDbEntity
  8
0
100
AcDbLine
 10
37.256095223068
 20
1275.343975396485
 30
0.0
 11
38.373236731766
 21
1276.675271323027
 31
0.0
  0
LINE
  5
1793
330
1D
100
AcDbEntity
  8
0
100
AcDbLine
 10
35.959795223068
 20
1274.821975396485
 30
0.0
 11
36.785995223068
 21
1274.010975396485
 31
0.0
  0
LINE
  5
1794
330
1D
100
AcDbEntity
  8
0
100
AcDbLine
 10
35.441895223068
 20
1275.272975396485
 30
0.0
 11
35.959795223068
 21
1274.821975396485
 31
0.0
  0
LINE
  5
1795
330
1D
100
AcDbEntity
  8
0
100
AcDbLine
 10
35.441895223068
 20
1275.272975396485
 30
0.0
 11
35.962159290064
 21
1276.008483848786
 31
0.0
  0
LINE
  5
1796
330
1D
100
AcDbEntity
  8
0
100
AcDbLine
 10
35.441895223068
 20
1275.272975396485
 30
0.0
 11
35.962159290064
 21
1276.008483848786
 31
0.0
  0
LINE
  5
1797
330
1D
100
AcDbEntity
  8
0
100
AcDbLine
 10
37.600795223068
 20
1275.054975396485
 30
0.0
 11
38.405195223068
 21
1274.379975396485
 31
0.0
  0
LINE
  5
1798
330
1D
100
AcDbEntity
  8
0
100
AcDbLine
 10
38.405195223068
 20
1274.379975396485
 30
0.0
 11
39.209495223068
 21
1273.704975396485
 31
0.0
  0
LINE
  5
1799
330
1D
100
AcDbEntity
  8
0
100
AcDbLine
 10
37.295895223068
 20
1274.899975396485
 30
0.0
 11
38.112995223068
 21
1274.168975396485
 31
0.0
  0
LINE
  5
179A
330
1D
100
AcDbEntity
  8
0
100
AcDbLine
 10
38.112995223068
 20
1274.168975396485
 30
0.0
 11
39.839609208329
 21
1272.493900700979
 31
0.0
  0
LINE
  5
179B
330
1D
100
AcDbEntity
  8
0
100
AcDbLine
 10
35.091895223068
 20
1275.655975396485
 30
0.0
 11
35.470689362887
 21
1275.313682288536
 31
0.0
  0
LINE
  5
179C
330
1D
100
AcDbEntity
  8
0
100
AcDbLine
 10
40.177795223068
 20
1271.313975396485
 30
0.0
 11
40.982195223068
 21
1270.694975396485
 31
0.0
  0
LINE
  5
179D
330
1D
100
AcDbEntity
  8
0
100
AcDbLine
 10
35.048095223068
 20
1275.961975396485
 30
0.0
 11
35.568725490297
 21
1275.452278061175
 31
0.0
  0
LINE
  5
179E
330
1D
100
AcDbEntity
  8
0
100
AcDbLine
 10
34.312095223068
 20
1276.731975396485
 30
0.0
 11
35.048095223068
 21
1275.961975396485
 31
0.0
  0
LINE
  5
179F
330
1D
100
AcDbEntity
  8
0
100
AcDbLine
 10
35.620641642504
 20
1277.556279152257
 30
0.0
 11
37.612095223068
 21
1275.780975396485
 31
0.0
  0
LINE
  5
17A0
330
1D
100
AcDbEntity
  8
0
100
AcDbLine
 10
35.265195223068
 20
1277.860975396485
 30
0.0
 11
35.620641642501
 21
1277.556279152259
 31
0.0
  0
LINE
  5
17A1
330
1D
100
AcDbEntity
  8
0
100
AcDbLine
 10
34.050095223068
 20
1277.430975396485
 30
0.0
 11
34.498195223068
 21
1277.142975396485
 31
0.0
  0
LINE
  5
17A2
330
1D
100
AcDbEntity
  8
0
100
AcDbLine
 10
34.498195223068
 20
1277.142975396485
 30
0.0
 11
35.404495223068
 21
1276.471975396485
 31
0.0
  0
LINE
  5
17A3
330
1D
100
AcDbEntity
  8
0
100
AcDbLine
 10
35.404495223068
 20
1276.471975396485
 30
0.0
 11
37.295895223068
 21
1274.899975396485
 31
0.0
  0
LINE
  5
17A4
330
1D
100
AcDbEntity
  8
0
100
AcDbLine
 10
35.496895223068
 20
1279.391975396485
 30
0.0
 11
36.502781518017
 21
1280.590651348462
 31
0.0
  0
LINE
  5
17A5
330
1D
100
AcDbEntity
  8
0
100
AcDbLine
 10
34.347895223068
 20
1280.355975396485
 30
0.0
 11
35.152195223068
 21
1279.680975396485
 31
0.0
  0
LINE
  5
17A6
330
1D
100
AcDbEntity
  8
0
100
AcDbLine
 10
35.152195223068
 20
1279.680975396485
 30
0.0
 11
35.496895223068
 21
1279.391975396485
 31
0.0
  0
LINE
  5
17A7
330
1D
100
AcDbEntity
  8
0
100
AcDbLine
 10
36.772295223068
 20
1279.602975396485
 30
0.0
 11
36.926595223068
 21
1279.738975396485
 31
0.0
  0
LINE
  5
17A8
330
1D
100
AcDbEntity
  8
0
100
AcDbLine
 10
35.695519412794
 20
1279.62866819258
 30
0.0
 11
38.044895223068
 21
1277.559975396485
 31
0.0
  0
LINE
  5
17A9
330
1D
100
AcDbEntity
  8
0
100
AcDbLine
 10
36.276595223068
 20
1279.768975396485
 30
0.0
 11
36.772295223068
 21
1279.602975396485
 31
0.0
  0
LINE
  5
17AA
330
1D
100
AcDbEntity
  8
0
100
AcDbLine
 10
35.985562395052
 20
1279.974301242377
 30
0.0
 11
36.276595223068
 21
1279.768975396485
 31
0.0
  0
LINE
  5
17AB
330
1D
100
AcDbEntity
  8
0
100
AcDbLine
 10
36.823995223068
 20
1280.099975396485
 30
0.0
 11
36.926595223068
 21
1279.738975396485
 31
0.0
  0
LINE
  5
17AC
330
1D
100
AcDbEntity
  8
0
100
AcDbLine
 10
34.056895223068
 20
1278.885975396485
 30
0.0
 11
35.265195223068
 21
1277.860975396485
 31
0.0
  0
LINE
  5
17AD
330
1D
100
AcDbEntity
  8
0
100
AcDbLine
 10
37.495295223068
 20
1276.588975396485
 30
0.0
 11
37.912055067439
 21
1276.125681798035
 31
0.0
  0
LINE
  5
17AE
330
1D
100
AcDbEntity
  8
0
100
AcDbLine
 10
38.805595223068
 20
1276.353975396485
 30
0.0
 11
39.592395223068
 21
1275.684975396485
 31
0.0
  0
LINE
  5
17AF
330
1D
100
AcDbEntity
  8
0
100
AcDbLine
 10
38.012995223068
 20
1276.942975396485
 30
0.0
 11
38.805595223068
 21
1276.353975396485
 31
0.0
  0
LINE
  5
17B0
330
1D
100
AcDbEntity
  8
0
100
AcDbLine
 10
37.434195223068
 20
1277.222975396485
 30
0.0
 11
38.012995223068
 21
1276.942975396485
 31
0.0
  0
LINE
  5
17B1
330
1D
100
AcDbEntity
  8
0
100
AcDbLine
 10
37.180595223068
 20
1277.167975396485
 30
0.0
 11
37.495295223068
 21
1276.588975396485
 31
0.0
  0
LINE
  5
17B2
330
1D
100
AcDbEntity
  8
0
100
AcDbLine
 10
37.180595223068
 20
1277.167975396485
 30
0.0
 11
37.434195223068
 21
1277.222975396485
 31
0.0
  0
LINE
  5
17B3
330
1D
100
AcDbEntity
  8
0
100
AcDbLine
 10
39.264295223068
 20
1278.226975396485
 30
0.0
 11
39.608995223068
 21
1277.937975396485
 31
0.0
  0
LINE
  5
17B4
330
1D
100
AcDbEntity
  8
0
100
AcDbLine
 10
39.264295223068
 20
1278.226975396485
 30
0.0
 11
40.445102708906
 21
1279.634141976267
 31
0.0
  0
LINE
  5
17B5
330
1D
100
AcDbEntity
  8
0
100
AcDbLine
 10
38.044895223068
 20
1277.559975396485
 30
0.0
 11
42.589395223068
 21
1273.499975396485
 31
0.0
  0
LINE
  5
17B6
330
1D
100
AcDbEntity
  8
0
100
AcDbLine
 10
39.608995223068
 20
1277.937975396485
 30
0.0
 11
40.413395223068
 21
1277.262975396485
 31
0.0
  0
LINE
  5
17B7
330
1D
100
AcDbEntity
  8
0
100
AcDbLine
 10
40.175895223068
 20
1279.764975396485
 30
0.0
 11
41.011295223068
 21
1279.358975396485
 31
0.0
  0
LINE
  5
17B8
330
1D
100
AcDbEntity
  8
0
100
AcDbLine
 10
39.778695223068
 20
1279.566975396485
 30
0.0
 11
40.003804364951
 21
1279.108247375518
 31
0.0
  0
LINE
  5
17B9
330
1D
100
AcDbEntity
  8
0
100
AcDbLine
 10
39.778695223068
 20
1279.566975396485
 30
0.0
 11
40.175895223068
 21
1279.764975396485
 31
0.0
  0
LINE
  5
17BA
330
1D
100
AcDbEntity
  8
0
100
AcDbLine
 10
39.592395223068
 20
1275.684975396485
 30
0.0
 11
40.528195223068
 21
1274.691975396485
 31
0.0
  0
LINE
  5
17BB
330
1D
100
AcDbEntity
  8
0
100
AcDbLine
 10
27.246795223068
 20
1283.062975396485
 30
0.0
 11
27.806480737808
 21
1283.729951818108
 31
0.0
  0
LINE
  5
17BC
330
1D
100
AcDbEntity
  8
0
100
AcDbLine
 10
26.641495223068
 20
1283.106975396485
 30
0.0
 11
26.869814560747
 21
1283.379063222276
 31
0.0
  0
LINE
  5
17BD
330
1D
100
AcDbEntity
  8
0
100
AcDbLine
 10
26.097695223068
 20
1284.026975396485
 30
0.0
 11
26.902095223068
 21
1283.351975396485
 31
0.0
  0
LINE
  5
17BE
330
1D
100
AcDbEntity
  8
0
100
AcDbLine
 10
25.492395223068
 20
1284.070975396485
 30
0.0
 11
26.296795223068
 21
1283.395975396485
 31
0.0
  0
LINE
  5
17BF
330
1D
100
AcDbEntity
  8
0
100
AcDbLine
 10
26.902095223068
 20
1283.351975396485
 30
0.0
 11
27.246795223068
 21
1283.062975396485
 31
0.0
  0
LINE
  5
17C0
330
1D
100
AcDbEntity
  8
0
100
AcDbLine
 10
26.296795223068
 20
1283.395975396485
 30
0.0
 11
26.641495223068
 21
1283.106975396485
 31
0.0
  0
LINE
  5
17C1
330
1D
100
AcDbEntity
  8
0
100
AcDbLine
 10
27.436929057072
 20
1283.289557612557
 30
0.0
 11
27.482495223068
 21
1283.243975396485
 31
0.0
  0
LINE
  5
17C2
330
1D
100
AcDbEntity
  8
0
100
AcDbLine
 10
27.482495223068
 20
1283.243975396485
 30
0.0
 11
29.867195223068
 21
1280.894975396485
 31
0.0
  0
LINE
  5
17C3
330
1D
100
AcDbEntity
  8
0
100
AcDbLine
 10
27.920195223068
 20
1283.398975396485
 30
0.0
 11
28.264995223068
 21
1283.109975396485
 31
0.0
  0
LINE
  5
17C4
330
1D
100
AcDbEntity
  8
0
100
AcDbLine
 10
27.920195223068
 20
1283.398975396485
 30
0.0
 11
28.866485344735
 21
1284.526927311889
 31
0.0
  0
LINE
  5
17C5
330
1D
100
AcDbEntity
  8
0
100
AcDbLine
 10
28.264995223068
 20
1283.109975396485
 30
0.0
 11
28.354415455014
 21
1283.034930442409
 31
0.0
  0
LINE
  5
17C6
330
1D
100
AcDbEntity
  8
0
100
AcDbLine
 10
28.264995223068
 20
1283.109975396485
 30
0.0
 11
29.069295223068
 21
1282.434975396485
 31
0.0
  0
LINE
  5
17C7
330
1D
100
AcDbEntity
  8
0
100
AcDbLine
 10
27.475495223068
 20
1284.094975396485
 30
0.0
 11
27.905295223068
 21
1283.620975396485
 31
0.0
  0
LINE
  5
17C8
330
1D
100
AcDbEntity
  8
0
100
AcDbLine
 10
27.905295223068
 20
1283.620975396485
 30
0.0
 11
28.005087081501
 21
1283.50016416738
 31
0.0
  0
LINE
  5
17C9
330
1D
100
AcDbEntity
  8
0
100
AcDbLine
 10
27.437034846834
 20
1283.289683682064
 30
0.0
 11
27.482495223068
 21
1283.243975396485
 31
0.0
  0
LINE
  5
17CA
330
1D
100
AcDbEntity
  8
0
100
AcDbLine
 10
25.293395223068
 20
1284.701975396485
 30
0.0
 11
26.097695223068
 21
1284.026975396485
 31
0.0
  0
LINE
  5
17CB
330
1D
100
AcDbEntity
  8
0
100
AcDbLine
 10
24.948595223068
 20
1284.990975396485
 30
0.0
 11
25.293395223068
 21
1284.701975396485
 31
0.0
  0
LINE
  5
17CC
330
1D
100
AcDbEntity
  8
0
100
AcDbLine
 10
24.948595223068
 20
1284.990975396485
 30
0.0
 11
25.679894294321
 21
1285.862436330804
 31
0.0
  0
LINE
  5
17CD
330
1D
100
AcDbEntity
  8
0
100
AcDbLine
 10
24.688095223068
 20
1284.745975396485
 30
0.0
 11
25.492395223068
 21
1284.070975396485
 31
0.0
  0
LINE
  5
17CE
330
1D
100
AcDbEntity
  8
0
100
AcDbLine
 10
24.343395223068
 20
1285.034975396485
 30
0.0
 11
24.688095223068
 21
1284.745975396485
 31
0.0
  0
LINE
  5
17CF
330
1D
100
AcDbEntity
  8
0
100
AcDbLine
 10
24.343395223068
 20
1285.034975396485
 30
0.0
 11
24.977993771944
 21
1285.791225572967
 31
0.0
  0
LINE
  5
17D0
330
1D
100
AcDbEntity
  8
0
100
AcDbLine
 10
26.975595223068
 20
1284.615975396485
 30
0.0
 11
27.475495223068
 21
1284.094975396485
 31
0.0
  0
LINE
  5
17D1
330
1D
100
AcDbEntity
  8
0
100
AcDbLine
 10
28.582595223068
 20
1284.705975396485
 30
0.0
 11
29.142295223068
 21
1284.352975396485
 31
0.0
  0
LINE
  5
17D2
330
1D
100
AcDbEntity
  8
0
100
AcDbLine
 10
28.453095223068
 20
1284.579975396485
 30
0.0
 11
28.582595223068
 21
1284.705975396485
 31
0.0
  0
LINE
  5
17D3
330
1D
100
AcDbEntity
  8
0
100
AcDbLine
 10
28.453095223068
 20
1284.579975396485
 30
0.0
 11
28.657909628254
 21
1284.278310768691
 31
0.0
  0
LINE
  5
17D4
330
1D
100
AcDbEntity
  8
0
100
AcDbLine
 10
29.069295223068
 20
1282.434975396485
 30
0.0
 11
29.873695223068
 21
1281.759975396485
 31
0.0
  0
LINE
  5
17D5
330
1D
100
AcDbEntity
  8
0
100
AcDbLine
 10
29.142295223068
 20
1284.352975396485
 30
0.0
 11
30.270495223068
 21
1283.350975396485
 31
0.0
  0
LINE
  5
17D6
330
1D
100
AcDbEntity
  8
0
100
AcDbLine
 10
29.873695223068
 20
1281.759975396485
 30
0.0
 11
30.218395223068
 21
1281.470975396485
 31
0.0
  0
LINE
  5
17D7
330
1D
100
AcDbEntity
  8
0
100
AcDbLine
 10
29.867195223068
 20
1280.894975396485
 30
0.0
 11
29.920595223068
 21
1280.802975396485
 31
0.0
  0
LINE
  5
17D8
330
1D
100
AcDbEntity
  8
0
100
AcDbLine
 10
22.284395223068
 20
1288.592975396485
 30
0.0
 11
24.572395223068
 21
1286.196975396485
 31
0.0
  0
LINE
  5
17D9
330
1D
100
AcDbEntity
  8
0
100
AcDbLine
 10
22.252795223068
 20
1288.824975396485
 30
0.0
 11
22.262495223068
 21
1288.939975396485
 31
0.0
  0
LINE
  5
17DA
330
1D
100
AcDbEntity
  8
0
100
AcDbLine
 10
22.233495223068
 20
1288.695975396485
 30
0.0
 11
22.284395223068
 21
1288.592975396485
 31
0.0
  0
LINE
  5
17DB
330
1D
100
AcDbEntity
  8
0
100
AcDbLine
 10
22.233495223068
 20
1288.695975396485
 30
0.0
 11
22.248795223068
 21
1288.813975396485
 31
0.0
  0
LINE
  5
17DC
330
1D
100
AcDbEntity
  8
0
100
AcDbLine
 10
24.572395223068
 20
1286.196975396485
 30
0.0
 11
24.685295223068
 21
1286.081975396485
 31
0.0
  0
LINE
  5
17DD
330
1D
100
AcDbEntity
  8
0
100
AcDbLine
 10
24.572395223068
 20
1286.196975396485
 30
0.0
 11
24.669795837297
 21
1286.09818555004
 31
0.0
  0
LINE
  5
17DE
330
1D
100
AcDbEntity
  8
0
100
AcDbLine
 10
24.685295223068
 20
1286.081975396485
 30
0.0
 11
25.060795223068
 21
1285.708975396485
 31
0.0
  0
LINE
  5
17DF
330
1D
100
AcDbEntity
  8
0
100
AcDbLine
 10
25.060795223068
 20
1285.708975396485
 30
0.0
 11
25.324697928692
 21
1285.439162503685
 31
0.0
  0
LINE
  5
17E0
330
1D
100
AcDbEntity
  8
0
100
AcDbLine
 10
26.211895223068
 20
1285.377975396485
 30
0.0
 11
26.975595223068
 21
1284.615975396485
 31
0.0
  0
LINE
  5
17E1
330
1D
100
AcDbEntity
  8
0
100
AcDbLine
 10
25.331195223068
 20
1286.179975396485
 30
0.0
 11
26.211895223068
 21
1285.377975396485
 31
0.0
  0
LINE
  5
17E2
330
1D
100
AcDbEntity
  8
0
100
AcDbLine
 10
25.082895223068
 20
1286.177975396485
 30
0.0
 11
25.517406261919
 21
1285.668805601463
 31
0.0
  0
LINE
  5
17E3
330
1D
100
AcDbEntity
  8
0
100
AcDbLine
 10
25.412995223068
 20
1287.883975396485
 30
0.0
 11
25.757695223068
 21
1287.594975396485
 31
0.0
  0
LINE
  5
17E4
330
1D
100
AcDbEntity
  8
0
100
AcDbLine
 10
25.757695223068
 20
1287.594975396485
 30
0.0
 11
26.658046848092
 21
1288.667923130964
 31
0.0
  0
LINE
  5
17E5
330
1D
100
AcDbEntity
  8
0
100
AcDbLine
 10
25.76357965275
 20
1287.601987862859
 30
0.0
 11
26.642695223068
 21
1287.042975396485
 31
0.0
  0
LINE
  5
17E6
330
1D
100
AcDbEntity
  8
0
100
AcDbLine
 10
25.551295223068
 20
1287.736975396485
 30
0.0
 11
25.704595549083
 21
1287.639494705396
 31
0.0
  0
LINE
  5
17E7
330
1D
100
AcDbEntity
  8
0
100
AcDbLine
 10
24.608595223068
 20
1288.558975396485
 30
0.0
 11
25.412995223068
 21
1287.883975396485
 31
0.0
  0
LINE
  5
17E8
330
1D
100
AcDbEntity
  8
0
100
AcDbLine
 10
23.861395223068
 20
1288.553975396485
 30
0.0
 11
24.625795223068
 21
1288.231975396485
 31
0.0
  0
LINE
  5
17E9
330
1D
100
AcDbEntity
  8
0
100
AcDbLine
 10
24.625795223068
 20
1288.231975396485
 30
0.0
 11
25.551295223068
 21
1287.736975396485
 31
0.0
  0
LINE
  5
17EA
330
1D
100
AcDbEntity
  8
0
100
AcDbLine
 10
26.321728666903
 20
1288.267133238946
 30
0.0
 11
26.873495223068
 21
1287.974975396485
 31
0.0
  0
LINE
  5
17EB
330
1D
100
AcDbEntity
  8
0
100
AcDbLine
 10
26.873495223068
 20
1287.974975396485
 30
0.0
 11
26.897895223068
 21
1288.270975396485
 31
0.0
  0
LINE
  5
17EC
330
1D
100
AcDbEntity
  8
0
100
AcDbLine
 10
26.642695223068
 20
1287.042975396485
 30
0.0
 11
28.375095223068
 21
1285.795975396485
 31
0.0
  0
LINE
  5
17ED
330
1D
100
AcDbEntity
  8
0
100
AcDbLine
 10
26.626595223068
 20
1288.719975396485
 30
0.0
 11
26.897895223068
 21
1288.270975396485
 31
0.0
  0
LINE
  5
17EE
330
1D
100
AcDbEntity
  8
0
100
AcDbLine
 10
24.919995223068
 20
1286.450975396485
 30
0.0
 11
25.331195223068
 21
1286.179975396485
 31
0.0
  0
LINE
  5
17EF
330
1D
100
AcDbEntity
  8
0
100
AcDbLine
 10
24.919995223068
 20
1286.450975396485
 30
0.0
 11
25.082895223068
 21
1286.177975396485
 31
0.0
  0
LINE
  5
17F0
330
1D
100
AcDbEntity
  8
0
100
AcDbLine
 10
23.459495223068
 20
1289.522975396485
 30
0.0
 11
23.804295223068
 21
1289.233975396485
 31
0.0
  0
LINE
  5
17F1
330
1D
100
AcDbEntity
  8
0
100
AcDbLine
 10
23.459495223068
 20
1289.522975396485
 30
0.0
 11
24.541305087865
 21
1290.812126542152
 31
0.0
  0
LINE
  5
17F2
330
1D
100
AcDbEntity
  8
0
100
AcDbLine
 10
23.804295223068
 20
1289.233975396485
 30
0.0
 11
24.608595223068
 21
1288.558975396485
 31
0.0
  0
LINE
  5
17F3
330
1D
100
AcDbEntity
  8
0
100
AcDbLine
 10
19.142795223068
 20
1291.655975396485
 30
0.0
 11
19.55974470473
 21
1292.152853493117
 31
0.0
  0
LINE
  5
17F4
330
1D
100
AcDbEntity
  8
0
100
AcDbLine
 10
18.798095223068
 20
1291.944975396485
 30
0.0
 11
19.142795223068
 21
1291.655975396485
 31
0.0
  0
LINE
  5
17F5
330
1D
100
AcDbEntity
  8
0
100
AcDbLine
 10
19.452595503657
 20
1292.025163944559
 30
0.0
 11
19.546995223068
 21
1291.915975396485
 31
0.0
  0
LINE
  5
17F6
330
1D
100
AcDbEntity
  8
0
100
AcDbLine
 10
19.504000317838
 20
1292.086422987564
 30
0.0
 11
19.645095223068
 21
1291.937975396485
 31
0.0
  0
LINE
  5
17F7
330
1D
100
AcDbEntity
  8
0
100
AcDbLine
 10
20.912995223068
 20
1291.252975396485
 30
0.0
 11
21.343387878562
 21
1291.765873704006
 31
0.0
  0
LINE
  5
17F8
330
1D
100
AcDbEntity
  8
0
100
AcDbLine
 10
20.568295223068
 20
1291.541975396485
 30
0.0
 11
20.912995223068
 21
1291.252975396485
 31
0.0
  0
LINE
  5
17F9
330
1D
100
AcDbEntity
  8
0
100
AcDbLine
 10
19.645095223068
 20
1291.937975396485
 30
0.0
 11
19.874195223068
 21
1291.720975396485
 31
0.0
  0
LINE
  5
17FA
330
1D
100
AcDbEntity
  8
0
100
AcDbLine
 10
19.747595223068
 20
1291.926975396485
 30
0.0
 11
19.874195223068
 21
1291.720975396485
 31
0.0
  0
LINE
  5
17FB
330
1D
100
AcDbEntity
  8
0
100
AcDbLine
 10
21.125337572944
 20
1291.506023468929
 30
0.0
 11
21.343387878562
 21
1291.765873704006
 31
0.0
  0
LINE
  5
17FC
330
1D
100
AcDbEntity
  8
0
100
AcDbLine
 10
21.125337572944
 20
1291.506023468929
 30
0.0
 11
21.343387878562
 21
1291.765873704006
 31
0.0
  0
LINE
  5
17FD
330
1D
100
AcDbEntity
  8
0
100
AcDbLine
 10
21.094704093283
 20
1291.469517595347
 30
0.0
 11
21.402095223068
 21
1291.189975396485
 31
0.0
  0
LINE
  5
17FE
330
1D
100
AcDbEntity
  8
0
100
AcDbLine
 10
21.402095223068
 20
1291.189975396485
 30
0.0
 11
21.776695223068
 21
1290.923975396485
 31
0.0
  0
LINE
  5
17FF
330
1D
100
AcDbEntity
  8
0
100
AcDbLine
 10
21.573495223068
 20
1291.477975396485
 30
0.0
 11
21.829695223068
 21
1291.031975396485
 31
0.0
  0
LINE
  5
1800
330
1D
100
AcDbEntity
  8
0
100
AcDbLine
 10
19.763895223068
 20
1292.216975396485
 30
0.0
 11
20.568295223068
 21
1291.541975396485
 31
0.0
  0
LINE
  5
1801
330
1D
100
AcDbEntity
  8
0
100
AcDbLine
 10
23.903095223068
 20
1292.183975396485
 30
0.0
 11
25.726795223068
 21
1290.688975396485
 31
0.0
  0
LINE
  5
1802
330
1D
100
AcDbEntity
  8
0
100
AcDbLine
 10
19.546995223068
 20
1291.915975396485
 30
0.0
 11
22.212395223068
 21
1289.034975396485
 31
0.0
  0
LINE
  5
1803
330
1D
100
AcDbEntity
  8
0
100
AcDbLine
 10
21.776695223068
 20
1290.923975396485
 30
0.0
 11
21.829695223068
 21
1291.031975396485
 31
0.0
  0
LINE
  5
1804
330
1D
100
AcDbEntity
  8
0
100
AcDbLine
 10
24.27599937285
 20
1290.495971940874
 30
0.0
 11
24.541305087865
 21
1290.812126542152
 31
0.0
  0
LINE
  5
1805
330
1D
100
AcDbEntity
  8
0
100
AcDbLine
 10
25.244895223068
 20
1290.264975396485
 30
0.0
 11
26.160095223068
 21
1289.320975396485
 31
0.0
  0
LINE
  5
1806
330
1D
100
AcDbEntity
  8
0
100
AcDbLine
 10
26.160095223068
 20
1289.320975396485
 30
0.0
 11
26.626595223068
 21
1288.719975396485
 31
0.0
  0
LINE
  5
1807
330
1D
100
AcDbEntity
  8
0
100
AcDbLine
 10
24.423195223068
 20
1290.903975396485
 30
0.0
 11
25.244895223068
 21
1290.264975396485
 31
0.0
  0
LINE
  5
1808
330
1D
100
AcDbEntity
  8
0
100
AcDbLine
 10
23.993195223068
 20
1291.022975396485
 30
0.0
 11
24.27599937285
 21
1290.495971940874
 31
0.0
  0
LINE
  5
1809
330
1D
100
AcDbEntity
  8
0
100
AcDbLine
 10
23.993195223068
 20
1291.022975396485
 30
0.0
 11
24.423195223068
 21
1290.903975396485
 31
0.0
  0
LINE
  5
180A
330
1D
100
AcDbEntity
  8
0
100
AcDbLine
 10
25.726795223068
 20
1290.688975396485
 30
0.0
 11
28.100895223068
 21
1288.677975396485
 31
0.0
  0
LINE
  5
180B
330
1D
100
AcDbEntity
  8
0
100
AcDbLine
 10
7.562425223068
 20
1307.510975396485
 30
0.0
 11
7.608385223068
 21
1307.658975396485
 31
0.0
  0
LINE
  5
180C
330
1D
100
AcDbEntity
  8
0
100
AcDbLine
 10
7.543645223068
 20
1307.408975396485
 30
0.0
 11
7.579165223068
 21
1307.311975396485
 31
0.0
  0
LINE
  5
180D
330
1D
100
AcDbEntity
  8
0
100
AcDbLine
 10
7.543645223068
 20
1307.408975396485
 30
0.0
 11
7.562425223068
 21
1307.510975396485
 31
0.0
  0
LINE
  5
180E
330
1D
100
AcDbEntity
  8
0
100
AcDbLine
 10
7.579165223068
 20
1307.311975396485
 30
0.0
 11
9.400535223068
 21
1304.755975396485
 31
0.0
  0
LINE
  5
180F
330
1D
100
AcDbEntity
  8
0
100
AcDbLine
 10
16.844595223068
 20
1293.583975396485
 30
0.0
 11
17.189395223068
 21
1293.294975396485
 31
0.0
  0
LINE
  5
1810
330
1D
100
AcDbEntity
  8
0
100
AcDbLine
 10
16.844595223068
 20
1293.583975396485
 30
0.0
 11
17.465280506136
 21
1294.323815259408
 31
0.0
  0
LINE
  5
1811
330
1D
100
AcDbEntity
  8
0
100
AcDbLine
 10
17.189395223068
 20
1293.294975396485
 30
0.0
 11
17.993695223068
 21
1292.619975396485
 31
0.0
  0
LINE
  5
1812
330
1D
100
AcDbEntity
  8
0
100
AcDbLine
 10
17.490097818337
 20
1294.353396816048
 30
0.0
 11
17.554242777067
 21
1294.429855850552
 31
0.0
  0
LINE
  5
1813
330
1D
100
AcDbEntity
  8
0
100
AcDbLine
 10
17.490097818337
 20
1294.353396816048
 30
0.0
 11
17.554242777067
 21
1294.429855850552
 31
0.0
  0
LINE
  5
1814
330
1D
100
AcDbEntity
  8
0
100
AcDbLine
 10
17.368695223068
 20
1294.632975396485
 30
0.0
 11
18.188095223068
 21
1293.735975396485
 31
0.0
  0
LINE
  5
1815
330
1D
100
AcDbEntity
  8
0
100
AcDbLine
 10
17.035795223068
 20
1294.940975396485
 30
0.0
 11
17.368695223068
 21
1294.632975396485
 31
0.0
  0
LINE
  5
1816
330
1D
100
AcDbEntity
  8
0
100
AcDbLine
 10
14.765995223068
 20
1297.445975396485
 30
0.0
 11
17.465280506136
 21
1294.323815259408
 31
0.0
  0
LINE
  5
1817
330
1D
100
AcDbEntity
  8
0
100
AcDbLine
 10
14.751895223068
 20
1297.671975396485
 30
0.0
 11
14.765995223068
 21
1297.445975396485
 31
0.0
  0
LINE
  5
1818
330
1D
100
AcDbEntity
  8
0
100
AcDbLine
 10
14.751895223068
 20
1297.671975396485
 30
0.0
 11
14.775595223068
 21
1297.774975396485
 31
0.0
  0
LINE
  5
1819
330
1D
100
AcDbEntity
  8
0
100
AcDbLine
 10
15.297195223068
 20
1297.588975396485
 30
0.0
 11
15.535395223068
 21
1297.527975396485
 31
0.0
  0
LINE
  5
181A
330
1D
100
AcDbEntity
  8
0
100
AcDbLine
 10
15.535395223068
 20
1297.527975396485
 30
0.0
 11
16.130595223068
 21
1297.327975396485
 31
0.0
  0
LINE
  5
181B
330
1D
100
AcDbEntity
  8
0
100
AcDbLine
 10
16.130595223068
 20
1297.327975396485
 30
0.0
 11
16.983695223068
 21
1296.955975396485
 31
0.0
  0
LINE
  5
181C
330
1D
100
AcDbEntity
  8
0
100
AcDbLine
 10
16.983695223068
 20
1296.955975396485
 30
0.0
 11
18.205767333246
 21
1296.289988776488
 31
0.0
  0
LINE
  5
181D
330
1D
100
AcDbEntity
  8
0
100
AcDbLine
 10
18.614795223068
 20
1293.180975396485
 30
0.0
 11
18.959595223068
 21
1292.891975396485
 31
0.0
  0
LINE
  5
181E
330
1D
100
AcDbEntity
  8
0
100
AcDbLine
 10
18.614795223068
 20
1293.180975396485
 30
0.0
 11
19.315164948568
 21
1294.015579020837
 31
0.0
  0
LINE
  5
181F
330
1D
100
AcDbEntity
  8
0
100
AcDbLine
 10
17.993695223068
 20
1292.619975396485
 30
0.0
 11
18.798095223068
 21
1291.944975396485
 31
0.0
  0
LINE
  5
1820
330
1D
100
AcDbEntity
  8
0
100
AcDbLine
 10
18.627495223068
 20
1294.287975396485
 30
0.0
 11
19.058796711596
 21
1293.71007486788
 31
0.0
  0
LINE
  5
1821
330
1D
100
AcDbEntity
  8
0
100
AcDbLine
 10
18.188095223068
 20
1293.735975396485
 30
0.0
 11
18.645566659196
 21
1293.217644531634
 31
0.0
  0
LINE
  5
1822
330
1D
100
AcDbEntity
  8
0
100
AcDbLine
 10
18.959595223068
 20
1292.891975396485
 30
0.0
 11
19.763895223068
 21
1292.216975396485
 31
0.0
  0
LINE
  5
1823
330
1D
100
AcDbEntity
  8
0
100
AcDbLine
 10
18.857366083802
 20
1292.977660492912
 30
0.0
 11
19.353395223068
 21
1292.400975396485
 31
0.0
  0
LINE
  5
1824
330
1D
100
AcDbEntity
  8
0
100
AcDbLine
 10
18.471395223068
 20
1294.644975396485
 30
0.0
 11
18.875695223068
 21
1294.427975396485
 31
0.0
  0
LINE
  5
1825
330
1D
100
AcDbEntity
  8
0
100
AcDbLine
 10
18.471395223068
 20
1294.644975396485
 30
0.0
 11
18.627495223068
 21
1294.287975396485
 31
0.0
  0
LINE
  5
1826
330
1D
100
AcDbEntity
  8
0
100
AcDbLine
 10
18.832295223068
 20
1296.960975396485
 30
0.0
 11
19.176995223068
 21
1296.671975396485
 31
0.0
  0
LINE
  5
1827
330
1D
100
AcDbEntity
  8
0
100
AcDbLine
 10
18.832295223068
 20
1296.960975396485
 30
0.0
 11
19.680941235732
 21
1297.972305627203
 31
0.0
  0
LINE
  5
1828
330
1D
100
AcDbEntity
  8
0
100
AcDbLine
 10
19.176995223068
 20
1296.671975396485
 30
0.0
 11
19.981395223068
 21
1295.996975396485
 31
0.0
  0
LINE
  5
1829
330
1D
100
AcDbEntity
  8
0
100
AcDbLine
 10
19.155895223068
 20
1297.748975396485
 30
0.0
 11
19.273595223068
 21
1297.546975396485
 31
0.0
  0
LINE
  5
182A
330
1D
100
AcDbEntity
  8
0
100
AcDbLine
 10
18.205767333246
 20
1296.289988776488
 30
0.0
 11
19.260595223068
 21
1295.634975396485
 31
0.0
  0
LINE
  5
182B
330
1D
100
AcDbEntity
  8
0
100
AcDbLine
 10
18.875695223068
 20
1294.427975396485
 30
0.0
 11
19.713295223068
 21
1293.641975396485
 31
0.0
  0
LINE
  5
182C
330
1D
100
AcDbEntity
  8
0
100
AcDbLine
 10
12.538495223068
 20
1300.412975396485
 30
0.0
 11
12.961704913809
 21
1300.917313775258
 31
0.0
  0
LINE
  5
182D
330
1D
100
AcDbEntity
  8
0
100
AcDbLine
 10
13.952595223068
 20
1300.498975396485
 30
0.0
 11
14.756895223068
 21
1299.823975396485
 31
0.0
  0
LINE
  5
182E
330
1D
100
AcDbEntity
  8
0
100
AcDbLine
 10
14.756895223068
 20
1299.823975396485
 30
0.0
 11
15.101695223068
 21
1299.534975396485
 31
0.0
  0
LINE
  5
182F
330
1D
100
AcDbEntity
  8
0
100
AcDbLine
 10
14.736695223068
 20
1297.885975396485
 30
0.0
 11
14.775595223068
 21
1297.774975396485
 31
0.0
  0
LINE
  5
1830
330
1D
100
AcDbEntity
  8
0
100
AcDbLine
 10
12.619631593567
 20
1300.509665492322
 30
0.0
 11
14.729595223068
 21
1297.893975396485
 31
0.0
  0
LINE
  5
1831
330
1D
100
AcDbEntity
  8
0
100
AcDbLine
 10
15.101695223068
 20
1299.534975396485
 30
0.0
 11
15.560748503144
 21
1300.082028529031
 31
0.0
  0
LINE
  5
1832
330
1D
100
AcDbEntity
  8
0
100
AcDbLine
 10
15.493095223068
 20
1299.446975396485
 30
0.0
 11
15.995695223068
 21
1299.121975396485
 31
0.0
  0
LINE
  5
1833
330
1D
100
AcDbEntity
  8
0
100
AcDbLine
 10
15.241741102911
 20
1299.701867869741
 30
0.0
 11
15.493095223068
 21
1299.446975396485
 31
0.0
  0
LINE
  5
1834
330
1D
100
AcDbEntity
  8
0
100
AcDbLine
 10
15.959795223068
 20
1299.474975396485
 30
0.0
 11
15.995695223068
 21
1299.121975396485
 31
0.0
  0
LINE
  5
1835
330
1D
100
AcDbEntity
  8
0
100
AcDbLine
 10
18.995795223068
 20
1298.158975396485
 30
0.0
 11
19.155895223068
 21
1297.748975396485
 31
0.0
  0
LINE
  5
1836
330
1D
100
AcDbEntity
  8
0
100
AcDbLine
 10
18.995795223068
 20
1298.158975396485
 30
0.0
 11
19.208295223068
 21
1298.293975396485
 31
0.0
  0
LINE
  5
1837
330
1D
100
AcDbEntity
  8
0
100
AcDbLine
 10
17.714195223068
 20
1300.434975396485
 30
0.0
 11
19.847895223068
 21
1298.593975396485
 31
0.0
  0
LINE
  5
1838
330
1D
100
AcDbEntity
  8
0
100
AcDbLine
 10
19.353395223068
 20
1292.400975396485
 30
0.0
 11
19.747595223068
 21
1291.926975396485
 31
0.0
  0
LINE
  5
1839
330
1D
100
AcDbEntity
  8
0
100
AcDbLine
 10
19.208295223068
 20
1298.293975396485
 30
0.0
 11
19.956195223068
 21
1297.784975396485
 31
0.0
  0
LINE
  5
183A
330
1D
100
AcDbEntity
  8
0
100
AcDbLine
 10
19.260595223068
 20
1295.634975396485
 30
0.0
 11
20.623795223068
 21
1294.681975396485
 31
0.0
  0
LINE
  5
183B
330
1D
100
AcDbEntity
  8
0
100
AcDbLine
 10
20.702295223068
 20
1292.567975396485
 30
0.0
 11
21.573495223068
 21
1291.477975396485
 31
0.0
  0
LINE
  5
183C
330
1D
100
AcDbEntity
  8
0
100
AcDbLine
 10
19.981395223068
 20
1295.996975396485
 30
0.0
 11
20.785695223068
 21
1295.321975396485
 31
0.0
  0
LINE
  5
183D
330
1D
100
AcDbEntity
  8
0
100
AcDbLine
 10
19.956195223068
 20
1297.784975396485
 30
0.0
 11
20.850095223068
 21
1296.881975396485
 31
0.0
  0
LINE
  5
183E
330
1D
100
AcDbEntity
  8
0
100
AcDbLine
 10
19.847895223068
 20
1298.593975396485
 30
0.0
 11
22.274195223068
 21
1296.481975396485
 31
0.0
  0
LINE
  5
183F
330
1D
100
AcDbEntity
  8
0
100
AcDbLine
 10
21.130395223068
 20
1295.032975396485
 30
0.0
 11
21.696334222212
 21
1295.707383102372
 31
0.0
  0
LINE
  5
1840
330
1D
100
AcDbEntity
  8
0
100
AcDbLine
 10
20.785695223068
 20
1295.321975396485
 30
0.0
 11
21.130395223068
 21
1295.032975396485
 31
0.0
  0
LINE
  5
1841
330
1D
100
AcDbEntity
  8
0
100
AcDbLine
 10
20.850095223068
 20
1296.881975396485
 30
0.0
 11
21.388995223068
 21
1296.198975396485
 31
0.0
  0
LINE
  5
1842
330
1D
100
AcDbEntity
  8
0
100
AcDbLine
 10
21.388995223068
 20
1296.198975396485
 30
0.0
 11
21.716595223068
 21
1295.674975396485
 31
0.0
  0
LINE
  5
1843
330
1D
100
AcDbEntity
  8
0
100
AcDbLine
 10
21.377862673225
 20
1295.327872824644
 30
0.0
 11
21.523895223068
 21
1295.216975396485
 31
0.0
  0
LINE
  5
1844
330
1D
100
AcDbEntity
  8
0
100
AcDbLine
 10
21.716595223068
 20
1295.674975396485
 30
0.0
 11
21.870095223068
 21
1295.217975396485
 31
0.0
  0
LINE
  5
1845
330
1D
100
AcDbEntity
  8
0
100
AcDbLine
 10
21.523895223068
 20
1295.216975396485
 30
0.0
 11
21.870095223068
 21
1295.217975396485
 31
0.0
  0
LINE
  5
1846
330
1D
100
AcDbEntity
  8
0
100
AcDbLine
 10
20.623795223068
 20
1294.681975396485
 30
0.0
 11
21.961895223068
 21
1293.706975396485
 31
0.0
  0
LINE
  5
1847
330
1D
100
AcDbEntity
  8
0
100
AcDbLine
 10
22.274195223068
 20
1296.481975396485
 30
0.0
 11
23.068275086168
 21
1295.782075267567
 31
0.0
  0
LINE
  5
1848
330
1D
100
AcDbEntity
  8
0
100
AcDbLine
 10
21.961895223068
 20
1293.706975396485
 30
0.0
 11
23.903095223068
 21
1292.183975396485
 31
0.0
  0
LINE
  5
1849
330
1D
100
AcDbEntity
  8
0
100
AcDbLine
 10
19.713295223068
 20
1293.641975396485
 30
0.0
 11
20.702295223068
 21
1292.567975396485
 31
0.0
  0
LINE
  5
184A
330
1D
100
AcDbEntity
  8
0
100
AcDbLine
 10
9.402035223068
 20
1303.075975396485
 30
0.0
 11
9.746755223068
 21
1302.785975396485
 31
0.0
  0
LINE
  5
184B
330
1D
100
AcDbEntity
  8
0
100
AcDbLine
 10
9.402035223068
 20
1303.075975396485
 30
0.0
 11
10.062032146211
 21
1303.862478095846
 31
0.0
  0
LINE
  5
184C
330
1D
100
AcDbEntity
  8
0
100
AcDbLine
 10
10.585095223068
 20
1302.051975396485
 30
0.0
 11
11.389395223068
 21
1301.376975396485
 31
0.0
  0
LINE
  5
184D
330
1D
100
AcDbEntity
  8
0
100
AcDbLine
 10
10.240335223068
 20
1302.340975396485
 30
0.0
 11
10.585095223068
 21
1302.051975396485
 31
0.0
  0
LINE
  5
184E
330
1D
100
AcDbEntity
  8
0
100
AcDbLine
 10
10.240335223068
 20
1302.340975396485
 30
0.0
 11
11.096406596628
 21
1303.361401734121
 31
0.0
  0
LINE
  5
184F
330
1D
100
AcDbEntity
  8
0
100
AcDbLine
 10
9.746755223068
 20
1302.785975396485
 30
0.0
 11
10.255804937332
 21
1302.359415101816
 31
0.0
  0
LINE
  5
1850
330
1D
100
AcDbEntity
  8
0
100
AcDbLine
 10
10.351355223068
 20
1303.477975396485
 30
0.0
 11
10.751129798791
 21
1302.94983612269
 31
0.0
  0
LINE
  5
1851
330
1D
100
AcDbEntity
  8
0
100
AcDbLine
 10
11.389395223068
 20
1301.376975396485
 30
0.0
 11
12.193795223068
 21
1300.701975396485
 31
0.0
  0
LINE
  5
1852
330
1D
100
AcDbEntity
  8
0
100
AcDbLine
 10
11.043695223068
 20
1303.425975396485
 30
0.0
 11
11.930195223068
 21
1302.339975396485
 31
0.0
  0
LINE
  5
1853
330
1D
100
AcDbEntity
  8
0
100
AcDbLine
 10
9.608135223068
 20
1304.467975396485
 30
0.0
 11
9.923205223068
 21
1304.046975396485
 31
0.0
  0
LINE
  5
1854
330
1D
100
AcDbEntity
  8
0
100
AcDbLine
 10
9.923205223068
 20
1304.046975396485
 30
0.0
 11
10.351355223068
 21
1303.477975396485
 31
0.0
  0
LINE
  5
1855
330
1D
100
AcDbEntity
  8
0
100
AcDbLine
 10
10.642795223068
 20
1303.837975396485
 30
0.0
 11
10.672595223068
 21
1303.659975396485
 31
0.0
  0
LINE
  5
1856
330
1D
100
AcDbEntity
  8
0
100
AcDbLine
 10
10.642795223068
 20
1303.837975396485
 30
0.0
 11
11.043695223068
 21
1303.425975396485
 31
0.0
  0
LINE
  5
1857
330
1D
100
AcDbEntity
  8
0
100
AcDbLine
 10
10.672595223068
 20
1303.659975396485
 30
0.0
 11
10.966853309704
 21
1303.206975841388
 31
0.0
  0
LINE
  5
1858
330
1D
100
AcDbEntity
  8
0
100
AcDbLine
 10
9.400535223068
 20
1304.755975396485
 30
0.0
 11
9.541812223638
 21
1304.564383840772
 31
0.0
  0
LINE
  5
1859
330
1D
100
AcDbEntity
  8
0
100
AcDbLine
 10
9.400535223068
 20
1304.755975396485
 30
0.0
 11
9.608135223068
 21
1304.467975396485
 31
0.0
  0
LINE
  5
185A
330
1D
100
AcDbEntity
  8
0
100
AcDbLine
 10
10.450175223068
 20
1305.885975396485
 30
0.0
 11
11.359895223068
 21
1305.287975396485
 31
0.0
  0
LINE
  5
185B
330
1D
100
AcDbEntity
  8
0
100
AcDbLine
 10
11.359895223068
 20
1305.287975396485
 30
0.0
 11
12.383695223068
 21
1304.611975396485
 31
0.0
  0
LINE
  5
185C
330
1D
100
AcDbEntity
  8
0
100
AcDbLine
 10
12.193795223068
 20
1300.701975396485
 30
0.0
 11
12.538495223068
 21
1300.412975396485
 31
0.0
  0
LINE
  5
185D
330
1D
100
AcDbEntity
  8
0
100
AcDbLine
 10
12.803495223068
 20
1301.462975396485
 30
0.0
 11
13.148195223068
 21
1301.173975396485
 31
0.0
  0
LINE
  5
185E
330
1D
100
AcDbEntity
  8
0
100
AcDbLine
 10
12.803495223068
 20
1301.462975396485
 30
0.0
 11
13.638467336835
 21
1302.458239294382
 31
0.0
  0
LINE
  5
185F
330
1D
100
AcDbEntity
  8
0
100
AcDbLine
 10
12.853295223068
 20
1302.887975396485
 30
0.0
 11
12.885295223068
 21
1303.073975396485
 31
0.0
  0
LINE
  5
1860
330
1D
100
AcDbEntity
  8
0
100
AcDbLine
 10
12.853295223068
 20
1302.887975396485
 30
0.0
 11
12.996395223068
 21
1302.556975396485
 31
0.0
  0
LINE
  5
1861
330
1D
100
AcDbEntity
  8
0
100
AcDbLine
 10
12.728895223068
 20
1301.265975396485
 30
0.0
 11
13.086795223068
 21
1300.729975396485
 31
0.0
  0
LINE
  5
1862
330
1D
100
AcDbEntity
  8
0
100
AcDbLine
 10
12.885295223068
 20
1303.073975396485
 30
0.0
 11
13.298795223068
 21
1302.775975396485
 31
0.0
  0
LINE
  5
1863
330
1D
100
AcDbEntity
  8
0
100
AcDbLine
 10
12.383695223068
 20
1304.611975396485
 30
0.0
 11
13.446995223068
 21
1303.840975396485
 31
0.0
  0
LINE
  5
1864
330
1D
100
AcDbEntity
  8
0
100
AcDbLine
 10
11.930195223068
 20
1302.339975396485
 30
0.0
 11
12.728895223068
 21
1301.265975396485
 31
0.0
  0
LINE
  5
1865
330
1D
100
AcDbEntity
  8
0
100
AcDbLine
 10
12.86045465534
 20
1300.796653988104
 30
0.0
 11
13.164795223068
 21
1300.510975396485
 31
0.0
  0
LINE
  5
1866
330
1D
100
AcDbEntity
  8
0
100
AcDbLine
 10
10.710595223068
 20
1306.403975396485
 30
0.0
 11
11.610708402458
 21
1307.476605600923
 31
0.0
  0
LINE
  5
1867
330
1D
100
AcDbEntity
  8
0
100
AcDbLine
 10
10.365895223068
 20
1306.692975396485
 30
0.0
 11
10.710595223068
 21
1306.403975396485
 31
0.0
  0
LINE
  5
1868
330
1D
100
AcDbEntity
  8
0
100
AcDbLine
 10
11.589995223068
 20
1306.560975396485
 30
0.0
 11
11.998995223068
 21
1306.355975396485
 31
0.0
  0
LINE
  5
1869
330
1D
100
AcDbEntity
  8
0
100
AcDbLine
 10
11.1861355538
 20
1306.97065849129
 30
0.0
 11
11.589995223068
 21
1306.560975396485
 31
0.0
  0
LINE
  5
186A
330
1D
100
AcDbEntity
  8
0
100
AcDbLine
 10
11.981995223068
 20
1306.760975396485
 30
0.0
 11
11.998995223068
 21
1306.355975396485
 31
0.0
  0
LINE
  5
186B
330
1D
100
AcDbEntity
  8
0
100
AcDbLine
 10
9.561545223068
 20
1307.367975396485
 30
0.0
 11
10.365895223068
 21
1306.692975396485
 31
0.0
  0
LINE
  5
186C
330
1D
100
AcDbEntity
  8
0
100
AcDbLine
 10
11.620495223068
 20
1307.460975396485
 30
0.0
 11
11.981995223068
 21
1306.760975396485
 31
0.0
  0
LINE
  5
186D
330
1D
100
AcDbEntity
  8
0
100
AcDbLine
 10
13.148195223068
 20
1301.173975396485
 30
0.0
 11
13.952595223068
 21
1300.498975396485
 31
0.0
  0
LINE
  5
186E
330
1D
100
AcDbEntity
  8
0
100
AcDbLine
 10
13.086795223068
 20
1300.729975396485
 30
0.0
 11
13.164795223068
 21
1300.510975396485
 31
0.0
  0
LINE
  5
186F
330
1D
100
AcDbEntity
  8
0
100
AcDbLine
 10
15.766695223068
 20
1302.038975396485
 30
0.0
 11
17.714195223068
 21
1300.434975396485
 31
0.0
  0
LINE
  5
1870
330
1D
100
AcDbEntity
  8
0
100
AcDbLine
 10
15.145995223068
 20
1300.712975396485
 30
0.0
 11
15.959795223068
 21
1299.474975396485
 31
0.0
  0
LINE
  5
1871
330
1D
100
AcDbEntity
  8
0
100
AcDbLine
 10
14.604095223068
 20
1301.397975396485
 30
0.0
 11
15.145995223068
 21
1300.712975396485
 31
0.0
  0
LINE
  5
1872
330
1D
100
AcDbEntity
  8
0
100
AcDbLine
 10
13.298795223068
 20
1302.775975396485
 30
0.0
 11
13.854695223068
 21
1302.255975396485
 31
0.0
  0
LINE
  5
1873
330
1D
100
AcDbEntity
  8
0
100
AcDbLine
 10
12.996395223068
 20
1302.556975396485
 30
0.0
 11
13.302807642428
 21
1302.058142129083
 31
0.0
  0
LINE
  5
1874
330
1D
100
AcDbEntity
  8
0
100
AcDbLine
 10
13.854695223068
 20
1302.255975396485
 30
0.0
 11
14.604095223068
 21
1301.397975396485
 31
0.0
  0
LINE
  5
1875
330
1D
100
AcDbEntity
  8
0
100
AcDbLine
 10
15.537895223068
 20
1303.218975396485
 30
0.0
 11
16.342195223068
 21
1302.543975396485
 31
0.0
  0
LINE
  5
1876
330
1D
100
AcDbEntity
  8
0
100
AcDbLine
 10
14.541995223068
 20
1303.007975396485
 30
0.0
 11
15.766695223068
 21
1302.038975396485
 31
0.0
  0
LINE
  5
1877
330
1D
100
AcDbEntity
  8
0
100
AcDbLine
 10
17.491295223068
 20
1301.579975396485
 30
0.0
 11
18.056030742918
 21
1302.252969901922
 31
0.0
  0
LINE
  5
1878
330
1D
100
AcDbEntity
  8
0
100
AcDbLine
 10
17.662643437095
 20
1301.784170816294
 30
0.0
 11
17.965495223068
 21
1301.594975396485
 31
0.0
  0
LINE
  5
1879
330
1D
100
AcDbEntity
  8
0
100
AcDbLine
 10
17.965495223068
 20
1301.594975396485
 30
0.0
 11
18.220895223068
 21
1301.847975396485
 31
0.0
  0
LINE
  5
187A
330
1D
100
AcDbEntity
  8
0
100
AcDbLine
 10
17.146495223068
 20
1301.868975396485
 30
0.0
 11
17.491295223068
 21
1301.579975396485
 31
0.0
  0
LINE
  5
187B
330
1D
100
AcDbEntity
  8
0
100
AcDbLine
 10
16.342195223068
 20
1302.543975396485
 30
0.0
 11
17.146495223068
 21
1301.868975396485
 31
0.0
  0
LINE
  5
187C
330
1D
100
AcDbEntity
  8
0
100
AcDbLine
 10
17.950595223068
 20
1302.511975396485
 30
0.0
 11
18.220895223068
 21
1301.847975396485
 31
0.0
  0
LINE
  5
187D
330
1D
100
AcDbEntity
  8
0
100
AcDbLine
 10
17.502595223068
 20
1303.154975396485
 30
0.0
 11
17.950595223068
 21
1302.511975396485
 31
0.0
  0
LINE
  5
187E
330
1D
100
AcDbEntity
  8
0
100
AcDbLine
 10
13.446995223068
 20
1303.840975396485
 30
0.0
 11
14.541995223068
 21
1303.007975396485
 31
0.0
  0
LINE
  5
187F
330
1D
100
AcDbEntity
  8
0
100
AcDbLine
 10
15.193095223068
 20
1303.507975396485
 30
0.0
 11
15.537895223068
 21
1303.218975396485
 31
0.0
  0
LINE
  5
1880
330
1D
100
AcDbEntity
  8
0
100
AcDbLine
 10
15.193095223068
 20
1303.507975396485
 30
0.0
 11
16.093821973189
 21
1304.58161702054
 31
0.0
  0
LINE
  5
1881
330
1D
100
AcDbEntity
  8
0
100
AcDbLine
 10
15.193095223068
 20
1303.507975396485
 30
0.0
 11
16.093821973189
 21
1304.58161702054
 31
0.0
  0
LINE
  5
1882
330
1D
100
AcDbEntity
  8
0
100
AcDbLine
 10
16.385495223068
 20
1304.377975396485
 30
0.0
 11
17.080795223068
 21
1303.667975396485
 31
0.0
  0
LINE
  5
1883
330
1D
100
AcDbEntity
  8
0
100
AcDbLine
 10
15.451595223068
 20
1304.536975396485
 30
0.0
 11
15.668607506105
 21
1304.074773018238
 31
0.0
  0
LINE
  5
1884
330
1D
100
AcDbEntity
  8
0
100
AcDbLine
 10
15.746695223068
 20
1304.823975396485
 30
0.0
 11
16.385495223068
 21
1304.377975396485
 31
0.0
  0
LINE
  5
1885
330
1D
100
AcDbEntity
  8
0
100
AcDbLine
 10
15.426895223068
 20
1304.810975396485
 30
0.0
 11
15.451595223068
 21
1304.536975396485
 31
0.0
  0
LINE
  5
1886
330
1D
100
AcDbEntity
  8
0
100
AcDbLine
 10
15.426895223068
 20
1304.810975396485
 30
0.0
 11
15.746695223068
 21
1304.823975396485
 31
0.0
  0
LINE
  5
1887
330
1D
100
AcDbEntity
  8
0
100
AcDbLine
 10
17.080795223068
 20
1303.667975396485
 30
0.0
 11
17.502595223068
 21
1303.154975396485
 31
0.0
  0
LINE
  5
1888
330
1D
100
AcDbEntity
  8
0
100
AcDbLine
 10
8.412475223068
 20
1308.331975396485
 30
0.0
 11
8.757195223068
 21
1308.042975396485
 31
0.0
  0
LINE
  5
1889
330
1D
100
AcDbEntity
  8
0
100
AcDbLine
 10
8.412475223068
 20
1308.331975396485
 30
0.0
 11
9.770039228403
 21
1309.950194799718
 31
0.0
  0
LINE
  5
188A
330
1D
100
AcDbEntity
  8
0
100
AcDbLine
 10
8.757195223068
 20
1308.042975396485
 30
0.0
 11
9.561545223068
 21
1307.367975396485
 31
0.0
  0
LINE
  5
188B
330
1D
100
AcDbEntity
  8
0
100
AcDbLine
 10
11.129595223068
 20
1308.244975396485
 30
0.0
 11
11.620495223068
 21
1307.460975396485
 31
0.0
  0
LINE
  5
188C
330
1D
100
AcDbEntity
  8
0
100
AcDbLine
 10
2.657675223068
 20
1312.986975396485
 30
0.0
 11
3.002385223068
 21
1312.697975396485
 31
0.0
  0
LINE
  5
188D
330
1D
100
AcDbEntity
  8
0
100
AcDbLine
 10
2.657675223068
 20
1312.986975396485
 30
0.0
 11
3.549870111459
 21
1314.050470437579
 31
0.0
  0
LINE
  5
188E
330
1D
100
AcDbEntity
  8
0
100
AcDbLine
 10
3.277425223068
 20
1312.180975396485
 30
0.0
 11
3.418323507081
 21
1312.34892542855
 31
0.0
  0
LINE
  5
188F
330
1D
100
AcDbEntity
  8
0
100
AcDbLine
 10
3.277425223068
 20
1312.180975396485
 30
0.0
 11
3.622145223068
 21
1311.891975396485
 31
0.0
  0
LINE
  5
1890
330
1D
100
AcDbEntity
  8
0
100
AcDbLine
 10
3.277425223068
 20
1312.180975396485
 30
0.0
 11
4.355243143153
 21
1313.46572883054
 31
0.0
  0
LINE
  5
1891
330
1D
100
AcDbEntity
  8
0
100
AcDbLine
 10
3.002385223068
 20
1312.697975396485
 30
0.0
 11
3.418323507081
 21
1312.34892542855
 31
0.0
  0
LINE
  5
1892
330
1D
100
AcDbEntity
  8
0
100
AcDbLine
 10
3.002385223068
 20
1312.697975396485
 30
0.0
 11
3.418323507081
 21
1312.34892542855
 31
0.0
  0
LINE
  5
1893
330
1D
100
AcDbEntity
  8
0
100
AcDbLine
 10
3.622145223068
 20
1311.891975396485
 30
0.0
 11
4.426495223068
 21
1311.216975396485
 31
0.0
  0
LINE
  5
1894
330
1D
100
AcDbEntity
  8
0
100
AcDbLine
 10
3.461915223068
 20
1314.195975396485
 30
0.0
 11
4.092587881716
 21
1313.152645105714
 31
0.0
  0
LINE
  5
1895
330
1D
100
AcDbEntity
  8
0
100
AcDbLine
 10
3.235305223068
 20
1314.578975396485
 30
0.0
 11
3.461915223068
 21
1314.195975396485
 31
0.0
  0
LINE
  5
1896
330
1D
100
AcDbEntity
  8
0
100
AcDbLine
 10
3.247145223068
 20
1314.557975396485
 30
0.0
 11
3.319319807095
 21
1314.436979960792
 31
0.0
  0
LINE
  5
1897
330
1D
100
AcDbEntity
  8
0
100
AcDbLine
 10
3.179675223068
 20
1314.671975396485
 30
0.0
 11
3.247145223068
 21
1314.557975396485
 31
0.0
  0
LINE
  5
1898
330
1D
100
AcDbEntity
  8
0
100
AcDbLine
 10
3.179675223068
 20
1314.671975396485
 30
0.0
 11
3.235305223068
 21
1314.578975396485
 31
0.0
  0
LINE
  5
1899
330
1D
100
AcDbEntity
  8
0
100
AcDbLine
 10
3.526705223068
 20
1314.647975396485
 30
0.0
 11
3.648255223068
 21
1314.320975396485
 31
0.0
  0
LINE
  5
189A
330
1D
100
AcDbEntity
  8
0
100
AcDbLine
 10
3.526705223068
 20
1314.647975396485
 30
0.0
 11
3.852385223068
 21
1314.218975396485
 31
0.0
  0
LINE
  5
189B
330
1D
100
AcDbEntity
  8
0
100
AcDbLine
 10
3.739663131501
 20
1314.367457886298
 30
0.0
 11
3.774936539765
 21
1314.318749300791
 31
0.0
  0
LINE
  5
189C
330
1D
100
AcDbEntity
  8
0
100
AcDbLine
 10
0.364212223068
 20
1321.303975396485
 30
0.0
 11
0.403998223068
 21
1322.456975396485
 31
0.0
  0
LINE
  5
189D
330
1D
100
AcDbEntity
  8
0
100
AcDbLine
 10
0.364212223068
 20
1321.303975396485
 30
0.0
 11
0.553807223068
 21
1320.125975396485
 31
0.0
  0
LINE
  5
189E
330
1D
100
AcDbEntity
  8
0
100
AcDbLine
 10
0.403998223068
 20
1322.456975396485
 30
0.0
 11
0.826717223068
 21
1323.962975396485
 31
0.0
  0
LINE
  5
189F
330
1D
100
AcDbEntity
  8
0
100
AcDbLine
 10
0.553807223068
 20
1320.125975396485
 30
0.0
 11
0.587213223068
 21
1320.061975396485
 31
0.0
  0
LINE
  5
18A0
330
1D
100
AcDbEntity
  8
0
100
AcDbLine
 10
0.587431549359
 20
1320.062140358452
 30
0.0
 11
1.383018223068
 21
1317.982975396485
 31
0.0
  0
LINE
  5
18A1
330
1D
100
AcDbEntity
  8
0
100
AcDbLine
 10
0.826717223068
 20
1323.962975396485
 30
0.0
 11
1.331381223068
 21
1324.959975396485
 31
0.0
  0
LINE
  5
18A2
330
1D
100
AcDbEntity
  8
0
100
AcDbLine
 10
1.331381223068
 20
1324.959975396485
 30
0.0
 11
2.752945223068
 21
1327.015975396485
 31
0.0
  0
LINE
  5
18A3
330
1D
100
AcDbEntity
  8
0
100
AcDbLine
 10
2.752945223068
 20
1327.015975396485
 30
0.0
 11
6.343685223068
 21
1331.770975396485
 31
0.0
  0
LINE
  5
18A4
330
1D
100
AcDbEntity
  8
0
100
AcDbLine
 10
2.752945223068
 20
1327.015975396485
 30
0.0
 11
6.343685223068
 21
1331.770975396485
 31
0.0
  0
LINE
  5
18A5
330
1D
100
AcDbEntity
  8
0
100
AcDbLine
 10
1.383018223068
 20
1317.982975396485
 30
0.0
 11
2.616295223068
 21
1315.650975396485
 31
0.0
  0
LINE
  5
18A6
330
1D
100
AcDbEntity
  8
0
100
AcDbLine
 10
2.616295223068
 20
1315.650975396485
 30
0.0
 11
3.179675223068
 21
1314.671975396485
 31
0.0
  0
LINE
  5
18A7
330
1D
100
AcDbEntity
  8
0
100
AcDbLine
 10
7.203545223068
 20
1309.191975396485
 30
0.0
 11
7.777843930845
 21
1309.876357821417
 31
0.0
  0
LINE
  5
18A8
330
1D
100
AcDbEntity
  8
0
100
AcDbLine
 10
6.858825223068
 20
1309.481975396485
 30
0.0
 11
7.203545223068
 21
1309.191975396485
 31
0.0
  0
LINE
  5
18A9
330
1D
100
AcDbEntity
  8
0
100
AcDbLine
 10
5.575565223068
 20
1310.252975396485
 30
0.0
 11
5.725696833919
 21
1310.431885350827
 31
0.0
  0
LINE
  5
18AA
330
1D
100
AcDbEntity
  8
0
100
AcDbLine
 10
6.054475223068
 20
1310.155975396485
 30
0.0
 11
6.858825223068
 21
1309.481975396485
 31
0.0
  0
LINE
  5
18AB
330
1D
100
AcDbEntity
  8
0
100
AcDbLine
 10
7.573003418247
 20
1309.632252715768
 30
0.0
 11
7.948725223068
 21
1309.212975396485
 31
0.0
  0
LINE
  5
18AC
330
1D
100
AcDbEntity
  8
0
100
AcDbLine
 10
7.948725223068
 20
1309.212975396485
 30
0.0
 11
8.124405223068
 21
1309.176975396485
 31
0.0
  0
LINE
  5
18AD
330
1D
100
AcDbEntity
  8
0
100
AcDbLine
 10
7.956865223068
 20
1309.573975396485
 30
0.0
 11
8.124405223068
 21
1309.176975396485
 31
0.0
  0
LINE
  5
18AE
330
1D
100
AcDbEntity
  8
0
100
AcDbLine
 10
5.888578921266
 20
1310.295195134054
 30
0.0
 11
7.574145223068
 21
1307.758975396485
 31
0.0
  0
LINE
  5
18AF
330
1D
100
AcDbEntity
  8
0
100
AcDbLine
 10
10.458125223068
 20
1309.169975396485
 30
0.0
 11
11.129595223068
 21
1308.244975396485
 31
0.0
  0
LINE
  5
18B0
330
1D
100
AcDbEntity
  8
0
100
AcDbLine
 10
9.275225223068
 20
1309.522975396485
 30
0.0
 11
9.333762765059
 21
1309.430152256322
 31
0.0
  0
LINE
  5
18B1
330
1D
100
AcDbEntity
  8
0
100
AcDbLine
 10
8.940455223068
 20
1310.176975396485
 30
0.0
 11
9.275225223068
 21
1309.522975396485
 31
0.0
  0
LINE
  5
18B2
330
1D
100
AcDbEntity
  8
0
100
AcDbLine
 10
9.540935223068
 20
1310.209975396485
 30
0.0
 11
10.458125223068
 21
1309.169975396485
 31
0.0
  0
LINE
  5
18B3
330
1D
100
AcDbEntity
  8
0
100
AcDbLine
 10
5.725696833919
 20
1310.431885350827
 30
0.0
 11
5.888578921266
 21
1310.295195134054
 31
0.0
  0
LINE
  5
18B4
330
1D
100
AcDbEntity
  8
0
100
AcDbLine
 10
5.230845223068
 20
1310.541975396485
 30
0.0
 11
5.575565223068
 21
1310.252975396485
 31
0.0
  0
LINE
  5
18B5
330
1D
100
AcDbEntity
  8
0
100
AcDbLine
 10
8.833765223068
 20
1310.544975396485
 30
0.0
 11
8.950915223068
 21
1310.657975396485
 31
0.0
  0
LINE
  5
18B6
330
1D
100
AcDbEntity
  8
0
100
AcDbLine
 10
8.833765223068
 20
1310.544975396485
 30
0.0
 11
8.940455223068
 21
1310.176975396485
 31
0.0
  0
LINE
  5
18B7
330
1D
100
AcDbEntity
  8
0
100
AcDbLine
 10
3.852385223068
 20
1314.218975396485
 30
0.0
 11
4.342455223068
 21
1313.485975396485
 31
0.0
  0
LINE
  5
18B8
330
1D
100
AcDbEntity
  8
0
100
AcDbLine
 10
4.426495223068
 20
1311.216975396485
 30
0.0
 11
5.230845223068
 21
1310.541975396485
 31
0.0
  0
LINE
  5
18B9
330
1D
100
AcDbEntity
  8
0
100
AcDbLine
 10
4.905415223068
 20
1311.120975396485
 30
0.0
 11
5.250135223068
 21
1310.830975396485
 31
0.0
  0
LINE
  5
18BA
330
1D
100
AcDbEntity
  8
0
100
AcDbLine
 10
4.905415223068
 20
1311.120975396485
 30
0.0
 11
6.023183688332
 21
1312.453006032486
 31
0.0
  0
LINE
  5
18BB
330
1D
100
AcDbEntity
  8
0
100
AcDbLine
 10
5.250135223068
 20
1310.830975396485
 30
0.0
 11
6.054475223068
 21
1310.155975396485
 31
0.0
  0
LINE
  5
18BC
330
1D
100
AcDbEntity
  8
0
100
AcDbLine
 10
5.666115223068
 20
1312.732975396485
 30
0.0
 11
5.963615223068
 21
1312.528975396485
 31
0.0
  0
LINE
  5
18BD
330
1D
100
AcDbEntity
  8
0
100
AcDbLine
 10
5.666115223068
 20
1312.732975396485
 30
0.0
 11
5.750185223068
 21
1312.452975396485
 31
0.0
  0
LINE
  5
18BE
330
1D
100
AcDbEntity
  8
0
100
AcDbLine
 10
4.856585223068
 20
1312.671975396485
 30
0.0
 11
5.426801111545
 21
1311.742304408899
 31
0.0
  0
LINE
  5
18BF
330
1D
100
AcDbEntity
  8
0
100
AcDbLine
 10
4.342455223068
 20
1313.485975396485
 30
0.0
 11
4.856585223068
 21
1312.671975396485
 31
0.0
  0
LINE
  5
18C0
330
1D
100
AcDbEntity
  8
0
100
AcDbLine
 10
4.062665223068
 20
1313.551975396485
 30
0.0
 11
4.215009849435
 21
1313.298571463497
 31
0.0
  0
LINE
  5
18C1
330
1D
100
AcDbEntity
  8
0
100
AcDbLine
 10
7.299705223068
 20
1310.683975396485
 30
0.0
 11
7.956865223068
 21
1309.573975396485
 31
0.0
  0
LINE
  5
18C2
330
1D
100
AcDbEntity
  8
0
100
AcDbLine
 10
6.818925223068
 20
1311.400975396485
 30
0.0
 11
7.299705223068
 21
1310.683975396485
 31
0.0
  0
LINE
  5
18C3
330
1D
100
AcDbEntity
  8
0
100
AcDbLine
 10
5.750185223068
 20
1312.452975396485
 30
0.0
 11
5.852990982964
 21
1312.250189523862
 31
0.0
  0
LINE
  5
18C4
330
1D
100
AcDbEntity
  8
0
100
AcDbLine
 10
6.427025223068
 20
1311.937975396485
 30
0.0
 11
6.818925223068
 21
1311.400975396485
 31
0.0
  0
LINE
  5
18C5
330
1D
100
AcDbEntity
  8
0
100
AcDbLine
 10
6.774825223068
 20
1332.025975396485
 30
0.0
 11
7.022285223068
 21
1332.042975396485
 31
0.0
  0
LINE
  5
18C6
330
1D
100
AcDbEntity
  8
0
100
AcDbLine
 10
6.343685223068
 20
1331.770975396485
 30
0.0
 11
6.774825223068
 21
1332.025975396485
 31
0.0
  0
LINE
  5
18C7
330
1D
100
AcDbEntity
  8
0
100
AcDbLine
 10
7.267915223068
 20
1331.975975396485
 30
0.0
 11
13.609895223068
 21
1328.852975396485
 31
0.0
  0
LINE
  5
18C8
330
1D
100
AcDbEntity
  8
0
100
AcDbLine
 10
7.022285223068
 20
1332.042975396485
 30
0.0
 11
7.267915223068
 21
1331.975975396485
 31
0.0
  0
LINE
  5
18C9
330
1D
100
AcDbEntity
  8
0
100
AcDbLine
 10
5.963615223068
 20
1312.528975396485
 30
0.0
 11
6.427025223068
 21
1311.937975396485
 31
0.0
  0
LINE
  5
18CA
330
1D
100
AcDbEntity
  8
0
100
AcDbLine
 10
8.950915223068
 20
1310.657975396485
 30
0.0
 11
9.540935223068
 21
1310.209975396485
 31
0.0
  0
LINE
  5
18CB
330
1D
100
AcDbEntity
  8
0
100
AcDbLine
 10
13.609895223068
 20
1328.852975396485
 30
0.0
 11
20.062395223068
 21
1325.422975396485
 31
0.0
  0
LINE
  5
18CC
330
1D
100
AcDbEntity
  8
0
100
AcDbLine
 10
20.062395223068
 20
1325.422975396485
 30
0.0
 11
26.394895223068
 21
1321.799975396485
 31
0.0
  0
LINE
  5
18CD
330
1D
100
AcDbEntity
  8
0
100
AcDbLine
 10
7.574145223068
 20
1307.758975396485
 30
0.0
 11
7.608385223068
 21
1307.658975396485
 31
0.0
  0
LINE
  5
18CE
330
1D
100
AcDbEntity
  8
0
100
AcDbLine
 10
23.025395223068
 20
1295.730975396485
 30
0.0
 11
23.370095223068
 21
1295.440975396485
 31
0.0
  0
LINE
  5
18CF
330
1D
100
AcDbEntity
  8
0
100
AcDbLine
 10
23.025395223068
 20
1295.730975396485
 30
0.0
 11
24.407127463283
 21
1297.377583716602
 31
0.0
  0
LINE
  5
18D0
330
1D
100
AcDbEntity
  8
0
100
AcDbLine
 10
23.370095223068
 20
1295.440975396485
 30
0.0
 11
24.174495223068
 21
1294.765975396485
 31
0.0
  0
LINE
  5
18D1
330
1D
100
AcDbEntity
  8
0
100
AcDbLine
 10
24.174495223068
 20
1294.765975396485
 30
0.0
 11
24.978795223068
 21
1294.091975396485
 31
0.0
  0
LINE
  5
18D2
330
1D
100
AcDbEntity
  8
0
100
AcDbLine
 10
24.978795223068
 20
1294.091975396485
 30
0.0
 11
25.323495223068
 21
1293.801975396485
 31
0.0
  0
LINE
  5
18D3
330
1D
100
AcDbEntity
  8
0
100
AcDbLine
 10
25.323495223068
 20
1293.801975396485
 30
0.0
 11
26.512381554506
 21
1295.219095351599
 31
0.0
  0
LINE
  5
18D4
330
1D
100
AcDbEntity
  8
0
100
AcDbLine
 10
26.660595223068
 20
1293.993975396485
 30
0.0
 11
26.878195223068
 21
1294.110975396485
 31
0.0
  0
LINE
  5
18D5
330
1D
100
AcDbEntity
  8
0
100
AcDbLine
 10
25.807349361162
 20
1294.378716281064
 30
0.0
 11
26.116495223068
 21
1294.152975396485
 31
0.0
  0
LINE
  5
18D6
330
1D
100
AcDbEntity
  8
0
100
AcDbLine
 10
25.985295223068
 20
1295.976975396485
 30
0.0
 11
26.615395223068
 21
1295.070975396485
 31
0.0
  0
LINE
  5
18D7
330
1D
100
AcDbEntity
  8
0
100
AcDbLine
 10
26.615395223068
 20
1295.070975396485
 30
0.0
 11
26.849595223068
 21
1294.534975396485
 31
0.0
  0
LINE
  5
18D8
330
1D
100
AcDbEntity
  8
0
100
AcDbLine
 10
26.116495223068
 20
1294.152975396485
 30
0.0
 11
26.660595223068
 21
1293.993975396485
 31
0.0
  0
LINE
  5
18D9
330
1D
100
AcDbEntity
  8
0
100
AcDbLine
 10
26.849595223068
 20
1294.534975396485
 30
0.0
 11
26.878195223068
 21
1294.110975396485
 31
0.0
  0
LINE
  5
18DA
330
1D
100
AcDbEntity
  8
0
100
AcDbLine
 10
25.132760358807
 20
1293.962442790264
 30
0.0
 11
25.199095223068
 21
1293.903975396485
 31
0.0
  0
LINE
  5
18DB
330
1D
100
AcDbEntity
  8
0
100
AcDbLine
 10
23.333095223068
 20
1297.602975396485
 30
0.0
 11
23.365695223068
 21
1297.230975396485
 31
0.0
  0
LINE
  5
18DC
330
1D
100
AcDbEntity
  8
0
100
AcDbLine
 10
23.333095223068
 20
1297.602975396485
 30
0.0
 11
23.496195223068
 21
1297.742975396485
 31
0.0
  0
LINE
  5
18DD
330
1D
100
AcDbEntity
  8
0
100
AcDbLine
 10
24.686595223068
 20
1297.189975396485
 30
0.0
 11
25.221095223068
 21
1296.744975396485
 31
0.0
  0
LINE
  5
18DE
330
1D
100
AcDbEntity
  8
0
100
AcDbLine
 10
25.221095223068
 20
1296.744975396485
 30
0.0
 11
25.985295223068
 21
1295.976975396485
 31
0.0
  0
LINE
  5
18DF
330
1D
100
AcDbEntity
  8
0
100
AcDbLine
 10
24.197995223068
 20
1297.517975396485
 30
0.0
 11
24.686595223068
 21
1297.189975396485
 31
0.0
  0
LINE
  5
18E0
330
1D
100
AcDbEntity
  8
0
100
AcDbLine
 10
26.394895223068
 20
1321.799975396485
 30
0.0
 11
35.265495223068
 21
1316.294975396485
 31
0.0
  0
LINE
  5
18E1
330
1D
100
AcDbEntity
  8
0
100
AcDbLine
 10
23.496195223068
 20
1297.742975396485
 30
0.0
 11
23.787495223068
 21
1297.706975396485
 31
0.0
  0
LINE
  5
18E2
330
1D
100
AcDbEntity
  8
0
100
AcDbLine
 10
23.787495223068
 20
1297.706975396485
 30
0.0
 11
24.197995223068
 21
1297.517975396485
 31
0.0
  0
LINE
  5
18E3
330
1D
100
AcDbEntity
  8
0
100
AcDbLine
 10
23.36103811054
 20
1297.28411790754
 30
0.0
 11
23.614177587036
 21
1296.699573609158
 31
0.0
  0
LINE
  5
18E4
330
1D
100
AcDbEntity
  8
0
100
AcDbLine
 10
23.585995223068
 20
1296.740975396485
 30
0.0
 11
23.714504763129
 21
1296.552186242632
 31
0.0
  0
LINE
  5
18E5
330
1D
100
AcDbEntity
  8
0
100
AcDbLine
 10
22.212395223068
 20
1289.034975396485
 30
0.0
 11
22.262495223068
 21
1288.939975396485
 31
0.0
  0
LINE
  5
18E6
330
1D
100
AcDbEntity
  8
0
100
AcDbLine
 10
28.332295223068
 20
1288.340975396485
 30
0.0
 11
28.676995223068
 21
1288.050975396485
 31
0.0
  0
LINE
  5
18E7
330
1D
100
AcDbEntity
  8
0
100
AcDbLine
 10
28.332295223068
 20
1288.340975396485
 30
0.0
 11
29.399966714283
 21
1289.61331797446
 31
0.0
  0
LINE
  5
18E8
330
1D
100
AcDbEntity
  8
0
100
AcDbLine
 10
28.375095223068
 20
1285.795975396485
 30
0.0
 11
31.046995223068
 21
1283.627975396485
 31
0.0
  0
LINE
  5
18E9
330
1D
100
AcDbEntity
  8
0
100
AcDbLine
 10
28.408295223068
 20
1289.691975396485
 30
0.0
 11
28.434295223068
 21
1289.954975396485
 31
0.0
  0
LINE
  5
18EA
330
1D
100
AcDbEntity
  8
0
100
AcDbLine
 10
28.408295223068
 20
1289.691975396485
 30
0.0
 11
28.602695223068
 21
1289.246975396485
 31
0.0
  0
LINE
  5
18EB
330
1D
100
AcDbEntity
  8
0
100
AcDbLine
 10
28.434295223068
 20
1289.954975396485
 30
0.0
 11
28.650795223068
 21
1290.011975396485
 31
0.0
  0
LINE
  5
18EC
330
1D
100
AcDbEntity
  8
0
100
AcDbLine
 10
28.100895223068
 20
1288.677975396485
 30
0.0
 11
28.397795001933
 21
1288.419031388599
 31
0.0
  0
LINE
  5
18ED
330
1D
100
AcDbEntity
  8
0
100
AcDbLine
 10
28.676995223068
 20
1288.050975396485
 30
0.0
 11
29.481295223068
 21
1287.375975396485
 31
0.0
  0
LINE
  5
18EE
330
1D
100
AcDbEntity
  8
0
100
AcDbLine
 10
28.602695223068
 20
1289.246975396485
 30
0.0
 11
28.82494499889
 21
1288.928065424612
 31
0.0
  0
LINE
  5
18EF
330
1D
100
AcDbEntity
  8
0
100
AcDbLine
 10
28.650795223068
 20
1290.011975396485
 30
0.0
 11
29.013195223068
 21
1289.892975396485
 31
0.0
  0
LINE
  5
18F0
330
1D
100
AcDbEntity
  8
0
100
AcDbLine
 10
29.481295223068
 20
1287.375975396485
 30
0.0
 11
30.285695223068
 21
1286.700975396485
 31
0.0
  0
LINE
  5
18F1
330
1D
100
AcDbEntity
  8
0
100
AcDbLine
 10
29.013195223068
 20
1289.892975396485
 30
0.0
 11
30.405895223068
 21
1288.885975396485
 31
0.0
  0
LINE
  5
18F2
330
1D
100
AcDbEntity
  8
0
100
AcDbLine
 10
29.916695223068
 20
1280.685975396485
 30
0.0
 11
29.920595223068
 21
1280.802975396485
 31
0.0
  0
LINE
  5
18F3
330
1D
100
AcDbEntity
  8
0
100
AcDbLine
 10
30.218395223068
 20
1281.470975396485
 30
0.0
 11
31.061508103913
 21
1282.475711801985
 31
0.0
  0
LINE
  5
18F4
330
1D
100
AcDbEntity
  8
0
100
AcDbLine
 10
30.285695223068
 20
1286.700975396485
 30
0.0
 11
30.630395223068
 21
1286.411975396485
 31
0.0
  0
LINE
  5
18F5
330
1D
100
AcDbEntity
  8
0
100
AcDbLine
 10
30.270495223068
 20
1283.350975396485
 30
0.0
 11
30.970395223068
 21
1282.604975396485
 31
0.0
  0
LINE
  5
18F6
330
1D
100
AcDbEntity
  8
0
100
AcDbLine
 10
30.630395223068
 20
1286.411975396485
 30
0.0
 11
31.590168996911
 21
1287.555736420107
 31
0.0
  0
LINE
  5
18F7
330
1D
100
AcDbEntity
  8
0
100
AcDbLine
 10
30.405895223068
 20
1288.885975396485
 30
0.0
 11
31.001195223068
 21
1288.296975396485
 31
0.0
  0
LINE
  5
18F8
330
1D
100
AcDbEntity
  8
0
100
AcDbLine
 10
30.739795223068
 20
1280.761975396485
 30
0.0
 11
31.328795223068
 21
1280.584975396485
 31
0.0
  0
LINE
  5
18F9
330
1D
100
AcDbEntity
  8
0
100
AcDbLine
 10
36.492095223068
 20
1280.606975396485
 30
0.0
 11
36.823995223068
 21
1280.099975396485
 31
0.0
  0
LINE
  5
18FA
330
1D
100
AcDbEntity
  8
0
100
AcDbLine
 10
31.328795223068
 20
1280.584975396485
 30
0.0
 11
32.274179032555
 21
1280.177928366484
 31
0.0
  0
LINE
  5
18FB
330
1D
100
AcDbEntity
  8
0
100
AcDbLine
 10
33.543495223068
 20
1281.030975396485
 30
0.0
 11
34.347895223068
 21
1280.355975396485
 31
0.0
  0
LINE
  5
18FC
330
1D
100
AcDbEntity
  8
0
100
AcDbLine
 10
36.097295223068
 20
1281.078975396485
 30
0.0
 11
36.492095223068
 21
1280.606975396485
 31
0.0
  0
LINE
  5
18FD
330
1D
100
AcDbEntity
  8
0
100
AcDbLine
 10
33.198795223068
 20
1281.319975396485
 30
0.0
 11
33.543495223068
 21
1281.030975396485
 31
0.0
  0
LINE
  5
18FE
330
1D
100
AcDbEntity
  8
0
100
AcDbLine
 10
33.198795223068
 20
1281.319975396485
 30
0.0
 11
34.302166464024
 21
1282.634861314797
 31
0.0
  0
LINE
  5
18FF
330
1D
100
AcDbEntity
  8
0
100
AcDbLine
 10
33.198795223068
 20
1281.319975396485
 30
0.0
 11
34.302166464024
 21
1282.634861314797
 31
0.0
  0
LINE
  5
1900
330
1D
100
AcDbEntity
  8
0
100
AcDbLine
 10
35.605195223068
 20
1281.584975396485
 30
0.0
 11
36.097295223068
 21
1281.078975396485
 31
0.0
  0
LINE
  5
1901
330
1D
100
AcDbEntity
  8
0
100
AcDbLine
 10
31.173995223068
 20
1281.859975396485
 30
0.0
 11
31.451595223068
 21
1281.793975396485
 31
0.0
  0
LINE
  5
1902
330
1D
100
AcDbEntity
  8
0
100
AcDbLine
 10
36.952395223068
 20
1281.114975396485
 30
0.0
 11
39.671339450079
 21
1278.712049415419
 31
0.0
  0
LINE
  5
1903
330
1D
100
AcDbEntity
  8
0
100
AcDbLine
 10
36.952395223068
 20
1281.114975396485
 30
0.0
 11
39.67040432222
 21
1278.710935024897
 31
0.0
  0
LINE
  5
1904
330
1D
100
AcDbEntity
  8
0
100
AcDbLine
 10
30.78302012122
 20
1282.143838074204
 30
0.0
 11
31.173995223068
 21
1281.859975396485
 31
0.0
  0
LINE
  5
1905
330
1D
100
AcDbEntity
  8
0
100
AcDbLine
 10
31.376395223068
 20
1282.028975396485
 30
0.0
 11
31.451595223068
 21
1281.793975396485
 31
0.0
  0
LINE
  5
1906
330
1D
100
AcDbEntity
  8
0
100
AcDbLine
 10
30.970395223068
 20
1282.604975396485
 30
0.0
 11
31.376395223068
 21
1282.028975396485
 31
0.0
  0
LINE
  5
1907
330
1D
100
AcDbEntity
  8
0
100
AcDbLine
 10
31.046995223068
 20
1283.627975396485
 30
0.0
 11
33.020395223068
 21
1281.954975396485
 31
0.0
  0
LINE
  5
1908
330
1D
100
AcDbEntity
  8
0
100
AcDbLine
 10
30.979495223068
 20
1286.807975396485
 30
0.0
 11
31.446295223068
 21
1286.542975396485
 31
0.0
  0
LINE
  5
1909
330
1D
100
AcDbEntity
  8
0
100
AcDbLine
 10
31.001195223068
 20
1288.296975396485
 30
0.0
 11
31.438995223068
 21
1287.778975396485
 31
0.0
  0
LINE
  5
190A
330
1D
100
AcDbEntity
  8
0
100
AcDbLine
 10
31.446295223068
 20
1286.542975396485
 30
0.0
 11
31.915495223068
 21
1286.437975396485
 31
0.0
  0
LINE
  5
190B
330
1D
100
AcDbEntity
  8
0
100
AcDbLine
 10
31.438995223068
 20
1287.778975396485
 30
0.0
 11
31.818895223068
 21
1287.217975396485
 31
0.0
  0
LINE
  5
190C
330
1D
100
AcDbEntity
  8
0
100
AcDbLine
 10
31.915495223068
 20
1286.437975396485
 30
0.0
 11
32.008495223068
 21
1286.746975396485
 31
0.0
  0
LINE
  5
190D
330
1D
100
AcDbEntity
  8
0
100
AcDbLine
 10
32.157595223068
 20
1288.036975396485
 30
0.0
 11
32.502295223068
 21
1287.747975396485
 31
0.0
  0
LINE
  5
190E
330
1D
100
AcDbEntity
  8
0
100
AcDbLine
 10
32.157595223068
 20
1288.036975396485
 30
0.0
 11
33.245843089297
 21
1289.333838810922
 31
0.0
  0
LINE
  5
190F
330
1D
100
AcDbEntity
  8
0
100
AcDbLine
 10
32.157595223068
 20
1288.036975396485
 30
0.0
 11
33.245843089297
 21
1289.333838810922
 31
0.0
  0
LINE
  5
1910
330
1D
100
AcDbEntity
  8
0
100
AcDbLine
 10
32.502295223068
 20
1287.747975396485
 30
0.0
 11
33.306595223068
 21
1287.072975396485
 31
0.0
  0
LINE
  5
1911
330
1D
100
AcDbEntity
  8
0
100
AcDbLine
 10
32.356795223068
 20
1289.401975396485
 30
0.0
 11
32.515095223068
 21
1288.743975396485
 31
0.0
  0
LINE
  5
1912
330
1D
100
AcDbEntity
  8
0
100
AcDbLine
 10
32.356795223068
 20
1289.401975396485
 30
0.0
 11
32.700895223068
 21
1289.540975396485
 31
0.0
  0
LINE
  5
1913
330
1D
100
AcDbEntity
  8
0
100
AcDbLine
 10
32.515095223068
 20
1288.743975396485
 30
0.0
 11
32.62773003282
 21
1288.597234371982
 31
0.0
  0
LINE
  5
1914
330
1D
100
AcDbEntity
  8
0
100
AcDbLine
 10
31.818895223068
 20
1287.217975396485
 30
0.0
 11
32.008495223068
 21
1286.746975396485
 31
0.0
  0
LINE
  5
1915
330
1D
100
AcDbEntity
  8
0
100
AcDbLine
 10
32.62773003282
 20
1288.597234371982
 30
0.0
 11
33.245843089297
 21
1289.333838810922
 31
0.0
  0
LINE
  5
1916
330
1D
100
AcDbEntity
  8
0
100
AcDbLine
 10
33.035895223068
 20
1289.443975396485
 30
0.0
 11
33.462895223068
 21
1289.219975396485
 31
0.0
  0
LINE
  5
1917
330
1D
100
AcDbEntity
  8
0
100
AcDbLine
 10
32.700895223068
 20
1289.540975396485
 30
0.0
 11
33.035895223068
 21
1289.443975396485
 31
0.0
  0
LINE
  5
1918
330
1D
100
AcDbEntity
  8
0
100
AcDbLine
 10
33.826289857172
 20
1282.067759847968
 30
0.0
 11
34.302166464024
 21
1282.634861314797
 31
0.0
  0
LINE
  5
1919
330
1D
100
AcDbEntity
  8
0
100
AcDbLine
 10
33.826289857172
 20
1282.067759847968
 30
0.0
 11
34.302166464024
 21
1282.634861314797
 31
0.0
  0
LINE
  5
191A
330
1D
100
AcDbEntity
  8
0
100
AcDbLine
 10
33.404195223068
 20
1282.451975396485
 30
0.0
 11
33.76526420732
 21
1281.995035668954
 31
0.0
  0
LINE
  5
191B
330
1D
100
AcDbEntity
  8
0
100
AcDbLine
 10
34.781995223068
 20
1282.321975396485
 30
0.0
 11
35.605195223068
 21
1281.584975396485
 31
0.0
  0
LINE
  5
191C
330
1D
100
AcDbEntity
  8
0
100
AcDbLine
 10
33.872595223068
 20
1282.914975396485
 30
0.0
 11
34.781995223068
 21
1282.321975396485
 31
0.0
  0
LINE
  5
191D
330
1D
100
AcDbEntity
  8
0
100
AcDbLine
 10
34.455695223068
 20
1286.108975396485
 30
0.0
 11
35.36920569236
 21
1287.197570635249
 31
0.0
  0
LINE
  5
191E
330
1D
100
AcDbEntity
  8
0
100
AcDbLine
 10
33.306595223068
 20
1287.072975396485
 30
0.0
 11
34.110995223068
 21
1286.397975396485
 31
0.0
  0
LINE
  5
191F
330
1D
100
AcDbEntity
  8
0
100
AcDbLine
 10
34.110995223068
 20
1286.397975396485
 30
0.0
 11
34.455695223068
 21
1286.108975396485
 31
0.0
  0
LINE
  5
1920
330
1D
100
AcDbEntity
  8
0
100
AcDbLine
 10
34.242395223068
 20
1288.658975396485
 30
0.0
 11
34.892895223068
 21
1287.957975396485
 31
0.0
  0
LINE
  5
1921
330
1D
100
AcDbEntity
  8
0
100
AcDbLine
 10
33.462895223068
 20
1289.219975396485
 30
0.0
 11
34.242395223068
 21
1288.658975396485
 31
0.0
  0
LINE
  5
1922
330
1D
100
AcDbEntity
  8
0
100
AcDbLine
 10
34.270444520774
 20
1286.264291477028
 30
0.0
 11
37.045395223068
 21
1283.815975396485
 31
0.0
  0
LINE
  5
1923
330
1D
100
AcDbEntity
  8
0
100
AcDbLine
 10
34.270444520774
 20
1286.264291477028
 30
0.0
 11
37.045395223068
 21
1283.815975396485
 31
0.0
  0
LINE
  5
1924
330
1D
100
AcDbEntity
  8
0
100
AcDbLine
 10
35.123295223068
 20
1286.508975396485
 30
0.0
 11
35.508395223068
 21
1286.780975396485
 31
0.0
  0
LINE
  5
1925
330
1D
100
AcDbEntity
  8
0
100
AcDbLine
 10
37.045395223068
 20
1283.815975396485
 30
0.0
 11
40.976825135411
 21
1280.375036555251
 31
0.0
  0
LINE
  5
1926
330
1D
100
AcDbEntity
  8
0
100
AcDbLine
 10
35.293895223068
 20
1287.422975396485
 30
0.0
 11
35.508395223068
 21
1286.780975396485
 31
0.0
  0
LINE
  5
1927
330
1D
100
AcDbEntity
  8
0
100
AcDbLine
 10
35.265495223068
 20
1316.294975396485
 30
0.0
 11
43.911395223068
 21
1310.440975396485
 31
0.0
  0
LINE
  5
1928
330
1D
100
AcDbEntity
  8
0
100
AcDbLine
 10
34.892895223068
 20
1287.957975396485
 30
0.0
 11
35.293895223068
 21
1287.422975396485
 31
0.0
  0
LINE
  5
1929
330
1D
100
AcDbEntity
  8
0
100
AcDbLine
 10
34.882934810582
 20
1286.618100356093
 30
0.0
 11
35.123295223068
 21
1286.508975396485
 31
0.0
  0
LINE
  5
192A
330
1D
100
AcDbEntity
  8
0
100
AcDbLine
 10
33.257095223068
 20
1283.045975396485
 30
0.0
 11
33.404195223068
 21
1282.451975396485
 31
0.0
  0
LINE
  5
192B
330
1D
100
AcDbEntity
  8
0
100
AcDbLine
 10
33.257095223068
 20
1283.045975396485
 30
0.0
 11
33.872595223068
 21
1282.914975396485
 31
0.0
  0
LINE
  5
192C
330
1D
100
AcDbEntity
  8
0
100
AcDbLine
 10
33.020395223068
 20
1281.954975396485
 30
0.0
 11
33.431928635177
 21
1281.597800147839
 31
0.0
  0
LINE
  5
192D
330
1D
100
AcDbEntity
  8
0
100
AcDbLine
 10
29.901395223068
 20
1280.560975396485
 30
0.0
 11
29.958795223068
 21
1280.456975396485
 31
0.0
  0
LINE
  5
192E
330
1D
100
AcDbEntity
  8
0
100
AcDbLine
 10
29.901395223068
 20
1280.560975396485
 30
0.0
 11
29.912595223068
 21
1280.674975396485
 31
0.0
  0
LINE
  5
192F
330
1D
100
AcDbEntity
  8
0
100
AcDbLine
 10
29.958795223068
 20
1280.456975396485
 30
0.0
 11
33.422495223068
 21
1277.147975396485
 31
0.0
  0
LINE
  5
1930
330
1D
100
AcDbEntity
  8
0
100
AcDbLine
 10
53.505095223068
 20
1259.768975396485
 30
0.0
 11
53.621295223068
 21
1259.722975396485
 31
0.0
  0
LINE
  5
1931
330
1D
100
AcDbEntity
  8
0
100
AcDbLine
 10
56.603895223068
 20
1256.389975396485
 30
0.0
 11
56.948595223068
 21
1256.100975396485
 31
0.0
  0
LINE
  5
1932
330
1D
100
AcDbEntity
  8
0
100
AcDbLine
 10
56.603895223068
 20
1256.389975396485
 30
0.0
 11
57.161963703979
 21
1257.055024801224
 31
0.0
  0
LINE
  5
1933
330
1D
100
AcDbEntity
  8
0
100
AcDbLine
 10
56.603895223068
 20
1256.389975396485
 30
0.0
 11
57.304465591389
 21
1257.22484409516
 31
0.0
  0
LINE
  5
1934
330
1D
100
AcDbEntity
  8
0
100
AcDbLine
 10
56.948595223068
 20
1256.100975396485
 30
0.0
 11
57.752895223068
 21
1255.425975396485
 31
0.0
  0
LINE
  5
1935
330
1D
100
AcDbEntity
  8
0
100
AcDbLine
 10
58.389495223068
 20
1256.384975396485
 30
0.0
 11
59.224857883382
 21
1257.380475875343
 31
0.0
  0
LINE
  5
1936
330
1D
100
AcDbEntity
  8
0
100
AcDbLine
 10
58.044695223068
 20
1256.673975396485
 30
0.0
 11
58.389495223068
 21
1256.384975396485
 31
0.0
  0
LINE
  5
1937
330
1D
100
AcDbEntity
  8
0
100
AcDbLine
 10
57.752895223068
 20
1255.425975396485
 30
0.0
 11
58.557295223068
 21
1254.750975396485
 31
0.0
  0
LINE
  5
1938
330
1D
100
AcDbEntity
  8
0
100
AcDbLine
 10
58.557295223068
 20
1254.750975396485
 30
0.0
 11
58.901995223068
 21
1254.460975396485
 31
0.0
  0
LINE
  5
1939
330
1D
100
AcDbEntity
  8
0
100
AcDbLine
 10
58.901995223068
 20
1254.460975396485
 30
0.0
 11
59.470051431894
 21
1255.138103912
 31
0.0
  0
LINE
  5
193A
330
1D
100
AcDbEntity
  8
0
100
AcDbLine
 10
59.470051431894
 20
1255.138103912
 30
0.0
 11
62.462295223068
 21
1252.652975396485
 31
0.0
  0
LINE
  5
193B
330
1D
100
AcDbEntity
  8
0
100
AcDbLine
 10
58.851995223068
 20
1255.980975396485
 30
0.0
 11
59.883195223068
 21
1255.057975396485
 31
0.0
  0
LINE
  5
193C
330
1D
100
AcDbEntity
  8
0
100
AcDbLine
 10
57.670995223068
 20
1256.945975396485
 30
0.0
 11
58.851995223068
 21
1255.980975396485
 31
0.0
  0
LINE
  5
193D
330
1D
100
AcDbEntity
  8
0
100
AcDbLine
 10
59.945195223068
 20
1254.851975396485
 30
0.0
 11
60.219695223068
 21
1254.699975396485
 31
0.0
  0
LINE
  5
193E
330
1D
100
AcDbEntity
  8
0
100
AcDbLine
 10
59.524006605918
 20
1255.202419003223
 30
0.0
 11
59.608841106205
 21
1255.303542551125
 31
0.0
  0
LINE
  5
193F
330
1D
100
AcDbEntity
  8
0
100
AcDbLine
 10
59.883195223068
 20
1255.057975396485
 30
0.0
 11
60.219695223068
 21
1254.699975396485
 31
0.0
  0
LINE
  5
1940
330
1D
100
AcDbEntity
  8
0
100
AcDbLine
 10
59.470051431894
 20
1255.138103912
 30
0.0
 11
62.462295223068
 21
1252.652975396485
 31
0.0
  0
LINE
  5
1941
330
1D
100
AcDbEntity
  8
0
100
AcDbLine
 10
56.091295223068
 20
1258.312975396485
 30
0.0
 11
56.435995223068
 21
1258.023975396485
 31
0.0
  0
LINE
  5
1942
330
1D
100
AcDbEntity
  8
0
100
AcDbLine
 10
56.091295223068
 20
1258.312975396485
 30
0.0
 11
56.90144304264
 21
1259.278649415397
 31
0.0
  0
LINE
  5
1943
330
1D
100
AcDbEntity
  8
0
100
AcDbLine
 10
56.435995223068
 20
1258.023975396485
 30
0.0
 11
57.240395223068
 21
1257.348975396485
 31
0.0
  0
LINE
  5
1944
330
1D
100
AcDbEntity
  8
0
100
AcDbLine
 10
57.240395223068
 20
1257.348975396485
 30
0.0
 11
58.044695223068
 21
1256.673975396485
 31
0.0
  0
LINE
  5
1945
330
1D
100
AcDbEntity
  8
0
100
AcDbLine
 10
57.206283177905
 20
1257.107840254454
 30
0.0
 11
57.304465591389
 21
1257.22484409516
 31
0.0
  0
LINE
  5
1946
330
1D
100
AcDbEntity
  8
0
100
AcDbLine
 10
58.991681454765
 20
1257.102599861279
 30
0.0
 11
59.151295223068
 21
1257.006975396485
 31
0.0
  0
LINE
  5
1947
330
1D
100
AcDbEntity
  8
0
100
AcDbLine
 10
59.430695223068
 20
1257.105975396485
 30
0.0
 11
59.465395223068
 21
1256.929975396485
 31
0.0
  0
LINE
  5
1948
330
1D
100
AcDbEntity
  8
0
100
AcDbLine
 10
58.252695223068
 20
1258.328975396485
 30
0.0
 11
59.159995223068
 21
1257.466975396485
 31
0.0
  0
LINE
  5
1949
330
1D
100
AcDbEntity
  8
0
100
AcDbLine
 10
59.159995223068
 20
1257.466975396485
 30
0.0
 11
59.430695223068
 21
1257.105975396485
 31
0.0
  0
LINE
  5
194A
330
1D
100
AcDbEntity
  8
0
100
AcDbLine
 10
59.151295223068
 20
1257.006975396485
 30
0.0
 11
59.465395223068
 21
1256.929975396485
 31
0.0
  0
LINE
  5
194B
330
1D
100
AcDbEntity
  8
0
100
AcDbLine
 10
65.380695223068
 20
1250.228975396485
 30
0.0
 11
65.555676058455
 21
1250.437499805935
 31
0.0
  0
LINE
  5
194C
330
1D
100
AcDbEntity
  8
0
100
AcDbLine
 10
65.380695223068
 20
1250.228975396485
 30
0.0
 11
65.725395223068
 21
1249.939975396485
 31
0.0
  0
LINE
  5
194D
330
1D
100
AcDbEntity
  8
0
100
AcDbLine
 10
65.380695223068
 20
1250.228975396485
 30
0.0
 11
66.13588801601
 21
1251.128937559891
 31
0.0
  0
LINE
  5
194E
330
1D
100
AcDbEntity
  8
0
100
AcDbLine
 10
67.946895223068
 20
1247.205975396485
 30
0.0
 11
68.583979844663
 21
1247.965164600191
 31
0.0
  0
LINE
  5
194F
330
1D
100
AcDbEntity
  8
0
100
AcDbLine
 10
67.602195223068
 20
1247.494975396485
 30
0.0
 11
67.946895223068
 21
1247.205975396485
 31
0.0
  0
LINE
  5
1950
330
1D
100
AcDbEntity
  8
0
100
AcDbLine
 10
69.233695223068
 20
1247.420975396485
 30
0.0
 11
71.775895223068
 21
1245.339975396485
 31
0.0
  0
LINE
  5
1951
330
1D
100
AcDbEntity
  8
0
100
AcDbLine
 10
68.879795223068
 20
1247.717975396485
 30
0.0
 11
69.233695223068
 21
1247.420975396485
 31
0.0
  0
LINE
  5
1952
330
1D
100
AcDbEntity
  8
0
100
AcDbLine
 10
66.529795223068
 20
1249.264975396485
 30
0.0
 11
67.334095223068
 21
1248.589975396485
 31
0.0
  0
LINE
  5
1953
330
1D
100
AcDbEntity
  8
0
100
AcDbLine
 10
65.648795223068
 20
1249.134975396485
 30
0.0
 11
65.993495223068
 21
1248.844975396485
 31
0.0
  0
LINE
  5
1954
330
1D
100
AcDbEntity
  8
0
100
AcDbLine
 10
65.648795223068
 20
1249.134975396485
 30
0.0
 11
66.076835138866
 21
1249.6450699475
 31
0.0
  0
LINE
  5
1955
330
1D
100
AcDbEntity
  8
0
100
AcDbLine
 10
65.993495223068
 20
1248.844975396485
 30
0.0
 11
66.797895223068
 21
1248.169975396485
 31
0.0
  0
LINE
  5
1956
330
1D
100
AcDbEntity
  8
0
100
AcDbLine
 10
67.678795223068
 20
1248.300975396485
 30
0.0
 11
68.470552336995
 21
1249.244481851476
 31
0.0
  0
LINE
  5
1957
330
1D
100
AcDbEntity
  8
0
100
AcDbLine
 10
67.334095223068
 20
1248.589975396485
 30
0.0
 11
67.678795223068
 21
1248.300975396485
 31
0.0
  0
LINE
  5
1958
330
1D
100
AcDbEntity
  8
0
100
AcDbLine
 10
66.797895223068
 20
1248.169975396485
 30
0.0
 11
67.602195223068
 21
1247.494975396485
 31
0.0
  0
LINE
  5
1959
330
1D
100
AcDbEntity
  8
0
100
AcDbLine
 10
65.725395223068
 20
1249.939975396485
 30
0.0
 11
66.076835138866
 21
1249.6450699475
 31
0.0
  0
LINE
  5
195A
330
1D
100
AcDbEntity
  8
0
100
AcDbLine
 10
65.725395223068
 20
1249.939975396485
 30
0.0
 11
66.529795223068
 21
1249.264975396485
 31
0.0
  0
LINE
  5
195B
330
1D
100
AcDbEntity
  8
0
100
AcDbLine
 10
67.885178490461
 20
1248.546914386564
 30
0.0
 11
68.077995223068
 21
1248.387975396485
 31
0.0
  0
LINE
  5
195C
330
1D
100
AcDbEntity
  8
0
100
AcDbLine
 10
67.185895223068
 20
1250.398975396485
 30
0.0
 11
68.037595223068
 21
1249.685975396485
 31
0.0
  0
LINE
  5
195D
330
1D
100
AcDbEntity
  8
0
100
AcDbLine
 10
68.077995223068
 20
1248.387975396485
 30
0.0
 11
68.879795223068
 21
1247.717975396485
 31
0.0
  0
LINE
  5
195E
330
1D
100
AcDbEntity
  8
0
100
AcDbLine
 10
68.273473230965
 20
1249.009630272106
 30
0.0
 11
68.741095223068
 21
1248.767975396485
 31
0.0
  0
LINE
  5
195F
330
1D
100
AcDbEntity
  8
0
100
AcDbLine
 10
68.686795223068
 20
1249.023975396485
 30
0.0
 11
68.741095223068
 21
1248.767975396485
 31
0.0
  0
LINE
  5
1960
330
1D
100
AcDbEntity
  8
0
100
AcDbLine
 10
68.037595223068
 20
1249.685975396485
 30
0.0
 11
68.686795223068
 21
1249.023975396485
 31
0.0
  0
LINE
  5
1961
330
1D
100
AcDbEntity
  8
0
100
AcDbLine
 10
65.454995223068
 20
1250.517975396485
 30
0.0
 11
65.555676058455
 21
1250.437499805935
 31
0.0
  0
LINE
  5
1962
330
1D
100
AcDbEntity
  8
0
100
AcDbLine
 10
65.926444192496
 20
1250.879343657137
 30
0.0
 11
66.13588801601
 21
1251.128937559891
 31
0.0
  0
LINE
  5
1963
330
1D
100
AcDbEntity
  8
0
100
AcDbLine
 10
65.379395223068
 20
1250.577975396485
 30
0.0
 11
65.454995223068
 21
1250.517975396485
 31
0.0
  0
LINE
  5
1964
330
1D
100
AcDbEntity
  8
0
100
AcDbLine
 10
65.518395223068
 20
1251.341975396485
 30
0.0
 11
65.645595223068
 21
1251.388975396485
 31
0.0
  0
LINE
  5
1965
330
1D
100
AcDbEntity
  8
0
100
AcDbLine
 10
65.518395223068
 20
1251.341975396485
 30
0.0
 11
65.926444192496
 21
1250.879343657137
 31
0.0
  0
LINE
  5
1966
330
1D
100
AcDbEntity
  8
0
100
AcDbLine
 10
66.190495223068
 20
1251.099975396485
 30
0.0
 11
67.185895223068
 21
1250.398975396485
 31
0.0
  0
LINE
  5
1967
330
1D
100
AcDbEntity
  8
0
100
AcDbLine
 10
65.519934191704
 20
1251.340230567334
 30
0.0
 11
65.597434501883
 21
1251.371180161456
 31
0.0
  0
LINE
  5
1968
330
1D
100
AcDbEntity
  8
0
100
AcDbLine
 10
62.576995223068
 20
1252.607975396485
 30
0.0
 11
62.684995223068
 21
1252.629975396485
 31
0.0
  0
LINE
  5
1969
330
1D
100
AcDbEntity
  8
0
100
AcDbLine
 10
65.645595223068
 20
1251.388975396485
 30
0.0
 11
66.190495223068
 21
1251.099975396485
 31
0.0
  0
LINE
  5
196A
330
1D
100
AcDbEntity
  8
0
100
AcDbLine
 10
67.167195223068
 20
1252.201975396485
 30
0.0
 11
67.869538631946
 21
1253.038930983294
 31
0.0
  0
LINE
  5
196B
330
1D
100
AcDbEntity
  8
0
100
AcDbLine
 10
66.822495223068
 20
1252.490975396485
 30
0.0
 11
67.167195223068
 21
1252.201975396485
 31
0.0
  0
LINE
  5
196C
330
1D
100
AcDbEntity
  8
0
100
AcDbLine
 10
67.303022972059
 20
1252.363836093011
 30
0.0
 11
67.864095223068
 21
1252.098975396485
 31
0.0
  0
LINE
  5
196D
330
1D
100
AcDbEntity
  8
0
100
AcDbLine
 10
68.264095223068
 20
1252.516975396485
 30
0.0
 11
68.369395223068
 21
1252.131975396485
 31
0.0
  0
LINE
  5
196E
330
1D
100
AcDbEntity
  8
0
100
AcDbLine
 10
67.864095223068
 20
1252.098975396485
 30
0.0
 11
68.369395223068
 21
1252.131975396485
 31
0.0
  0
LINE
  5
196F
330
1D
100
AcDbEntity
  8
0
100
AcDbLine
 10
62.907595223068
 20
1252.608975396485
 30
0.0
 11
65.379395223068
 21
1250.577975396485
 31
0.0
  0
LINE
  5
1970
330
1D
100
AcDbEntity
  8
0
100
AcDbLine
 10
74.105395223068
 20
1244.545975396485
 30
0.0
 11
74.206795223068
 21
1244.619975396485
 31
0.0
  0
LINE
  5
1971
330
1D
100
AcDbEntity
  8
0
100
AcDbLine
 10
74.105395223068
 20
1244.545975396485
 30
0.0
 11
74.285295223068
 21
1244.257975396485
 31
0.0
  0
LINE
  5
1972
330
1D
100
AcDbEntity
  8
0
100
AcDbLine
 10
72.124895223068
 20
1245.342975396485
 30
0.0
 11
72.221695223068
 21
1245.298975396485
 31
0.0
  0
LINE
  5
1973
330
1D
100
AcDbEntity
  8
0
100
AcDbLine
 10
72.009395223068
 20
1245.324975396485
 30
0.0
 11
72.124895223068
 21
1245.342975396485
 31
0.0
  0
LINE
  5
1974
330
1D
100
AcDbEntity
  8
0
100
AcDbLine
 10
71.891195223068
 20
1245.295975396485
 30
0.0
 11
72.009395223068
 21
1245.324975396485
 31
0.0
  0
LINE
  5
1975
330
1D
100
AcDbEntity
  8
0
100
AcDbLine
 10
72.221695223068
 20
1245.298975396485
 30
0.0
 11
74.673285787648
 21
1243.294945047794
 31
0.0
  0
LINE
  5
1976
330
1D
100
AcDbEntity
  8
0
100
AcDbLine
 10
71.775895223068
 20
1245.339975396485
 30
0.0
 11
71.891195223068
 21
1245.295975396485
 31
0.0
  0
LINE
  5
1977
330
1D
100
AcDbEntity
  8
0
100
AcDbLine
 10
74.357795223068
 20
1242.918975396485
 30
0.0
 11
74.702495223068
 21
1242.629975396485
 31
0.0
  0
LINE
  5
1978
330
1D
100
AcDbEntity
  8
0
100
AcDbLine
 10
74.357795223068
 20
1242.918975396485
 30
0.0
 11
74.673285787648
 21
1243.294945047794
 31
0.0
  0
LINE
  5
1979
330
1D
100
AcDbEntity
  8
0
100
AcDbLine
 10
74.357795223068
 20
1242.918975396485
 30
0.0
 11
75.283987525272
 21
1244.022717428733
 31
0.0
  0
LINE
  5
197A
330
1D
100
AcDbEntity
  8
0
100
AcDbLine
 10
74.704795223068
 20
1242.025975396485
 30
0.0
 11
75.049495223068
 21
1241.736975396485
 31
0.0
  0
LINE
  5
197B
330
1D
100
AcDbEntity
  8
0
100
AcDbLine
 10
74.704795223068
 20
1242.025975396485
 30
0.0
 11
75.001244378121
 21
1242.379253427492
 31
0.0
  0
LINE
  5
197C
330
1D
100
AcDbEntity
  8
0
100
AcDbLine
 10
74.702495223068
 20
1242.629975396485
 30
0.0
 11
75.001244378121
 21
1242.379253427492
 31
0.0
  0
LINE
  5
197D
330
1D
100
AcDbEntity
  8
0
100
AcDbLine
 10
74.702495223068
 20
1242.629975396485
 30
0.0
 11
75.506795223068
 21
1241.954975396485
 31
0.0
  0
LINE
  5
197E
330
1D
100
AcDbEntity
  8
0
100
AcDbLine
 10
74.285295223068
 20
1244.257975396485
 30
0.0
 11
74.856395223068
 21
1243.709975396485
 31
0.0
  0
LINE
  5
197F
330
1D
100
AcDbEntity
  8
0
100
AcDbLine
 10
81.306895223068
 20
1237.692975396485
 30
0.0
 11
82.179695223068
 21
1237.217975396485
 31
0.0
  0
LINE
  5
1980
330
1D
100
AcDbEntity
  8
0
100
AcDbLine
 10
77.002895223068
 20
1240.097975396485
 30
0.0
 11
77.646740772143
 21
1240.865245209783
 31
0.0
  0
LINE
  5
1981
330
1D
100
AcDbEntity
  8
0
100
AcDbLine
 10
76.658195223068
 20
1240.386975396485
 30
0.0
 11
77.002895223068
 21
1240.097975396485
 31
0.0
  0
LINE
  5
1982
330
1D
100
AcDbEntity
  8
0
100
AcDbLine
 10
78.133695223068
 20
1240.455975396485
 30
0.0
 11
81.306895223068
 21
1237.692975396485
 31
0.0
  0
LINE
  5
1983
330
1D
100
AcDbEntity
  8
0
100
AcDbLine
 10
94.773895223068
 20
1222.850775396485
 30
0.0
 11
95.771595223068
 21
1221.335075396485
 31
0.0
  0
LINE
  5
1984
330
1D
100
AcDbEntity
  8
0
100
AcDbLine
 10
95.771595223068
 20
1221.335075396485
 30
0.0
 11
96.557595223068
 21
1220.094975396485
 31
0.0
  0
LINE
  5
1985
330
1D
100
AcDbEntity
  8
0
100
AcDbLine
 10
95.229095223068
 20
1223.792275396485
 30
0.0
 11
95.876972971034
 21
1222.916415506999
 31
0.0
  0
LINE
  5
1986
330
1D
100
AcDbEntity
  8
0
100
AcDbLine
 10
95.876972971034
 20
1222.916415507
 30
0.0
 11
97.702295223068
 21
1220.249575396485
 31
0.0
  0
LINE
  5
1987
330
1D
100
AcDbEntity
  8
0
100
AcDbLine
 10
96.408195223068
 20
1212.268175396485
 30
0.0
 11
99.694795223068
 21
1206.150775396485
 31
0.0
  0
LINE
  5
1988
330
1D
100
AcDbEntity
  8
0
100
AcDbLine
 10
91.334795223068
 20
1224.353875396485
 30
0.0
 11
91.728895223068
 21
1223.837375396485
 31
0.0
  0
LINE
  5
1989
330
1D
100
AcDbEntity
  8
0
100
AcDbLine
 10
97.356295223068
 20
1218.797275396485
 30
0.0
 11
98.547395223068
 21
1216.767875396485
 31
0.0
  0
LINE
  5
198A
330
1D
100
AcDbEntity
  8
0
100
AcDbLine
 10
97.445895223068
 20
1214.676175396485
 30
0.0
 11
98.196095223068
 21
1213.210175396485
 31
0.0
  0
LINE
  5
198B
330
1D
100
AcDbEntity
  8
0
100
AcDbLine
 10
97.702295223068
 20
1220.249575396485
 30
0.0
 11
99.919295223068
 21
1216.715675396485
 31
0.0
  0
LINE
  5
198C
330
1D
100
AcDbEntity
  8
0
100
AcDbLine
 10
96.557595223068
 20
1220.094975396485
 30
0.0
 11
97.356295223068
 21
1218.797275396485
 31
0.0
  0
LINE
  5
198D
330
1D
100
AcDbEntity
  8
0
100
AcDbLine
 10
90.762495223068
 20
1225.064275396485
 30
0.0
 11
91.334795223068
 21
1224.353875396485
 31
0.0
  0
LINE
  5
198E
330
1D
100
AcDbEntity
  8
0
100
AcDbLine
 10
93.693295223068
 20
1224.399975396485
 30
0.0
 11
94.773895223068
 21
1222.850775396485
 31
0.0
  0
LINE
  5
198F
330
1D
100
AcDbEntity
  8
0
100
AcDbLine
 10
94.394195223068
 20
1224.879775396485
 30
0.0
 11
95.229095223068
 21
1223.792275396485
 31
0.0
  0
LINE
  5
1990
330
1D
100
AcDbEntity
  8
0
100
AcDbLine
 10
98.196095223068
 20
1213.210175396485
 30
0.0
 11
98.844795223068
 21
1211.802975396485
 31
0.0
  0
LINE
  5
1991
330
1D
100
AcDbEntity
  8
0
100
AcDbLine
 10
99.694795223068
 20
1206.150775396485
 30
0.0
 11
99.748295223068
 21
1206.329275396485
 31
0.0
  0
LINE
  5
1992
330
1D
100
AcDbEntity
  8
0
100
AcDbLine
 10
99.748295223068
 20
1206.329275396485
 30
0.0
 11
99.777895223068
 21
1206.414075396485
 31
0.0
  0
LINE
  5
1993
330
1D
100
AcDbEntity
  8
0
100
AcDbLine
 10
99.694795223068
 20
1206.150775396485
 30
0.0
 11
100.063395223068
 21
1205.539675396485
 31
0.0
  0
LINE
  5
1994
330
1D
100
AcDbEntity
  8
0
100
AcDbLine
 10
99.777895223068
 20
1206.414075396485
 30
0.0
 11
99.902595223068
 21
1206.937475396485
 31
0.0
  0
LINE
  5
1995
330
1D
100
AcDbEntity
  8
0
100
AcDbLine
 10
100.063395223068
 20
1205.539675396485
 30
0.0
 11
100.243795223068
 21
1205.427775396485
 31
0.0
  0
LINE
  5
1996
330
1D
100
AcDbEntity
  8
0
100
AcDbLine
 10
99.902595223068
 20
1206.937475396485
 30
0.0
 11
99.978295223068
 21
1207.677975396485
 31
0.0
  0
LINE
  5
1997
330
1D
100
AcDbEntity
  8
0
100
AcDbLine
 10
99.892195223068
 20
1208.722975396485
 30
0.0
 11
99.978295223068
 21
1207.677975396485
 31
0.0
  0
LINE
  5
1998
330
1D
100
AcDbEntity
  8
0
100
AcDbLine
 10
100.243795223068
 20
1205.427775396485
 30
0.0
 11
100.636095223068
 21
1205.452475396485
 31
0.0
  0
LINE
  5
1999
330
1D
100
AcDbEntity
  8
0
100
AcDbLine
 10
99.192772425639
 20
1210.953741012559
 30
0.0
 11
99.22847104857
 21
1210.866618931492
 31
0.0
  0
LINE
  5
199A
330
1D
100
AcDbEntity
  8
0
100
AcDbLine
 10
98.844795223068
 20
1211.802975396485
 30
0.0
 11
99.085295223068
 21
1211.236175396485
 31
0.0
  0
LINE
  5
199B
330
1D
100
AcDbEntity
  8
0
100
AcDbLine
 10
99.085295223068
 20
1211.236175396485
 30
0.0
 11
99.435695223068
 21
1210.315375396485
 31
0.0
  0
LINE
  5
199C
330
1D
100
AcDbEntity
  8
0
100
AcDbLine
 10
99.633095223068
 20
1209.628675396485
 30
0.0
 11
99.892195223068
 21
1208.722975396485
 31
0.0
  0
LINE
  5
199D
330
1D
100
AcDbEntity
  8
0
100
AcDbLine
 10
100.342995223068
 20
1213.346975396485
 30
0.0
 11
101.227095223068
 21
1211.239875396485
 31
0.0
  0
LINE
  5
199E
330
1D
100
AcDbEntity
  8
0
100
AcDbLine
 10
99.435695223068
 20
1210.315375396485
 30
0.0
 11
99.633095223068
 21
1209.628675396485
 31
0.0
  0
LINE
  5
199F
330
1D
100
AcDbEntity
  8
0
100
AcDbLine
 10
99.230325295664
 20
1210.861832865137
 30
0.0
 11
99.270213825572
 21
1210.750236329175
 31
0.0
  0
LINE
  5
19A0
330
1D
100
AcDbEntity
  8
0
100
AcDbLine
 10
98.547395223068
 20
1216.767875396485
 30
0.0
 11
100.342995223068
 21
1213.346975396485
 31
0.0
  0
LINE
  5
19A1
330
1D
100
AcDbEntity
  8
0
100
AcDbLine
 10
93.768495223068
 20
1225.660975396485
 30
0.0
 11
94.394195223068
 21
1224.879775396485
 31
0.0
  0
LINE
  5
19A2
330
1D
100
AcDbEntity
  8
0
100
AcDbLine
 10
92.533695223068
 20
1225.924975396485
 30
0.0
 11
93.693295223068
 21
1224.399975396485
 31
0.0
  0
LINE
  5
19A3
330
1D
100
AcDbEntity
  8
0
100
AcDbLine
 10
90.106595223068
 20
1225.762675396485
 30
0.0
 11
90.415095223068
 21
1225.450875396485
 31
0.0
  0
LINE
  5
19A4
330
1D
100
AcDbEntity
  8
0
100
AcDbLine
 10
89.798595223068
 20
1226.025075396485
 30
0.0
 11
90.106595223068
 21
1225.762675396485
 31
0.0
  0
LINE
  5
19A5
330
1D
100
AcDbEntity
  8
0
100
AcDbLine
 10
90.415095223068
 20
1225.450875396485
 30
0.0
 11
90.762495223068
 21
1225.064275396485
 31
0.0
  0
LINE
  5
19A6
330
1D
100
AcDbEntity
  8
0
100
AcDbLine
 10
89.038095223068
 20
1226.425475396485
 30
0.0
 11
89.347595223068
 21
1226.326975396485
 31
0.0
  0
LINE
  5
19A7
330
1D
100
AcDbEntity
  8
0
100
AcDbLine
 10
89.347595223068
 20
1226.326975396485
 30
0.0
 11
89.798595223068
 21
1226.025075396485
 31
0.0
  0
LINE
  5
19A8
330
1D
100
AcDbEntity
  8
0
100
AcDbLine
 10
88.422895223068
 20
1227.221475396485
 30
0.0
 11
88.910977218286
 21
1226.48511644597
 31
0.0
  0
LINE
  5
19A9
330
1D
100
AcDbEntity
  8
0
100
AcDbLine
 10
91.655195223068
 20
1226.992275396485
 30
0.0
 11
92.533695223068
 21
1225.924975396485
 31
0.0
  0
LINE
  5
19AA
330
1D
100
AcDbEntity
  8
0
100
AcDbLine
 10
88.916695223068
 20
1226.475675396485
 30
0.0
 11
89.038095223068
 21
1226.425475396485
 31
0.0
  0
LINE
  5
19AB
330
1D
100
AcDbEntity
  8
0
100
AcDbLine
 10
88.910977218286
 20
1226.48511644597
 30
0.0
 11
96.408195223068
 21
1212.268175396485
 31
0.0
  0
LINE
  5
19AC
330
1D
100
AcDbEntity
  8
0
100
AcDbLine
 10
93.147495223068
 20
1226.406875396485
 30
0.0
 11
93.768495223068
 21
1225.660975396485
 31
0.0
  0
LINE
  5
19AD
330
1D
100
AcDbEntity
  8
0
100
AcDbLine
 10
92.533495223068
 20
1227.114075396485
 30
0.0
 11
93.147495223068
 21
1226.406875396485
 31
0.0
  0
LINE
  5
19AE
330
1D
100
AcDbEntity
  8
0
100
AcDbLine
 10
101.227095223068
 20
1211.239875396485
 30
0.0
 11
101.583095223068
 21
1210.049975396485
 31
0.0
  0
LINE
  5
19AF
330
1D
100
AcDbEntity
  8
0
100
AcDbLine
 10
101.545095223068
 20
1206.327375396485
 30
0.0
 11
101.752095223068
 21
1206.989675396485
 31
0.0
  0
LINE
  5
19B0
330
1D
100
AcDbEntity
  8
0
100
AcDbLine
 10
101.700362103367
 20
1209.620341737976
 30
0.0
 11
101.776095223068
 21
1209.141475396485
 31
0.0
  0
LINE
  5
19B1
330
1D
100
AcDbEntity
  8
0
100
AcDbLine
 10
101.776095223068
 20
1209.141475396485
 30
0.0
 11
101.851095223068
 21
1208.558275396485
 31
0.0
  0
LINE
  5
19B2
330
1D
100
AcDbEntity
  8
0
100
AcDbLine
 10
101.851095223068
 20
1208.558275396485
 30
0.0
 11
101.892095223068
 21
1207.806975396485
 31
0.0
  0
LINE
  5
19B3
330
1D
100
AcDbEntity
  8
0
100
AcDbLine
 10
101.752095223068
 20
1206.989675396485
 30
0.0
 11
101.892095223068
 21
1207.806975396485
 31
0.0
  0
LINE
  5
19B4
330
1D
100
AcDbEntity
  8
0
100
AcDbLine
 10
101.198813391557
 20
1214.32889212963
 30
0.0
 11
101.794375822022
 21
1213.010069558056
 31
0.0
  0
LINE
  5
19B5
330
1D
100
AcDbEntity
  8
0
100
AcDbLine
 10
102.154095223068
 20
1212.166475396485
 30
0.0
 11
102.776095223068
 21
1210.260675396485
 31
0.0
  0
LINE
  5
19B6
330
1D
100
AcDbEntity
  8
0
100
AcDbLine
 10
101.492095223068
 20
1206.080675396485
 30
0.0
 11
102.741095223068
 21
1203.608075396485
 31
0.0
  0
LINE
  5
19B7
330
1D
100
AcDbEntity
  8
0
100
AcDbLine
 10
101.492095223068
 20
1206.080675396485
 30
0.0
 11
101.545095223068
 21
1206.327375396485
 31
0.0
  0
LINE
  5
19B8
330
1D
100
AcDbEntity
  8
0
100
AcDbLine
 10
100.636095223068
 20
1205.452475396485
 30
0.0
 11
101.635210977295
 21
1206.615702275831
 31
0.0
  0
LINE
  5
19B9
330
1D
100
AcDbEntity
  8
0
100
AcDbLine
 10
82.453095223068
 20
1236.889975396485
 30
0.0
 11
82.495595223068
 21
1236.826975396485
 31
0.0
  0
LINE
  5
19BA
330
1D
100
AcDbEntity
  8
0
100
AcDbLine
 10
82.495595223068
 20
1236.826975396485
 30
0.0
 11
85.150895223068
 21
1234.206975396485
 31
0.0
  0
LINE
  5
19BB
330
1D
100
AcDbEntity
  8
0
100
AcDbLine
 10
88.41341288602
 20
1227.574671472909
 30
0.0
 11
88.422895223068
 21
1227.221475396485
 31
0.0
  0
LINE
  5
19BC
330
1D
100
AcDbEntity
  8
0
100
AcDbLine
 10
89.422395223068
 20
1229.099975396485
 30
0.0
 11
90.099395223068
 21
1228.582675396485
 31
0.0
  0
LINE
  5
19BD
330
1D
100
AcDbEntity
  8
0
100
AcDbLine
 10
89.232095223068
 20
1229.250775396485
 30
0.0
 11
89.422395223068
 21
1229.099975396485
 31
0.0
  0
LINE
  5
19BE
330
1D
100
AcDbEntity
  8
0
100
AcDbLine
 10
88.400295223068
 20
1227.816375396485
 30
0.0
 11
88.41341288602
 21
1227.574671472909
 31
0.0
  0
LINE
  5
19BF
330
1D
100
AcDbEntity
  8
0
100
AcDbLine
 10
88.400295223068
 20
1227.816375396485
 30
0.0
 11
89.434427018297
 21
1229.09078182533
 31
0.0
  0
LINE
  5
19C0
330
1D
100
AcDbEntity
  8
0
100
AcDbLine
 10
90.731295223068
 20
1227.994175396485
 30
0.0
 11
91.655195223068
 21
1226.992275396485
 31
0.0
  0
LINE
  5
19C1
330
1D
100
AcDbEntity
  8
0
100
AcDbLine
 10
90.099395223068
 20
1228.582675396485
 30
0.0
 11
90.731295223068
 21
1227.994175396485
 31
0.0
  0
LINE
  5
19C2
330
1D
100
AcDbEntity
  8
0
100
AcDbLine
 10
90.461295223068
 20
1229.254075396485
 30
0.0
 11
90.900395223068
 21
1228.836175396485
 31
0.0
  0
LINE
  5
19C3
330
1D
100
AcDbEntity
  8
0
100
AcDbLine
 10
90.900395223068
 20
1228.836175396485
 30
0.0
 11
91.405495223068
 21
1228.330175396485
 31
0.0
  0
LINE
  5
19C4
330
1D
100
AcDbEntity
  8
0
100
AcDbLine
 10
87.700595223068
 20
1231.286275396485
 30
0.0
 11
87.855346874082
 21
1231.209618868161
 31
0.0
  0
LINE
  5
19C5
330
1D
100
AcDbEntity
  8
0
100
AcDbLine
 10
90.053795223068
 20
1229.621475396485
 30
0.0
 11
90.461295223068
 21
1229.254075396485
 31
0.0
  0
LINE
  5
19C6
330
1D
100
AcDbEntity
  8
0
100
AcDbLine
 10
88.705222627674
 20
1230.6928794277
 30
0.0
 11
89.058911184763
 21
1230.443716060329
 31
0.0
  0
LINE
  5
19C7
330
1D
100
AcDbEntity
  8
0
100
AcDbLine
 10
88.010376326524
 20
1231.131891189395
 30
0.0
 11
88.466864531365
 21
1230.85610738139
 31
0.0
  0
LINE
  5
19C8
330
1D
100
AcDbEntity
  8
0
100
AcDbLine
 10
89.275295223068
 20
1230.265075396485
 30
0.0
 11
89.460227639218
 21
1230.118261304592
 31
0.0
  0
LINE
  5
19C9
330
1D
100
AcDbEntity
  8
0
100
AcDbLine
 10
89.560795223068
 20
1230.040475396485
 30
0.0
 11
90.053795223068
 21
1229.621475396485
 31
0.0
  0
LINE
  5
19CA
330
1D
100
AcDbEntity
  8
0
100
AcDbLine
 10
88.009295223068
 20
1230.832175396485
 30
0.0
 11
89.099695223068
 21
1229.352675396485
 31
0.0
  0
LINE
  5
19CB
330
1D
100
AcDbEntity
  8
0
100
AcDbLine
 10
88.009295223068
 20
1230.832175396485
 30
0.0
 11
88.049895223068
 21
1231.069275396485
 31
0.0
  0
LINE
  5
19CC
330
1D
100
AcDbEntity
  8
0
100
AcDbLine
 10
89.099695223068
 20
1229.352675396485
 30
0.0
 11
89.24372888227
 21
1229.241556501016
 31
0.0
  0
LINE
  5
19CD
330
1D
100
AcDbEntity
  8
0
100
AcDbLine
 10
85.150895223068
 20
1234.206975396485
 30
0.0
 11
87.566595223068
 21
1231.349275396485
 31
0.0
  0
LINE
  5
19CE
330
1D
100
AcDbEntity
  8
0
100
AcDbLine
 10
91.405495223068
 20
1228.330175396485
 30
0.0
 11
91.930695223068
 21
1227.777975396485
 31
0.0
  0
LINE
  5
19CF
330
1D
100
AcDbEntity
  8
0
100
AcDbLine
 10
91.930695223068
 20
1227.777975396485
 30
0.0
 11
92.533495223068
 21
1227.114075396485
 31
0.0
  0
LINE
  5
19D0
330
1D
100
AcDbEntity
  8
0
100
AcDbLine
 10
141.589095223068
 20
1140.604795396485
 30
0.0
 11
141.954095223068
 21
1140.605775396485
 31
0.0
  0
LINE
  5
19D1
330
1D
100
AcDbEntity
  8
0
100
AcDbLine
 10
124.984095223068
 20
1166.500475396485
 30
0.0
 11
140.702095223068
 21
1141.477485396485
 31
0.0
  0
LINE
  5
19D2
330
1D
100
AcDbEntity
  8
0
100
AcDbLine
 10
140.702095223068
 20
1141.477485396485
 30
0.0
 11
141.589095223068
 21
1140.604795396485
 31
0.0
  0
LINE
  5
19D3
330
1D
100
AcDbEntity
  8
0
100
AcDbLine
 10
124.984095223068
 20
1166.500475396485
 30
0.0
 11
140.702095223068
 21
1141.477485396485
 31
0.0
  0
LINE
  5
19D4
330
1D
100
AcDbEntity
  8
0
100
AcDbLine
 10
164.497095223068
 20
1154.614075396485
 30
0.0
 11
164.823095223068
 21
1155.007575396485
 31
0.0
  0
LINE
  5
19D5
330
1D
100
AcDbEntity
  8
0
100
AcDbLine
 10
164.767095223068
 20
1155.765575396485
 30
0.0
 11
164.850095223068
 21
1155.503775396485
 31
0.0
  0
LINE
  5
19D6
330
1D
100
AcDbEntity
  8
0
100
AcDbLine
 10
164.461095223068
 20
1156.322975396485
 30
0.0
 11
164.767095223068
 21
1155.765575396485
 31
0.0
  0
LINE
  5
19D7
330
1D
100
AcDbEntity
  8
0
100
AcDbLine
 10
164.823095223068
 20
1155.007575396485
 30
0.0
 11
164.850095223068
 21
1155.503775396485
 31
0.0
  0
LINE
  5
19D8
330
1D
100
AcDbEntity
  8
0
100
AcDbLine
 10
102.741095223068
 20
1203.608075396485
 30
0.0
 11
102.789095223068
 21
1203.746475396485
 31
0.0
  0
LINE
  5
19D9
330
1D
100
AcDbEntity
  8
0
100
AcDbLine
 10
102.741095223068
 20
1203.608075396485
 30
0.0
 11
104.753095223068
 21
1200.048375396485
 31
0.0
  0
LINE
  5
19DA
330
1D
100
AcDbEntity
  8
0
100
AcDbLine
 10
102.789095223068
 20
1203.746475396485
 30
0.0
 11
102.944095223068
 21
1204.132675396485
 31
0.0
  0
LINE
  5
19DB
330
1D
100
AcDbEntity
  8
0
100
AcDbLine
 10
108.963095223068
 20
1193.038275396485
 30
0.0
 11
124.984095223068
 21
1166.500475396485
 31
0.0
  0
LINE
  5
19DC
330
1D
100
AcDbEntity
  8
0
100
AcDbLine
 10
104.753095223068
 20
1200.048375396485
 30
0.0
 11
108.963095223068
 21
1193.038275396485
 31
0.0
  0
LINE
  5
19DD
330
1D
100
AcDbEntity
  8
0
100
AcDbLine
 10
102.944095223068
 20
1204.132675396485
 30
0.0
 11
103.133095223068
 21
1204.701975396485
 31
0.0
  0
LINE
  5
19DE
330
1D
100
AcDbEntity
  8
0
100
AcDbLine
 10
102.776095223068
 20
1210.260675396485
 30
0.0
 11
103.199095223068
 21
1208.303075396485
 31
0.0
  0
LINE
  5
19DF
330
1D
100
AcDbEntity
  8
0
100
AcDbLine
 10
103.275477856813
 20
1207.426693792308
 30
0.0
 11
103.325751208018
 21
1206.396047488076
 31
0.0
  0
LINE
  5
19E0
330
1D
100
AcDbEntity
  8
0
100
AcDbLine
 10
103.133095223068
 20
1204.701975396485
 30
0.0
 11
103.287095223068
 21
1205.524875396485
 31
0.0
  0
LINE
  5
19E1
330
1D
100
AcDbEntity
  8
0
100
AcDbLine
 10
113.934095223068
 20
1236.934975396485
 30
0.0
 11
132.063095223068
 21
1208.218175396485
 31
0.0
  0
LINE
  5
19E2
330
1D
100
AcDbEntity
  8
0
100
AcDbLine
 10
148.345095223068
 20
1182.322675396485
 30
0.0
 11
164.461095223068
 21
1156.322975396485
 31
0.0
  0
LINE
  5
19E3
330
1D
100
AcDbEntity
  8
0
100
AcDbLine
 10
132.063095223068
 20
1208.218175396485
 30
0.0
 11
148.345095223068
 21
1182.322675396485
 31
0.0
  0
LINE
  5
19E4
330
1D
100
AcDbEntity
  8
0
100
AcDbLine
 10
75.506795223068
 20
1241.954975396485
 30
0.0
 11
76.311195223068
 21
1241.279975396485
 31
0.0
  0
LINE
  5
19E5
330
1D
100
AcDbEntity
  8
0
100
AcDbLine
 10
75.049495223068
 20
1241.736975396485
 30
0.0
 11
75.853895223068
 21
1241.061975396485
 31
0.0
  0
LINE
  5
19E6
330
1D
100
AcDbEntity
  8
0
100
AcDbLine
 10
76.655895223068
 20
1240.990975396485
 30
0.0
 11
77.602703522714
 21
1242.119285483184
 31
0.0
  0
LINE
  5
19E7
330
1D
100
AcDbEntity
  8
0
100
AcDbLine
 10
76.311195223068
 20
1241.279975396485
 30
0.0
 11
76.655895223068
 21
1240.990975396485
 31
0.0
  0
LINE
  5
19E8
330
1D
100
AcDbEntity
  8
0
100
AcDbLine
 10
75.853895223068
 20
1241.061975396485
 30
0.0
 11
76.658195223068
 21
1240.386975396485
 31
0.0
  0
LINE
  5
19E9
330
1D
100
AcDbEntity
  8
0
100
AcDbLine
 10
76.517395223068
 20
1244.026975396485
 30
0.0
 11
77.694322838307
 21
1245.429884539265
 31
0.0
  0
LINE
  5
19EA
330
1D
100
AcDbEntity
  8
0
100
AcDbLine
 10
74.856395223068
 20
1243.709975396485
 30
0.0
 11
74.951530141676
 21
1243.626528443646
 31
0.0
  0
LINE
  5
19EB
330
1D
100
AcDbEntity
  8
0
100
AcDbLine
 10
75.885695223068
 20
1243.619975396485
 30
0.0
 11
76.674395223068
 21
1243.017975396485
 31
0.0
  0
LINE
  5
19EC
330
1D
100
AcDbEntity
  8
0
100
AcDbLine
 10
77.001246198483
 20
1241.402529656369
 30
0.0
 11
77.378195223068
 21
1241.090975396485
 31
0.0
  0
LINE
  5
19ED
330
1D
100
AcDbEntity
  8
0
100
AcDbLine
 10
77.378195223068
 20
1241.090975396485
 30
0.0
 11
78.000395223068
 21
1240.567975396485
 31
0.0
  0
LINE
  5
19EE
330
1D
100
AcDbEntity
  8
0
100
AcDbLine
 10
78.000395223068
 20
1240.567975396485
 30
0.0
 11
78.133695223068
 21
1240.455975396485
 31
0.0
  0
LINE
  5
19EF
330
1D
100
AcDbEntity
  8
0
100
AcDbLine
 10
77.312945377272
 20
1241.773981118693
 30
0.0
 11
77.825795223068
 21
1241.459975396485
 31
0.0
  0
LINE
  5
19F0
330
1D
100
AcDbEntity
  8
0
100
AcDbLine
 10
77.956295223068
 20
1241.776975396485
 30
0.0
 11
78.146295223068
 21
1241.438975396485
 31
0.0
  0
LINE
  5
19F1
330
1D
100
AcDbEntity
  8
0
100
AcDbLine
 10
77.825795223068
 20
1241.459975396485
 30
0.0
 11
78.146295223068
 21
1241.438975396485
 31
0.0
  0
LINE
  5
19F2
330
1D
100
AcDbEntity
  8
0
100
AcDbLine
 10
76.674395223068
 20
1243.017975396485
 30
0.0
 11
77.956295223068
 21
1241.776975396485
 31
0.0
  0
LINE
  5
19F3
330
1D
100
AcDbEntity
  8
0
100
AcDbLine
 10
74.910095223068
 20
1244.272975396485
 30
0.0
 11
75.885695223068
 21
1243.619975396485
 31
0.0
  0
LINE
  5
19F4
330
1D
100
AcDbEntity
  8
0
100
AcDbLine
 10
110.252095223068
 20
1242.979975396485
 30
0.0
 11
113.934095223068
 21
1236.934975396485
 31
0.0
  0
LINE
  5
19F5
330
1D
100
AcDbEntity
  8
0
100
AcDbLine
 10
78.004696964412
 20
1240.564873926467
 30
0.0
 11
78.133695223068
 21
1240.455975396485
 31
0.0
  0
LINE
  5
19F6
330
1D
100
AcDbEntity
  8
0
100
AcDbLine
 10
74.206795223068
 20
1244.619975396485
 30
0.0
 11
74.910095223068
 21
1244.272975396485
 31
0.0
  0
LINE
  5
19F7
330
1D
100
AcDbEntity
  8
0
100
AcDbLine
 10
76.172595223068
 20
1244.316975396485
 30
0.0
 11
76.517395223068
 21
1244.026975396485
 31
0.0
  0
LINE
  5
19F8
330
1D
100
AcDbEntity
  8
0
100
AcDbLine
 10
75.368295223068
 20
1244.990975396485
 30
0.0
 11
76.172595223068
 21
1244.316975396485
 31
0.0
  0
LINE
  5
19F9
330
1D
100
AcDbEntity
  8
0
100
AcDbLine
 10
77.200299445699
 20
1244.841003859381
 30
0.0
 11
77.530695223068
 21
1244.743975396485
 31
0.0
  0
LINE
  5
19FA
330
1D
100
AcDbEntity
  8
0
100
AcDbLine
 10
77.530695223068
 20
1244.743975396485
 30
0.0
 11
77.958795223068
 21
1244.968975396485
 31
0.0
  0
LINE
  5
19FB
330
1D
100
AcDbEntity
  8
0
100
AcDbLine
 10
77.698895223068
 20
1245.424975396485
 30
0.0
 11
77.958795223068
 21
1244.968975396485
 31
0.0
  0
LINE
  5
19FC
330
1D
100
AcDbEntity
  8
0
100
AcDbLine
 10
74.563995223068
 20
1245.665975396485
 30
0.0
 11
75.368295223068
 21
1244.990975396485
 31
0.0
  0
LINE
  5
19FD
330
1D
100
AcDbEntity
  8
0
100
AcDbLine
 10
74.219195223068
 20
1245.955975396485
 30
0.0
 11
74.563995223068
 21
1245.665975396485
 31
0.0
  0
LINE
  5
19FE
330
1D
100
AcDbEntity
  8
0
100
AcDbLine
 10
74.219195223068
 20
1245.955975396485
 30
0.0
 11
75.215976085238
 21
1247.143800754952
 31
0.0
  0
LINE
  5
19FF
330
1D
100
AcDbEntity
  8
0
100
AcDbLine
 10
77.200595223068
 20
1245.959975396485
 30
0.0
 11
77.698895223068
 21
1245.424975396485
 31
0.0
  0
LINE
  5
1A00
330
1D
100
AcDbEntity
  8
0
100
AcDbLine
 10
74.197195223068
 20
1247.058975396485
 30
0.0
 11
74.454695223068
 21
1246.687975396485
 31
0.0
  0
LINE
  5
1A01
330
1D
100
AcDbEntity
  8
0
100
AcDbLine
 10
74.454695223068
 20
1246.687975396485
 30
0.0
 11
74.654947870094
 21
1246.475245041198
 31
0.0
  0
LINE
  5
1A02
330
1D
100
AcDbEntity
  8
0
100
AcDbLine
 10
75.549795223068
 20
1247.004975396485
 30
0.0
 11
76.425395223068
 21
1246.521975396485
 31
0.0
  0
LINE
  5
1A03
330
1D
100
AcDbEntity
  8
0
100
AcDbLine
 10
74.712995223068
 20
1247.352975396485
 30
0.0
 11
75.549795223068
 21
1247.004975396485
 31
0.0
  0
LINE
  5
1A04
330
1D
100
AcDbEntity
  8
0
100
AcDbLine
 10
75.205495223068
 20
1249.213975396485
 30
0.0
 11
76.479691500067
 21
1250.732433264155
 31
0.0
  0
LINE
  5
1A05
330
1D
100
AcDbEntity
  8
0
100
AcDbLine
 10
74.141995223068
 20
1247.364975396485
 30
0.0
 11
74.712995223068
 21
1247.352975396485
 31
0.0
  0
LINE
  5
1A06
330
1D
100
AcDbEntity
  8
0
100
AcDbLine
 10
74.141995223068
 20
1247.364975396485
 30
0.0
 11
74.197195223068
 21
1247.058975396485
 31
0.0
  0
LINE
  5
1A07
330
1D
100
AcDbEntity
  8
0
100
AcDbLine
 10
76.425395223068
 20
1246.521975396485
 30
0.0
 11
77.200595223068
 21
1245.959975396485
 31
0.0
  0
LINE
  5
1A08
330
1D
100
AcDbEntity
  8
0
100
AcDbLine
 10
107.451095223068
 20
1247.803975396485
 30
0.0
 11
110.252095223068
 21
1242.979975396485
 31
0.0
  0
LINE
  5
1A09
330
1D
100
AcDbEntity
  8
0
100
AcDbLine
 10
72.684995223068
 20
1251.613975396485
 30
0.0
 11
73.025146547846
 21
1251.28241428071
 31
0.0
  0
LINE
  5
1A0A
330
1D
100
AcDbEntity
  8
0
100
AcDbLine
 10
72.371995223068
 20
1252.262975396485
 30
0.0
 11
72.684995223068
 21
1251.613975396485
 31
0.0
  0
LINE
  5
1A0B
330
1D
100
AcDbEntity
  8
0
100
AcDbLine
 10
72.371995223068
 20
1252.262975396485
 30
0.0
 11
72.739895223068
 21
1252.510975396485
 31
0.0
  0
LINE
  5
1A0C
330
1D
100
AcDbEntity
  8
0
100
AcDbLine
 10
74.860695223068
 20
1249.502975396485
 30
0.0
 11
75.205495223068
 21
1249.213975396485
 31
0.0
  0
LINE
  5
1A0D
330
1D
100
AcDbEntity
  8
0
100
AcDbLine
 10
76.304995223068
 20
1249.609975396485
 30
0.0
 11
76.724295223068
 21
1249.692975396485
 31
0.0
  0
LINE
  5
1A0E
330
1D
100
AcDbEntity
  8
0
100
AcDbLine
 10
74.056395223068
 20
1250.177975396485
 30
0.0
 11
74.860695223068
 21
1249.502975396485
 31
0.0
  0
LINE
  5
1A0F
330
1D
100
AcDbEntity
  8
0
100
AcDbLine
 10
75.637488642612
 20
1249.728781332218
 30
0.0
 11
76.304995223068
 21
1249.609975396485
 31
0.0
  0
LINE
  5
1A10
330
1D
100
AcDbEntity
  8
0
100
AcDbLine
 10
76.724295223068
 20
1249.692975396485
 30
0.0
 11
76.946495223068
 21
1249.985975396485
 31
0.0
  0
LINE
  5
1A11
330
1D
100
AcDbEntity
  8
0
100
AcDbLine
 10
76.702295223068
 20
1250.479975396485
 30
0.0
 11
76.946495223068
 21
1249.985975396485
 31
0.0
  0
LINE
  5
1A12
330
1D
100
AcDbEntity
  8
0
100
AcDbLine
 10
72.907295223068
 20
1251.141975396485
 30
0.0
 11
73.251995223068
 21
1250.852975396485
 31
0.0
  0
LINE
  5
1A13
330
1D
100
AcDbEntity
  8
0
100
AcDbLine
 10
72.907295223068
 20
1251.141975396485
 30
0.0
 11
73.867188776179
 21
1252.285843569607
 31
0.0
  0
LINE
  5
1A14
330
1D
100
AcDbEntity
  8
0
100
AcDbLine
 10
73.251995223068
 20
1250.852975396485
 30
0.0
 11
74.056395223068
 21
1250.177975396485
 31
0.0
  0
LINE
  5
1A15
330
1D
100
AcDbEntity
  8
0
100
AcDbLine
 10
72.986762812218
 20
1251.319828670381
 30
0.0
 11
73.027551323881
 21
1251.285279959681
 31
0.0
  0
LINE
  5
1A16
330
1D
100
AcDbEntity
  8
0
100
AcDbLine
 10
75.621295223068
 20
1251.461975396485
 30
0.0
 11
76.368995223068
 21
1250.857975396485
 31
0.0
  0
LINE
  5
1A17
330
1D
100
AcDbEntity
  8
0
100
AcDbLine
 10
76.368995223068
 20
1250.857975396485
 30
0.0
 11
76.702295223068
 21
1250.479975396485
 31
0.0
  0
LINE
  5
1A18
330
1D
100
AcDbEntity
  8
0
100
AcDbLine
 10
74.546195223068
 20
1252.034975396485
 30
0.0
 11
75.621295223068
 21
1251.461975396485
 31
0.0
  0
LINE
  5
1A19
330
1D
100
AcDbEntity
  8
0
100
AcDbLine
 10
73.647595223068
 20
1252.366975396485
 30
0.0
 11
74.546195223068
 21
1252.034975396485
 31
0.0
  0
LINE
  5
1A1A
330
1D
100
AcDbEntity
  8
0
100
AcDbLine
 10
72.739895223068
 20
1252.510975396485
 30
0.0
 11
73.647595223068
 21
1252.366975396485
 31
0.0
  0
LINE
  5
1A1B
330
1D
100
AcDbEntity
  8
0
100
AcDbLine
 10
62.462295223068
 20
1252.652975396485
 30
0.0
 11
62.576995223068
 21
1252.607975396485
 31
0.0
  0
LINE
  5
1A1C
330
1D
100
AcDbEntity
  8
0
100
AcDbLine
 10
62.685595223068
 20
1252.630975396485
 30
0.0
 11
62.799795223068
 21
1252.656975396485
 31
0.0
  0
LINE
  5
1A1D
330
1D
100
AcDbEntity
  8
0
100
AcDbLine
 10
62.890695223068
 20
1252.777975396485
 30
0.0
 11
62.907595223068
 21
1252.608975396485
 31
0.0
  0
LINE
  5
1A1E
330
1D
100
AcDbEntity
  8
0
100
AcDbLine
 10
62.799795223068
 20
1252.656975396485
 30
0.0
 11
62.907595223068
 21
1252.608975396485
 31
0.0
  0
LINE
  5
1A1F
330
1D
100
AcDbEntity
  8
0
100
AcDbLine
 10
62.515395223068
 20
1255.209975396485
 30
0.0
 11
62.769195223068
 21
1254.247975396485
 31
0.0
  0
LINE
  5
1A20
330
1D
100
AcDbEntity
  8
0
100
AcDbLine
 10
61.356895223068
 20
1258.553975396485
 30
0.0
 11
62.161295223068
 21
1257.878975396485
 31
0.0
  0
LINE
  5
1A21
330
1D
100
AcDbEntity
  8
0
100
AcDbLine
 10
61.442195223068
 20
1257.447975396485
 30
0.0
 11
62.093795223068
 21
1256.287975396485
 31
0.0
  0
LINE
  5
1A22
330
1D
100
AcDbEntity
  8
0
100
AcDbLine
 10
62.093795223068
 20
1256.287975396485
 30
0.0
 11
62.515395223068
 21
1255.209975396485
 31
0.0
  0
LINE
  5
1A23
330
1D
100
AcDbEntity
  8
0
100
AcDbLine
 10
62.505995223068
 20
1257.589975396485
 30
0.0
 11
63.701004821842
 21
1259.014066613793
 31
0.0
  0
LINE
  5
1A24
330
1D
100
AcDbEntity
  8
0
100
AcDbLine
 10
62.161295223068
 20
1257.878975396485
 30
0.0
 11
62.505995223068
 21
1257.589975396485
 31
0.0
  0
LINE
  5
1A25
330
1D
100
AcDbEntity
  8
0
100
AcDbLine
 10
62.887395223068
 20
1253.431975396485
 30
0.0
 11
62.890695223068
 21
1252.777975396485
 31
0.0
  0
LINE
  5
1A26
330
1D
100
AcDbEntity
  8
0
100
AcDbLine
 10
66.018195223068
 20
1253.165975396485
 30
0.0
 11
66.083784656671
 21
1253.110930179921
 31
0.0
  0
LINE
  5
1A27
330
1D
100
AcDbEntity
  8
0
100
AcDbLine
 10
66.018195223068
 20
1253.165975396485
 30
0.0
 11
66.822495223068
 21
1252.490975396485
 31
0.0
  0
LINE
  5
1A28
330
1D
100
AcDbEntity
  8
0
100
AcDbLine
 10
67.849095223068
 20
1253.065975396485
 30
0.0
 11
68.264095223068
 21
1252.516975396485
 31
0.0
  0
LINE
  5
1A29
330
1D
100
AcDbEntity
  8
0
100
AcDbLine
 10
67.104795223068
 20
1253.718975396485
 30
0.0
 11
67.849095223068
 21
1253.065975396485
 31
0.0
  0
LINE
  5
1A2A
330
1D
100
AcDbEntity
  8
0
100
AcDbLine
 10
64.291195223068
 20
1254.934975396485
 30
0.0
 11
64.656395223068
 21
1254.338975396485
 31
0.0
  0
LINE
  5
1A2B
330
1D
100
AcDbEntity
  8
0
100
AcDbLine
 10
64.291195223068
 20
1254.934975396485
 30
0.0
 11
64.451195223068
 21
1255.109975396485
 31
0.0
  0
LINE
  5
1A2C
330
1D
100
AcDbEntity
  8
0
100
AcDbLine
 10
64.792195223068
 20
1255.058975396485
 30
0.0
 11
66.204795223068
 21
1254.368975396485
 31
0.0
  0
LINE
  5
1A2D
330
1D
100
AcDbEntity
  8
0
100
AcDbLine
 10
66.204795223068
 20
1254.368975396485
 30
0.0
 11
67.104795223068
 21
1253.718975396485
 31
0.0
  0
LINE
  5
1A2E
330
1D
100
AcDbEntity
  8
0
100
AcDbLine
 10
64.656395223068
 20
1254.338975396485
 30
0.0
 11
64.873699317824
 21
1254.13546352213
 31
0.0
  0
LINE
  5
1A2F
330
1D
100
AcDbEntity
  8
0
100
AcDbLine
 10
64.451195223068
 20
1255.109975396485
 30
0.0
 11
64.792195223068
 21
1255.058975396485
 31
0.0
  0
LINE
  5
1A30
330
1D
100
AcDbEntity
  8
0
100
AcDbLine
 10
63.328266378563
 20
1258.56987474791
 30
0.0
 11
63.742795223068
 21
1258.461975396485
 31
0.0
  0
LINE
  5
1A31
330
1D
100
AcDbEntity
  8
0
100
AcDbLine
 10
63.742795223068
 20
1258.461975396485
 30
0.0
 11
63.901195223068
 21
1258.727975396485
 31
0.0
  0
LINE
  5
1A32
330
1D
100
AcDbEntity
  8
0
100
AcDbLine
 10
67.508295223068
 20
1258.566975396485
 30
0.0
 11
67.862895223068
 21
1258.757975396485
 31
0.0
  0
LINE
  5
1A33
330
1D
100
AcDbEntity
  8
0
100
AcDbLine
 10
67.508295223068
 20
1258.566975396485
 30
0.0
 11
67.669295223068
 21
1258.089975396485
 31
0.0
  0
LINE
  5
1A34
330
1D
100
AcDbEntity
  8
0
100
AcDbLine
 10
68.262095223068
 20
1257.684975396485
 30
0.0
 11
69.066395223068
 21
1257.009975396485
 31
0.0
  0
LINE
  5
1A35
330
1D
100
AcDbEntity
  8
0
100
AcDbLine
 10
67.917395223068
 20
1257.973975396485
 30
0.0
 11
68.021017535667
 21
1257.887097391434
 31
0.0
  0
LINE
  5
1A36
330
1D
100
AcDbEntity
  8
0
100
AcDbLine
 10
67.917395223068
 20
1257.973975396485
 30
0.0
 11
68.477540832181
 21
1258.64150011191
 31
0.0
  0
LINE
  5
1A37
330
1D
100
AcDbEntity
  8
0
100
AcDbLine
 10
67.917395223068
 20
1257.973975396485
 30
0.0
 11
68.262095223068
 21
1257.684975396485
 31
0.0
  0
LINE
  5
1A38
330
1D
100
AcDbEntity
  8
0
100
AcDbLine
 10
69.066395223068
 20
1257.009975396485
 30
0.0
 11
69.870795223068
 21
1256.334975396485
 31
0.0
  0
LINE
  5
1A39
330
1D
100
AcDbEntity
  8
0
100
AcDbLine
 10
68.407595223068
 20
1257.349975396485
 30
0.0
 11
69.324895223068
 21
1256.706975396485
 31
0.0
  0
LINE
  5
1A3A
330
1D
100
AcDbEntity
  8
0
100
AcDbLine
 10
67.862895223068
 20
1258.757975396485
 30
0.0
 11
68.365795223068
 21
1258.679975396485
 31
0.0
  0
LINE
  5
1A3B
330
1D
100
AcDbEntity
  8
0
100
AcDbLine
 10
68.365795223068
 20
1258.679975396485
 30
0.0
 11
69.100595223068
 21
1258.426975396485
 31
0.0
  0
LINE
  5
1A3C
330
1D
100
AcDbEntity
  8
0
100
AcDbLine
 10
69.100595223068
 20
1258.426975396485
 30
0.0
 11
69.814495223068
 21
1258.055975396485
 31
0.0
  0
LINE
  5
1A3D
330
1D
100
AcDbEntity
  8
0
100
AcDbLine
 10
67.669295223068
 20
1258.089975396485
 30
0.0
 11
68.407595223068
 21
1257.349975396485
 31
0.0
  0
LINE
  5
1A3E
330
1D
100
AcDbEntity
  8
0
100
AcDbLine
 10
69.324895223068
 20
1256.706975396485
 30
0.0
 11
69.502334644066
 21
1256.644163475583
 31
0.0
  0
LINE
  5
1A3F
330
1D
100
AcDbEntity
  8
0
100
AcDbLine
 10
104.343095223068
 20
1254.102975396485
 30
0.0
 11
107.451095223068
 21
1247.803975396485
 31
0.0
  0
LINE
  5
1A40
330
1D
100
AcDbEntity
  8
0
100
AcDbLine
 10
103.861095223068
 20
1255.657975396485
 30
0.0
 11
104.343095223068
 21
1254.102975396485
 31
0.0
  0
LINE
  5
1A41
330
1D
100
AcDbEntity
  8
0
100
AcDbLine
 10
70.215495223068
 20
1256.045975396485
 30
0.0
 11
71.030557108672
 21
1257.017283471367
 31
0.0
  0
LINE
  5
1A42
330
1D
100
AcDbEntity
  8
0
100
AcDbLine
 10
69.870795223068
 20
1256.334975396485
 30
0.0
 11
70.215495223068
 21
1256.045975396485
 31
0.0
  0
LINE
  5
1A43
330
1D
100
AcDbEntity
  8
0
100
AcDbLine
 10
70.421395223068
 20
1257.633975396485
 30
0.0
 11
70.847195223068
 21
1257.252975396485
 31
0.0
  0
LINE
  5
1A44
330
1D
100
AcDbEntity
  8
0
100
AcDbLine
 10
70.847195223068
 20
1257.252975396485
 30
0.0
 11
71.246295223068
 21
1256.739975396485
 31
0.0
  0
LINE
  5
1A45
330
1D
100
AcDbEntity
  8
0
100
AcDbLine
 10
69.814495223068
 20
1258.055975396485
 30
0.0
 11
70.421395223068
 21
1257.633975396485
 31
0.0
  0
LINE
  5
1A46
330
1D
100
AcDbEntity
  8
0
100
AcDbLine
 10
70.458987199634
 20
1256.33614443418
 30
0.0
 11
71.068395223068
 21
1256.323975396485
 31
0.0
  0
LINE
  5
1A47
330
1D
100
AcDbEntity
  8
0
100
AcDbLine
 10
103.671095223068
 20
1256.888975396485
 30
0.0
 11
103.861095223068
 21
1255.657975396485
 31
0.0
  0
LINE
  5
1A48
330
1D
100
AcDbEntity
  8
0
100
AcDbLine
 10
103.536095223068
 20
1257.443975396485
 30
0.0
 11
103.671095223068
 21
1256.888975396485
 31
0.0
  0
LINE
  5
1A49
330
1D
100
AcDbEntity
  8
0
100
AcDbLine
 10
103.222095223068
 20
1257.917975396485
 30
0.0
 11
103.536095223068
 21
1257.443975396485
 31
0.0
  0
LINE
  5
1A4A
330
1D
100
AcDbEntity
  8
0
100
AcDbLine
 10
71.068395223068
 20
1256.323975396485
 30
0.0
 11
71.246295223068
 21
1256.739975396485
 31
0.0
  0
LINE
  5
1A4B
330
1D
100
AcDbEntity
  8
0
100
AcDbLine
 10
56.639169812606
 20
1258.966026906292
 30
0.0
 11
56.90144304264
 21
1259.278649415397
 31
0.0
  0
LINE
  5
1A4C
330
1D
100
AcDbEntity
  8
0
100
AcDbLine
 10
60.552595223068
 20
1259.228975396485
 30
0.0
 11
61.356895223068
 21
1258.553975396485
 31
0.0
  0
LINE
  5
1A4D
330
1D
100
AcDbEntity
  8
0
100
AcDbLine
 10
57.106795223068
 20
1259.159975396485
 30
0.0
 11
58.252695223068
 21
1258.328975396485
 31
0.0
  0
LINE
  5
1A4E
330
1D
100
AcDbEntity
  8
0
100
AcDbLine
 10
56.617095223068
 20
1259.442975396485
 30
0.0
 11
57.106795223068
 21
1259.159975396485
 31
0.0
  0
LINE
  5
1A4F
330
1D
100
AcDbEntity
  8
0
100
AcDbLine
 10
56.261395223068
 20
1259.369975396485
 30
0.0
 11
56.639169812606
 21
1258.966026906292
 31
0.0
  0
LINE
  5
1A50
330
1D
100
AcDbEntity
  8
0
100
AcDbLine
 10
56.261395223068
 20
1259.369975396485
 30
0.0
 11
56.289495223068
 21
1259.568975396485
 31
0.0
  0
LINE
  5
1A51
330
1D
100
AcDbEntity
  8
0
100
AcDbLine
 10
60.604095223068
 20
1258.816975396485
 30
0.0
 11
61.442195223068
 21
1257.447975396485
 31
0.0
  0
LINE
  5
1A52
330
1D
100
AcDbEntity
  8
0
100
AcDbLine
 10
60.207895223068
 20
1259.517975396485
 30
0.0
 11
60.552595223068
 21
1259.228975396485
 31
0.0
  0
LINE
  5
1A53
330
1D
100
AcDbEntity
  8
0
100
AcDbLine
 10
60.207895223068
 20
1259.517975396485
 30
0.0
 11
61.325352143793
 21
1260.849688635136
 31
0.0
  0
LINE
  5
1A54
330
1D
100
AcDbEntity
  8
0
100
AcDbLine
 10
56.289495223068
 20
1259.568975396485
 30
0.0
 11
56.617095223068
 21
1259.442975396485
 31
0.0
  0
LINE
  5
1A55
330
1D
100
AcDbEntity
  8
0
100
AcDbLine
 10
63.356095223068
 20
1259.506975396485
 30
0.0
 11
63.901195223068
 21
1258.727975396485
 31
0.0
  0
LINE
  5
1A56
330
1D
100
AcDbEntity
  8
0
100
AcDbLine
 10
63.701004821842
 20
1259.014066613793
 30
0.0
 11
63.901195223068
 21
1258.727975396485
 31
0.0
  0
LINE
  5
1A57
330
1D
100
AcDbEntity
  8
0
100
AcDbLine
 10
53.950795223068
 20
1259.721975396485
 30
0.0
 11
57.161963703979
 21
1257.055024801224
 31
0.0
  0
LINE
  5
1A58
330
1D
100
AcDbEntity
  8
0
100
AcDbLine
 10
53.950795223068
 20
1259.721975396485
 30
0.0
 11
53.960095223068
 21
1259.881975396485
 31
0.0
  0
LINE
  5
1A59
330
1D
100
AcDbEntity
  8
0
100
AcDbLine
 10
53.621295223068
 20
1259.722975396485
 30
0.0
 11
53.950795223068
 21
1259.721975396485
 31
0.0
  0
LINE
  5
1A5A
330
1D
100
AcDbEntity
  8
0
100
AcDbLine
 10
62.593095223068
 20
1260.113975396485
 30
0.0
 11
63.356095223068
 21
1259.506975396485
 31
0.0
  0
LINE
  5
1A5B
330
1D
100
AcDbEntity
  8
0
100
AcDbLine
 10
41.06393266591
 20
1270.182406496097
 30
0.0
 11
41.278095223068
 21
1269.981975396485
 31
0.0
  0
LINE
  5
1A5C
330
1D
100
AcDbEntity
  8
0
100
AcDbLine
 10
41.278095223068
 20
1269.981975396485
 30
0.0
 11
41.367695223068
 21
1269.898975396485
 31
0.0
  0
LINE
  5
1A5D
330
1D
100
AcDbEntity
  8
0
100
AcDbLine
 10
41.087595223068
 20
1271.193975396485
 30
0.0
 11
41.567695223068
 21
1270.566975396485
 31
0.0
  0
LINE
  5
1A5E
330
1D
100
AcDbEntity
  8
0
100
AcDbLine
 10
40.982195223068
 20
1270.694975396485
 30
0.0
 11
41.560395223068
 21
1270.349975396485
 31
0.0
  0
LINE
  5
1A5F
330
1D
100
AcDbEntity
  8
0
100
AcDbLine
 10
41.560395223068
 20
1270.349975396485
 30
0.0
 11
41.567695223068
 21
1270.566975396485
 31
0.0
  0
LINE
  5
1A60
330
1D
100
AcDbEntity
  8
0
100
AcDbLine
 10
41.705264024746
 20
1272.287303314612
 30
0.0
 11
42.870695223068
 21
1271.176975396485
 31
0.0
  0
LINE
  5
1A61
330
1D
100
AcDbEntity
  8
0
100
AcDbLine
 10
41.367695223068
 20
1269.898975396485
 30
0.0
 11
44.902695223068
 21
1266.790975396485
 31
0.0
  0
LINE
  5
1A62
330
1D
100
AcDbEntity
  8
0
100
AcDbLine
 10
40.193550664383
 20
1274.177870648581
 30
0.0
 11
40.662295223068
 21
1273.921975396485
 31
0.0
  0
LINE
  5
1A63
330
1D
100
AcDbEntity
  8
0
100
AcDbLine
 10
40.662295223068
 20
1273.921975396485
 30
0.0
 11
40.893295223068
 21
1274.120975396485
 31
0.0
  0
LINE
  5
1A64
330
1D
100
AcDbEntity
  8
0
100
AcDbLine
 10
40.543195223068
 20
1273.164975396485
 30
0.0
 11
41.705264024749
 21
1272.287303314609
 31
0.0
  0
LINE
  5
1A65
330
1D
100
AcDbEntity
  8
0
100
AcDbLine
 10
45.018995223068
 20
1266.742975396485
 30
0.0
 11
45.125095223068
 21
1266.762975396485
 31
0.0
  0
LINE
  5
1A66
330
1D
100
AcDbEntity
  8
0
100
AcDbLine
 10
45.135295223068
 20
1266.767975396485
 30
0.0
 11
45.251295223068
 21
1266.780975396485
 31
0.0
  0
LINE
  5
1A67
330
1D
100
AcDbEntity
  8
0
100
AcDbLine
 10
45.346095223068
 20
1266.735975396485
 30
0.0
 11
45.375195223068
 21
1266.930975396485
 31
0.0
  0
LINE
  5
1A68
330
1D
100
AcDbEntity
  8
0
100
AcDbLine
 10
45.346095223068
 20
1266.735975396485
 30
0.0
 11
47.854595223068
 21
1264.568975396485
 31
0.0
  0
LINE
  5
1A69
330
1D
100
AcDbEntity
  8
0
100
AcDbLine
 10
43.841695223068
 20
1270.163975396485
 30
0.0
 11
44.794795223068
 21
1268.971975396485
 31
0.0
  0
LINE
  5
1A6A
330
1D
100
AcDbEntity
  8
0
100
AcDbLine
 10
44.794795223068
 20
1268.971975396485
 30
0.0
 11
45.219295223068
 21
1268.177975396485
 31
0.0
  0
LINE
  5
1A6B
330
1D
100
AcDbEntity
  8
0
100
AcDbLine
 10
44.902695223068
 20
1266.790975396485
 30
0.0
 11
45.018995223068
 21
1266.742975396485
 31
0.0
  0
LINE
  5
1A6C
330
1D
100
AcDbEntity
  8
0
100
AcDbLine
 10
45.375195223068
 20
1266.930975396485
 30
0.0
 11
45.384595223068
 21
1267.446975396485
 31
0.0
  0
LINE
  5
1A6D
330
1D
100
AcDbEntity
  8
0
100
AcDbLine
 10
45.219295223068
 20
1268.177975396485
 30
0.0
 11
45.384595223068
 21
1267.446975396485
 31
0.0
  0
LINE
  5
1A6E
330
1D
100
AcDbEntity
  8
0
100
AcDbLine
 10
45.816895223068
 20
1267.224975396485
 30
0.0
 11
46.161595223068
 21
1266.934975396485
 31
0.0
  0
LINE
  5
1A6F
330
1D
100
AcDbEntity
  8
0
100
AcDbLine
 10
45.816895223068
 20
1267.224975396485
 30
0.0
 11
46.77112894777
 21
1268.362134351527
 31
0.0
  0
LINE
  5
1A70
330
1D
100
AcDbEntity
  8
0
100
AcDbLine
 10
45.629195223068
 20
1270.301975396485
 30
0.0
 11
46.655698168103
 21
1271.525257477286
 31
0.0
  0
LINE
  5
1A71
330
1D
100
AcDbEntity
  8
0
100
AcDbLine
 10
46.015195223068
 20
1268.612975396485
 30
0.0
 11
46.47181877599
 21
1268.005446851008
 31
0.0
  0
LINE
  5
1A72
330
1D
100
AcDbEntity
  8
0
100
AcDbLine
 10
46.015195223068
 20
1268.612975396485
 30
0.0
 11
46.654495223068
 21
1268.436975396485
 31
0.0
  0
LINE
  5
1A73
330
1D
100
AcDbEntity
  8
0
100
AcDbLine
 10
45.251295223068
 20
1266.780975396485
 30
0.0
 11
45.346095223068
 21
1266.735975396485
 31
0.0
  0
LINE
  5
1A74
330
1D
100
AcDbEntity
  8
0
100
AcDbLine
 10
46.161595223068
 20
1266.934975396485
 30
0.0
 11
46.965995223068
 21
1266.259975396485
 31
0.0
  0
LINE
  5
1A75
330
1D
100
AcDbEntity
  8
0
100
AcDbLine
 10
46.965995223068
 20
1266.259975396485
 30
0.0
 11
47.770295223068
 21
1265.584975396485
 31
0.0
  0
LINE
  5
1A76
330
1D
100
AcDbEntity
  8
0
100
AcDbLine
 10
47.017995223068
 20
1263.533975396485
 30
0.0
 11
47.362695223068
 21
1263.243975396485
 31
0.0
  0
LINE
  5
1A77
330
1D
100
AcDbEntity
  8
0
100
AcDbLine
 10
47.017995223068
 20
1263.533975396485
 30
0.0
 11
47.873283166968
 21
1264.553220807088
 31
0.0
  0
LINE
  5
1A78
330
1D
100
AcDbEntity
  8
0
100
AcDbLine
 10
47.017995223068
 20
1263.533975396485
 30
0.0
 11
48.290462865246
 21
1265.05037325253
 31
0.0
  0
LINE
  5
1A79
330
1D
100
AcDbEntity
  8
0
100
AcDbLine
 10
46.691593623663
 20
1268.413170248584
 30
0.0
 11
46.770873090257
 21
1268.361829446498
 31
0.0
  0
LINE
  5
1A7A
330
1D
100
AcDbEntity
  8
0
100
AcDbLine
 10
46.654495223068
 20
1268.436975396485
 30
0.0
 11
47.107995223068
 21
1268.145975396485
 31
0.0
  0
LINE
  5
1A7B
330
1D
100
AcDbEntity
  8
0
100
AcDbLine
 10
42.870695223068
 20
1271.176975396485
 30
0.0
 11
43.841695223068
 21
1270.163975396485
 31
0.0
  0
LINE
  5
1A7C
330
1D
100
AcDbEntity
  8
0
100
AcDbLine
 10
42.589395223068
 20
1273.499975396485
 30
0.0
 11
43.612545788768
 21
1272.56648836059
 31
0.0
  0
LINE
  5
1A7D
330
1D
100
AcDbEntity
  8
0
100
AcDbLine
 10
45.284395223068
 20
1270.590975396485
 30
0.0
 11
45.629195223068
 21
1270.301975396485
 31
0.0
  0
LINE
  5
1A7E
330
1D
100
AcDbEntity
  8
0
100
AcDbLine
 10
43.330995223068
 20
1272.230975396485
 30
0.0
 11
43.675695223068
 21
1271.940975396485
 31
0.0
  0
LINE
  5
1A7F
330
1D
100
AcDbEntity
  8
0
100
AcDbLine
 10
43.330995223068
 20
1272.230975396485
 30
0.0
 11
44.40143455705
 21
1273.50657671856
 31
0.0
  0
LINE
  5
1A80
330
1D
100
AcDbEntity
  8
0
100
AcDbLine
 10
43.675695223068
 20
1271.940975396485
 30
0.0
 11
44.480095223068
 21
1271.265975396485
 31
0.0
  0
LINE
  5
1A81
330
1D
100
AcDbEntity
  8
0
100
AcDbLine
 10
44.480095223068
 20
1271.265975396485
 30
0.0
 11
45.284395223068
 21
1270.590975396485
 31
0.0
  0
LINE
  5
1A82
330
1D
100
AcDbEntity
  8
0
100
AcDbLine
 10
45.672995223068
 20
1272.596975396485
 30
0.0
 11
46.237695223068
 21
1272.040975396485
 31
0.0
  0
LINE
  5
1A83
330
1D
100
AcDbEntity
  8
0
100
AcDbLine
 10
45.936260199651
 20
1270.667904286716
 30
0.0
 11
48.119895223068
 21
1268.603975396485
 31
0.0
  0
LINE
  5
1A84
330
1D
100
AcDbEntity
  8
0
100
AcDbLine
 10
46.237695223068
 20
1272.040975396485
 30
0.0
 11
46.668895223068
 21
1271.508975396485
 31
0.0
  0
LINE
  5
1A85
330
1D
100
AcDbEntity
  8
0
100
AcDbLine
 10
46.668895223068
 20
1271.508975396485
 30
0.0
 11
46.804995223068
 21
1271.106975396485
 31
0.0
  0
LINE
  5
1A86
330
1D
100
AcDbEntity
  8
0
100
AcDbLine
 10
46.299068953031
 20
1271.10026295545
 30
0.0
 11
46.804995223068
 21
1271.106975396485
 31
0.0
  0
LINE
  5
1A87
330
1D
100
AcDbEntity
  8
0
100
AcDbLine
 10
43.957097087277
 20
1272.977076871258
 30
0.0
 11
44.060243224338
 21
1273.09999214971
 31
0.0
  0
LINE
  5
1A88
330
1D
100
AcDbEntity
  8
0
100
AcDbLine
 10
43.885595223068
 20
1273.051975396485
 30
0.0
 11
43.957097087277
 21
1272.977076871258
 31
0.0
  0
LINE
  5
1A89
330
1D
100
AcDbEntity
  8
0
100
AcDbLine
 10
43.577595223068
 20
1273.594975396485
 30
0.0
 11
43.689395223068
 21
1273.752975396485
 31
0.0
  0
LINE
  5
1A8A
330
1D
100
AcDbEntity
  8
0
100
AcDbLine
 10
43.577595223068
 20
1273.594975396485
 30
0.0
 11
43.885595223068
 21
1273.051975396485
 31
0.0
  0
LINE
  5
1A8B
330
1D
100
AcDbEntity
  8
0
100
AcDbLine
 10
43.689395223068
 20
1273.752975396485
 30
0.0
 11
44.056295223068
 21
1273.681975396485
 31
0.0
  0
LINE
  5
1A8C
330
1D
100
AcDbEntity
  8
0
100
AcDbLine
 10
44.056295223068
 20
1273.681975396485
 30
0.0
 11
44.605295223068
 21
1273.402975396485
 31
0.0
  0
LINE
  5
1A8D
330
1D
100
AcDbEntity
  8
0
100
AcDbLine
 10
44.605295223068
 20
1273.402975396485
 30
0.0
 11
45.672995223068
 21
1272.596975396485
 31
0.0
  0
LINE
  5
1A8E
330
1D
100
AcDbEntity
  8
0
100
AcDbLine
 10
40.528195223068
 20
1274.691975396485
 30
0.0
 11
40.893295223068
 21
1274.120975396485
 31
0.0
  0
LINE
  5
1A8F
330
1D
100
AcDbEntity
  8
0
100
AcDbLine
 10
41.562395223068
 20
1276.297975396485
 30
0.0
 11
42.733472390745
 21
1277.693867316015
 31
0.0
  0
LINE
  5
1A90
330
1D
100
AcDbEntity
  8
0
100
AcDbLine
 10
41.217695223068
 20
1276.587975396485
 30
0.0
 11
41.562395223068
 21
1276.297975396485
 31
0.0
  0
LINE
  5
1A91
330
1D
100
AcDbEntity
  8
0
100
AcDbLine
 10
41.918540380002
 20
1276.722490672221
 30
0.0
 11
42.620095223068
 21
1276.101975396485
 31
0.0
  0
LINE
  5
1A92
330
1D
100
AcDbEntity
  8
0
100
AcDbLine
 10
42.620095223068
 20
1276.101975396485
 30
0.0
 11
47.181095223068
 21
1272.128975396485
 31
0.0
  0
LINE
  5
1A93
330
1D
100
AcDbEntity
  8
0
100
AcDbLine
 10
40.413395223068
 20
1277.262975396485
 30
0.0
 11
41.217695223068
 21
1276.587975396485
 31
0.0
  0
LINE
  5
1A94
330
1D
100
AcDbEntity
  8
0
100
AcDbLine
 10
42.689295223068
 20
1276.901975396485
 30
0.0
 11
42.985995223068
 21
1277.209975396485
 31
0.0
  0
LINE
  5
1A95
330
1D
100
AcDbEntity
  8
0
100
AcDbLine
 10
42.237689815175
 20
1277.102908060567
 30
0.0
 11
42.689295223068
 21
1276.901975396485
 31
0.0
  0
LINE
  5
1A96
330
1D
100
AcDbEntity
  8
0
100
AcDbLine
 10
43.052495223068
 20
1278.180975396485
 30
0.0
 11
44.426867545608
 21
1279.819189574348
 31
0.0
  0
LINE
  5
1A97
330
1D
100
AcDbEntity
  8
0
100
AcDbLine
 10
44.316195223068
 20
1278.426975396485
 30
0.0
 11
44.886395223068
 21
1278.667975396485
 31
0.0
  0
LINE
  5
1A98
330
1D
100
AcDbEntity
  8
0
100
AcDbLine
 10
43.079284070628
 20
1278.209560809336
 30
0.0
 11
46.725795223068
 21
1275.101975396485
 31
0.0
  0
LINE
  5
1A99
330
1D
100
AcDbEntity
  8
0
100
AcDbLine
 10
42.699495223068
 20
1277.758975396485
 30
0.0
 11
42.985995223068
 21
1277.209975396485
 31
0.0
  0
LINE
  5
1A9A
330
1D
100
AcDbEntity
  8
0
100
AcDbLine
 10
40.754395223068
 20
1280.109975396485
 30
0.0
 11
41.099095223068
 21
1279.819975396485
 31
0.0
  0
LINE
  5
1A9B
330
1D
100
AcDbEntity
  8
0
100
AcDbLine
 10
40.754395223068
 20
1280.109975396485
 30
0.0
 11
42.109368719256
 21
1281.724645119696
 31
0.0
  0
LINE
  5
1A9C
330
1D
100
AcDbEntity
  8
0
100
AcDbLine
 10
41.004795223068
 20
1281.356975396485
 30
0.0
 11
41.32977534981
 21
1280.795633730468
 31
0.0
  0
LINE
  5
1A9D
330
1D
100
AcDbEntity
  8
0
100
AcDbLine
 10
41.004795223068
 20
1281.356975396485
 30
0.0
 11
41.133095223068
 21
1281.885975396485
 31
0.0
  0
LINE
  5
1A9E
330
1D
100
AcDbEntity
  8
0
100
AcDbLine
 10
41.099095223068
 20
1279.819975396485
 30
0.0
 11
41.903495223068
 21
1279.144975396485
 31
0.0
  0
LINE
  5
1A9F
330
1D
100
AcDbEntity
  8
0
100
AcDbLine
 10
41.903495223068
 20
1279.144975396485
 30
0.0
 11
42.707795223068
 21
1278.470975396485
 31
0.0
  0
LINE
  5
1AA0
330
1D
100
AcDbEntity
  8
0
100
AcDbLine
 10
42.707795223068
 20
1278.470975396485
 30
0.0
 11
43.052495223068
 21
1278.180975396485
 31
0.0
  0
LINE
  5
1AA1
330
1D
100
AcDbEntity
  8
0
100
AcDbLine
 10
43.471695223068
 20
1280.809975396485
 30
0.0
 11
44.517695223068
 21
1279.724975396485
 31
0.0
  0
LINE
  5
1AA2
330
1D
100
AcDbEntity
  8
0
100
AcDbLine
 10
42.216295223068
 20
1281.706975396485
 30
0.0
 11
43.471695223068
 21
1280.809975396485
 31
0.0
  0
LINE
  5
1AA3
330
1D
100
AcDbEntity
  8
0
100
AcDbLine
 10
44.517695223068
 20
1279.724975396485
 30
0.0
 11
44.886395223068
 21
1278.667975396485
 31
0.0
  0
LINE
  5
1AA4
330
1D
100
AcDbEntity
  8
0
100
AcDbLine
 10
43.578172189094
 20
1278.807567946841
 30
0.0
 11
44.316195223068
 21
1278.426975396485
 31
0.0
  0
LINE
  5
1AA5
330
1D
100
AcDbEntity
  8
0
100
AcDbLine
 10
41.133095223068
 20
1281.885975396485
 30
0.0
 11
42.216295223068
 21
1281.706975396485
 31
0.0
  0
LINE
  5
1AA6
330
1D
100
AcDbEntity
  8
0
100
AcDbLine
 10
41.011295223068
 20
1279.358975396485
 30
0.0
 11
42.081495223068
 21
1278.468975396485
 31
0.0
  0
LINE
  5
1AA7
330
1D
100
AcDbEntity
  8
0
100
AcDbLine
 10
42.081495223068
 20
1278.468975396485
 30
0.0
 11
42.699495223068
 21
1277.758975396485
 31
0.0
  0
LINE
  5
1AA8
330
1D
100
AcDbEntity
  8
0
100
AcDbLine
 10
46.725795223068
 20
1275.101975396485
 30
0.0
 11
49.847695223068
 21
1272.414975396485
 31
0.0
  0
LINE
  5
1AA9
330
1D
100
AcDbEntity
  8
0
100
AcDbLine
 10
43.911395223068
 20
1310.440975396485
 30
0.0
 11
52.324795223068
 21
1304.278975396485
 31
0.0
  0
LINE
  5
1AAA
330
1D
100
AcDbEntity
  8
0
100
AcDbLine
 10
60.722395223068
 20
1260.280975396485
 30
0.0
 11
60.7920068548
 21
1260.214082045789
 31
0.0
  0
LINE
  5
1AAB
330
1D
100
AcDbEntity
  8
0
100
AcDbLine
 10
59.435395223068
 20
1260.338975396485
 30
0.0
 11
60.604095223068
 21
1258.816975396485
 31
0.0
  0
LINE
  5
1AAC
330
1D
100
AcDbEntity
  8
0
100
AcDbLine
 10
59.426095223068
 20
1260.347975396485
 30
0.0
 11
60.604095223068
 21
1258.816975396485
 31
0.0
  0
LINE
  5
1AAD
330
1D
100
AcDbEntity
  8
0
100
AcDbLine
 10
53.915095223068
 20
1260.478975396485
 30
0.0
 11
53.960095223068
 21
1259.881975396485
 31
0.0
  0
LINE
  5
1AAE
330
1D
100
AcDbEntity
  8
0
100
AcDbLine
 10
53.795795223068
 20
1261.151975396485
 30
0.0
 11
53.915095223068
 21
1260.478975396485
 31
0.0
  0
LINE
  5
1AAF
330
1D
100
AcDbEntity
  8
0
100
AcDbLine
 10
61.127993483445
 20
1260.614489285726
 30
0.0
 11
61.325352143793
 21
1260.849688635136
 31
0.0
  0
LINE
  5
1AB0
330
1D
100
AcDbEntity
  8
0
100
AcDbLine
 10
60.437295223068
 20
1260.853975396485
 30
0.0
 11
60.722395223068
 21
1260.280975396485
 31
0.0
  0
LINE
  5
1AB1
330
1D
100
AcDbEntity
  8
0
100
AcDbLine
 10
60.437295223068
 20
1260.853975396485
 30
0.0
 11
60.613595223068
 21
1261.004975396485
 31
0.0
  0
LINE
  5
1AB2
330
1D
100
AcDbEntity
  8
0
100
AcDbLine
 10
61.214095223068
 20
1260.906975396485
 30
0.0
 11
62.025895223068
 21
1260.488975396485
 31
0.0
  0
LINE
  5
1AB3
330
1D
100
AcDbEntity
  8
0
100
AcDbLine
 10
62.025895223068
 20
1260.488975396485
 30
0.0
 11
62.593095223068
 21
1260.113975396485
 31
0.0
  0
LINE
  5
1AB4
330
1D
100
AcDbEntity
  8
0
100
AcDbLine
 10
60.613595223068
 20
1261.004975396485
 30
0.0
 11
61.214095223068
 21
1260.906975396485
 31
0.0
  0
LINE
  5
1AB5
330
1D
100
AcDbEntity
  8
0
100
AcDbLine
 10
95.355095223068
 20
1261.215975396485
 30
0.0
 11
97.415195223068
 21
1260.038975396485
 31
0.0
  0
LINE
  5
1AB6
330
1D
100
AcDbEntity
  8
0
100
AcDbLine
 10
47.362695223068
 20
1263.243975396485
 30
0.0
 11
48.167095223068
 21
1262.568975396485
 31
0.0
  0
LINE
  5
1AB7
330
1D
100
AcDbEntity
  8
0
100
AcDbLine
 10
48.167095223068
 20
1262.568975396485
 30
0.0
 11
48.971395223068
 21
1261.893975396485
 31
0.0
  0
LINE
  5
1AB8
330
1D
100
AcDbEntity
  8
0
100
AcDbLine
 10
48.100711065535
 20
1264.824246306174
 30
0.0
 11
48.290462865246
 21
1265.05037325253
 31
0.0
  0
LINE
  5
1AB9
330
1D
100
AcDbEntity
  8
0
100
AcDbLine
 10
49.316095223068
 20
1261.604975396485
 30
0.0
 11
50.580810841917
 21
1263.112088283913
 31
0.0
  0
LINE
  5
1ABA
330
1D
100
AcDbEntity
  8
0
100
AcDbLine
 10
49.903295223068
 20
1261.610975396485
 30
0.0
 11
50.497567550474
 21
1262.319168872936
 31
0.0
  0
LINE
  5
1ABB
330
1D
100
AcDbEntity
  8
0
100
AcDbLine
 10
49.561520728374
 20
1261.897439517618
 30
0.0
 11
49.903295223068
 21
1261.610975396485
 31
0.0
  0
LINE
  5
1ABC
330
1D
100
AcDbEntity
  8
0
100
AcDbLine
 10
48.971395223068
 20
1261.893975396485
 30
0.0
 11
49.316095223068
 21
1261.604975396485
 31
0.0
  0
LINE
  5
1ABD
330
1D
100
AcDbEntity
  8
0
100
AcDbLine
 10
50.160424641797
 20
1262.611130242077
 30
0.0
 11
50.826895223068
 21
1262.033975396485
 31
0.0
  0
LINE
  5
1ABE
330
1D
100
AcDbEntity
  8
0
100
AcDbLine
 10
50.829995223068
 20
1262.030975396485
 30
0.0
 11
50.982095223068
 21
1261.898975396485
 31
0.0
  0
LINE
  5
1ABF
330
1D
100
AcDbEntity
  8
0
100
AcDbLine
 10
50.791017978183
 20
1262.065044623416
 30
0.0
 11
50.829995223068
 21
1262.030975396485
 31
0.0
  0
LINE
  5
1AC0
330
1D
100
AcDbEntity
  8
0
100
AcDbLine
 10
50.826895223068
 20
1262.033975396485
 30
0.0
 11
50.982095223068
 21
1261.898975396485
 31
0.0
  0
LINE
  5
1AC1
330
1D
100
AcDbEntity
  8
0
100
AcDbLine
 10
50.982095223068
 20
1261.898975396485
 30
0.0
 11
53.505095223068
 21
1259.768975396485
 31
0.0
  0
LINE
  5
1AC2
330
1D
100
AcDbEntity
  8
0
100
AcDbLine
 10
50.889995223068
 20
1262.512975396485
 30
0.0
 11
51.201095223068
 21
1262.348975396485
 31
0.0
  0
LINE
  5
1AC3
330
1D
100
AcDbEntity
  8
0
100
AcDbLine
 10
50.382975962357
 20
1262.876336078339
 30
0.0
 11
50.889995223068
 21
1262.512975396485
 31
0.0
  0
LINE
  5
1AC4
330
1D
100
AcDbEntity
  8
0
100
AcDbLine
 10
49.746895223068
 20
1263.904975396485
 30
0.0
 11
50.502095223068
 21
1263.190975396485
 31
0.0
  0
LINE
  5
1AC5
330
1D
100
AcDbEntity
  8
0
100
AcDbLine
 10
50.502095223068
 20
1263.190975396485
 30
0.0
 11
51.052895223068
 21
1262.638975396485
 31
0.0
  0
LINE
  5
1AC6
330
1D
100
AcDbEntity
  8
0
100
AcDbLine
 10
48.819495223068
 20
1264.646975396485
 30
0.0
 11
49.746895223068
 21
1263.904975396485
 31
0.0
  0
LINE
  5
1AC7
330
1D
100
AcDbEntity
  8
0
100
AcDbLine
 10
48.114995223068
 20
1265.295975396485
 30
0.0
 11
49.033935501152
 21
1266.391041129236
 31
0.0
  0
LINE
  5
1AC8
330
1D
100
AcDbEntity
  8
0
100
AcDbLine
 10
48.200495223068
 20
1265.118975396485
 30
0.0
 11
48.819495223068
 21
1264.646975396485
 31
0.0
  0
LINE
  5
1AC9
330
1D
100
AcDbEntity
  8
0
100
AcDbLine
 10
47.871395223068
 20
1265.033975396485
 30
0.0
 11
48.098881740666
 21
1264.822066302362
 31
0.0
  0
LINE
  5
1ACA
330
1D
100
AcDbEntity
  8
0
100
AcDbLine
 10
51.052895223068
 20
1262.638975396485
 30
0.0
 11
51.201095223068
 21
1262.348975396485
 31
0.0
  0
LINE
  5
1ACB
330
1D
100
AcDbEntity
  8
0
100
AcDbLine
 10
51.703595223068
 20
1264.790975396485
 30
0.0
 11
52.440431052491
 21
1263.815468450621
 31
0.0
  0
LINE
  5
1ACC
330
1D
100
AcDbEntity
  8
0
100
AcDbLine
 10
47.640495223068
 20
1265.507975396485
 30
0.0
 11
48.200495223068
 21
1265.118975396485
 31
0.0
  0
LINE
  5
1ACD
330
1D
100
AcDbEntity
  8
0
100
AcDbLine
 10
47.770295223068
 20
1265.584975396485
 30
0.0
 11
48.114995223068
 21
1265.295975396485
 31
0.0
  0
LINE
  5
1ACE
330
1D
100
AcDbEntity
  8
0
100
AcDbLine
 10
48.809158765169
 20
1266.123183351136
 30
0.0
 11
49.208095223068
 21
1265.940975396485
 31
0.0
  0
LINE
  5
1ACF
330
1D
100
AcDbEntity
  8
0
100
AcDbLine
 10
48.809158765169
 20
1266.123183351136
 30
0.0
 11
49.033935501152
 21
1266.391041129236
 31
0.0
  0
LINE
  5
1AD0
330
1D
100
AcDbEntity
  8
0
100
AcDbLine
 10
50.504895223068
 20
1266.168975396485
 30
0.0
 11
51.703595223068
 21
1264.790975396485
 31
0.0
  0
LINE
  5
1AD1
330
1D
100
AcDbEntity
  8
0
100
AcDbLine
 10
49.208095223068
 20
1265.940975396485
 30
0.0
 11
49.244295223068
 21
1266.119975396485
 31
0.0
  0
LINE
  5
1AD2
330
1D
100
AcDbEntity
  8
0
100
AcDbLine
 10
47.443195223068
 20
1265.514975396485
 30
0.0
 11
47.871395223068
 21
1265.033975396485
 31
0.0
  0
LINE
  5
1AD3
330
1D
100
AcDbEntity
  8
0
100
AcDbLine
 10
47.443195223068
 20
1265.514975396485
 30
0.0
 11
47.640495223068
 21
1265.507975396485
 31
0.0
  0
LINE
  5
1AD4
330
1D
100
AcDbEntity
  8
0
100
AcDbLine
 10
48.780995223068
 20
1266.716975396485
 30
0.0
 11
49.244295223068
 21
1266.119975396485
 31
0.0
  0
LINE
  5
1AD5
330
1D
100
AcDbEntity
  8
0
100
AcDbLine
 10
52.286195223068
 20
1267.575975396485
 30
0.0
 11
54.240895223068
 21
1265.670975396485
 31
0.0
  0
LINE
  5
1AD6
330
1D
100
AcDbEntity
  8
0
100
AcDbLine
 10
54.701195223068
 20
1261.842975396485
 30
0.0
 11
55.784289936495
 21
1263.133657646774
 31
0.0
  0
LINE
  5
1AD7
330
1D
100
AcDbEntity
  8
0
100
AcDbLine
 10
54.356495223068
 20
1262.131975396485
 30
0.0
 11
54.701195223068
 21
1261.842975396485
 31
0.0
  0
LINE
  5
1AD8
330
1D
100
AcDbEntity
  8
0
100
AcDbLine
 10
53.539795223068
 20
1261.904975396485
 30
0.0
 11
53.795795223068
 21
1261.151975396485
 31
0.0
  0
LINE
  5
1AD9
330
1D
100
AcDbEntity
  8
0
100
AcDbLine
 10
53.552195223068
 20
1262.806975396485
 30
0.0
 11
54.356495223068
 21
1262.131975396485
 31
0.0
  0
LINE
  5
1ADA
330
1D
100
AcDbEntity
  8
0
100
AcDbLine
 10
55.935795223068
 20
1262.986975396485
 30
0.0
 11
56.346095223068
 21
1262.328975396485
 31
0.0
  0
LINE
  5
1ADB
330
1D
100
AcDbEntity
  8
0
100
AcDbLine
 10
55.231095223068
 20
1262.465975396485
 30
0.0
 11
55.993995223068
 21
1262.109975396485
 31
0.0
  0
LINE
  5
1ADC
330
1D
100
AcDbEntity
  8
0
100
AcDbLine
 10
52.403095223068
 20
1263.770975396485
 30
0.0
 11
52.747795223068
 21
1263.481975396485
 31
0.0
  0
LINE
  5
1ADD
330
1D
100
AcDbEntity
  8
0
100
AcDbLine
 10
52.403095223068
 20
1263.770975396485
 30
0.0
 11
53.401056322079
 21
1264.960244200496
 31
0.0
  0
LINE
  5
1ADE
330
1D
100
AcDbEntity
  8
0
100
AcDbLine
 10
52.747795223068
 20
1263.481975396485
 30
0.0
 11
53.552195223068
 21
1262.806975396485
 31
0.0
  0
LINE
  5
1ADF
330
1D
100
AcDbEntity
  8
0
100
AcDbLine
 10
52.578242789648
 20
1263.624129888096
 30
0.0
 11
53.134095223068
 21
1262.735975396485
 31
0.0
  0
LINE
  5
1AE0
330
1D
100
AcDbEntity
  8
0
100
AcDbLine
 10
55.250995223068
 20
1263.649975396485
 30
0.0
 11
55.935795223068
 21
1262.986975396485
 31
0.0
  0
LINE
  5
1AE1
330
1D
100
AcDbEntity
  8
0
100
AcDbLine
 10
54.388695223068
 20
1264.370975396485
 30
0.0
 11
55.250995223068
 21
1263.649975396485
 31
0.0
  0
LINE
  5
1AE2
330
1D
100
AcDbEntity
  8
0
100
AcDbLine
 10
55.932295223068
 20
1264.097975396485
 30
0.0
 11
57.302195223068
 21
1262.725975396485
 31
0.0
  0
LINE
  5
1AE3
330
1D
100
AcDbEntity
  8
0
100
AcDbLine
 10
55.993995223068
 20
1262.109975396485
 30
0.0
 11
56.346095223068
 21
1262.328975396485
 31
0.0
  0
LINE
  5
1AE4
330
1D
100
AcDbEntity
  8
0
100
AcDbLine
 10
53.435595223068
 20
1264.944975396485
 30
0.0
 11
54.388695223068
 21
1264.370975396485
 31
0.0
  0
LINE
  5
1AE5
330
1D
100
AcDbEntity
  8
0
100
AcDbLine
 10
52.797695223068
 20
1265.226975396485
 30
0.0
 11
53.435595223068
 21
1264.944975396485
 31
0.0
  0
LINE
  5
1AE6
330
1D
100
AcDbEntity
  8
0
100
AcDbLine
 10
53.420995223068
 20
1267.001975396485
 30
0.0
 11
54.225018392419
 21
1267.960128649111
 31
0.0
  0
LINE
  5
1AE7
330
1D
100
AcDbEntity
  8
0
100
AcDbLine
 10
53.076195223068
 20
1267.290975396485
 30
0.0
 11
53.420995223068
 21
1267.001975396485
 31
0.0
  0
LINE
  5
1AE8
330
1D
100
AcDbEntity
  8
0
100
AcDbLine
 10
53.568379932454
 20
1267.177613542335
 30
0.0
 11
53.768295223068
 21
1267.064975396485
 31
0.0
  0
LINE
  5
1AE9
330
1D
100
AcDbEntity
  8
0
100
AcDbLine
 10
53.768295223068
 20
1267.064975396485
 30
0.0
 11
54.337995223068
 21
1266.929975396485
 31
0.0
  0
LINE
  5
1AEA
330
1D
100
AcDbEntity
  8
0
100
AcDbLine
 10
54.337995223068
 20
1266.929975396485
 30
0.0
 11
54.606595223068
 21
1267.015975396485
 31
0.0
  0
LINE
  5
1AEB
330
1D
100
AcDbEntity
  8
0
100
AcDbLine
 10
54.240895223068
 20
1265.670975396485
 30
0.0
 11
55.932295223068
 21
1264.097975396485
 31
0.0
  0
LINE
  5
1AEC
330
1D
100
AcDbEntity
  8
0
100
AcDbLine
 10
54.606595223068
 20
1267.015975396485
 30
0.0
 11
54.628795223068
 21
1267.386975396485
 31
0.0
  0
LINE
  5
1AED
330
1D
100
AcDbEntity
  8
0
100
AcDbLine
 10
52.774695223068
 20
1264.474975396485
 30
0.0
 11
52.893003184805
 21
1264.354798008717
 31
0.0
  0
LINE
  5
1AEE
330
1D
100
AcDbEntity
  8
0
100
AcDbLine
 10
52.370295223068
 20
1265.129975396485
 30
0.0
 11
52.774695223068
 21
1264.474975396485
 31
0.0
  0
LINE
  5
1AEF
330
1D
100
AcDbEntity
  8
0
100
AcDbLine
 10
52.370295223068
 20
1265.129975396485
 30
0.0
 11
52.797695223068
 21
1265.226975396485
 31
0.0
  0
LINE
  5
1AF0
330
1D
100
AcDbEntity
  8
0
100
AcDbLine
 10
47.107995223068
 20
1268.145975396485
 30
0.0
 11
47.778195223068
 21
1267.640975396485
 31
0.0
  0
LINE
  5
1AF1
330
1D
100
AcDbEntity
  8
0
100
AcDbLine
 10
48.119895223068
 20
1268.603975396485
 30
0.0
 11
50.504895223068
 21
1266.168975396485
 31
0.0
  0
LINE
  5
1AF2
330
1D
100
AcDbEntity
  8
0
100
AcDbLine
 10
49.918195223068
 20
1272.208975396485
 30
0.0
 11
50.262995223068
 21
1271.919975396485
 31
0.0
  0
LINE
  5
1AF3
330
1D
100
AcDbEntity
  8
0
100
AcDbLine
 10
49.918195223068
 20
1272.208975396485
 30
0.0
 11
51.148266479917
 21
1273.674803932183
 31
0.0
  0
LINE
  5
1AF4
330
1D
100
AcDbEntity
  8
0
100
AcDbLine
 10
50.262995223068
 20
1271.919975396485
 30
0.0
 11
51.067295223068
 21
1271.244975396485
 31
0.0
  0
LINE
  5
1AF5
330
1D
100
AcDbEntity
  8
0
100
AcDbLine
 10
50.271995223068
 20
1273.528975396485
 30
0.0
 11
50.534891370966
 21
1272.943868441429
 31
0.0
  0
LINE
  5
1AF6
330
1D
100
AcDbEntity
  8
0
100
AcDbLine
 10
50.271995223068
 20
1273.528975396485
 30
0.0
 11
50.663195223068
 21
1273.810975396485
 31
0.0
  0
LINE
  5
1AF7
330
1D
100
AcDbEntity
  8
0
100
AcDbLine
 10
49.847695223068
 20
1272.414975396485
 30
0.0
 11
49.989132187573
 21
1272.293508244666
 31
0.0
  0
LINE
  5
1AF8
330
1D
100
AcDbEntity
  8
0
100
AcDbLine
 10
49.847695223068
 20
1272.414975396485
 30
0.0
 11
49.989132187573
 21
1272.293508244666
 31
0.0
  0
LINE
  5
1AF9
330
1D
100
AcDbEntity
  8
0
100
AcDbLine
 10
50.722895223068
 20
1269.712975396485
 30
0.0
 11
51.048095223068
 21
1269.151975396485
 31
0.0
  0
LINE
  5
1AFA
330
1D
100
AcDbEntity
  8
0
100
AcDbLine
 10
51.122795223068
 20
1268.929975396485
 30
0.0
 11
51.467495223068
 21
1268.640975396485
 31
0.0
  0
LINE
  5
1AFB
330
1D
100
AcDbEntity
  8
0
100
AcDbLine
 10
51.122795223068
 20
1268.929975396485
 30
0.0
 11
51.889169177056
 21
1269.84323371751
 31
0.0
  0
LINE
  5
1AFC
330
1D
100
AcDbEntity
  8
0
100
AcDbLine
 10
51.048095223068
 20
1269.151975396485
 30
0.0
 11
51.189841506342
 21
1269.009871869708
 31
0.0
  0
LINE
  5
1AFD
330
1D
100
AcDbEntity
  8
0
100
AcDbLine
 10
50.951095223068
 20
1270.146975396485
 30
0.0
 11
51.473195223068
 21
1270.037975396485
 31
0.0
  0
LINE
  5
1AFE
330
1D
100
AcDbEntity
  8
0
100
AcDbLine
 10
51.067295223068
 20
1271.244975396485
 30
0.0
 11
51.871595223068
 21
1270.569975396485
 31
0.0
  0
LINE
  5
1AFF
330
1D
100
AcDbEntity
  8
0
100
AcDbLine
 10
50.695595223068
 20
1270.025975396485
 30
0.0
 11
50.951095223068
 21
1270.146975396485
 31
0.0
  0
LINE
  5
1B00
330
1D
100
AcDbEntity
  8
0
100
AcDbLine
 10
50.695595223068
 20
1270.025975396485
 30
0.0
 11
50.722895223068
 21
1269.712975396485
 31
0.0
  0
LINE
  5
1B01
330
1D
100
AcDbEntity
  8
0
100
AcDbLine
 10
50.663195223068
 20
1273.810975396485
 30
0.0
 11
51.275895223068
 21
1273.638975396485
 31
0.0
  0
LINE
  5
1B02
330
1D
100
AcDbEntity
  8
0
100
AcDbLine
 10
47.778195223068
 20
1267.640975396485
 30
0.0
 11
48.780995223068
 21
1266.716975396485
 31
0.0
  0
LINE
  5
1B03
330
1D
100
AcDbEntity
  8
0
100
AcDbLine
 10
51.467495223068
 20
1268.640975396485
 30
0.0
 11
52.271895223068
 21
1267.965975396485
 31
0.0
  0
LINE
  5
1B04
330
1D
100
AcDbEntity
  8
0
100
AcDbLine
 10
52.054195223068
 20
1269.765975396485
 30
0.0
 11
52.802595223068
 21
1269.291975396485
 31
0.0
  0
LINE
  5
1B05
330
1D
100
AcDbEntity
  8
0
100
AcDbLine
 10
52.216395223068
 20
1270.280975396485
 30
0.0
 11
53.50073476704
 21
1271.811520980794
 31
0.0
  0
LINE
  5
1B06
330
1D
100
AcDbEntity
  8
0
100
AcDbLine
 10
51.871595223068
 20
1270.569975396485
 30
0.0
 11
52.216395223068
 21
1270.280975396485
 31
0.0
  0
LINE
  5
1B07
330
1D
100
AcDbEntity
  8
0
100
AcDbLine
 10
51.791895223068
 20
1273.379975396485
 30
0.0
 11
52.590695223068
 21
1272.840975396485
 31
0.0
  0
LINE
  5
1B08
330
1D
100
AcDbEntity
  8
0
100
AcDbLine
 10
51.473195223068
 20
1270.037975396485
 30
0.0
 11
52.054195223068
 21
1269.765975396485
 31
0.0
  0
LINE
  5
1B09
330
1D
100
AcDbEntity
  8
0
100
AcDbLine
 10
52.271895223068
 20
1267.965975396485
 30
0.0
 11
53.076195223068
 21
1267.290975396485
 31
0.0
  0
LINE
  5
1B0A
330
1D
100
AcDbEntity
  8
0
100
AcDbLine
 10
52.802595223068
 20
1269.291975396485
 30
0.0
 11
54.063095223068
 21
1268.189975396485
 31
0.0
  0
LINE
  5
1B0B
330
1D
100
AcDbEntity
  8
0
100
AcDbLine
 10
54.063095223068
 20
1268.189975396485
 30
0.0
 11
54.628795223068
 21
1267.386975396485
 31
0.0
  0
LINE
  5
1B0C
330
1D
100
AcDbEntity
  8
0
100
AcDbLine
 10
52.893323091113
 20
1271.087669361641
 30
0.0
 11
53.722395223068
 21
1271.141975396485
 31
0.0
  0
LINE
  5
1B0D
330
1D
100
AcDbEntity
  8
0
100
AcDbLine
 10
53.540995223068
 20
1271.754975396485
 30
0.0
 11
53.722395223068
 21
1271.141975396485
 31
0.0
  0
LINE
  5
1B0E
330
1D
100
AcDbEntity
  8
0
100
AcDbLine
 10
53.256195223068
 20
1272.154975396485
 30
0.0
 11
53.540995223068
 21
1271.754975396485
 31
0.0
  0
LINE
  5
1B0F
330
1D
100
AcDbEntity
  8
0
100
AcDbLine
 10
52.590695223068
 20
1272.840975396485
 30
0.0
 11
53.256195223068
 21
1272.154975396485
 31
0.0
  0
LINE
  5
1B10
330
1D
100
AcDbEntity
  8
0
100
AcDbLine
 10
52.339214480072
 20
1270.427338928121
 30
0.0
 11
59.199611647656
 21
1264.710199364033
 31
0.0
  0
LINE
  5
1B11
330
1D
100
AcDbEntity
  8
0
100
AcDbLine
 10
53.069195223068
 20
1292.257975396485
 30
0.0
 11
57.997252228547
 21
1288.320750612671
 31
0.0
  0
LINE
  5
1B12
330
1D
100
AcDbEntity
  8
0
100
AcDbLine
 10
52.324795223068
 20
1304.278975396485
 30
0.0
 11
60.002595223068
 21
1298.248975396485
 31
0.0
  0
LINE
  5
1B13
330
1D
100
AcDbEntity
  8
0
100
AcDbLine
 10
51.275895223068
 20
1273.638975396485
 30
0.0
 11
51.791895223068
 21
1273.379975396485
 31
0.0
  0
LINE
  5
1B14
330
1D
100
AcDbEntity
  8
0
100
AcDbLine
 10
61.412895223068
 20
1262.646975396485
 30
0.0
 11
62.789412886737
 21
1264.287369513244
 31
0.0
  0
LINE
  5
1B15
330
1D
100
AcDbEntity
  8
0
100
AcDbLine
 10
57.997252228547
 20
1288.320750612671
 30
0.0
 11
58.770495223068
 21
1287.702975396485
 31
0.0
  0
LINE
  5
1B16
330
1D
100
AcDbEntity
  8
0
100
AcDbLine
 10
59.459495223068
 20
1264.285975396485
 30
0.0
 11
60.263795223068
 21
1263.610975396485
 31
0.0
  0
LINE
  5
1B17
330
1D
100
AcDbEntity
  8
0
100
AcDbLine
 10
61.068195223068
 20
1262.935975396485
 30
0.0
 11
61.412895223068
 21
1262.646975396485
 31
0.0
  0
LINE
  5
1B18
330
1D
100
AcDbEntity
  8
0
100
AcDbLine
 10
59.114695223068
 20
1264.574975396485
 30
0.0
 11
59.459495223068
 21
1264.285975396485
 31
0.0
  0
LINE
  5
1B19
330
1D
100
AcDbEntity
  8
0
100
AcDbLine
 10
59.114695223068
 20
1264.574975396485
 30
0.0
 11
60.387194538472
 21
1266.091363815277
 31
0.0
  0
LINE
  5
1B1A
330
1D
100
AcDbEntity
  8
0
100
AcDbLine
 10
59.025595223068
 20
1265.663975396485
 30
0.0
 11
59.521298942534
 21
1265.059509387012
 31
0.0
  0
LINE
  5
1B1B
330
1D
100
AcDbEntity
  8
0
100
AcDbLine
 10
60.473295223068
 20
1266.072975396485
 30
0.0
 11
61.313995223068
 21
1265.590975396485
 31
0.0
  0
LINE
  5
1B1C
330
1D
100
AcDbEntity
  8
0
100
AcDbLine
 10
61.313995223068
 20
1265.590975396485
 30
0.0
 11
61.910895223068
 21
1265.161975396485
 31
0.0
  0
LINE
  5
1B1D
330
1D
100
AcDbEntity
  8
0
100
AcDbLine
 10
60.324526456657
 20
1266.10474776151
 30
0.0
 11
60.378203352054
 21
1266.080649364754
 31
0.0
  0
LINE
  5
1B1E
330
1D
100
AcDbEntity
  8
0
100
AcDbLine
 10
58.770495223068
 20
1287.702975396485
 30
0.0
 11
62.955495223068
 21
1284.409975396485
 31
0.0
  0
LINE
  5
1B1F
330
1D
100
AcDbEntity
  8
0
100
AcDbLine
 10
59.148195223068
 20
1266.355975396485
 30
0.0
 11
60.473295223068
 21
1266.072975396485
 31
0.0
  0
LINE
  5
1B20
330
1D
100
AcDbEntity
  8
0
100
AcDbLine
 10
60.002595223068
 20
1298.248975396485
 30
0.0
 11
67.493095223068
 21
1291.987975396485
 31
0.0
  0
LINE
  5
1B21
330
1D
100
AcDbEntity
  8
0
100
AcDbLine
 10
58.923095223068
 20
1266.121975396485
 30
0.0
 11
59.025595223068
 21
1265.663975396485
 31
0.0
  0
LINE
  5
1B22
330
1D
100
AcDbEntity
  8
0
100
AcDbLine
 10
58.923095223068
 20
1266.121975396485
 30
0.0
 11
59.148195223068
 21
1266.355975396485
 31
0.0
  0
LINE
  5
1B23
330
1D
100
AcDbEntity
  8
0
100
AcDbLine
 10
62.014848446053
 20
1263.364322185132
 30
0.0
 11
62.607695223068
 21
1263.233975396485
 31
0.0
  0
LINE
  5
1B24
330
1D
100
AcDbEntity
  8
0
100
AcDbLine
 10
93.500995223068
 20
1262.302975396485
 30
0.0
 11
95.355095223068
 21
1261.215975396485
 31
0.0
  0
LINE
  5
1B25
330
1D
100
AcDbEntity
  8
0
100
AcDbLine
 10
92.920495223068
 20
1262.643975396485
 30
0.0
 11
93.48586437103
 21
1262.312361520165
 31
0.0
  0
LINE
  5
1B26
330
1D
100
AcDbEntity
  8
0
100
AcDbLine
 10
62.607695223068
 20
1263.233975396485
 30
0.0
 11
63.149995223068
 21
1263.338975396485
 31
0.0
  0
LINE
  5
1B27
330
1D
100
AcDbEntity
  8
0
100
AcDbLine
 10
62.911895223068
 20
1264.145975396485
 30
0.0
 11
63.149995223068
 21
1263.338975396485
 31
0.0
  0
LINE
  5
1B28
330
1D
100
AcDbEntity
  8
0
100
AcDbLine
 10
82.801295223068
 20
1269.439975396485
 30
0.0
 11
85.121195223068
 21
1267.796975396485
 31
0.0
  0
LINE
  5
1B29
330
1D
100
AcDbEntity
  8
0
100
AcDbLine
 10
87.337795223068
 20
1266.265975396485
 30
0.0
 11
89.453195223068
 21
1264.850975396485
 31
0.0
  0
LINE
  5
1B2A
330
1D
100
AcDbEntity
  8
0
100
AcDbLine
 10
85.121195223068
 20
1267.796975396485
 30
0.0
 11
87.337795223068
 21
1266.265975396485
 31
0.0
  0
LINE
  5
1B2B
330
1D
100
AcDbEntity
  8
0
100
AcDbLine
 10
80.405295223068
 20
1271.171975396485
 30
0.0
 11
82.801295223068
 21
1269.439975396485
 31
0.0
  0
LINE
  5
1B2C
330
1D
100
AcDbEntity
  8
0
100
AcDbLine
 10
67.991395223068
 20
1280.507975396485
 30
0.0
 11
73.010395223068
 21
1276.677975396485
 31
0.0
  0
LINE
  5
1B2D
330
1D
100
AcDbEntity
  8
0
100
AcDbLine
 10
78.198795223068
 20
1282.415975396485
 30
0.0
 11
88.612595223068
 21
1272.511975396485
 31
0.0
  0
LINE
  5
1B2E
330
1D
100
AcDbEntity
  8
0
100
AcDbLine
 10
67.493095223068
 20
1291.987975396485
 30
0.0
 11
78.198795223068
 21
1282.415975396485
 31
0.0
  0
LINE
  5
1B2F
330
1D
100
AcDbEntity
  8
0
100
AcDbLine
 10
88.612595223068
 20
1272.511975396485
 30
0.0
 11
103.222095223068
 21
1257.917975396485
 31
0.0
  0
LINE
  5
1B30
330
1D
100
AcDbEntity
  8
0
100
AcDbLine
 10
89.453195223068
 20
1264.850975396485
 30
0.0
 11
91.375295223068
 21
1263.606975396485
 31
0.0
  0
LINE
  5
1B31
330
1D
100
AcDbEntity
  8
0
100
AcDbLine
 10
62.429395223068
 20
1264.702975396485
 30
0.0
 11
62.911895223068
 21
1264.145975396485
 31
0.0
  0
LINE
  5
1B32
330
1D
100
AcDbEntity
  8
0
100
AcDbLine
 10
61.910895223068
 20
1265.161975396485
 30
0.0
 11
62.429395223068
 21
1264.702975396485
 31
0.0
  0
LINE
  5
1B33
330
1D
100
AcDbEntity
  8
0
100
AcDbLine
 10
57.302195223068
 20
1262.725975396485
 30
0.0
 11
59.426095223068
 21
1260.347975396485
 31
0.0
  0
LINE
  5
1B34
330
1D
100
AcDbEntity
  8
0
100
AcDbLine
 10
91.375295223068
 20
1263.606975396485
 30
0.0
 11
92.920495223068
 21
1262.643975396485
 31
0.0
  0
LINE
  5
1B35
330
1D
100
AcDbEntity
  8
0
100
AcDbLine
 10
97.415195223068
 20
1260.038975396485
 30
0.0
 11
100.850808984498
 21
1258.371994195666
 31
0.0
  0
LINE
  5
1B36
330
1D
100
AcDbEntity
  8
0
100
AcDbLine
 10
100.850808984498
 20
1258.371994195666
 30
0.0
 11
103.536095223068
 21
1257.443975396485
 31
0.0
  0
LINE
  5
1B37
330
1D
100
AcDbEntity
  8
0
100
AcDbLine
 10
141.954095223068
 20
1140.605775396485
 30
0.0
 11
143.770559161757
 21
1141.626214111354
 31
0.0
  0
LINE
  5
1B38
330
1D
100
AcDbEntity
  8
0
100
AcDbLine
 10
143.770559161757
 20
1141.626214111354
 30
0.0
 11
163.276022544783
 21
1153.813639092427
 31
0.0
  0
LINE
  5
1B39
330
1D
100
AcDbEntity
  8
0
100
AcDbLine
 10
163.276022544783
 20
1153.813639092427
 30
0.0
 11
164.497095223068
 21
1154.614075396485
 31
0.0
  0
LINE
  5
1B3A
330
1D
100
AcDbEntity
  8
0
100
AcDbLine
 10
101.700362103367
 20
1209.620341737976
 30
0.0
 11
101.583095223068
 21
1210.049975396485
 31
0.0
  0
LINE
  5
1B3B
330
1D
100
AcDbEntity
  8
0
100
AcDbLine
 10
103.275477856813
 20
1207.426693792308
 30
0.0
 11
103.199095223068
 21
1208.303075396485
 31
0.0
  0
LINE
  5
1B3C
330
1D
100
AcDbEntity
  8
0
100
AcDbLine
 10
103.325751208018
 20
1206.396047488076
 30
0.0
 11
103.287095223068
 21
1205.524875396485
 31
0.0
  0
LINE
  5
1B3D
330
1D
100
AcDbEntity
  8
0
100
AcDbLine
 10
97.445895223068
 20
1214.676175396485
 30
0.0
 11
96.029378115222
 21
1217.506562827538
 31
0.0
  0
LINE
  5
1B3E
330
1D
100
AcDbEntity
  8
0
100
AcDbLine
 10
96.029378115222
 20
1217.506562827538
 30
0.0
 11
94.473875978786
 21
1220.088696374021
 31
0.0
  0
LINE
  5
1B3F
330
1D
100
AcDbEntity
  8
0
100
AcDbLine
 10
91.728895223068
 20
1223.837375396485
 30
0.0
 11
93.444427325399
 21
1221.382605022916
 31
0.0
  0
LINE
  5
1B40
330
1D
100
AcDbEntity
  8
0
100
AcDbLine
 10
93.444427325399
 20
1221.382605022916
 30
0.0
 11
94.473875978786
 21
1220.088696374021
 31
0.0
  0
LINE
  5
1B41
330
1D
100
AcDbEntity
  8
0
100
AcDbLine
 10
87.566595223068
 20
1231.349275396485
 30
0.0
 11
87.700595223068
 21
1231.286275396485
 31
0.0
  0
LINE
  5
1B42
330
1D
100
AcDbEntity
  8
0
100
AcDbLine
 10
87.855346874082
 20
1231.209618868161
 30
0.0
 11
88.010376326524
 21
1231.131891189395
 31
0.0
  0
LINE
  5
1B43
330
1D
100
AcDbEntity
  8
0
100
AcDbLine
 10
88.049895223068
 20
1231.069275396485
 30
0.0
 11
88.010376326524
 21
1231.131891189395
 31
0.0
  0
LINE
  5
1B44
330
1D
100
AcDbEntity
  8
0
100
AcDbLine
 10
88.466864531365
 20
1230.85610738139
 30
0.0
 11
88.705222627674
 21
1230.6928794277
 31
0.0
  0
LINE
  5
1B45
330
1D
100
AcDbEntity
  8
0
100
AcDbLine
 10
89.058911184763
 20
1230.443716060329
 30
0.0
 11
89.275295223068
 21
1230.265075396485
 31
0.0
  0
LINE
  5
1B46
330
1D
100
AcDbEntity
  8
0
100
AcDbLine
 10
89.460227639218
 20
1230.118261304592
 30
0.0
 11
89.560795223068
 21
1230.040475396485
 31
0.0
  0
LINE
  5
1B47
330
1D
100
AcDbEntity
  8
0
100
AcDbLine
 10
101.794375822022
 20
1213.010069558056
 30
0.0
 11
102.154095223068
 21
1212.166475396485
 31
0.0
  0
LINE
  5
1B48
330
1D
100
AcDbEntity
  8
0
100
AcDbLine
 10
101.198813391557
 20
1214.32889212963
 30
0.0
 11
99.919295223068
 21
1216.715675396485
 31
0.0
  0
LINE
  5
1B49
330
1D
100
AcDbEntity
  8
0
100
AcDbLine
 10
82.453095223068
 20
1236.889975396485
 30
0.0
 11
82.443095223068
 21
1236.917975396485
 31
0.0
  0
LINE
  5
1B4A
330
1D
100
AcDbEntity
  8
0
100
AcDbLine
 10
82.443095223068
 20
1236.917975396485
 30
0.0
 11
82.66515629301
 21
1238.465142254263
 31
0.0
  0
LINE
  5
1B4B
330
1D
100
AcDbEntity
  8
0
100
AcDbLine
 10
82.66515629301
 20
1238.465142254263
 30
0.0
 11
83.025355151784
 21
1241.149542894831
 31
0.0
  0
LINE
  5
1B4C
330
1D
100
AcDbEntity
  8
0
100
AcDbLine
 10
83.025355151784
 20
1241.149542894831
 30
0.0
 11
83.176910472732
 21
1243.154736371985
 31
0.0
  0
LINE
  5
1B4D
330
1D
100
AcDbEntity
  8
0
100
AcDbLine
 10
83.176910472732
 20
1243.154736371985
 30
0.0
 11
83.193122553575
 21
1244.115038291661
 31
0.0
  0
LINE
  5
1B4E
330
1D
100
AcDbEntity
  8
0
100
AcDbLine
 10
83.193122553575
 20
1244.115038291661
 30
0.0
 11
83.099321719548
 21
1245.443883440377
 31
0.0
  0
LINE
  5
1B4F
330
1D
100
AcDbEntity
  8
0
100
AcDbLine
 10
83.099321719548
 20
1245.443883440377
 30
0.0
 11
82.896086579156
 21
1246.757095116754
 31
0.0
  0
LINE
  5
1B50
330
1D
100
AcDbEntity
  8
0
100
AcDbLine
 10
82.896086579156
 20
1246.757095116754
 30
0.0
 11
82.411448936683
 21
1248.22664151651
 31
0.0
  0
LINE
  5
1B51
330
1D
100
AcDbEntity
  8
0
100
AcDbLine
 10
82.411448936683
 20
1248.22664151651
 30
0.0
 11
81.911177821873
 21
1249.336618052496
 31
0.0
  0
LINE
  5
1B52
330
1D
100
AcDbEntity
  8
0
100
AcDbLine
 10
81.911177821873
 20
1249.336618052496
 30
0.0
 11
81.332739345373
 21
1250.399694171469
 31
0.0
  0
LINE
  5
1B53
330
1D
100
AcDbEntity
  8
0
100
AcDbLine
 10
81.332739345373
 20
1250.399694171469
 30
0.0
 11
80.535432256144
 21
1251.509670707455
 31
0.0
  0
LINE
  5
1B54
330
1D
100
AcDbEntity
  8
0
100
AcDbLine
 10
80.535432256144
 20
1251.509670707455
 30
0.0
 11
79.91009336263
 21
1252.353878213698
 31
0.0
  0
LINE
  5
1B55
330
1D
100
AcDbEntity
  8
0
100
AcDbLine
 10
79.91009336263
 20
1252.353878213698
 30
0.0
 11
78.640719853867
 21
1253.808537795455
 31
0.0
  0
LINE
  5
1B56
330
1D
100
AcDbEntity
  8
0
100
AcDbLine
 10
78.640719853867
 20
1253.808537795455
 30
0.0
 11
77.244142562784
 21
1255.17925254411
 31
0.0
  0
LINE
  5
1B57
330
1D
100
AcDbEntity
  8
0
100
AcDbLine
 10
77.244142562784
 20
1255.17925254411
 30
0.0
 11
75.563077304999
 21
1256.70514254733
 31
0.0
  0
LINE
  5
1B58
330
1D
100
AcDbEntity
  8
0
100
AcDbLine
 10
75.563077304999
 20
1256.70514254733
 30
0.0
 11
73.700974250222
 21
1258.33448272026
 31
0.0
  0
LINE
  5
1B59
330
1D
100
AcDbEntity
  8
0
100
AcDbLine
 10
73.700974250222
 20
1258.33448272026
 30
0.0
 11
67.994012694848
 21
1263.272665608663
 31
0.0
  0
LINE
  5
1B5A
330
1D
100
AcDbEntity
  8
0
100
AcDbLine
 10
67.994012694848
 20
1263.272665608663
 30
0.0
 11
62.393514916472
 21
1267.824941877717
 31
0.0
  0
LINE
  5
1B5B
330
1D
100
AcDbEntity
  8
0
100
AcDbLine
 10
62.393514916472
 20
1267.824941877717
 30
0.0
 11
54.71315942334
 21
1274.394300058048
 31
0.0
  0
LINE
  5
1B5C
330
1D
100
AcDbEntity
  8
0
100
AcDbLine
 10
54.71315942334
 20
1274.394300058048
 30
0.0
 11
50.811482079187
 21
1277.775753756315
 31
0.0
  0
LINE
  5
1B5D
330
1D
100
AcDbEntity
  8
0
100
AcDbLine
 10
50.811482079187
 20
1277.775753756315
 30
0.0
 11
44.507262409294
 21
1283.165023077872
 31
0.0
  0
LINE
  5
1B5E
330
1D
100
AcDbEntity
  8
0
100
AcDbLine
 10
44.507262409294
 20
1283.165023077872
 30
0.0
 11
32.232401482269
 21
1293.632954632356
 31
0.0
  0
LINE
  5
1B5F
330
1D
100
AcDbEntity
  8
0
100
AcDbLine
 10
32.232401482269
 20
1293.632954632356
 30
0.0
 11
27.21885317971
 21
1297.865170731919
 31
0.0
  0
LINE
  5
1B60
330
1D
100
AcDbEntity
  8
0
100
AcDbLine
 10
27.21885317971
 20
1297.865170731919
 30
0.0
 11
16.949101411519
 21
1306.960604208332
 31
0.0
  0
LINE
  5
1B61
330
1D
100
AcDbEntity
  8
0
100
AcDbLine
 10
16.949101411519
 20
1306.960604208332
 30
0.0
 11
5.602184041255
 21
1316.352478383044
 31
0.0
  0
LINE
  5
1B62
330
1D
100
AcDbEntity
  8
0
100
AcDbLine
 10
5.602184041255
 20
1316.352478383044
 30
0.0
 11
0.563519251438
 21
1320.164384463583
 31
0.0
  0
LINE
  5
1B63
330
1D
100
AcDbEntity
  8
0
100
AcDbLine
 10
68.009708217227
 20
1280.485697245374
 30
0.0
 11
62.955495223069
 21
1284.409975396484
 31
0.0
  0
LINE
  5
1B64
330
1D
100
AcDbEntity
  8
0
100
AcDbLine
 10
6.343685223068
 20
1331.770975396485
 30
0.0
 11
11.446807812075
 21
1327.312402479178
 31
0.0
  0
LINE
  5
1B65
330
1D
100
AcDbEntity
  8
0
100
AcDbLine
 10
11.446807812075
 20
1327.312402479178
 30
0.0
 11
15.408807900016
 21
1324.051371637564
 31
0.0
  0
LINE
  5
1B66
330
1D
100
AcDbEntity
  8
0
100
AcDbLine
 10
15.408807900016
 20
1324.051371637564
 30
0.0
 11
39.356097109505
 21
1304.204360656392
 31
0.0
  0
LINE
  5
1B67
330
1D
100
AcDbEntity
  8
0
100
AcDbLine
 10
39.356097109505
 20
1304.204360656392
 30
0.0
 11
53.069195223068
 21
1292.257975396485
 31
0.0
  0
LINE
  5
1B68
330
1D
100
AcDbEntity
  8
0
100
AcDbLine
 10
73.010395223068
 20
1276.677975396485
 30
0.0
 11
80.405295223068
 21
1271.171975396485
 31
0.0
  0
LINE
  5
1B69
330
1D
100
AcDbEntity
  8
0
100
AcDbLine
 10
82.179695223068
 20
1237.217975396485
 30
0.0
 11
82.443095223068
 21
1236.917975396485
 31
0.0
  0
LINE
  5
1B6A
330
1D
100
AcDbEntity
  8
0
100
AcDbLine
 10
3.648255223068
 20
1314.320975396485
 30
0.0
 11
4.062665223068
 21
1313.551975396485
 31
0.0
  0
LINE
  5
1B6B
330
1D
100
AcDbEntity
  8
0
100
AcDbLine
 10
72.221695223068
 20
1245.298975396485
 30
0.0
 11
72.361269988307
 21
1247.316305169989
 31
0.0
  0
LINE
  5
1B6C
330
1D
100
AcDbEntity
  8
0
100
AcDbLine
 10
72.361269988307
 20
1247.316305169989
 30
0.0
 11
72.145232561125
 21
1248.92827674204
 31
0.0
  0
LINE
  5
1B6D
330
1D
100
AcDbEntity
  8
0
100
AcDbLine
 10
72.145232561125
 20
1248.92827674204
 30
0.0
 11
71.580211597726
 21
1250.82275879579
 31
0.0
  0
LINE
  5
1B6E
330
1D
100
AcDbEntity
  8
0
100
AcDbLine
 10
71.580211597726
 20
1250.82275879579
 30
0.0
 11
70.317223561892
 21
1253.049606122128
 31
0.0
  0
LINE
  5
1B6F
330
1D
100
AcDbEntity
  8
0
100
AcDbLine
 10
70.317223561892
 20
1253.049606122128
 30
0.0
 11
69.00867037638
 21
1254.963185271379
 31
0.0
  0
LINE
  5
1B70
330
1D
100
AcDbEntity
  8
0
100
AcDbLine
 10
69.00867037638
 20
1254.963185271379
 30
0.0
 11
67.977896576287
 21
1256.21363217641
 31
0.0
  0
LINE
  5
1B71
330
1D
100
AcDbEntity
  8
0
100
AcDbLine
 10
67.977896576287
 20
1256.21363217641
 30
0.0
 11
66.440184841721
 21
1257.903425291318
 31
0.0
  0
LINE
  5
1B72
330
1D
100
AcDbEntity
  8
0
100
AcDbLine
 10
66.440184841721
 20
1257.903425291318
 30
0.0
 11
65.625639946763
 21
1258.749779610451
 31
0.0
  0
LINE
  5
1B73
330
1D
100
AcDbEntity
  8
0
100
AcDbLine
 10
65.625639946763
 20
1258.749779610451
 30
0.0
 11
61.412895223068
 21
1262.646975396485
 31
0.0
  0
LINE
  5
1B74
330
1D
100
AcDbEntity
  8
0
100
AcDbLine
 10
61.412895223068
 20
1262.646975396485
 30
0.0
 11
60.263795223068
 21
1263.610975396485
 31
0.0
  0
LINE
  5
1B75
330
1D
100
AcDbEntity
  8
0
100
AcDbLine
 10
62.887395223068
 20
1253.431975396485
 30
0.0
 11
62.769195223068
 21
1254.247975396485
 31
0.0
  0
LINE
  5
1B76
330
1D
100
AcDbEntity
  8
0
100
AcDbLine
 10
66.018195223068
 20
1253.165975396485
 30
0.0
 11
64.873699317824
 21
1254.13546352213
 31
0.0
  0
LINE
  5
1B77
330
1D
100
AcDbEntity
  8
0
100
AcDbLine
 10
64.977798006079
 20
1254.050469705743
 30
0.0
 11
65.560721765961
 21
1254.670647991632
 31
0.0
  0
LINE
  5
1B78
330
1D
100
AcDbEntity
  8
0
100
AcDbLine
 10
52.288261642226
 20
1267.574709146021
 30
0.0
 11
49.940959231315
 21
1269.859016669631
 31
0.0
  0
LINE
  5
1B79
330
1D
100
AcDbEntity
  8
0
100
AcDbLine
 10
49.940959231315
 20
1269.859016669631
 30
0.0
 11
47.18113889169
 21
1272.128962222098
 31
0.0
  0
LINE
  5
1B7A
330
1D
100
AcDbEntity
  8
0
100
AcDbLine
 10
32.153499277343
 20
1288.030240678736
 30
0.0
 11
25.40855957199
 21
1293.827158904765
 31
0.0
  0
LINE
  5
1B7B
330
1D
100
AcDbEntity
  8
0
100
AcDbLine
 10
7.579165223068
 20
1307.311975396485
 30
0.0
 11
9.472519596554
 21
1306.410717702257
 31
0.0
  0
LINE
  5
1B7C
330
1D
100
AcDbEntity
  8
0
100
AcDbLine
 10
9.472519596554
 20
1306.410717702257
 30
0.0
 11
10.450175223068
 21
1305.885975396485
 31
0.0
  0
LINE
  5
1B7D
330
1D
100
AcDbEntity
  8
0
100
AcDbLine
 10
53.539795223068
 20
1261.904975396485
 30
0.0
 11
53.134095223068
 21
1262.735975396485
 31
0.0
  0
LINE
  5
1B7E
330
1D
100
AcDbEntity
  8
0
100
AcDbLine
 10
38.772395223068
 20
1271.824975396485
 30
0.0
 11
38.338595223068
 21
1272.166975396485
 31
0.0
  0
LINE
  5
1B7F
330
1D
100
AcDbEntity
  8
0
100
AcDbLine
 10
35.872395223068
 20
1274.563975396485
 30
0.0
 11
35.459995223068
 21
1275.009975396485
 31
0.0
  0
LINE
  5
1B80
330
1D
100
AcDbEntity
  8
0
100
AcDbLine
 10
35.459995223068
 20
1275.009975396485
 30
0.0
 11
35.441895223068
 21
1275.272975396485
 31
0.0
  0
LWPOLYLINE
  5
1B81
330
1D
100
AcDbEntity
  8
0
100
AcDbPolyline
 90
        2
 70
     0
 43
0.0
 10
36.313695223068
 20
1274.046975396485
 10
36.750995223068
 20
1273.623975396485
  0
LWPOLYLINE
  5
1B82
330
1D
100
AcDbEntity
  8
0
100
AcDbPolyline
 90
        2
 70
     0
 43
0.0
 10
36.967918049377
 20
1273.414606632485
 10
37.362095223068
 20
1272.999975396485
  0
LINE
  5
1B83
330
1D
100
AcDbEntity
  8
0
100
AcDbLine
 10
33.822982219237
 20
1276.79006332834
 30
0.0
 11
35.091895223068
 21
1275.655975396485
 31
0.0
  0
LINE
  5
1B84
330
1D
100
AcDbEntity
  8
0
100
AcDbLine
 10
41.06393266591
 20
1270.182406496097
 30
0.0
 11
39.063739027814
 21
1271.996599489046
 31
0.0
  0
LINE
  5
1B85
330
1D
100
AcDbEntity
  8
0
100
AcDbLine
 10
36.952395223068
 20
1281.114975396485
 30
0.0
 11
30.630395223068
 21
1286.411975396485
 31
0.0
  0
LINE
  5
1B86
330
1D
100
AcDbEntity
  8
0
100
AcDbLine
 10
15.297195223068
 20
1297.588975396485
 30
0.0
 11
14.751895223068
 21
1297.671975396485
 31
0.0
  0
LINE
  5
1B87
330
1D
100
AcDbEntity
  8
0
100
AcDbLine
 10
23.861395223068
 20
1288.553975396485
 30
0.0
 11
22.982144374352
 21
1288.811090289091
 31
0.0
  0
LINE
  5
1B88
330
1D
100
AcDbEntity
  8
0
100
AcDbLine
 10
22.982144374352
 20
1288.811090289091
 30
0.0
 11
22.262495223068
 21
1288.939975396485
 31
0.0
  0
LINE
  5
1B89
330
1D
100
AcDbEntity
  8
0
100
AcDbLine
 10
30.739795223068
 20
1280.761975396485
 30
0.0
 11
29.920595223068
 21
1280.802975396485
 31
0.0
  0
ENDSEC
  0
SECTION
  2
OBJECTS
  0
DICTIONARY
  5
C
330
0
100
AcDbDictionary
281
     1
  3
ACAD_GROUP
350
D
  3
ACAD_LAYOUT
350
1A
  3
ACAD_MLEADERSTYLE
350
1B8C
  3
ACAD_MLINESTYLE
350
17
  3
ACAD_PLOTSETTINGS
350
19
  3
ACAD_PLOTSTYLENAME
350
E
  3
ACAD_SCALELIST
350
E84
  3
AcDbVariableDictionary
350
1B8A
  3
DWGPROPS
350
1B8F
  0
DICTIONARY
  5
D
102
{ACAD_REACTORS
330
C
102
}
330
C
100
AcDbDictionary
281
     1
  0
DICTIONARY
  5
1A
102
{ACAD_REACTORS
330
C
102
}
330
C
100
AcDbDictionary
281
     1
  3
Layout1
350
1C
  3
Model
350
1E
  0
DICTIONARY
  5
1B8C
102
{ACAD_REACTORS
330
C
102
}
330
C
100
AcDbDictionary
281
     1
  0
DICTIONARY
  5
17
102
{ACAD_REACTORS
330
C
102
}
330
C
100
AcDbDictionary
281
     1
  3
Standard
350
18
  0
DICTIONARY
  5
19
102
{ACAD_REACTORS
330
C
102
}
330
C
100
AcDbDictionary
281
     1
  0
ACDBDICTIONARYWDFLT
  5
E
102
{ACAD_REACTORS
330
C
102
}
330
C
100
AcDbDictionary
281
     1
  3
Normal
350
F
100
AcDbDictionaryWithDefault
340
F
  0
DICTIONARY
  5
E84
102
{ACAD_REACTORS
330
C
102
}
330
C
100
AcDbDictionary
281
     1
  3
A0
350
E85
  3
A1
350
E86
  3
A2
350
E87
  3
A3
350
E88
  3
A4
350
E89
  3
A5
350
E8A
  3
A6
350
E8B
  3
A7
350
E8C
  3
A8
350
E8D
  3
A9
350
E8E
  3
B0
350
E8F
  3
B1
350
E90
  3
B2
350
E91
  3
B3
350
E92
  3
B4
350
E93
  3
B5
350
E94
  3
B6
350
E95
  3
B7
350
E96
  3
B8
350
E97
  3
B9
350
E98
  3
C0
350
E99
  3
C1
350
E9A
  3
C2
350
E9B
  3
C3
350
E9C
  3
C4
350
E9D
  3
C5
350
E9E
  3
C6
350
E9F
  3
C7
350
EA0
  3
C8
350
EA1
  3
C9
350
EA2
  3
D0
350
EA3
  3
D1
350
EA4
  3
D2
350
EA5
  0
DICTIONARY
  5
1B8A
102
{ACAD_REACTORS
330
C
102
}
330
C
100
AcDbDictionary
281
     1
  3
CANNOSCALE
350
1B8D
  0
XRECORD
  5
1B8F
102
{ACAD_REACTORS
330
C
102
}
330
C
100
AcDbXrecord
280
     1
  1
DWGPROPS COOKIE
  2

  3

  4

  6

  7

  8
MARTIN
  9

300
=
301
=
302
=
303
=
304
=
305
=
306
=
307
=
308
=
309
=
 40
0.0
 41
2456462.658287037
 42
2456462.660805845
  1

 90
        0
  0
LAYOUT
  5
1C
102
{ACAD_REACTORS
330
1A
102
}
330
1A
100
AcDbPlotSettings
  1

  2
none_device
  4

  6

 40
0.0
 41
0.0
 42
0.0
 43
0.0
 44
0.0
 45
0.0
 46
0.0
 47
0.0
 48
0.0
 49
0.0
140
0.0
141
0.0
142
1.0
143
1.0
 70
   688
 72
     0
 73
     0
 74
     5
  7

 75
    16
147
1.0
148
0.0
149
0.0
100
AcDbLayout
  1
Layout1
 70
     1
 71
     1
 10
0.0
 20
0.0
 11
12.0
 21
9.0
 12
0.0
 22
0.0
 32
0.0
 14
1.000000000000E+20
 24
1.000000000000E+20
 34
1.000000000000E+20
 15
-1.000000000000E+20
 25
-1.000000000000E+20
 35
-1.000000000000E+20
146
0.0
 13
0.0
 23
0.0
 33
0.0
 16
1.0
 26
0.0
 36
0.0
 17
0.0
 27
1.0
 37
0.0
 76
     0
330
1B
  0
LAYOUT
  5
1E
102
{ACAD_REACTORS
330
1A
102
}
330
1A
100
AcDbPlotSettings
  1

  2
none_device
  4

  6

 40
0.0
 41
0.0
 42
0.0
 43
0.0
 44
0.0
 45
0.0
 46
0.0
 47
0.0
 48
0.0
 49
0.0
140
0.0
141
0.0
142
1.0
143
1.0
 70
  1712
 72
     0
 73
     0
 74
     0
  7

 75
     0
147
1.0
148
0.0
149
0.0
100
AcDbLayout
  1
Model
 70
     1
 71
     0
 10
0.0
 20
0.0
 11
12.0
 21
9.0
 12
0.0
 22
0.0
 32
0.0
 14
0.364212223068
 24
-0.1305
 34
0.0
 15
208.8217
 25
1403.1305
 35
0.0
146
0.0
 13
0.0
 23
0.0
 33
0.0
 16
1.0
 26
0.0
 36
0.0
 17
0.0
 27
1.0
 37
0.0
 76
     0
330
1D
331
E7F
  0
MLINESTYLE
  5
18
102
{ACAD_REACTORS
330
17
102
}
330
17
100
AcDbMlineStyle
  2
Standard
 70
     0
  3

 62
   256
 51
90.0
 52
90.0
 71
     2
 49
0.5
 62
   256
  6
BYLAYER
 49
-0.5
 62
   256
  6
BYLAYER
  0
ACDBPLACEHOLDER
  5
F
102
{ACAD_REACTORS
330
E
102
}
330
E
  0
SCALE
  5
E85
102
{ACAD_REACTORS
330
E84
102
}
330
E84
100
AcDbScale
 70
     0
300
1:1
140
1.0
141
1.0
290
     1
  0
SCALE
  5
E86
102
{ACAD_REACTORS
330
E84
102
}
330
E84
100
AcDbScale
 70
     0
300
1:2
140
1.0
141
2.0
290
     0
  0
SCALE
  5
E87
102
{ACAD_REACTORS
330
E84
102
}
330
E84
100
AcDbScale
 70
     0
300
1:4
140
1.0
141
4.0
290
     0
  0
SCALE
  5
E88
102
{ACAD_REACTORS
330
E84
102
}
330
E84
100
AcDbScale
 70
     0
300
1:5
140
1.0
141
5.0
290
     0
  0
SCALE
  5
E89
102
{ACAD_REACTORS
330
E84
102
}
330
E84
100
AcDbScale
 70
     0
300
1:8
140
1.0
141
8.0
290
     0
  0
SCALE
  5
E8A
102
{ACAD_REACTORS
330
E84
102
}
330
E84
100
AcDbScale
 70
     0
300
1:10
140
1.0
141
10.0
290
     0
  0
SCALE
  5
E8B
102
{ACAD_REACTORS
330
E84
102
}
330
E84
100
AcDbScale
 70
     0
300
1:16
140
1.0
141
16.0
290
     0
  0
SCALE
  5
E8C
102
{ACAD_REACTORS
330
E84
102
}
330
E84
100
AcDbScale
 70
     0
300
1:20
140
1.0
141
20.0
290
     0
  0
SCALE
  5
E8D
102
{ACAD_REACTORS
330
E84
102
}
330
E84
100
AcDbScale
 70
     0
300
1:30
140
1.0
141
30.0
290
     0
  0
SCALE
  5
E8E
102
{ACAD_REACTORS
330
E84
102
}
330
E84
100
AcDbScale
 70
     0
300
1:40
140
1.0
141
40.0
290
     0
  0
SCALE
  5
E8F
102
{ACAD_REACTORS
330
E84
102
}
330
E84
100
AcDbScale
 70
     0
300
1:50
140
1.0
141
50.0
290
     0
  0
SCALE
  5
E90
102
{ACAD_REACTORS
330
E84
102
}
330
E84
100
AcDbScale
 70
     0
300
1:100
140
1.0
141
100.0
290
     0
  0
SCALE
  5
E91
102
{ACAD_REACTORS
330
E84
102
}
330
E84
100
AcDbScale
 70
     0
300
2:1
140
2.0
141
1.0
290
     0
  0
SCALE
  5
E92
102
{ACAD_REACTORS
330
E84
102
}
330
E84
100
AcDbScale
 70
     0
300
4:1
140
4.0
141
1.0
290
     0
  0
SCALE
  5
E93
102
{ACAD_REACTORS
330
E84
102
}
330
E84
100
AcDbScale
 70
     0
300
8:1
140
8.0
141
1.0
290
     0
  0
SCALE
  5
E94
102
{ACAD_REACTORS
330
E84
102
}
330
E84
100
AcDbScale
 70
     0
300
10:1
140
10.0
141
1.0
290
     0
  0
SCALE
  5
E95
102
{ACAD_REACTORS
330
E84
102
}
330
E84
100
AcDbScale
 70
     0
300
100:1
140
100.0
141
1.0
290
     0
  0
SCALE
  5
E96
102
{ACAD_REACTORS
330
E84
102
}
330
E84
100
AcDbScale
 70
     0
300
1/128" = 1'-0"
140
0.0078125
141
12.0
290
     0
  0
SCALE
  5
E97
102
{ACAD_REACTORS
330
E84
102
}
330
E84
100
AcDbScale
 70
     0
300
1/64" = 1'-0"
140
0.015625
141
12.0
290
     0
  0
SCALE
  5
E98
102
{ACAD_REACTORS
330
E84
102
}
330
E84
100
AcDbScale
 70
     0
300
1/32" = 1'-0"
140
0.03125
141
12.0
290
     0
  0
SCALE
  5
E99
102
{ACAD_REACTORS
330
E84
102
}
330
E84
100
AcDbScale
 70
     0
300
1/16" = 1'-0"
140
0.0625
141
12.0
290
     0
  0
SCALE
  5
E9A
102
{ACAD_REACTORS
330
E84
102
}
330
E84
100
AcDbScale
 70
     0
300
3/32" = 1'-0"
140
0.09375
141
12.0
290
     0
  0
SCALE
  5
E9B
102
{ACAD_REACTORS
330
E84
102
}
330
E84
100
AcDbScale
 70
     0
300
1/8" = 1'-0"
140
0.125
141
12.0
290
     0
  0
SCALE
  5
E9C
102
{ACAD_REACTORS
330
E84
102
}
330
E84
100
AcDbScale
 70
     0
300
3/16" = 1'-0"
140
0.1875
141
12.0
290
     0
  0
SCALE
  5
E9D
102
{ACAD_REACTORS
330
E84
102
}
330
E84
100
AcDbScale
 70
     0
300
1/4" = 1'-0"
140
0.25
141
12.0
290
     0
  0
SCALE
  5
E9E
102
{ACAD_REACTORS
330
E84
102
}
330
E84
100
AcDbScale
 70
     0
300
3/8" = 1'-0"
140
0.375
141
12.0
290
     0
  0
SCALE
  5
E9F
102
{ACAD_REACTORS
330
E84
102
}
330
E84
100
AcDbScale
 70
     0
300
1/2" = 1'-0"
140
0.5
141
12.0
290
     0
  0
SCALE
  5
EA0
102
{ACAD_REACTORS
330
E84
102
}
330
E84
100
AcDbScale
 70
     0
300
3/4" = 1'-0"
140
0.75
141
12.0
290
     0
  0
SCALE
  5
EA1
102
{ACAD_REACTORS
330
E84
102
}
330
E84
100
AcDbScale
 70
     0
300
1" = 1'-0"
140
1.0
141
12.0
290
     0
  0
SCALE
  5
EA2
102
{ACAD_REACTORS
330
E84
102
}
330
E84
100
AcDbScale
 70
     0
300
1-1/2" = 1'-0"
140
1.5
141
12.0
290
     0
  0
SCALE
  5
EA3
102
{ACAD_REACTORS
330
E84
102
}
330
E84
100
AcDbScale
 70
     0
300
3" = 1'-0"
140
3.0
141
12.0
290
     0
  0
SCALE
  5
EA4
102
{ACAD_REACTORS
330
E84
102
}
330
E84
100
AcDbScale
 70
     0
300
6" = 1'-0"
140
6.0
141
12.0
290
     0
  0
SCALE
  5
EA5
102
{ACAD_REACTORS
330
E84
102
}
330
E84
100
AcDbScale
 70
     0
300
1'-0" = 1'-0"
140
12.0
141
12.0
290
     0
  0
DICTIONARYVAR
  5
1B8D
102
{ACAD_REACTORS
330
1B8A
102
}
330
1B8A
100
DictionaryVariables
280
     0
  1
1:1
  0
ENDSEC
  0
SECTION
  2
THUMBNAILIMAGE
 90
    16364
310
28000000B40000005500000001000800000000000000000000000000000000000000000000000000FFFFFF000000FF0000FFFF0000FF0000FFFF0000FF000000FF00FF000000000080808000C0C0C0000000FF007F7FFF000000A5005252A50000007F003F3F7F0000004C0026264C000000260013132600003FFF007F9FFF
310
000029A5005267A500001F7F003F4F7F0000134C00262F4C000009260013172600007FFF007FBFFF000052A500527CA500003F7F003F5F7F0000264C0026394C0000132600131C260000BFFF007FDFFF00007CA5005291A500005F7F003F6F7F0000394C0026424C00001C26001321260000FFFF007FFFFF0000A5A50052A5
310
A500007F7F003F7F7F00004C4C00264C4C00002626001326260000FFBF007FFFDF0000A57C0052A59100007F5F003F7F6F00004C3900264C420000261C001326210000FF7F007FFFBF0000A5520052A57C00007F3F003F7F5F00004C2600264C39000026130013261C0000FF3F007FFF9F0000A5290052A56700007F1F003F
310
7F4F00004C1300264C2F00002609001326170000FF00007FFF7F0000A5000052A55200007F00003F7F3F00004C0000264C260000260000132613003FFF00009FFF7F0029A5000067A552001F7F00004F7F3F00134C00002F4C260009260000172613007FFF0000BFFF7F0052A500007CA552003F7F00005F7F3F00264C0000
310
394C2600132600001C261300BFFF0000DFFF7F007CA5000091A552005F7F00006F7F3F00394C0000424C26001C26000021261300FFFF0000FFFF7F00A5A50000A5A552007F7F00007F7F3F004C4C00004C4C26002626000026261300FFBF0000FFDF7F00A57C0000A59152007F5F00007F6F3F004C3900004C422600261C00
310
0026211300FF7F0000FFBF7F00A5520000A57C52007F3F00007F5F3F004C2600004C39260026130000261C1300FF3F0000FF9F7F00A5290000A56752007F1F00007F4F3F004C1300004C2F26002609000026171300FF000000FF7F7F00A5000000A55252007F0000007F3F3F004C0000004C2626002600000026131300FF00
310
3F00FF7F9F00A5002900A55267007F001F007F3F4F004C0013004C262F002600090026131700FF007F00FF7FBF00A5005200A5527C007F003F007F3F5F004C0026004C2639002600130026131C00FF00BF00FF7FDF00A5007C00A55291007F005F007F3F6F004C0039004C26420026001C0026132100FF00FF00FF7FFF00A5
310
00A500A552A5007F007F007F3F7F004C004C004C264C002600260026132600BF00FF00DF7FFF007C00A5009152A5005F007F006F3F7F0039004C0042264C001C002600211326007F00FF00BF7FFF005200A5007C52A5003F007F005F3F7F0026004C0039264C00130026001C1326003F00FF009F7FFF002900A5006752A500
310
1F007F004F3F7F0013004C002F264C000900260017132600000000002D2D2D005B5B5B0089898900B7B7B700B3B3B30000000000000000000000000000000000000000000000000000000000000000000000000000000000000000000000000000000000000000000000000000000000000000000000000000000000000000
310
00000000000000000000000000070700000000000000000000000000000000000000000000000000000000000000000000000000000000000000000000000000000000000000000000000000000000000000000000000000000000000000000000000000000000000000000000000000000000000000000000000000000000
310
00000000000000000000000000000000000000000000000000000000000000000000000000000000000000000000000000000000000000000000000000000000000007070000000000000000000000000000000000000000000000000000000000000000000000000000000000000000000000000000000000000000000000
310
00000000000000000000000000000000000000000000000000000000000000000000000000000000000000000000000000000000000000000000000000000000000000000000000000000000000000000000000000000000000000000000000000000000000000000000000000000000000000000000000707000000000000
310
00000000000000000000000000000000000000000000000000000000000000000000000000000000000000000000000000000000000000000000000000000000000000000000000000000000000000000000000000000000000000000000000000000000000000000000000000000000000000000000000000000000000000
310
00000000000000000000000000000000000000000000000000000000000000000000000000000000000000000007070000000000000000000000000000000000000000000000000000000000000000000000000000000000000000000000000000000000000000000000000000000000000000000000000000000000000000
310
00000000000000000000000000000000000000000000000000000000000000000000000000000000000000000000000000000000000000000000000000000000000000000000000000000000000000000000000000000000000000000000000000000707000000000000000000000000000000000000000000000000000000
310
00000000000000000000000000000000000000000000000000000000000000000000000000000000000000000000000000000000000000000000000000000000000000000000000000000000000000000000000000000000000000000000000000000000000000000000000000000000000000000000000000000000000000
310
00000000000000000000000000000000000000000000070707070707070000000000000000000000000000000000000000000000000000000000000000000000000000000000000000000000000000000000000000000000000000000000000000000000000000000000000000000000000000000000000000000000000000
310
00000000000000000000000000000000000000000000000000000000000000000000000000000000000000000000000000000000000000000000000000000000000000000000000000000007070700000007000000000000000000000000000000000000000000000000000000000000000000000000000000000000000000
310
00000000000000000000000000000000000000000000000000000000000000000000000000000000000000000000000000000000000000000000000000000000000000000000000000000000000000000000000000000000000000000000000000000000000000000000000000000000000000000000000000000000000000
310
07070707070000070000000000000000000000000000000000000000000000000000000000000000000000000000000000000000000000000000000000000000000000000000000000000000000000000000000000000000000000000000000000000000000000000000000000000000000000000000000000000000000000
310
00000000000000000000000000000000000000000000000000000000000000000000000000000000000000000000000000000000000707070700000007000000000000000000000000000000000000000000000000000000000000000000000000000000000000000000000000000000000000000000000000000000000000
310
00000000000000000000000000000000000000000000000000000000000000000000000000000000000000000000000000000000000000000000000000000000000000000000000000000000000000000000000000000000000000000000000000000000000000000007070707070707070700000000000000000000000000
310
00000000000000000000000000000000000000000000000000000000000000000000000000000000000000000000000000000000000000000000000000000000000000000000000000000000000000000000000000000000000000000000000000000000000000000000000000000000000000000000000000000000000000
310
00000000000000000000000000000000000000000000000000000000000000000000000000000000000000000000000000000000000000000000000000000000000000000000000000000000000000000000000000000000000000000000000000000000000000000000000000000000000000000000000000000000000000
310
00000000000000000000000000000000000000000000000000000000000000000000000000000000000000000000000000000000000000000000000000000000000000000000000000000000000000000000000000000000000000000000000000000000000000000000000000000000000000000000000000000000000000
310
00000000000000000000000000000000000000000000000000000000000000000000000000000000000000000000000000000000000000000000000000000000000000000000000000000000000000000000000000000000000000000000000000000000000000000000000000000000000000000000000000000000000000
310
00000000000000000000000000000000000000000000000000000000000000000000000000000000000000000000000000000000000000000000000000000000000000000000000000000000000000000000000000000000000000000000000000000000000000000000000000000000000000000000000000000000000000
310
00000000000000000000000000000000000000000000000000000000000000000000000000000000000000000000000000000000000000000000000000000000000000000000000000000000000000000000000000000000000000000000000000000000000000000000000000000000000000000000000000000000000000
310
00000000000000000000000000000000000000000000000000000000000000000000000000000000000000000000000000000000000000000000000000000000000000000000000000000000000000000000000000000000000000000000000000000000000000000000000000000000000000000000000000000000000000
310
00000000000000000000000000000000000000000000000000000000000000000000000000000000000000000000000000000000000000000000000000000000000000000000000000000000000000000000000000000000000000000000000000000000000000000000000000000000000000000000000000000000000000
310
00000000000000000000000000000000000000000000000000000000000000000000000000000000000000000000000000000000000000000000000000000000000000000000000000000000000000000000000000000000000000000000000000000000000000000000000000000000000000000000000000000000000000
310
00000000000000000000000000000000000000000000000000000000000000000000000000000000000000000000000000000000000000000000000000000000000000000000000000000000000000000000000000000000000000000000000000000000000000000000000000000000000000000000000000000000000000
310
00000000000000000000000000000000000000000000000000000000000000000000000000000000000000000000000000000000000000000000000000000000000000000000000000000000000000000000000000000000000000000000000000000000000000000000000000000000000000000000000000000000000000
310
00000000000000000000000000000000000000000000000000000000000000000000000000000000000000000000000000000000000000000000000000000000000000000000000000000000000000000000000000000000000000000000000000000000000000000000000000000000000000000000000000000000000000
310
00000000000000000000000000000000000000000000000000000000000000000000000000000000000000000000000000000000000000000000000000000000000000000000000000000000000000000000000000000000000000000000000000000000000000000000000000000000000000000000000000000000000000
310
00000000000000000000000000000000000000000000000000000000000000000000000000000000000000000000000000000000000000000000000000000000000000000000000000000000000000000000000000000000000000000000000000000000000000000000000000000000000000000000000000000000000000
310
00000000000000000000000000000000000000000000000000000000000000000000000000000000000000000000000000000000000000000000000000000000000000000000000000000000000000000000000000000000000000000000000000000000000000000000000000000000000000000000000000000000000000
310
00000000000000000000000000000000000000000000000000000000000000000000000000000000000000000000000000000000000000000000000000000000000000000000000000000000000000000000000000000000000000000000000000000000000000000000000000000000000000000000000000000000000000
310
00000000000000000000000000000000000000000000000000000000000000000000000000000000000000000000000000000000000000000000000000000000000000000000000000000000000000000000000000000000000000000000000000000000000000000000000000000000000000000000000000000000000000
310
00000000000000000000000000000000000000000000000000000000000000000000000000000000000000000000000000000000000000000000000000000000000000000000000000000000000000000000000000000000000000000000000000000000000000000000000000000000000000000000000000000000000000
310
00000000000000000000000000000000000000000000000000000000000000000000000000000000000000000000000000000000000000000000000000000000000000000000000000000000000000000000000000000000000000000000000000000000000000000000000000000000000000000000000000000000000000
310
00000000000000000000000000000000000000000000000000000000000000000000000000000000000000000000000000000000000000000000000000000000000000000000000000000000000000000000000000000000000000000000000000000000000000000000000000000000000000000000000000000000000000
310
00000000000000000000000000000000000000000000000000000000000000000000000000000000000000000000000000000000000000000000000000000000000000000000000000000000000000000000000000000000000000000000000000000000000000000000000000000000000000000000000000000000000000
310
00000000000000000000000000000000000000000000000000000000000000000000000000000000000000000000000000000000000000000000000000000000000000000000000000000000000000000000000000000000000000000000000000000000000000000000000000000000000000000000000000000000000000
310
00000000000000000000000000000000000000000000000000000000000000000000000000000000000000000000000000000000000000000000000000000000000000000000000000000000000000000000000000000000000000000000000000000000000000000000000000000000000000000000000000000000000000
310
00000000000000000000000000000000000000000000000000000000000000000000000000000000000000000000000000000000000000000000000000000000000000000000000000000000000000000000000000000000000000000000000000000000000000000000000000000000000000000000000000000000070700
310
00000000000000000000000000000000000000000000000000000000000000000000000000000000000000000000000000000000000000000000000000000000000000000000000000000000000000000000000000000000000000000000000000000000000000000000000000000000000000000000000000000000000000
310
00000000000000000000000000000000000000000000000000000000000000000000000000000000000000000000000000000707000000000000000000000000000000000000000000000000000000000000000000000000000000000000000000000000000000000000000000000000000000000000000000000000000000
310
00000000000000000000000000000000000000000000000000000000000000000000000000000000000000000000000000000000000000000000000000000000000000000000000000000000000000000000000000000000000000000000000000000000000000070700000000000000000000000000000000000000000000
310
00000000000000000000000000000000000000000000000000000000000000000000000000000000000000000000000000000000000000000000000000000000000000000000000000000000000000000000000000000000000000000000000000000000000000000000000000000000000000000000000000000000000000
310
00000000000000000000000000000000000000000000000000000000000707000000000000000000000000000000000000000000000000000000000000000000000000000000000000000000000000000000000000000000000000000000000000000000000000000000000000000000000000000000000000000000000000
310
00000000000000000000000000000000000000000000000000000000000000000000000000000000000000000000000000000000000000000000000000000000000000000000000000000000000000000000070700000000000000000000000000000000000000000000000000000000000000000000000000000000000000
310
00000000000000000000000000000000000000000000000000000000000000000000000000000000000000000000000000000000000000000000000000000000000000000000000000000000000000000000000000000000000000000000000000000000000000000000000000000000000000000000000000000000000000
310
00000000000000000707000000000000000000000000000000000000000000000000000000000000000000000000000000000000000000000000000000000000000000000000000000000000000000000000000000000000000000000000000000000000000000000000000000000000000000000000000000000000000000
310
00000000000000000000000000000000000000000000000000000000000000000000000000000000000000000000000000000000000000000000000000070700000000000000000000000000000000000000000000000000000000000000000000000000000000000000000000000000000000000000000000000000000000
310
00000000000000000000000000000000000000000000000000000000000000000000000000000000000000000000000000000000000000000000000000000000000000000000000000000000000000000000000000000000000000000000000000000000000000000000000000000000000007070000000000000000000000
310
00000000000000000000000000000000000000000000000000000000000000000000000000000000000000000000000000000000000000000000000000000000000000000000000000000000000000000000000000000000000000000000000000000000000000000000000000000000000000000000000000000000000000
310
00000000000000000000000000000000000000000000000000000000000000000000000000000000070700000000000000000000000000000000000000000000000000000000000000000000000000000000000000000000000000000000000000000000000000000000000000000000000000000000000000000000000000
310
00000000000000000000000000000000000000000000000000000000000000000000000000000000000000000000000000000000000000000000000000000000000000000000000000000000000000000000000000000000000000000007070000000000000000000000000000000000000000000000000000000000000000
310
00000000000000000000000000000000000000000000000000000000000000000000000000000000000000000000000000000000000000000000000000000000000000000000000000000000000000000000000000000000000000000000000000000000000000000000000000000000000000000000000000000000000000
310
00000000000000000000000000000000000000070700000000000000000000000000000000000000000000000000000000000000000000000000000000000000000000000000000000000000000000000000000000000000000000000000000000000000000000000000000000000000000000000000000000000000000000
310
00000000000000000000000000000000000000000000000000000000000000000000000000000000000000000000000000000000000000000000000000000000000000000000000007070000000000000000000000000000000000000000000000000000000000000000000000000000000000000000000000000000000000
310
00000000000000000000000000000000000000000000000000000000000000000000000000000000000000000000000000000000000000000000000000000000000000000000000000000000000000000000000000000000000000000000000000000000000000000000000000000000000000000000000000000007070707
310
00000000000000000000000000000000000000000000000000000000000000000000000000000000000000000000000000000000000000000000000000000000000000000000000000000000000000000000000000000000000000000000000000000000000000000000000000000000000000000000000000000000000000
310
00000000000000000000000000000000000000000000000000000000000000000000000000000000000000000000000000070707070000000000000000000000000000000000000000000000000000000000000000000000000000000000000000000000000000000000000000000000000000000000000000000000000000
310
00000000000000000000000000000000000000000000000000000000000000000000000000000000000000000000000000000000000000000000000000000000000000000000000000000000000000000000000000000000000000000000000000000000000007070707000000000000000000000000000000000000000000
310
00000000000000000000000000000000000000000000000000000000000000000000000000000000000000000000000000000000000000000000000000000000000000000000000000000000000000000000000000000000000000000000000000000000000000000000000000000000000000000000000000000000000000
310
00000000000000000000000000000000000000000000000000000000070007070000000000000000000000000000000000000000000000000000000000000000000000000000000000000000000000000000000000000000000000000000000000000000000000000000000000000000000000000000000000000000000000
310
00000000000000000000000000000000000000000000000000000000000000000000000000000000000000000000000000000000000000000000000000000000000000000000000000000000000000000007070707000000000000000000000000000000000000000000000000000000000000000000000000000000000000
310
00000000000000000000000000000000000000000000000000000000000000000000000000000000000000000000000000000000000000000000000000000000000000000000000000000000000000000000000000000000000000000000000000000000000000000000000000000000000000000000000000000000000000
310
00000000000000070707070000000000000000000000000000000000000000000000000000000000000000000000000000000000000000000000000000000000000000000000000000000000000000000000000000000000000000000000000000000000000000000000000000000000000000000000000000000000000000
310
00000000000000000000000000000000000000000000000000000000000000000000000000000000000000000000000000000000000000000000000007070707000000000000000000000000000000000000000000000000000000000000000000000000000000000000000000000000000000000000000000000000000000
310
00000000000000000000000000000000000000000000000000000000000000000000000000000000000000000000000000000000000000000000000000000000000000000000000000000000000000000000000000000000000000000000000000000000000000000000000000000000000707070700000000000000000000
310
00000000000000000000000000000000000000000000000000000000000000000000000000000000000000000000000000000000000000000000000000000000000000000000000000000000000000000000000000000000000000000000000000000000000000000000000000000000000000000000000000000000000000
310
00000000000000000000000000000000000000000000000000000000000000000000000000000007070707000000000000000000000000000000000000000000000000000000000000000000000000000000000000000000000000000000000000000000000000000000000000000000000000000000000000000000000000
310
00000000000000000000000000000000000000000000000000000000000000000000000000000000000000000000000000000000000000000000000000000000000000000000000000000000000000000000000000070707070707070707070700000000000000000000000000000000000000000000000000000000000000
310
00000000000000000000000000000000000000000000000000000000000000000000000000000000000000000000000000000000000000000000000000000000000000000000000000000000000000000000000000000000000000000000000000000000000000000000000000000000000000000000000000000000000000
310
00000000000000000000000707070707070707070707000000000000000000000000000000000000000000000000000000000000000000000000000000000000000000000000000000000000000000000000000000000000000000000000000000000000000000000000000000000000000000000000000000000000000000
310
00000000000000000000000000000000000000000000000000000000000000000000000000000000000000000000000000000000000000000000000000000000000000000000000707070700000000000000000000000000000000000000000000000000000000000000000000000000000000000000000000000000000000
310
00000000000000000000000000000000000000000000000000000000000000000000000000000000000000000000000000000000000000000000000000000000000000000000000000000000000000000000000000000000000000000000000000000000000000000000000000000000000000000000000000000000070707
310
07000000000000000000000000000000000000000000000000000000000000000000000000000000000000000000000000000000000000000000000000000000000000000000000000000000000000000000000000000000000000000000000000000000000000000000000000000000000000000000000000000000000000
310
00000000000000000000000000000000000000000000000000000000000000000000000000000000000000000000000000000707070700000000000000000000000000000000000000000000000000000000000000000000000000000000000000000000000000000000000000000000000000000000000000000000000000
310
00000000000000000000000000000000000000000000000000000000000000000000000000000000000000000000000000000000000000000000000000000000000000000000000000000000000000000000000000000000000000000000000000000000000000070707070000000000000000000000000000000000000000
310
00000000000000000000000000000000000000000000000000000000000000000000000000000000000000000000000000000000000000000000000000000000000000000000000000000000000000000000000000000000000000000000000000000000000000000000000000000000000000000000000000000000000000
310
00000000000000000000000000000000000000000000000000000000000707070700000000000000000000000000000000000000000000000000000000000000000000000000000000000000000000000000000000000000000000000000000000000000000000000000000000000000000000000000000000000000000000
310
00000000000000000000000000000000000000000000000000000000000000000000000000000000000000000000000000000000000000000000000000000000000000000000000000000000000000000000070707070000000000000000000000000000000000000000000000000000000000000000000000000000000000
310
00000000000000000000000000000000000000000000000000000000000000000000000000000000000000000000000000000000000000000000000000000000000000000000000000000000000000000000000000000000000000000000000000000000000000000000000000000000000000000000000000000000000000
310
00000000000000000707070700000000000000000000000000000000000000000000000000000000000000000000000000000000000000000000000000000000000000000000000000000000000000000000000000000000000000000000000000000000000000000000000000000000000000000000000000000000000000
310
00000000000000000000000000000000000000000000000000000000000000000000000000000000000000000000000000000000000000000000000000070707070000000000000000000000000000000000000000000000000000000000000000000000000000000000000000000000000000000000000000000000000000
310
00000000000000000000000000000000000000000000000000000000000000000000000000000000000000000000000000000000000000000000000000000000000000000000000000000000000000000000000000000000000000000000000000000000000000000000000000000000000007070707000000000000000000
310
00000000000000000000000000000000000000000000000000000000000000000000000000000000000000000000000000000000000000000000000000000000000000000000000000000000000000000000000000000000000000000000000000000000000000000000000000000000000000000000000000000000000000
310
00000000000000000000000000000000000000000000000000000000000000000000000000000000070707070000000000000000000000000000000000000000000000000000000000000000000000000000000000000000000000000000000000000000000000000000000000000000000000000000000000000000000000
310
00000000000000000000000000000000000000000000000000000000000000000000000000000000000000000000000000000000000000000000000000000000000000000000000000000000000000000000000000000000000000000007070707000000000000000000000000000000000000000000000000000000000000
310
00000000000000000000000000000000000000000000000000000000000000000000000000000000000000000000000000000000000000000000000000000000000000000000000000000000000000000000000000000000000000000000000000000000000000000000000000000000000000000000000000000000000000
310
00000000000000000000000000000000000000070707070000000000000000000000000000000000000000000000000000000000000000000000000000000000000000000000000000000000000000000000000000000000000000000000000000000000000000000000000000000000000000000000000000000000000000
310
00000000000000000000000000000000000000000000000000000000000000000000000000000000000000000000000000000000000000000000000000000000000000000000000000070707000000000000000000000000000000000000000000000000000000000000000000000000000000000000000000000000000000
310
00000000000000000000000000000000000000000000000000000000000000000000000000000000000000000000000000000000000000000000000000000000000000000000000000000000000000000000000000000000000000000000000000000000000000000000000000000000000000000000000000000000000707
310
07070000000000000000000000000000000000000000000000000000000000000000000000000000000000000000000000000000000000000000000000000000000000000000000000000000000000000000000000000000000000000000000000000000000000000000000000000000000000000000000000000000000000
310
00000000000000000000000000000000000000000000000000000000000000000000000000000000000000000000000000000007070700000000000000000000000000000000000000000000000000000000000000000000000000000000000000000000000000000000000000000000000000000000000000000000000000
310
00000000000000000000000000000000000000000000000000000000000000000000000000000000000000000000000000000000000000000000000000000000000000000000000000000000000000000000000000000000000000000000000000000000000000000707070000000000000000000000000000000000000000
310
00000000000000000000000000000000000000000000000000000000000000000000000000000000000000000000000000000000000000000000000000000000000000000000000000000000000000000000000000000000000000000000000000000000000000000000000000000000000000000000000000000000000000
310
00000000000000000000000000000000000000000000000000000000000007070700000000000000000000000000000000000000000000000000000000000000000000000000000000000000000000000000000000000000000000000000000000000000000000000000000000000000000000000000000000000000000000
310
00000000000000000000000000000000000000000000000000000000000000000000000000000000000000000000000000000000000000000000000000000000000000000000000000000000000000000000000707070000000000000000000000000000000000000000000000000000000000000000000000000000000000
310
00000000000000000000000000000000000000000000000000000000000000000000000000000000000000000000000000000000000000000000000000000000000000000000000000000000000000000000000000000000000000000000000000000000000000000000000000000000000000000000000000000000000000
310
00000000000000000700070700000000000000000000000000000000000000000000000000000000000000000000000000000000000000000000000000000000000000000000000000000000000000000000000000000000000000000000000000000000000000000000000000000000000000000000000000000000000000
310
00000000000000000000000000000000000000000000000000000000000000000000000000000000000000000000000000000000000000000000000000070707000000000000000000000000000000000000000000000000000000000000000000000000000000000000000000000000000000000000000000000000000000
310
00000000000000000000000000000000000000000000000000000000000000000000000000000000000000000000000000000000000000000000000000000000000000000000000000000000000000000000000000000000000000000000000000000000000000000000000000000000000700070700000000000000000000
310
00000000000000000000000000000000000000000000000000000000000000000000000000000000000000000000000000000000000000000000000000000000000000000000000000000000000000000000000000000000000000000000000000000000000000000000000000000000000000000000000000000000000000
310
00000000000000000000000000000000000000000000000000000000000000000000000000000700000707000000000000000000000000000000000000000000000000000000000000000000000000000000000000000000000000000000000000000000000000000000000000000000000000000000000000000000000000
310
00000000000000000000000000000000000000000000000000000000000000000000000000000000000000000000000000000000000000000000000000000000000000000000000000000000000000000000000000000000000000070007070700000000000000000000000000000000000000000000000000000000000000
310
00000000000000000000000000000000000000000000000000000000000000000000000000000000000000000000000000000000000000000000000000000000000000000000000000000000000000000000000000000000000000000000000000000000000000000000000000000000000000000000000000000000000000
310
00000000000000000000000000000000070700070707000000000000000000000000000000000000000000000000000000000000000000000000000000000000000000000000000000000000000000000000000000000000000000000000000000000000000000000000000000000000000000000000000000000000000000
310
00000000000000000000000000000000000000000000000000000000000000000000000000000000000000000000000000000000000000000000000000000000000000000707000700070700000000000000000000000000000000000000000000000000000000000000000000000000000000000000000000000000000000
310
00000000000000000000000000000000000000000000000000000000000000000000000000000000000000000000000000000000000000000000000000000000000000000000000000000000000000000000000000000000000000000000000000000000000000000000000000000000000000000000000007070707000007
310
07000000000000000000000000000000000000000000000000000000000000000000000000000000000000000000000000000000000000000000000000000000000000000000000000000000000000000000000000000000000000000000000000000000000000000000000000000000000000000000000000000000000000
310
00000000000000000000000000000000000000000000000000000000000000000000000000000000000000000007070707070000070700000000000000000000000000000000000000000000000000000000000000000000000000000000000000000000000000000000000000000000000000000000000000000000000000
310
00000000000000000000000000000000000000000000000000000000000000000000000000000000000000000000000000000000000000000000000000000000000000000000000000000000000000000000000000000000000000000000000000070707070000000007070000000000000000000000000000000000000000
310
00000000000000000000000000000000000000000000000000000000000000000000000000000000000000000000000000000000000000000000000000000000000000000000000000000000000000000000000000000000000000000000000000000000000000000000000000000000000000000000000000000000000000
310
00000000000000000000000000000000000000000000070707070700000000070700000000000000000000000000000000000000000000000000000000000000000000000000000000000000000000000000000000000000000000000000000000000000000000000000000000000000000000000000000000000000000000
310
00000000000000000000000000000000000000000000000000000000000000000000000000000000000000000000000000000000000000000000000000000000000000000000000000000007070700000000000007070000000000000000000000000000000000000000000000000000000000000000000000000000000000
310
00000000000000000000000000000000000000000000000000000000000000000000000000000000000000000000000000000000000000000000000000000000000000000000000000000000000000000000000000000000000000000000000000000000000000000000000000000000000000000000000000000000000000
310
00070700000000000000070707070000000000000000000000000000000000000000000000000000000000000000000000000000000000000000000000000000000000000000000000000000000000000000000000000000000000000000000000000000000000000000000000000000000000000000000000000000000000
310
00000000000000000000000000000000000000000000000000000000000000000000000000000000000000000000000000000000000000000000000000000007000007000000000000000000000000000000000000000000000000000000000000000000000000000000000000000000000000000000000000000000000000
310
00000000000000000000000000000000000000000000000000000000000000000000000000000000000000000000000000000000000000000000000000000000000000000000000000000000000000000000000000000000000000000000000000000000000000000000000000000000000000000700000700000000000000
310
00000000000000000000000000000000000000000000000000000000000000000000000000000000000000000000000000000000000000000000000000000000000000000000000000000000000000000000000000000000000000000000000000000000000000000000000000000000000000000000000000000000000000
310
00000000000000000000000000000000000000000000000000000000000000000000000000000000000007070707000000000000000000000000000000000000000000000000000000000000000000000000000000000000000000000000000000000000000000000000000000000000000000000000000000000000000000
310
00000000000000000000000000000000000000000000000000000000000000000000000000000000000000000000000000000000000000000000000000000000000000000000000000000000000000000000000000000000000000000000000707000000000000000000000000000000000000000000000000000000000000
310
00000000000000000000000000000000000000000000000000000000000000000000000000000000000000000000000000000000000000000000000000000000000000000000000000000000000000000000000000000000000000000000000000000000000000000000000000000000000000000000000000000000000000
310
000000000000000000000000000000000000000000000000000000000000000000000000000000000000000000000000000000000000000000000000000000000000000000000000000000000000000000000000000000000000000000000000000000000000000000000000
  0
ENDSEC
  0
EOF
