  0
SECTION
  2
HEADER
  9
$ACADVER
  1
AC1015
  9
$ACADMAINTVER
 70
     6
  9
$DWGCODEPAGE
  3
ANSI_1252
  9
$INSBASE
 10
0.0
 20
0.0
 30
0.0
  9
$EXTMIN
 10
0.247312
 20
0.0901535
 30
0.0
  9
$EXTMAX
 10
152.752688
 20
193.9098465
 30
0.0
  9
$LIMMIN
 10
0.0
 20
0.0
  9
$LIMMAX
 10
12.0
 20
9.0
  9
$ORTHOMODE
 70
     0
  9
$REGENMODE
 70
     1
  9
$FILLMODE
 70
     1
  9
$QTEXTMODE
 70
     0
  9
$MIRRTEXT
 70
     1
  9
$LTSCALE
 40
1.0
  9
$ATTMODE
 70
     1
  9
$TEXTSIZE
 40
0.2
  9
$TRACEWID
 40
0.05
  9
$TEXTSTYLE
  7
Standard
  9
$CLAYER
  8
0
  9
$CELTYPE
  6
ByBlock
  9
$CECOLOR
 62
   256
  9
$CELTSCALE
 40
1.0
  9
$DISPSILH
 70
     0
  9
$DIMSCALE
 40
1.0
  9
$DIMASZ
 40
0.18
  9
$DIMEXO
 40
0.0625
  9
$DIMDLI
 40
0.38
  9
$DIMRND
 40
0.0
  9
$DIMDLE
 40
0.0
  9
$DIMEXE
 40
0.18
  9
$DIMTP
 40
0.0
  9
$DIMTM
 40
0.0
  9
$DIMTXT
 40
0.18
  9
$DIMCEN
 40
0.09
  9
$DIMTSZ
 40
0.0
  9
$DIMTOL
 70
     0
  9
$DIMLIM
 70
     0
  9
$DIMTIH
 70
     1
  9
$DIMTOH
 70
     1
  9
$DIMSE1
 70
     0
  9
$DIMSE2
 70
     0
  9
$DIMTAD
 70
     0
  9
$DIMZIN
 70
     0
  9
$DIMBLK
  1

  9
$DIMASO
 70
     1
  9
$DIMSHO
 70
     1
  9
$DIMPOST
  1

  9
$DIMAPOST
  1

  9
$DIMALT
 70
     0
  9
$DIMALTD
 70
     2
  9
$DIMALTF
 40
25.4
  9
$DIMLFAC
 40
1.0
  9
$DIMTOFL
 70
     0
  9
$DIMTVP
 40
0.0
  9
$DIMTIX
 70
     0
  9
$DIMSOXD
 70
     0
  9
$DIMSAH
 70
     0
  9
$DIMBLK1
  1

  9
$DIMBLK2
  1

  9
$DIMSTYLE
  2
Standard
  9
$DIMCLRD
 70
     0
  9
$DIMCLRE
 70
     0
  9
$DIMCLRT
 70
     0
  9
$DIMTFAC
 40
1.0
  9
$DIMGAP
 40
0.09
  9
$DIMJUST
 70
     0
  9
$DIMSD1
 70
     0
  9
$DIMSD2
 70
     0
  9
$DIMTOLJ
 70
     1
  9
$DIMTZIN
 70
     0
  9
$DIMALTZ
 70
     0
  9
$DIMALTTZ
 70
     0
  9
$DIMUPT
 70
     0
  9
$DIMDEC
 70
     4
  9
$DIMTDEC
 70
     4
  9
$DIMALTU
 70
     2
  9
$DIMALTTD
 70
     2
  9
$DIMTXSTY
  7
Standard
  9
$DIMAUNIT
 70
     0
  9
$DIMADEC
 70
     0
  9
$DIMALTRND
 40
0.0
  9
$DIMAZIN
 70
     0
  9
$DIMDSEP
 70
    46
  9
$DIMATFIT
 70
     3
  9
$DIMFRAC
 70
     0
  9
$DIMLDRBLK
  1

  9
$DIMLUNIT
 70
     2
  9
$DIMLWD
 70
    -2
  9
$DIMLWE
 70
    -2
  9
$DIMTMOVE
 70
     2
  9
$LUNITS
 70
     2
  9
$LUPREC
 70
     4
  9
$SKETCHINC
 40
0.1
  9
$FILLETRAD
 40
0.5
  9
$AUNITS
 70
     0
  9
$AUPREC
 70
     0
  9
$MENU
  1
.
  9
$ELEVATION
 40
0.0
  9
$PELEVATION
 40
0.0
  9
$THICKNESS
 40
0.0
  9
$LIMCHECK
 70
     0
  9
$CHAMFERA
 40
0.5
  9
$CHAMFERB
 40
0.5
  9
$CHAMFERC
 40
1.0
  9
$CHAMFERD
 40
0.0
  9
$SKPOLY
 70
     0
  9
$TDCREATE
 40
2456464.943102211
  9
$TDUCREATE
 40
2456464.859768877
  9
$TDUPDATE
 40
2456465.377268877
  9
$TDUUPDATE
 40
2456465.293935544
  9
$TDINDWG
 40
0.0202877315
  9
$TDUSRTIMER
 40
0.0202877315
  9
$USRTIMER
 70
     1
  9
$ANGBASE
 50
0.0
  9
$ANGDIR
 70
     0
  9
$PDMODE
 70
     0
  9
$PDSIZE
 40
0.0
  9
$PLINEWID
 40
0.0
  9
$SPLFRAME
 70
     0
  9
$SPLINETYPE
 70
     6
  9
$SPLINESEGS
 70
     8
  9
$HANDSEED
  5
7C1
  9
$SURFTAB1
 70
     6
  9
$SURFTAB2
 70
     6
  9
$SURFTYPE
 70
     6
  9
$SURFU
 70
     6
  9
$SURFV
 70
     6
  9
$UCSBASE
  2

  9
$UCSNAME
  2

  9
$UCSORG
 10
0.0
 20
0.0
 30
0.0
  9
$UCSXDIR
 10
1.0
 20
0.0
 30
0.0
  9
$UCSYDIR
 10
0.0
 20
1.0
 30
0.0
  9
$UCSORTHOREF
  2

  9
$UCSORTHOVIEW
 70
     0
  9
$UCSORGTOP
 10
0.0
 20
0.0
 30
0.0
  9
$UCSORGBOTTOM
 10
0.0
 20
0.0
 30
0.0
  9
$UCSORGLEFT
 10
0.0
 20
0.0
 30
0.0
  9
$UCSORGRIGHT
 10
0.0
 20
0.0
 30
0.0
  9
$UCSORGFRONT
 10
0.0
 20
0.0
 30
0.0
  9
$UCSORGBACK
 10
0.0
 20
0.0
 30
0.0
  9
$PUCSBASE
  2

  9
$PUCSNAME
  2

  9
$PUCSORG
 10
0.0
 20
0.0
 30
0.0
  9
$PUCSXDIR
 10
1.0
 20
0.0
 30
0.0
  9
$PUCSYDIR
 10
0.0
 20
1.0
 30
0.0
  9
$PUCSORTHOREF
  2

  9
$PUCSORTHOVIEW
 70
     0
  9
$PUCSORGTOP
 10
0.0
 20
0.0
 30
0.0
  9
$PUCSORGBOTTOM
 10
0.0
 20
0.0
 30
0.0
  9
$PUCSORGLEFT
 10
0.0
 20
0.0
 30
0.0
  9
$PUCSORGRIGHT
 10
0.0
 20
0.0
 30
0.0
  9
$PUCSORGFRONT
 10
0.0
 20
0.0
 30
0.0
  9
$PUCSORGBACK
 10
0.0
 20
0.0
 30
0.0
  9
$USERI1
 70
     0
  9
$USERI2
 70
     0
  9
$USERI3
 70
     0
  9
$USERI4
 70
     0
  9
$USERI5
 70
     0
  9
$USERR1
 40
0.0
  9
$USERR2
 40
0.0
  9
$USERR3
 40
0.0
  9
$USERR4
 40
0.0
  9
$USERR5
 40
0.0
  9
$WORLDVIEW
 70
     1
  9
$SHADEDGE
 70
     3
  9
$SHADEDIF
 70
    70
  9
$TILEMODE
 70
     1
  9
$MAXACTVP
 70
    64
  9
$PINSBASE
 10
0.0
 20
0.0
 30
0.0
  9
$PLIMCHECK
 70
     0
  9
$PEXTMIN
 10
1.000000000000E+20
 20
1.000000000000E+20
 30
1.000000000000E+20
  9
$PEXTMAX
 10
-1.000000000000E+20
 20
-1.000000000000E+20
 30
-1.000000000000E+20
  9
$PLIMMIN
 10
0.0
 20
0.0
  9
$PLIMMAX
 10
12.0
 20
9.0
  9
$UNITMODE
 70
     0
  9
$VISRETAIN
 70
     1
  9
$PLINEGEN
 70
     0
  9
$PSLTSCALE
 70
     1
  9
$TREEDEPTH
 70
  3020
  9
$CMLSTYLE
  2
Standard
  9
$CMLJUST
 70
     0
  9
$CMLSCALE
 40
1.0
  9
$PROXYGRAPHICS
 70
     1
  9
$MEASUREMENT
 70
     0
  9
$CELWEIGHT
370
    -1
  9
$ENDCAPS
280
     0
  9
$JOINSTYLE
280
     0
  9
$LWDISPLAY
290
     0
  9
$INSUNITS
 70
     0
  9
$HYPERLINKBASE
  1

  9
$STYLESHEET
  1

  9
$XEDIT
290
     1
  9
$CEPSNTYPE
380
     0
  9
$PSTYLEMODE
290
     1
  9
$FINGERPRINTGUID
  2
{181D8B55-24CF-420D-8FAE-93067045BBDB}
  9
$VERSIONGUID
  2
{FAEB1C32-E019-11D5-929B-00C0DF256EC4}
  9
$EXTNAMES
290
     1
  9
$PSVPSCALE
 40
0.0
  9
$OLESTARTUP
290
     0
  0
ENDSEC
  0
SECTION
  2
CLASSES
  0
CLASS
  1
ACDBDICTIONARYWDFLT
  2
AcDbDictionaryWithDefault
  3
ObjectDBX Classes
 90
        0
280
     0
281
     0
  0
CLASS
  1
SCALE
  2
AcDbScale
  3
ObjectDBX Classes
 90
     1153
280
     0
281
     0
  0
CLASS
  1
ACDBPLACEHOLDER
  2
AcDbPlaceHolder
  3
ObjectDBX Classes
 90
        0
280
     0
281
     0
  0
CLASS
  1
LAYOUT
  2
AcDbLayout
  3
ObjectDBX Classes
 90
        0
280
     0
281
     0
  0
ENDSEC
  0
SECTION
  2
TABLES
  0
TABLE
  2
VPORT
  5
8
330
0
100
AcDbSymbolTable
 70
     1
  0
VPORT
  5
77F
330
8
100
AcDbSymbolTableRecord
100
AcDbViewportTableRecord
  2
*Active
 70
     0
 10
0.0
 20
0.0
 11
1.0
 21
1.0
 12
76.376344
 22
96.95492325
 13
0.0
 23
0.0
 14
0.5
 24
0.5
 15
0.5
 25
0.5
 16
0.0
 26
0.0
 36
1.0
 17
0.0
 27
0.0
 37
0.0
 40
197.78804343
 41
1.863448275862
 42
50.0
 43
0.0
 44
0.0
 50
0.0
 51
0.0
 71
    16
 72
   100
 73
     1
 74
     3
 75
     0
 76
     0
 77
     0
 78
     0
281
     0
 65
     1
110
0.0
120
0.0
130
0.0
111
1.0
121
0.0
131
0.0
112
0.0
122
1.0
132
0.0
 79
     0
146
0.0
  0
ENDTAB
  0
TABLE
  2
LTYPE
  5
5
330
0
100
AcDbSymbolTable
 70
     1
  0
LTYPE
  5
14
330
5
100
AcDbSymbolTableRecord
100
AcDbLinetypeTableRecord
  2
ByBlock
 70
     0
  3

 72
    65
 73
     0
 40
0.0
  0
LTYPE
  5
15
330
5
100
AcDbSymbolTableRecord
100
AcDbLinetypeTableRecord
  2
ByLayer
 70
     0
  3

 72
    65
 73
     0
 40
0.0
  0
LTYPE
  5
16
330
5
100
AcDbSymbolTableRecord
100
AcDbLinetypeTableRecord
  2
Continuous
 70
     0
  3
Solid line
 72
    65
 73
     0
 40
0.0
  0
ENDTAB
  0
TABLE
  2
LAYER
  5
2
330
0
100
AcDbSymbolTable
 70
     1
  0
LAYER
  5
10
330
2
100
AcDbSymbolTableRecord
100
AcDbLayerTableRecord
  2
0
 70
     0
 62
     7
  6
Continuous
370
    -3
390
F
  0
ENDTAB
  0
TABLE
  2
STYLE
  5
3
330
0
100
AcDbSymbolTable
 70
     1
  0
STYLE
  5
11
330
3
100
AcDbSymbolTableRecord
100
AcDbTextStyleTableRecord
  2
Standard
 70
     0
 40
0.0
 41
1.0
 50
0.0
 71
     0
 42
0.2
  3
txt
  4

  0
ENDTAB
  0
TABLE
  2
VIEW
  5
6
330
0
100
AcDbSymbolTable
 70
     0
  0
ENDTAB
  0
TABLE
  2
UCS
  5
7
330
0
100
AcDbSymbolTable
 70
     0
  0
ENDTAB
  0
TABLE
  2
APPID
  5
9
330
0
100
AcDbSymbolTable
 70
     1
  0
APPID
  5
12
330
9
100
AcDbSymbolTableRecord
100
AcDbRegAppTableRecord
  2
ACAD
 70
     0
  0
ENDTAB
  0
TABLE
  2
DIMSTYLE
  5
A
330
0
100
AcDbSymbolTable
 70
     1
100
AcDbDimStyleTable
  0
DIMSTYLE
105
20
330
A
100
AcDbSymbolTableRecord
100
AcDbDimStyleTableRecord
  2
Standard
 70
     0
340
11
  0
ENDTAB
  0
TABLE
  2
BLOCK_RECORD
  5
1
330
0
100
AcDbSymbolTable
 70
     0
  0
BLOCK_RECORD
  5
1D
330
1
100
AcDbSymbolTableRecord
100
AcDbBlockTableRecord
  2
*Model_Space
340
1E
  0
BLOCK_RECORD
  5
1B
330
1
100
AcDbSymbolTableRecord
100
AcDbBlockTableRecord
  2
*Paper_Space
340
1C
  0
ENDTAB
  0
ENDSEC
  0
SECTION
  2
BLOCKS
  0
BLOCK
  5
782
330
1D
100
AcDbEntity
  8
0
100
AcDbBlockBegin
  2
*Model_Space
 70
     0
 10
0.0
 20
0.0
 30
0.0
  3
*Model_Space
  1
*Model_Space
  0
ENDBLK
  5
783
330
1D
100
AcDbEntity
  8
0
100
AcDbBlockEnd
  0
BLOCK
  5
780
330
1B
100
AcDbEntity
 67
     1
  8
0
100
AcDbBlockBegin
  2
*Paper_Space
 70
     0
 10
0.0
 20
0.0
 30
0.0
  3
*Paper_Space
  1
*Paper_Space
  0
ENDBLK
  5
781
330
1B
100
AcDbEntity
 67
     1
  8
0
100
AcDbBlockEnd
  0
ENDSEC
  0
SECTION
  2
ENTITIES
  0
LINE
  5
21
330
1D
100
AcDbEntity
  8
0
100
AcDbLine
 10
14.490088
 20
159.6768465
 30
0.0
 11
15.560965620646
 21
160.825292089062
 31
0.0
  0
LINE
  5
29
330
1D
100
AcDbEntity
  8
0
100
AcDbLine
 10
14.856288
 20
157.0108465
 30
0.0
 11
16.209079795692
 21
158.461626440424
 31
0.0
  0
LINE
  5
2A
330
1D
100
AcDbEntity
  8
0
100
AcDbLine
 10
14.646582219486
 20
159.844676224534
 30
0.0
 11
14.753441616386
 21
159.759914462674
 31
0.0
  0
LINE
  5
2B
330
1D
100
AcDbEntity
  8
0
100
AcDbLine
 10
11.780788
 20
162.2028465
 30
0.0
 11
12.766396085547
 21
163.259846138957
 31
0.0
  0
LINE
  5
2D
330
1D
100
AcDbEntity
  8
0
100
AcDbLine
 10
11.451688
 20
162.5098465
 30
0.0
 11
11.780788
 21
162.2028465
 31
0.0
  0
LINE
  5
2E
330
1D
100
AcDbEntity
  8
0
100
AcDbLine
 10
12.296088
 20
161.7228465
 30
0.0
 11
12.625188
 21
161.4158465
 31
0.0
  0
LINE
  5
2F
330
1D
100
AcDbEntity
  8
0
100
AcDbLine
 10
12.296088
 20
161.7228465
 30
0.0
 11
13.731865374918
 21
163.262668154616
 31
0.0
  0
LINE
  5
30
330
1D
100
AcDbEntity
  8
0
100
AcDbLine
 10
12.296088
 20
161.7228465
 30
0.0
 11
12.984597868956
 21
162.461249558967
 31
0.0
  0
LINE
  5
31
330
1D
100
AcDbEntity
  8
0
100
AcDbLine
 10
12.296088
 20
161.7228465
 30
0.0
 11
12.984597868956
 21
162.461249558967
 31
0.0
  0
LINE
  5
33
330
1D
100
AcDbEntity
  8
0
100
AcDbLine
 10
12.625188
 20
161.4158465
 30
0.0
 11
13.393088
 21
160.6998465
 31
0.0
  0
LINE
  5
34
330
1D
100
AcDbEntity
  8
0
100
AcDbLine
 10
10.877790304476
 20
163.0449562148
 30
0.0
 11
11.451688
 21
162.5098465
 31
0.0
  0
LINE
  5
35
330
1D
100
AcDbEntity
  8
0
100
AcDbLine
 10
12.560080216347
 20
163.038585982458
 30
0.0
 11
12.984597868956
 21
162.461249558967
 31
0.0
  0
LINE
  5
36
330
1D
100
AcDbEntity
  8
0
100
AcDbLine
 10
12.560080216347
 20
163.038585982458
 30
0.0
 11
12.984597868956
 21
162.461249558967
 31
0.0
  0
LINE
  5
39
330
1D
100
AcDbEntity
  8
0
100
AcDbLine
 10
10.683788
 20
163.2258465
 30
0.0
 11
11.451688
 21
162.5098465
 31
0.0
  0
LINE
  5
3B
330
1D
100
AcDbEntity
  8
0
100
AcDbLine
 10
12.68868261366
 20
163.17650356808
 30
0.0
 11
12.915488
 21
162.9278465
 31
0.0
  0
LINE
  5
3D
330
1D
100
AcDbEntity
  8
0
100
AcDbLine
 10
14.160988
 20
159.9838465
 30
0.0
 11
14.490088
 21
159.6768465
 31
0.0
  0
LINE
  5
3F
330
1D
100
AcDbEntity
  8
0
100
AcDbLine
 10
13.393088
 20
160.6998465
 30
0.0
 11
14.160988
 21
159.9838465
 31
0.0
  0
LINE
  5
42
330
1D
100
AcDbEntity
  8
0
100
AcDbLine
 10
15.070546679974
 20
160.299350134212
 30
0.0
 11
15.612288
 21
159.8638465
 31
0.0
  0
LINE
  5
43
330
1D
100
AcDbEntity
  8
0
100
AcDbLine
 10
13.486251517218
 20
162.999255773723
 30
0.0
 11
13.731865374918
 21
163.262668154616
 31
0.0
  0
LINE
  5
45
330
1D
100
AcDbEntity
  8
0
100
AcDbLine
 10
14.374588
 20
162.4868465
 30
0.0
 11
15.210788
 21
161.3468465
 31
0.0
  0
LINE
  5
46
330
1D
100
AcDbEntity
  8
0
100
AcDbLine
 10
12.915488
 20
162.9278465
 30
0.0
 11
12.971488
 21
162.9238465
 31
0.0
  0
LINE
  5
49
330
1D
100
AcDbEntity
  8
0
100
AcDbLine
 10
14.666589962888
 20
159.866133209173
 30
0.0
 11
15.086288
 21
159.3528465
 31
0.0
  0
LINE
  5
50
330
1D
100
AcDbEntity
  8
0
100
AcDbLine
 10
15.202888
 20
162.4308465
 30
0.0
 11
15.531988
 21
162.1238465
 31
0.0
  0
LINE
  5
51
330
1D
100
AcDbEntity
  8
0
100
AcDbLine
 10
15.202888
 20
162.4308465
 30
0.0
 11
16.529313342881
 21
163.852961178467
 31
0.0
  0
LINE
  5
53
330
1D
100
AcDbEntity
  8
0
100
AcDbLine
 10
15.30061318499
 20
160.546081280502
 30
0.0
 11
15.580788
 21
159.9378465
 31
0.0
  0
LINE
  5
55
330
1D
100
AcDbEntity
  8
0
100
AcDbLine
 10
15.531988
 20
162.1238465
 30
0.0
 11
16.299888
 21
161.4078465
 31
0.0
  0
LINE
  5
56
330
1D
100
AcDbEntity
  8
0
100
AcDbLine
 10
15.368414557428
 20
160.618793778743
 30
0.0
 11
15.630888
 21
160.3268465
 31
0.0
  0
LINE
  5
57
330
1D
100
AcDbEntity
  8
0
100
AcDbLine
 10
15.210788
 20
161.3468465
 30
0.0
 11
15.772088
 21
160.5108465
 31
0.0
  0
LINE
  5
58
330
1D
100
AcDbEntity
  8
0
100
AcDbLine
 10
15.086288
 20
159.3528465
 30
0.0
 11
15.934788
 21
158.3168465
 31
0.0
  0
LINE
  5
59
330
1D
100
AcDbEntity
  8
0
100
AcDbLine
 10
9.67852001335
 20
164.163249167502
 30
0.0
 11
9.780698
 21
164.0678465
 31
0.0
  0
LINE
  5
5A
330
1D
100
AcDbEntity
  8
0
100
AcDbLine
 10
9.67852001335
 20
164.163249167502
 30
0.0
 11
9.780698
 21
164.0678465
 31
0.0
  0
LINE
  5
5B
330
1D
100
AcDbEntity
  8
0
100
AcDbLine
 10
9.780698
 20
164.0678465
 30
0.0
 11
10.548588
 21
163.3518465
 31
0.0
  0
LINE
  5
5C
330
1D
100
AcDbEntity
  8
0
100
AcDbLine
 10
8.683668
 20
165.0908465
 30
0.0
 11
9.012778
 21
164.7848465
 31
0.0
  0
LINE
  5
5D
330
1D
100
AcDbEntity
  8
0
100
AcDbLine
 10
8.683668
 20
165.0908465
 30
0.0
 11
10.007964068808
 21
166.511058323869
 31
0.0
  0
LINE
  5
5E
330
1D
100
AcDbEntity
  8
0
100
AcDbLine
 10
8.683668
 20
165.0908465
 30
0.0
 11
10.007964068808
 21
166.511058323869
 31
0.0
  0
LINE
  5
60
330
1D
100
AcDbEntity
  8
0
100
AcDbLine
 10
9.012778
 20
164.7848465
 30
0.0
 11
9.586797895198
 21
164.248889284591
 31
0.0
  0
LINE
  5
61
330
1D
100
AcDbEntity
  8
0
100
AcDbLine
 10
9.586758
 20
164.2488465
 30
0.0
 11
9.915868
 21
163.9418465
 31
0.0
  0
LINE
  5
62
330
1D
100
AcDbEntity
  8
0
100
AcDbLine
 10
9.586758
 20
164.2488465
 30
0.0
 11
10.963764688487
 21
165.725582323379
 31
0.0
  0
LINE
  5
63
330
1D
100
AcDbEntity
  8
0
100
AcDbLine
 10
9.586758
 20
164.2488465
 30
0.0
 11
9.67852001335
 21
164.163249167502
 31
0.0
  0
LINE
  5
64
330
1D
100
AcDbEntity
  8
0
100
AcDbLine
 10
9.586758
 20
164.2488465
 30
0.0
 11
9.67852001335
 21
164.163249167502
 31
0.0
  0
LINE
  5
67
330
1D
100
AcDbEntity
  8
0
100
AcDbLine
 10
10.548588
 20
163.3518465
 30
0.0
 11
10.877688
 21
163.0448465
 31
0.0
  0
LINE
  5
69
330
1D
100
AcDbEntity
  8
0
100
AcDbLine
 10
12.188388
 20
165.2418465
 30
0.0
 11
12.517488
 21
164.9348465
 31
0.0
  0
LINE
  5
6B
330
1D
100
AcDbEntity
  8
0
100
AcDbLine
 10
12.517488
 20
164.9348465
 30
0.0
 11
13.390854545773
 21
165.871218374295
 31
0.0
  0
LINE
  5
6C
330
1D
100
AcDbEntity
  8
0
100
AcDbLine
 10
12.517488
 20
164.9348465
 30
0.0
 11
13.390854545773
 21
165.871218374295
 31
0.0
  0
LINE
  5
72
330
1D
100
AcDbEntity
  8
0
100
AcDbLine
 10
12.966088
 20
164.0728465
 30
0.0
 11
13.465788
 21
163.5838465
 31
0.0
  0
LINE
  5
73
330
1D
100
AcDbEntity
  8
0
100
AcDbLine
 10
12.843888
 20
164.0598465
 30
0.0
 11
13.152688
 21
163.4868465
 31
0.0
  0
LINE
  5
74
330
1D
100
AcDbEntity
  8
0
100
AcDbLine
 10
12.843888
 20
164.0598465
 30
0.0
 11
12.966088
 21
164.0728465
 31
0.0
  0
LINE
  5
75
330
1D
100
AcDbEntity
  8
0
100
AcDbLine
 10
12.754188
 20
163.2798465
 30
0.0
 11
12.971488
 21
162.9238465
 31
0.0
  0
LINE
  5
76
330
1D
100
AcDbEntity
  8
0
100
AcDbLine
 10
12.247188
 20
164.0178465
 30
0.0
 11
12.754188
 21
163.2798465
 31
0.0
  0
LINE
  5
78
330
1D
100
AcDbEntity
  8
0
100
AcDbLine
 10
11.620488
 20
164.8698465
 30
0.0
 11
12.247188
 21
164.0178465
 31
0.0
  0
LINE
  5
79
330
1D
100
AcDbEntity
  8
0
100
AcDbLine
 10
10.371388
 20
166.3338465
 30
0.0
 11
10.855795035362
 21
165.609793013174
 31
0.0
  0
LINE
  5
7A
330
1D
100
AcDbEntity
  8
0
100
AcDbLine
 10
10.371388
 20
166.3338465
 30
0.0
 11
10.378088
 21
166.4248465
 31
0.0
  0
LINE
  5
7E
330
1D
100
AcDbEntity
  8
0
100
AcDbLine
 10
10.323488
 20
166.9808465
 30
0.0
 11
10.652588
 21
166.6738465
 31
0.0
  0
LINE
  5
7F
330
1D
100
AcDbEntity
  8
0
100
AcDbLine
 10
10.323488
 20
166.9808465
 30
0.0
 11
11.666630460291
 21
168.420884281474
 31
0.0
  0
LINE
  5
80
330
1D
100
AcDbEntity
  8
0
100
AcDbLine
 10
9.974513196163
 20
166.556446039463
 30
0.0
 11
10.00789015954
 21
166.510979061522
 31
0.0
  0
LINE
  5
82
330
1D
100
AcDbEntity
  8
0
100
AcDbLine
 10
11.420488
 20
165.9578465
 30
0.0
 11
12.188388
 21
165.2418465
 31
0.0
  0
LINE
  5
84
330
1D
100
AcDbEntity
  8
0
100
AcDbLine
 10
10.652588
 20
166.6738465
 30
0.0
 11
11.420488
 21
165.9578465
 31
0.0
  0
LINE
  5
86
330
1D
100
AcDbEntity
  8
0
100
AcDbLine
 10
10.378088
 20
166.4248465
 30
0.0
 11
10.889888
 21
165.8218465
 31
0.0
  0
LINE
  5
87
330
1D
100
AcDbEntity
  8
0
100
AcDbLine
 10
10.889888
 20
165.8218465
 30
0.0
 11
11.620488
 21
164.8698465
 31
0.0
  0
LINE
  5
88
330
1D
100
AcDbEntity
  8
0
100
AcDbLine
 10
9.959478
 20
166.5768465
 30
0.0
 11
10.753249242978
 21
165.499820384562
 31
0.0
  0
LINE
  5
89
330
1D
100
AcDbEntity
  8
0
100
AcDbLine
 10
6.674308
 20
170.3838465
 30
0.0
 11
7.442730342145
 21
171.207708247835
 31
0.0
  0
LINE
  5
8B
330
1D
100
AcDbEntity
  8
0
100
AcDbLine
 10
4.673688
 20
172.2488465
 30
0.0
 11
6.674308
 21
170.3838465
 31
0.0
  0
LINE
  5
8D
330
1D
100
AcDbEntity
  8
0
100
AcDbLine
 10
6.769338
 20
170.2948465
 30
0.0
 11
7.098448
 21
169.9878465
 31
0.0
  0
LINE
  5
8E
330
1D
100
AcDbEntity
  8
0
100
AcDbLine
 10
6.769338
 20
170.2948465
 30
0.0
 11
8.039877832878
 21
171.657436616815
 31
0.0
  0
LINE
  5
90
330
1D
100
AcDbEntity
  8
0
100
AcDbLine
 10
7.098448
 20
169.9878465
 30
0.0
 11
7.866368
 21
169.2718465
 31
0.0
  0
LINE
  5
94
330
1D
100
AcDbEntity
  8
0
100
AcDbLine
 10
7.866368
 20
169.2718465
 30
0.0
 11
8.634288
 21
168.5558465
 31
0.0
  0
LINE
  5
95
330
1D
100
AcDbEntity
  8
0
100
AcDbLine
 10
7.866368
 20
169.2718465
 30
0.0
 11
8.320066545974
 21
168.848823061468
 31
0.0
  0
LINE
  5
96
330
1D
100
AcDbEntity
  8
0
100
AcDbLine
 10
8.320066545974
 20
168.848823061468
 30
0.0
 11
9.144048
 21
167.5208465
 31
0.0
  0
LINE
  5
9C
330
1D
100
AcDbEntity
  8
0
100
AcDbLine
 10
8.963398
 20
168.2488465
 30
0.0
 11
9.723218379486
 21
169.063706111841
 31
0.0
  0
LINE
  5
9E
330
1D
100
AcDbEntity
  8
0
100
AcDbLine
 10
8.634288
 20
168.5558465
 30
0.0
 11
8.963398
 21
168.2488465
 31
0.0
  0
LINE
  5
A5
330
1D
100
AcDbEntity
  8
0
100
AcDbLine
 10
9.144048
 20
167.5208465
 30
0.0
 11
9.425038
 21
167.3028465
 31
0.0
  0
LINE
  5
A6
330
1D
100
AcDbEntity
  8
0
100
AcDbLine
 10
9.365988
 20
169.7108465
 30
0.0
 11
9.848448
 21
168.8368465
 31
0.0
  0
LINE
  5
A7
330
1D
100
AcDbEntity
  8
0
100
AcDbLine
 10
8.528688
 20
170.9978465
 30
0.0
 11
9.365988
 21
169.7108465
 31
0.0
  0
LINE
  5
AE
330
1D
100
AcDbEntity
  8
0
100
AcDbLine
 10
9.765008
 20
168.6278465
 30
0.0
 11
9.920998
 21
168.5458465
 31
0.0
  0
LINE
  5
AF
330
1D
100
AcDbEntity
  8
0
100
AcDbLine
 10
9.544360057988
 20
168.871891801031
 30
0.0
 11
9.765008
 21
168.6278465
 31
0.0
  0
LINE
  5
B0
330
1D
100
AcDbEntity
  8
0
100
AcDbLine
 10
9.848448
 20
168.8368465
 30
0.0
 11
9.920998
 21
168.5458465
 31
0.0
  0
LINE
  5
B4
330
1D
100
AcDbEntity
  8
0
100
AcDbLine
 10
3.576658
 20
173.2718465
 30
0.0
 11
3.905758
 21
172.9648465
 31
0.0
  0
LINE
  5
B5
330
1D
100
AcDbEntity
  8
0
100
AcDbLine
 10
3.576658
 20
173.2718465
 30
0.0
 11
4.802563436589
 21
174.586553047997
 31
0.0
  0
LINE
  5
B7
330
1D
100
AcDbEntity
  8
0
100
AcDbLine
 10
3.905758
 20
172.9648465
 30
0.0
 11
4.673688
 21
172.2488465
 31
0.0
  0
LINE
  5
C1
330
1D
100
AcDbEntity
  8
0
100
AcDbLine
 10
5.068338
 20
174.1728465
 30
0.0
 11
5.491406515047
 21
173.513953940495
 31
0.0
  0
LINE
  5
C3
330
1D
100
AcDbEntity
  8
0
100
AcDbLine
 10
4.630848
 20
174.8538465
 30
0.0
 11
5.068338
 21
174.1728465
 31
0.0
  0
LINE
  5
CA
330
1D
100
AcDbEntity
  8
0
100
AcDbLine
 10
7.399208
 20
171.2968465
 30
0.0
 11
7.519157638175
 21
171.098990378006
 31
0.0
  0
LINE
  5
CC
330
1D
100
AcDbEntity
  8
0
100
AcDbLine
 10
7.399208
 20
171.2968465
 30
0.0
 11
7.518496769282
 21
171.098281629331
 31
0.0
  0
LINE
  5
CD
330
1D
100
AcDbEntity
  8
0
100
AcDbLine
 10
6.789978
 20
172.1788465
 30
0.0
 11
7.399208
 21
171.2968465
 31
0.0
  0
LINE
  5
CF
330
1D
100
AcDbEntity
  8
0
100
AcDbLine
 10
5.657458
 20
173.8888465
 30
0.0
 11
6.165808
 21
173.1388465
 31
0.0
  0
LINE
  5
DA
330
1D
100
AcDbEntity
  8
0
100
AcDbLine
 10
5.370248
 20
174.2878465
 30
0.0
 11
5.403868
 21
174.2408465
 31
0.0
  0
LINE
  5
DC
330
1D
100
AcDbEntity
  8
0
100
AcDbLine
 10
6.165808
 20
173.1388465
 30
0.0
 11
6.789978
 21
172.1788465
 31
0.0
  0
LINE
  5
DD
330
1D
100
AcDbEntity
  8
0
100
AcDbLine
 10
7.436198
 20
172.3488465
 30
0.0
 11
7.463368
 21
172.0388465
 31
0.0
  0
LINE
  5
DE
330
1D
100
AcDbEntity
  8
0
100
AcDbLine
 10
7.436198
 20
172.3488465
 30
0.0
 11
7.884688
 21
171.8668465
 31
0.0
  0
LINE
  5
E0
330
1D
100
AcDbEntity
  8
0
100
AcDbLine
 10
7.463368
 20
172.0388465
 30
0.0
 11
7.673878
 21
171.6288465
 31
0.0
  0
LINE
  5
E1
330
1D
100
AcDbEntity
  8
0
100
AcDbLine
 10
7.673878
 20
171.6288465
 30
0.0
 11
7.805212056805
 21
171.405769365654
 31
0.0
  0
LINE
  5
E3
330
1D
100
AcDbEntity
  8
0
100
AcDbLine
 10
3.660028
 20
178.3328465
 30
0.0
 11
5.145768
 21
176.9478465
 31
0.0
  0
LINE
  5
E6
330
1D
100
AcDbEntity
  8
0
100
AcDbLine
 10
1.790008
 20
180.0778465
 30
0.0
 11
2.499878
 21
179.4148465
 31
0.0
  0
LINE
  5
E9
330
1D
100
AcDbEntity
  8
0
100
AcDbLine
 10
2.499878
 20
179.4148465
 30
0.0
 11
3.660028
 21
178.3328465
 31
0.0
  0
LINE
  5
F0
330
1D
100
AcDbEntity
  8
0
100
AcDbLine
 10
1.655393075907
 20
180.203502707652
 30
0.0
 11
4.449898
 21
175.1368465
 31
0.0
  0
LINE
  5
F1
330
1D
100
AcDbEntity
  8
0
100
AcDbLine
 10
1.108768
 20
180.7018465
 30
0.0
 11
1.344088
 21
180.4938465
 31
0.0
  0
LINE
  5
F5
330
1D
100
AcDbEntity
  8
0
100
AcDbLine
 10
0.989158
 20
180.8288465
 30
0.0
 11
1.108768
 21
180.7018465
 31
0.0
  0
LINE
  5
F7
330
1D
100
AcDbEntity
  8
0
100
AcDbLine
 10
1.067118
 20
180.7528465
 30
0.0
 11
1.318638
 21
180.5178465
 31
0.0
  0
LINE
  5
F9
330
1D
100
AcDbEntity
  8
0
100
AcDbLine
 10
0.247312
 20
182.1778465
 30
0.0
 11
0.375743
 21
183.0938465
 31
0.0
  0
LINE
  5
FA
330
1D
100
AcDbEntity
  8
0
100
AcDbLine
 10
0.247312
 20
182.1778465
 30
0.0
 11
0.989158
 21
180.8288465
 31
0.0
  0
LINE
  5
FB
330
1D
100
AcDbEntity
  8
0
100
AcDbLine
 10
0.375743
 20
183.0938465
 30
0.0
 11
10.618888
 21
193.7098465
 31
0.0
  0
LINE
  5
FC
330
1D
100
AcDbEntity
  8
0
100
AcDbLine
 10
1.344088
 20
180.4938465
 30
0.0
 11
1.603444715784
 21
180.251993868427
 31
0.0
  0
LINE
  5
FD
330
1D
100
AcDbEntity
  8
0
100
AcDbLine
 10
1.344088
 20
180.4938465
 30
0.0
 11
1.603444715784
 21
180.251993868427
 31
0.0
  0
LINE
  5
FE
330
1D
100
AcDbEntity
  8
0
100
AcDbLine
 10
1.318638
 20
180.5178465
 30
0.0
 11
1.790008
 21
180.0778465
 31
0.0
  0
LINE
  5
101
330
1D
100
AcDbEntity
  8
0
100
AcDbLine
 10
1.655393075907
 20
180.203502707652
 30
0.0
 11
4.449898
 21
175.1368465
 31
0.0
  0
LINE
  5
102
330
1D
100
AcDbEntity
  8
0
100
AcDbLine
 10
6.946128
 20
175.2698465
 30
0.0
 11
9.045008
 21
173.3128465
 31
0.0
  0
LINE
  5
103
330
1D
100
AcDbEntity
  8
0
100
AcDbLine
 10
5.145768
 20
176.9478465
 30
0.0
 11
6.946128
 21
175.2698465
 31
0.0
  0
LINE
  5
10C
330
1D
100
AcDbEntity
  8
0
100
AcDbLine
 10
4.449898
 20
175.1368465
 30
0.0
 11
4.529828
 21
175.0118465
 31
0.0
  0
LINE
  5
10D
330
1D
100
AcDbEntity
  8
0
100
AcDbLine
 10
4.449898
 20
175.1368465
 30
0.0
 11
4.630848
 21
174.8538465
 31
0.0
  0
LINE
  5
10F
330
1D
100
AcDbEntity
  8
0
100
AcDbLine
 10
9.045008
 20
173.3128465
 30
0.0
 11
11.428088
 21
171.0918465
 31
0.0
  0
LINE
  5
111
330
1D
100
AcDbEntity
  8
0
100
AcDbLine
 10
10.618888
 20
193.7098465
 30
0.0
 11
11.218688
 21
193.9098465
 31
0.0
  0
LINE
  5
115
330
1D
100
AcDbEntity
  8
0
100
AcDbLine
 10
7.884688
 20
171.8668465
 30
0.0
 11
8.528688
 21
170.9978465
 31
0.0
  0
LINE
  5
118
330
1D
100
AcDbEntity
  8
0
100
AcDbLine
 10
11.627188
 20
168.4688465
 30
0.0
 11
11.689688
 21
168.3948465
 31
0.0
  0
LINE
  5
11D
330
1D
100
AcDbEntity
  8
0
100
AcDbLine
 10
11.565388
 20
168.5408465
 30
0.0
 11
11.627188
 21
168.4688465
 31
0.0
  0
LINE
  5
120
330
1D
100
AcDbEntity
  8
0
100
AcDbLine
 10
11.689688
 20
168.3948465
 30
0.0
 11
11.741688
 21
168.3308465
 31
0.0
  0
LINE
  5
122
330
1D
100
AcDbEntity
  8
0
100
AcDbLine
 10
11.812388
 20
168.2448465
 30
0.0
 11
12.401288
 21
167.4788465
 31
0.0
  0
LINE
  5
123
330
1D
100
AcDbEntity
  8
0
100
AcDbLine
 10
11.752488
 20
168.3188465
 30
0.0
 11
11.812388
 21
168.2448465
 31
0.0
  0
LINE
  5
124
330
1D
100
AcDbEntity
  8
0
100
AcDbLine
 10
12.401288
 20
167.4788465
 30
0.0
 11
13.224588
 21
166.1858465
 31
0.0
  0
LINE
  5
125
330
1D
100
AcDbEntity
  8
0
100
AcDbLine
 10
10.958388
 20
168.5648465
 30
0.0
 11
11.263502587935
 21
167.988674457035
 31
0.0
  0
LINE
  5
126
330
1D
100
AcDbEntity
  8
0
100
AcDbLine
 10
10.855488
 20
169.1748465
 30
0.0
 11
10.996588
 21
169.1028465
 31
0.0
  0
LINE
  5
129
330
1D
100
AcDbEntity
  8
0
100
AcDbLine
 10
11.504488
 20
168.6108465
 30
0.0
 11
11.565388
 21
168.5408465
 31
0.0
  0
LINE
  5
12C
330
1D
100
AcDbEntity
  8
0
100
AcDbLine
 10
11.444588
 20
168.6778465
 30
0.0
 11
11.504488
 21
168.6108465
 31
0.0
  0
LINE
  5
12F
330
1D
100
AcDbEntity
  8
0
100
AcDbLine
 10
11.385888
 20
168.7408465
 30
0.0
 11
11.444588
 21
168.6778465
 31
0.0
  0
LINE
  5
133
330
1D
100
AcDbEntity
  8
0
100
AcDbLine
 10
11.329188
 20
168.8008465
 30
0.0
 11
11.385888
 21
168.7408465
 31
0.0
  0
LINE
  5
134
330
1D
100
AcDbEntity
  8
0
100
AcDbLine
 10
11.274288
 20
168.8578465
 30
0.0
 11
11.329188
 21
168.8008465
 31
0.0
  0
LINE
  5
137
330
1D
100
AcDbEntity
  8
0
100
AcDbLine
 10
11.221488
 20
168.9098465
 30
0.0
 11
11.274288
 21
168.8578465
 31
0.0
  0
LINE
  5
13A
330
1D
100
AcDbEntity
  8
0
100
AcDbLine
 10
11.170888
 20
168.9578465
 30
0.0
 11
11.221488
 21
168.9098465
 31
0.0
  0
LINE
  5
13C
330
1D
100
AcDbEntity
  8
0
100
AcDbLine
 10
11.123088
 20
169.0008465
 30
0.0
 11
11.170888
 21
168.9578465
 31
0.0
  0
LINE
  5
13D
330
1D
100
AcDbEntity
  8
0
100
AcDbLine
 10
11.077888
 20
169.0398465
 30
0.0
 11
11.123088
 21
169.0008465
 31
0.0
  0
LINE
  5
13E
330
1D
100
AcDbEntity
  8
0
100
AcDbLine
 10
11.218688
 20
193.9098465
 30
0.0
 11
11.702488
 21
193.7328465
 31
0.0
  0
LINE
  5
140
330
1D
100
AcDbEntity
  8
0
100
AcDbLine
 10
11.428088
 20
171.0918465
 30
0.0
 11
14.273788
 21
168.4388465
 31
0.0
  0
LINE
  5
142
330
1D
100
AcDbEntity
  8
0
100
AcDbLine
 10
10.996588
 20
169.1028465
 30
0.0
 11
11.036888
 21
169.0708465
 31
0.0
  0
LINE
  5
144
330
1D
100
AcDbEntity
  8
0
100
AcDbLine
 10
11.036888
 20
169.0708465
 30
0.0
 11
11.077888
 21
169.0398465
 31
0.0
  0
LINE
  5
147
330
1D
100
AcDbEntity
  8
0
100
AcDbLine
 10
10.774288
 20
169.0568465
 30
0.0
 11
10.855488
 21
169.1748465
 31
0.0
  0
LINE
  5
148
330
1D
100
AcDbEntity
  8
0
100
AcDbLine
 10
10.774288
 20
169.0568465
 30
0.0
 11
10.958388
 21
168.5648465
 31
0.0
  0
LINE
  5
149
330
1D
100
AcDbEntity
  8
0
100
AcDbLine
 10
9.425038
 20
167.3028465
 30
0.0
 11
9.959478
 21
166.5768465
 31
0.0
  0
LINE
  5
152
330
1D
100
AcDbEntity
  8
0
100
AcDbLine
 10
13.625788
 20
164.9978465
 30
0.0
 11
13.714088
 21
165.1198465
 31
0.0
  0
LINE
  5
154
330
1D
100
AcDbEntity
  8
0
100
AcDbLine
 10
13.465788
 20
163.5838465
 30
0.0
 11
14.374588
 21
162.4868465
 31
0.0
  0
LINE
  5
155
330
1D
100
AcDbEntity
  8
0
100
AcDbLine
 10
13.152688
 20
163.4868465
 30
0.0
 11
13.485349916253
 21
162.998288837822
 31
0.0
  0
LINE
  5
156
330
1D
100
AcDbEntity
  8
0
100
AcDbLine
 10
13.224588
 20
166.1858465
 30
0.0
 11
13.610888
 21
165.4548465
 31
0.0
  0
LINE
  5
157
330
1D
100
AcDbEntity
  8
0
100
AcDbLine
 10
14.273788
 20
168.4388465
 30
0.0
 11
17.131888
 21
165.7748465
 31
0.0
  0
LINE
  5
158
330
1D
100
AcDbEntity
  8
0
100
AcDbLine
 10
13.610888
 20
165.4548465
 30
0.0
 11
13.714088
 21
165.1198465
 31
0.0
  0
LINE
  5
159
330
1D
100
AcDbEntity
  8
0
100
AcDbLine
 10
13.316888
 20
165.2308465
 30
0.0
 11
13.625788
 21
164.9978465
 31
0.0
  0
LINE
  5
15A
330
1D
100
AcDbEntity
  8
0
100
AcDbLine
 10
13.055606368732
 20
165.511785138148
 30
0.0
 11
13.316888
 21
165.2308465
 31
0.0
  0
LINE
  5
15B
330
1D
100
AcDbEntity
  8
0
100
AcDbLine
 10
32.678488
 20
137.4838465
 30
0.0
 11
33.188877892594
 21
137.885920433264
 31
0.0
  0
LINE
  5
15C
330
1D
100
AcDbEntity
  8
0
100
AcDbLine
 10
30.987288
 20
138.5888465
 30
0.0
 11
31.790788
 21
137.9858465
 31
0.0
  0
LINE
  5
15D
330
1D
100
AcDbEntity
  8
0
100
AcDbLine
 10
31.790788
 20
137.9858465
 30
0.0
 11
32.528788
 21
137.4908465
 31
0.0
  0
LINE
  5
15E
330
1D
100
AcDbEntity
  8
0
100
AcDbLine
 10
32.528788
 20
137.4908465
 30
0.0
 11
32.678488
 21
137.4838465
 31
0.0
  0
LINE
  5
161
330
1D
100
AcDbEntity
  8
0
100
AcDbLine
 10
33.508188
 20
139.6178465
 30
0.0
 11
33.837288
 21
139.3108465
 31
0.0
  0
LINE
  5
162
330
1D
100
AcDbEntity
  8
0
100
AcDbLine
 10
29.799188
 20
139.5578465
 30
0.0
 11
30.987288
 21
138.5888465
 31
0.0
  0
LINE
  5
163
330
1D
100
AcDbEntity
  8
0
100
AcDbLine
 10
31.592188
 20
139.5208465
 30
0.0
 11
34.861888
 21
136.1728465
 31
0.0
  0
LINE
  5
164
330
1D
100
AcDbEntity
  8
0
100
AcDbLine
 10
34.861888
 20
136.1728465
 30
0.0
 11
39.563688
 21
131.6138465
 31
0.0
  0
LINE
  5
165
330
1D
100
AcDbEntity
  8
0
100
AcDbLine
 10
33.837288
 20
139.3108465
 30
0.0
 11
35.088165215874
 21
140.652329778138
 31
0.0
  0
LINE
  5
16A
330
1D
100
AcDbEntity
  8
0
100
AcDbLine
 10
35.033088
 20
137.5118465
 30
0.0
 11
35.362188
 21
137.2048465
 31
0.0
  0
LINE
  5
16B
330
1D
100
AcDbEntity
  8
0
100
AcDbLine
 10
35.033088
 20
137.5118465
 30
0.0
 11
35.676960817816
 21
138.202357612831
 31
0.0
  0
LINE
  5
16C
330
1D
100
AcDbEntity
  8
0
100
AcDbLine
 10
34.969488
 20
138.6258465
 30
0.0
 11
35.105188
 21
138.6168465
 31
0.0
  0
LINE
  5
16D
330
1D
100
AcDbEntity
  8
0
100
AcDbLine
 10
34.969488
 20
138.6258465
 30
0.0
 11
35.124488
 21
138.3388465
 31
0.0
  0
LINE
  5
16E
330
1D
100
AcDbEntity
  8
0
100
AcDbLine
 10
31.643188
 20
141.3568465
 30
0.0
 11
31.972288
 21
141.0498465
 31
0.0
  0
LINE
  5
16F
330
1D
100
AcDbEntity
  8
0
100
AcDbLine
 10
31.643188
 20
141.3568465
 30
0.0
 11
32.984897116955
 21
142.795740998741
 31
0.0
  0
LINE
  5
171
330
1D
100
AcDbEntity
  8
0
100
AcDbLine
 10
31.972288
 20
141.0498465
 30
0.0
 11
32.740188
 21
140.3338465
 31
0.0
  0
LINE
  5
173
330
1D
100
AcDbEntity
  8
0
100
AcDbLine
 10
32.740188
 20
140.3338465
 30
0.0
 11
33.508188
 21
139.6178465
 31
0.0
  0
LINE
  5
174
330
1D
100
AcDbEntity
  8
0
100
AcDbLine
 10
28.983888
 20
140.3278465
 30
0.0
 11
29.799188
 21
139.5578465
 31
0.0
  0
LINE
  5
175
330
1D
100
AcDbEntity
  8
0
100
AcDbLine
 10
28.983888
 20
140.3278465
 30
0.0
 11
29.597083972048
 21
141.6571408843
 31
0.0
  0
LINE
  5
176
330
1D
100
AcDbEntity
  8
0
100
AcDbLine
 10
34.804814688293
 20
140.348455033456
 30
0.0
 11
34.967888
 21
140.2048465
 31
0.0
  0
LINE
  5
177
330
1D
100
AcDbEntity
  8
0
100
AcDbLine
 10
34.967888
 20
140.2048465
 30
0.0
 11
35.384788
 21
140.0048465
 31
0.0
  0
LINE
  5
179
330
1D
100
AcDbEntity
  8
0
100
AcDbLine
 10
35.362188
 20
137.2048465
 30
0.0
 11
36.130088
 21
136.4888465
 31
0.0
  0
LINE
  5
17B
330
1D
100
AcDbEntity
  8
0
100
AcDbLine
 10
36.130088
 20
136.4888465
 30
0.0
 11
36.897988
 21
135.7728465
 31
0.0
  0
LINE
  5
17D
330
1D
100
AcDbEntity
  8
0
100
AcDbLine
 10
36.897988
 20
135.7728465
 30
0.0
 11
37.227088
 21
135.4658465
 31
0.0
  0
LINE
  5
181
330
1D
100
AcDbEntity
  8
0
100
AcDbLine
 10
35.442088542143
 20
137.95047259461
 30
0.0
 11
35.551160362212
 21
138.067444924812
 31
0.0
  0
LINE
  5
182
330
1D
100
AcDbEntity
  8
0
100
AcDbLine
 10
35.124488
 20
138.3388465
 30
0.0
 11
35.442088542143
 21
137.95047259461
 31
0.0
  0
LINE
  5
183
330
1D
100
AcDbEntity
  8
0
100
AcDbLine
 10
36.732688
 20
138.9348465
 30
0.0
 11
37.061788
 21
138.6278465
 31
0.0
  0
LINE
  5
184
330
1D
100
AcDbEntity
  8
0
100
AcDbLine
 10
36.732688
 20
138.9348465
 30
0.0
 11
38.165832583404
 21
140.471799503375
 31
0.0
  0
LINE
  5
185
330
1D
100
AcDbEntity
  8
0
100
AcDbLine
 10
35.563788
 20
138.3028465
 30
0.0
 11
36.577388
 21
137.4028465
 31
0.0
  0
LINE
  5
186
330
1D
100
AcDbEntity
  8
0
100
AcDbLine
 10
36.577388
 20
137.4028465
 30
0.0
 11
37.146988
 21
136.8248465
 31
0.0
  0
LINE
  5
187
330
1D
100
AcDbEntity
  8
0
100
AcDbLine
 10
35.105188
 20
138.6168465
 30
0.0
 11
35.563788
 21
138.3028465
 31
0.0
  0
LINE
  5
189
330
1D
100
AcDbEntity
  8
0
100
AcDbLine
 10
35.377988
 20
140.1768465
 30
0.0
 11
35.384788
 21
140.0048465
 31
0.0
  0
LINE
  5
18A
330
1D
100
AcDbEntity
  8
0
100
AcDbLine
 10
35.064688
 20
140.6908465
 30
0.0
 11
35.377988
 21
140.1768465
 31
0.0
  0
LINE
  5
18C
330
1D
100
AcDbEntity
  8
0
100
AcDbLine
 10
29.075588
 20
142.1048465
 30
0.0
 11
29.569746317411
 21
141.597877952961
 31
0.0
  0
LINE
  5
18E
330
1D
100
AcDbEntity
  8
0
100
AcDbLine
 10
29.124588
 20
143.0218465
 30
0.0
 11
29.684966380112
 21
143.622815337557
 31
0.0
  0
LINE
  5
18F
330
1D
100
AcDbEntity
  8
0
100
AcDbLine
 10
29.124588
 20
143.0218465
 30
0.0
 11
29.684966380112
 21
143.622815337557
 31
0.0
  0
LINE
  5
192
330
1D
100
AcDbEntity
  8
0
100
AcDbLine
 10
30.377588
 20
142.6098465
 30
0.0
 11
30.384988
 21
142.7268465
 31
0.0
  0
LINE
  5
193
330
1D
100
AcDbEntity
  8
0
100
AcDbLine
 10
32.396388
 20
142.8778465
 30
0.0
 11
32.700959660733
 21
142.491236811818
 31
0.0
  0
LINE
  5
195
330
1D
100
AcDbEntity
  8
0
100
AcDbLine
 10
28.795488
 20
143.3288465
 30
0.0
 11
29.124588
 21
143.0218465
 31
0.0
  0
LINE
  5
196
330
1D
100
AcDbEntity
  8
0
100
AcDbLine
 10
26.930588
 20
145.0678465
 30
0.0
 11
27.259688
 21
144.7608465
 31
0.0
  0
LINE
  5
197
330
1D
100
AcDbEntity
  8
0
100
AcDbLine
 10
26.930588
 20
145.0678465
 30
0.0
 11
27.617455014923
 21
145.804487654747
 31
0.0
  0
LINE
  5
199
330
1D
100
AcDbEntity
  8
0
100
AcDbLine
 10
28.027588
 20
144.0448465
 30
0.0
 11
28.795488
 21
143.3288465
 31
0.0
  0
LINE
  5
19B
330
1D
100
AcDbEntity
  8
0
100
AcDbLine
 10
27.259688
 20
144.7608465
 30
0.0
 11
28.027588
 21
144.0448465
 31
0.0
  0
LINE
  5
19F
330
1D
100
AcDbEntity
  8
0
100
AcDbLine
 10
27.528688
 20
143.6878465
 30
0.0
 11
29.075588
 21
142.1048465
 31
0.0
  0
LINE
  5
1A0
330
1D
100
AcDbEntity
  8
0
100
AcDbLine
 10
29.715688
 20
143.1168465
 30
0.0
 11
30.377588
 21
142.6098465
 31
0.0
  0
LINE
  5
1A1
330
1D
100
AcDbEntity
  8
0
100
AcDbLine
 10
31.383288
 20
143.9238465
 30
0.0
 11
32.641752025378
 21
145.273466130735
 31
0.0
  0
LINE
  5
1A3
330
1D
100
AcDbEntity
  8
0
100
AcDbLine
 10
31.054188
 20
144.2308465
 30
0.0
 11
31.383288
 21
143.9238465
 31
0.0
  0
LINE
  5
1AB
330
1D
100
AcDbEntity
  8
0
100
AcDbLine
 10
30.286188
 20
144.9468465
 30
0.0
 11
31.054188
 21
144.2308465
 31
0.0
  0
LINE
  5
1AC
330
1D
100
AcDbEntity
  8
0
100
AcDbLine
 10
32.303837374759
 20
144.911074964367
 30
0.0
 11
32.675488
 21
144.7028465
 31
0.0
  0
LINE
  5
1AD
330
1D
100
AcDbEntity
  8
0
100
AcDbLine
 10
29.452099889232
 20
143.373081391179
 30
0.0
 11
29.715688
 21
143.1168465
 31
0.0
  0
LINE
  5
1AE
330
1D
100
AcDbEntity
  8
0
100
AcDbLine
 10
29.984688
 20
143.2748465
 30
0.0
 11
30.384988
 21
142.7268465
 31
0.0
  0
LINE
  5
1AF
330
1D
100
AcDbEntity
  8
0
100
AcDbLine
 10
29.088888
 20
144.3148465
 30
0.0
 11
29.984688
 21
143.2748465
 31
0.0
  0
LINE
  5
1B0
330
1D
100
AcDbEntity
  8
0
100
AcDbLine
 10
28.285988
 20
145.1498465
 30
0.0
 11
29.088888
 21
144.3148465
 31
0.0
  0
LINE
  5
1B2
330
1D
100
AcDbEntity
  8
0
100
AcDbLine
 10
32.675488
 20
144.7028465
 30
0.0
 11
32.840588
 21
144.7118465
 31
0.0
  0
LINE
  5
1B3
330
1D
100
AcDbEntity
  8
0
100
AcDbLine
 10
32.325888
 20
143.1718465
 30
0.0
 11
32.602788
 21
143.1098465
 31
0.0
  0
LINE
  5
1B4
330
1D
100
AcDbEntity
  8
0
100
AcDbLine
 10
32.325888
 20
143.1718465
 30
0.0
 11
32.396388
 21
142.8778465
 31
0.0
  0
LINE
  5
1B5
330
1D
100
AcDbEntity
  8
0
100
AcDbLine
 10
32.602788
 20
143.1098465
 30
0.0
 11
33.450688
 21
142.4128465
 31
0.0
  0
LINE
  5
1B6
330
1D
100
AcDbEntity
  8
0
100
AcDbLine
 10
35.081788
 20
143.8928465
 30
0.0
 11
35.410988
 21
143.5858465
 31
0.0
  0
LINE
  5
1B7
330
1D
100
AcDbEntity
  8
0
100
AcDbLine
 10
35.081788
 20
143.8928465
 30
0.0
 11
36.408483994628
 21
145.315640415647
 31
0.0
  0
LINE
  5
1BB
330
1D
100
AcDbEntity
  8
0
100
AcDbLine
 10
35.410988
 20
143.5858465
 30
0.0
 11
36.178888
 21
142.8698465
 31
0.0
  0
LINE
  5
1BD
330
1D
100
AcDbEntity
  8
0
100
AcDbLine
 10
36.178888
 20
142.8698465
 30
0.0
 11
36.946788
 21
142.1538465
 31
0.0
  0
LINE
  5
1C0
330
1D
100
AcDbEntity
  8
0
100
AcDbLine
 10
35.451988
 20
144.9768465
 30
0.0
 11
35.723851496779
 21
144.581417235402
 31
0.0
  0
LINE
  5
1C1
330
1D
100
AcDbEntity
  8
0
100
AcDbLine
 10
33.450688
 20
142.4128465
 30
0.0
 11
34.319088
 21
141.5548465
 31
0.0
  0
LINE
  5
1C2
330
1D
100
AcDbEntity
  8
0
100
AcDbLine
 10
34.319088
 20
141.5548465
 30
0.0
 11
35.064688
 21
140.6908465
 31
0.0
  0
LINE
  5
1C4
330
1D
100
AcDbEntity
  8
0
100
AcDbLine
 10
37.061788
 20
138.6278465
 30
0.0
 11
37.829688
 21
137.9118465
 31
0.0
  0
LINE
  5
1C7
330
1D
100
AcDbEntity
  8
0
100
AcDbLine
 10
36.946788
 20
142.1538465
 30
0.0
 11
37.275888
 21
141.8468465
 31
0.0
  0
LINE
  5
1C8
330
1D
100
AcDbEntity
  8
0
100
AcDbLine
 10
36.997388
 20
140.9228465
 30
0.0
 11
37.414588
 21
141.0178465
 31
0.0
  0
LINE
  5
1C9
330
1D
100
AcDbEntity
  8
0
100
AcDbLine
 10
36.997388
 20
140.9228465
 30
0.0
 11
37.328588
 21
140.3918465
 31
0.0
  0
LINE
  5
1CA
330
1D
100
AcDbEntity
  8
0
100
AcDbLine
 10
37.227088
 20
135.4658465
 30
0.0
 11
37.803417890509
 21
136.083922279939
 31
0.0
  0
LINE
  5
1CB
330
1D
100
AcDbEntity
  8
0
100
AcDbLine
 10
37.227088
 20
135.4658465
 30
0.0
 11
37.803417890509
 21
136.083922279939
 31
0.0
  0
LINE
  5
1CD
330
1D
100
AcDbEntity
  8
0
100
AcDbLine
 10
37.803166503491
 20
136.08365268395
 30
0.0
 11
37.959658076408
 21
135.887539779276
 31
0.0
  0
LINE
  5
1CF
330
1D
100
AcDbEntity
  8
0
100
AcDbLine
 10
37.601290560605
 20
135.867154055464
 30
0.0
 11
37.883988
 21
135.6618465
 31
0.0
  0
LINE
  5
1D0
330
1D
100
AcDbEntity
  8
0
100
AcDbLine
 10
37.275888
 20
141.8468465
 30
0.0
 11
38.482111637842
 21
143.140441762049
 31
0.0
  0
LINE
  5
1D3
330
1D
100
AcDbEntity
  8
0
100
AcDbLine
 10
37.328588
 20
140.3918465
 30
0.0
 11
37.715274067689
 21
139.988605224205
 31
0.0
  0
LINE
  5
1D5
330
1D
100
AcDbEntity
  8
0
100
AcDbLine
 10
37.829688
 20
137.9118465
 30
0.0
 11
38.597688
 21
137.1958465
 31
0.0
  0
LINE
  5
1D9
330
1D
100
AcDbEntity
  8
0
100
AcDbLine
 10
37.414588
 20
141.0178465
 30
0.0
 11
37.982088
 21
140.6618465
 31
0.0
  0
LINE
  5
1E1
330
1D
100
AcDbEntity
  8
0
100
AcDbLine
 10
37.873437531857
 20
142.487678945161
 30
0.0
 11
38.188588
 21
142.2968465
 31
0.0
  0
LINE
  5
1E3
330
1D
100
AcDbEntity
  8
0
100
AcDbLine
 10
37.675388
 20
136.2448465
 30
0.0
 11
38.072388
 21
135.7458465
 31
0.0
  0
LINE
  5
1E4
330
1D
100
AcDbEntity
  8
0
100
AcDbLine
 10
37.146988
 20
136.8248465
 30
0.0
 11
37.675388
 21
136.2448465
 31
0.0
  0
LINE
  5
1E9
330
1D
100
AcDbEntity
  8
0
100
AcDbLine
 10
25.890399690716
 20
145.618376999399
 30
0.0
 11
27.528688
 21
143.6878465
 31
0.0
  0
LINE
  5
1EA
330
1D
100
AcDbEntity
  8
0
100
AcDbLine
 10
26.934188
 20
145.7478465
 30
0.0
 11
28.079378082242
 21
146.97598730081
 31
0.0
  0
LINE
  5
1EB
330
1D
100
AcDbEntity
  8
0
100
AcDbLine
 10
26.934188
 20
145.7478465
 30
0.0
 11
28.079378082242
 21
146.97598730081
 31
0.0
  0
LINE
  5
1ED
330
1D
100
AcDbEntity
  8
0
100
AcDbLine
 10
26.605088
 20
146.0548465
 30
0.0
 11
26.934188
 21
145.7478465
 31
0.0
  0
LINE
  5
1EF
330
1D
100
AcDbEntity
  8
0
100
AcDbLine
 10
27.434583604794
 20
145.608364382264
 30
0.0
 11
27.617455014923
 21
145.804487654747
 31
0.0
  0
LINE
  5
1F1
330
1D
100
AcDbEntity
  8
0
100
AcDbLine
 10
29.518288
 20
145.6628465
 30
0.0
 11
30.286188
 21
144.9468465
 31
0.0
  0
LINE
  5
1F2
330
1D
100
AcDbEntity
  8
0
100
AcDbLine
 10
27.434583604794
 20
145.608364382264
 30
0.0
 11
27.617455014923
 21
145.804487654747
 31
0.0
  0
LINE
  5
1F5
330
1D
100
AcDbEntity
  8
0
100
AcDbLine
 10
35.216688
 20
145.5668465
 30
0.0
 11
35.317788
 21
145.8398465
 31
0.0
  0
LINE
  5
1F6
330
1D
100
AcDbEntity
  8
0
100
AcDbLine
 10
35.216688
 20
145.5668465
 30
0.0
 11
35.451988
 21
144.9768465
 31
0.0
  0
LINE
  5
1F7
330
1D
100
AcDbEntity
  8
0
100
AcDbLine
 10
35.707088
 20
145.7978465
 30
0.0
 11
36.904188
 21
144.9748465
 31
0.0
  0
LINE
  5
1F8
330
1D
100
AcDbEntity
  8
0
100
AcDbLine
 10
35.317788
 20
145.8398465
 30
0.0
 11
35.707088
 21
145.7978465
 31
0.0
  0
LINE
  5
1F9
330
1D
100
AcDbEntity
  8
0
100
AcDbLine
 10
29.189188
 20
145.9698465
 30
0.0
 11
29.518288
 21
145.6628465
 31
0.0
  0
LINE
  5
1FA
330
1D
100
AcDbEntity
  8
0
100
AcDbLine
 10
29.189188
 20
145.9698465
 30
0.0
 11
30.611098873059
 21
147.494752090257
 31
0.0
  0
LINE
  5
1FD
330
1D
100
AcDbEntity
  8
0
100
AcDbLine
 10
32.075888
 20
146.0608465
 30
0.0
 11
32.668788
 21
145.2358465
 31
0.0
  0
LINE
  5
1FF
330
1D
100
AcDbEntity
  8
0
100
AcDbLine
 10
27.252296990287
 20
146.088997402487
 30
0.0
 11
27.549688
 21
145.8708465
 31
0.0
  0
LINE
  5
200
330
1D
100
AcDbEntity
  8
0
100
AcDbLine
 10
27.549688
 20
145.8708465
 30
0.0
 11
28.285988
 21
145.1498465
 31
0.0
  0
LINE
  5
201
330
1D
100
AcDbEntity
  8
0
100
AcDbLine
 10
27.133149764091
 20
145.961219864012
 30
0.0
 11
27.409798005613
 21
145.581782683033
 31
0.0
  0
LINE
  5
202
330
1D
100
AcDbEntity
  8
0
100
AcDbLine
 10
32.668788
 20
145.2358465
 30
0.0
 11
32.840588
 21
144.7118465
 31
0.0
  0
LINE
  5
203
330
1D
100
AcDbEntity
  8
0
100
AcDbLine
 10
59.151588
 20
115.0208465
 30
0.0
 11
59.79650631226
 21
115.712478836638
 31
0.0
  0
LINE
  5
204
330
1D
100
AcDbEntity
  8
0
100
AcDbLine
 10
58.630388
 20
114.8238465
 30
0.0
 11
58.959488
 21
114.5168465
 31
0.0
  0
LINE
  5
205
330
1D
100
AcDbEntity
  8
0
100
AcDbLine
 10
58.630388
 20
114.8238465
 30
0.0
 11
58.971138152129
 21
115.189178627913
 31
0.0
  0
LINE
  5
207
330
1D
100
AcDbEntity
  8
0
100
AcDbLine
 10
58.959488
 20
114.5168465
 30
0.0
 11
59.727488
 21
113.8008465
 31
0.0
  0
LINE
  5
209
330
1D
100
AcDbEntity
  8
0
100
AcDbLine
 10
59.727488
 20
113.8008465
 30
0.0
 11
60.495388
 21
113.0838465
 31
0.0
  0
LINE
  5
20A
330
1D
100
AcDbEntity
  8
0
100
AcDbLine
 10
59.624988
 20
115.0468465
 30
0.0
 11
60.597688
 21
114.1848465
 31
0.0
  0
LINE
  5
20B
330
1D
100
AcDbEntity
  8
0
100
AcDbLine
 10
59.376933778204
 20
115.262514978267
 30
0.0
 11
59.624988
 21
115.0468465
 31
0.0
  0
LINE
  5
20C
330
1D
100
AcDbEntity
  8
0
100
AcDbLine
 10
60.824488
 20
112.7778465
 30
0.0
 11
61.430047870333
 21
113.427091921096
 31
0.0
  0
LINE
  5
20E
330
1D
100
AcDbEntity
  8
0
100
AcDbLine
 10
60.495388
 20
113.0838465
 30
0.0
 11
60.824488
 21
112.7778465
 31
0.0
  0
LINE
  5
211
330
1D
100
AcDbEntity
  8
0
100
AcDbLine
 10
61.074888
 20
113.9108465
 30
0.0
 11
61.842788
 21
113.1948465
 31
0.0
  0
LINE
  5
212
330
1D
100
AcDbEntity
  8
0
100
AcDbLine
 10
61.321488
 20
113.5278465
 30
0.0
 11
61.747088
 21
113.1328465
 31
0.0
  0
LINE
  5
213
330
1D
100
AcDbEntity
  8
0
100
AcDbLine
 10
62.939788
 20
112.1718465
 30
0.0
 11
64.099314401565
 21
113.415362057338
 31
0.0
  0
LINE
  5
215
330
1D
100
AcDbEntity
  8
0
100
AcDbLine
 10
62.610688
 20
112.4788465
 30
0.0
 11
62.939788
 21
112.1718465
 31
0.0
  0
LINE
  5
217
330
1D
100
AcDbEntity
  8
0
100
AcDbLine
 10
61.842788
 20
113.1948465
 30
0.0
 11
62.610688
 21
112.4788465
 31
0.0
  0
LINE
  5
218
330
1D
100
AcDbEntity
  8
0
100
AcDbLine
 10
61.751910285035
 20
113.129994184181
 30
0.0
 11
61.856788
 21
113.0328465
 31
0.0
  0
LINE
  5
219
330
1D
100
AcDbEntity
  8
0
100
AcDbLine
 10
61.856788
 20
113.0328465
 30
0.0
 11
62.540684968423
 21
112.544118241905
 31
0.0
  0
LINE
  5
21B
330
1D
100
AcDbEntity
  8
0
100
AcDbLine
 10
63.719288
 20
113.7698465
 30
0.0
 11
64.048388
 21
113.4628465
 31
0.0
  0
LINE
  5
21C
330
1D
100
AcDbEntity
  8
0
100
AcDbLine
 10
63.719288
 20
113.7698465
 30
0.0
 11
64.913114485702
 21
115.050146634373
 31
0.0
  0
LINE
  5
21E
330
1D
100
AcDbEntity
  8
0
100
AcDbLine
 10
64.048388
 20
113.4628465
 30
0.0
 11
64.816288
 21
112.7468465
 31
0.0
  0
LINE
  5
220
330
1D
100
AcDbEntity
  8
0
100
AcDbLine
 10
62.98850703686
 20
112.224094452433
 30
0.0
 11
63.552788
 21
111.8208465
 31
0.0
  0
LINE
  5
221
330
1D
100
AcDbEntity
  8
0
100
AcDbLine
 10
63.552788
 20
111.8208465
 30
0.0
 11
64.646620023565
 21
110.852195652545
 31
0.0
  0
LINE
  5
222
330
1D
100
AcDbEntity
  8
0
100
AcDbLine
 10
63.552788
 20
111.8208465
 30
0.0
 11
64.646620023565
 21
110.852195652545
 31
0.0
  0
LINE
  5
223
330
1D
100
AcDbEntity
  8
0
100
AcDbLine
 10
61.747088
 20
113.1328465
 30
0.0
 11
61.856788
 21
113.0328465
 31
0.0
  0
LINE
  5
224
330
1D
100
AcDbEntity
  8
0
100
AcDbLine
 10
60.745788
 20
114.2178465
 30
0.0
 11
61.074888
 21
113.9108465
 31
0.0
  0
LINE
  5
225
330
1D
100
AcDbEntity
  8
0
100
AcDbLine
 10
60.745788
 20
114.2178465
 30
0.0
 11
61.889722562366
 21
115.444640838584
 31
0.0
  0
LINE
  5
226
330
1D
100
AcDbEntity
  8
0
100
AcDbLine
 10
60.597688
 20
114.1848465
 30
0.0
 11
61.321488
 21
113.5278465
 31
0.0
  0
LINE
  5
228
330
1D
100
AcDbEntity
  8
0
100
AcDbLine
 10
62.478288
 20
115.0458465
 30
0.0
 11
63.233788
 21
114.4938465
 31
0.0
  0
LINE
  5
229
330
1D
100
AcDbEntity
  8
0
100
AcDbLine
 10
63.233788
 20
114.4938465
 30
0.0
 11
63.879488
 21
113.9888465
 31
0.0
  0
LINE
  5
22A
330
1D
100
AcDbEntity
  8
0
100
AcDbLine
 10
60.399588
 20
115.0418465
 30
0.0
 11
60.570088
 21
115.0128465
 31
0.0
  0
LINE
  5
22C
330
1D
100
AcDbEntity
  8
0
100
AcDbLine
 10
58.822488
 20
115.3278465
 30
0.0
 11
59.151588
 21
115.0208465
 31
0.0
  0
LINE
  5
22D
330
1D
100
AcDbEntity
  8
0
100
AcDbLine
 10
58.822488
 20
115.3278465
 30
0.0
 11
58.971138152129
 21
115.189178627913
 31
0.0
  0
LINE
  5
231
330
1D
100
AcDbEntity
  8
0
100
AcDbLine
 10
60.013588
 20
115.2738465
 30
0.0
 11
60.399588
 21
115.0418465
 31
0.0
  0
LINE
  5
232
330
1D
100
AcDbEntity
  8
0
100
AcDbLine
 10
67.147088
 20
106.8818465
 30
0.0
 11
67.723096976612
 21
107.499409203371
 31
0.0
  0
LINE
  5
234
330
1D
100
AcDbEntity
  8
0
100
AcDbLine
 10
66.817988
 20
107.1888465
 30
0.0
 11
67.147088
 21
106.8818465
 31
0.0
  0
LINE
  5
235
330
1D
100
AcDbEntity
  8
0
100
AcDbLine
 10
67.916988
 20
107.2498465
 30
0.0
 11
68.052788
 21
107.0388465
 31
0.0
  0
LINE
  5
236
330
1D
100
AcDbEntity
  8
0
100
AcDbLine
 10
67.916988
 20
107.2498465
 30
0.0
 11
71.661988
 21
101.7268465
 31
0.0
  0
LINE
  5
237
330
1D
100
AcDbEntity
  8
0
100
AcDbLine
 10
67.719482722704
 20
107.49553421443
 30
0.0
 11
68.052788
 21
107.0388465
 31
0.0
  0
LINE
  5
239
330
1D
100
AcDbEntity
  8
0
100
AcDbLine
 10
71.661988
 20
101.7268465
 30
0.0
 11
74.816788
 21
97.0060465
 31
0.0
  0
LINE
  5
23A
330
1D
100
AcDbEntity
  8
0
100
AcDbLine
 10
70.588188
 20
107.3648465
 30
0.0
 11
72.034396028741
 21
108.915385078615
 31
0.0
  0
LINE
  5
23E
330
1D
100
AcDbEntity
  8
0
100
AcDbLine
 10
66.705088
 20
108.6608465
 30
0.0
 11
67.638937148952
 21
109.662338094639
 31
0.0
  0
LINE
  5
240
330
1D
100
AcDbEntity
  8
0
100
AcDbLine
 10
65.282188
 20
108.6208465
 30
0.0
 11
66.050088
 21
107.9048465
 31
0.0
  0
LINE
  5
242
330
1D
100
AcDbEntity
  8
0
100
AcDbLine
 10
66.050088
 20
107.9048465
 30
0.0
 11
66.817988
 21
107.1888465
 31
0.0
  0
LINE
  5
245
330
1D
100
AcDbEntity
  8
0
100
AcDbLine
 10
69.491088
 20
108.3878465
 30
0.0
 11
70.259088
 21
107.6718465
 31
0.0
  0
LINE
  5
247
330
1D
100
AcDbEntity
  8
0
100
AcDbLine
 10
70.259088
 20
107.6718465
 30
0.0
 11
70.588188
 21
107.3648465
 31
0.0
  0
LINE
  5
24A
330
1D
100
AcDbEntity
  8
0
100
AcDbLine
 10
67.050088
 20
108.3658465
 30
0.0
 11
67.613988
 21
107.6398465
 31
0.0
  0
LINE
  5
24B
330
1D
100
AcDbEntity
  8
0
100
AcDbLine
 10
67.613988
 20
107.6398465
 30
0.0
 11
67.916988
 21
107.2498465
 31
0.0
  0
LINE
  5
24C
330
1D
100
AcDbEntity
  8
0
100
AcDbLine
 10
87.842788
 20
74.5145465
 30
0.0
 11
87.895988
 21
74.4190465
 31
0.0
  0
LINE
  5
24D
330
1D
100
AcDbEntity
  8
0
100
AcDbLine
 10
87.842788
 20
74.5145465
 30
0.0
 11
87.983488
 21
74.8958465
 31
0.0
  0
LINE
  5
24E
330
1D
100
AcDbEntity
  8
0
100
AcDbLine
 10
87.895988
 20
74.4190465
 30
0.0
 11
126.063688
 21
8.6340765
 31
0.0
  0
LINE
  5
24F
330
1D
100
AcDbEntity
  8
0
100
AcDbLine
 10
87.895988
 20
74.4190465
 30
0.0
 11
126.063688
 21
8.6340765
 31
0.0
  0
LINE
  5
250
330
1D
100
AcDbEntity
  8
0
100
AcDbLine
 10
87.983488
 20
74.8958465
 30
0.0
 11
88.243988
 21
75.7668465
 31
0.0
  0
LINE
  5
251
330
1D
100
AcDbEntity
  8
0
100
AcDbLine
 10
88.243988
 20
75.7668465
 30
0.0
 11
88.592388
 21
77.4476465
 31
0.0
  0
LINE
  5
252
330
1D
100
AcDbEntity
  8
0
100
AcDbLine
 10
88.592388
 20
77.4476465
 30
0.0
 11
88.893888
 21
79.1527465
 31
0.0
  0
LINE
  5
25B
330
1D
100
AcDbEntity
  8
0
100
AcDbLine
 10
84.618388
 20
79.5375465
 30
0.0
 11
84.756888
 21
79.4541465
 31
0.0
  0
LINE
  5
25D
330
1D
100
AcDbEntity
  8
0
100
AcDbLine
 10
84.756888
 20
79.4541465
 30
0.0
 11
85.136788
 21
79.4577465
 31
0.0
  0
LINE
  5
25E
330
1D
100
AcDbEntity
  8
0
100
AcDbLine
 10
84.512688
 20
79.6640465
 30
0.0
 11
84.618388
 21
79.5375465
 31
0.0
  0
LINE
  5
267
330
1D
100
AcDbEntity
  8
0
100
AcDbLine
 10
85.264688
 20
81.0136465
 30
0.0
 11
85.362588
 21
82.2789465
 31
0.0
  0
LINE
  5
268
330
1D
100
AcDbEntity
  8
0
100
AcDbLine
 10
84.817148463457
 20
87.136720784052
 30
0.0
 11
85.390388
 21
83.3797465
 31
0.0
  0
LINE
  5
269
330
1D
100
AcDbEntity
  8
0
100
AcDbLine
 10
84.315688
 20
88.6063465
 30
0.0
 11
84.814688
 21
87.1528465
 31
0.0
  0
LINE
  5
26B
330
1D
100
AcDbEntity
  8
0
100
AcDbLine
 10
88.893888
 20
79.1527465
 30
0.0
 11
89.218788
 21
81.0485465
 31
0.0
  0
LINE
  5
270
330
1D
100
AcDbEntity
  8
0
100
AcDbLine
 10
85.362588
 20
82.2789465
 30
0.0
 11
85.390388
 21
83.3797465
 31
0.0
  0
LINE
  5
271
330
1D
100
AcDbEntity
  8
0
100
AcDbLine
 10
85.157388
 20
79.0511465
 30
0.0
 11
87.930188
 21
75.0995465
 31
0.0
  0
LINE
  5
272
330
1D
100
AcDbEntity
  8
0
100
AcDbLine
 10
85.157388
 20
79.0511465
 30
0.0
 11
85.264688
 21
81.0136465
 31
0.0
  0
LINE
  5
292
330
1D
100
AcDbEntity
  8
0
100
AcDbLine
 10
74.909988
 20
96.2146465
 30
0.0
 11
74.927988
 21
96.4114465
 31
0.0
  0
LINE
  5
296
330
1D
100
AcDbEntity
  8
0
100
AcDbLine
 10
74.927988
 20
96.4114465
 30
0.0
 11
74.962188
 21
96.4860465
 31
0.0
  0
LINE
  5
297
330
1D
100
AcDbEntity
  8
0
100
AcDbLine
 10
76.876388
 20
95.7858465
 30
0.0
 11
77.594188
 21
95.3700465
 31
0.0
  0
LINE
  5
298
330
1D
100
AcDbEntity
  8
0
100
AcDbLine
 10
76.176288
 20
96.1651465
 30
0.0
 11
76.876388
 21
95.7858465
 31
0.0
  0
LINE
  5
299
330
1D
100
AcDbEntity
  8
0
100
AcDbLine
 10
75.676788
 20
96.4249465
 30
0.0
 11
76.176288
 21
96.1651465
 31
0.0
  0
LINE
  5
29D
330
1D
100
AcDbEntity
  8
0
100
AcDbLine
 10
77.594188
 20
95.3700465
 30
0.0
 11
78.084639272912
 21
95.072157892241
 31
0.0
  0
LINE
  5
2A2
330
1D
100
AcDbEntity
  8
0
100
AcDbLine
 10
82.561888
 20
91.4921465
 30
0.0
 11
82.904188
 21
91.0877465
 31
0.0
  0
LINE
  5
2A3
330
1D
100
AcDbEntity
  8
0
100
AcDbLine
 10
82.186888
 20
91.8961465
 30
0.0
 11
82.561888
 21
91.4921465
 31
0.0
  0
LINE
  5
2A7
330
1D
100
AcDbEntity
  8
0
100
AcDbLine
 10
74.962188
 20
96.4860465
 30
0.0
 11
75.184088
 21
96.6727465
 31
0.0
  0
LINE
  5
2A9
330
1D
100
AcDbEntity
  8
0
100
AcDbLine
 10
75.184088
 20
96.6727465
 30
0.0
 11
75.330888
 21
96.6048465
 31
0.0
  0
LINE
  5
2AA
330
1D
100
AcDbEntity
  8
0
100
AcDbLine
 10
75.330888
 20
96.6048465
 30
0.0
 11
75.676788
 21
96.4249465
 31
0.0
  0
LINE
  5
2AC
330
1D
100
AcDbEntity
  8
0
100
AcDbLine
 10
82.886988
 20
104.4738465
 30
0.0
 11
84.800888
 21
102.6898465
 31
0.0
  0
LINE
  5
2B1
330
1D
100
AcDbEntity
  8
0
100
AcDbLine
 10
74.816788
 20
97.0060465
 30
0.0
 11
75.184088
 21
96.6727465
 31
0.0
  0
LINE
  5
2B7
330
1D
100
AcDbEntity
  8
0
100
AcDbLine
 10
86.997388
 20
100.6238465
 30
0.0
 11
87.306988
 21
100.3328465
 31
0.0
  0
LINE
  5
2B8
330
1D
100
AcDbEntity
  8
0
100
AcDbLine
 10
86.483988
 20
101.1198465
 30
0.0
 11
86.997388
 21
100.6238465
 31
0.0
  0
LINE
  5
2B9
330
1D
100
AcDbEntity
  8
0
100
AcDbLine
 10
84.800888
 20
102.6898465
 30
0.0
 11
86.483988
 21
101.1198465
 31
0.0
  0
LINE
  5
2C9
330
1D
100
AcDbEntity
  8
0
100
AcDbLine
 10
127.258085679256
 20
8.536435656669
 30
0.0
 11
131.917688
 21
0.4657665
 31
0.0
  0
LINE
  5
2CA
330
1D
100
AcDbEntity
  8
0
100
AcDbLine
 10
127.258085679256
 20
8.536435656669
 30
0.0
 11
131.917688
 21
0.4657665
 31
0.0
  0
LINE
  5
2CB
330
1D
100
AcDbEntity
  8
0
100
AcDbLine
 10
126.063688
 20
8.6340765
 30
0.0
 11
126.376688
 21
8.3343865
 31
0.0
  0
LINE
  5
2CC
330
1D
100
AcDbEntity
  8
0
100
AcDbLine
 10
126.376688
 20
8.3343865
 30
0.0
 11
126.658688
 21
8.2267265
 31
0.0
  0
LINE
  5
2CD
330
1D
100
AcDbEntity
  8
0
100
AcDbLine
 10
126.658688
 20
8.2267265
 30
0.0
 11
127.260448335337
 21
8.53234341569
 31
0.0
  0
LINE
  5
2CE
330
1D
100
AcDbEntity
  8
0
100
AcDbLine
 10
132.466688
 20
0.0901535
 30
0.0
 11
132.840688
 21
0.3061535
 31
0.0
  0
LINE
  5
2CF
330
1D
100
AcDbEntity
  8
0
100
AcDbLine
 10
131.917688
 20
0.4657665
 30
0.0
 11
132.466688
 21
0.0901535
 31
0.0
  0
LINE
  5
2D0
330
1D
100
AcDbEntity
  8
0
100
AcDbLine
 10
132.840688
 20
0.3061535
 30
0.0
 11
133.838688
 21
0.8821565
 31
0.0
  0
LINE
  5
2D1
330
1D
100
AcDbEntity
  8
0
100
AcDbLine
 10
133.838688
 20
0.8821565
 30
0.0
 11
135.459688
 21
1.8181565
 31
0.0
  0
LINE
  5
2D2
330
1D
100
AcDbEntity
  8
0
100
AcDbLine
 10
135.459688
 20
1.8181565
 30
0.0
 11
137.579688
 21
3.0421565
 31
0.0
  0
LINE
  5
2D3
330
1D
100
AcDbEntity
  8
0
100
AcDbLine
 10
137.579688
 20
3.0421565
 30
0.0
 11
139.990688
 21
4.4341565
 31
0.0
  0
LINE
  5
2D4
330
1D
100
AcDbEntity
  8
0
100
AcDbLine
 10
139.990688
 20
4.4341565
 30
0.0
 11
142.609688
 21
5.9461565
 31
0.0
  0
LINE
  5
2D5
330
1D
100
AcDbEntity
  8
0
100
AcDbLine
 10
147.639688
 20
8.8501565
 30
0.0
 11
149.759688
 21
10.0741465
 31
0.0
  0
LINE
  5
2D6
330
1D
100
AcDbEntity
  8
0
100
AcDbLine
 10
145.228688
 20
7.4581565
 30
0.0
 11
147.639688
 21
8.8501565
 31
0.0
  0
LINE
  5
2D7
330
1D
100
AcDbEntity
  8
0
100
AcDbLine
 10
142.609688
 20
5.9461565
 30
0.0
 11
145.228688
 21
7.4581565
 31
0.0
  0
LINE
  5
2D8
330
1D
100
AcDbEntity
  8
0
100
AcDbLine
 10
149.759688
 20
10.0741465
 30
0.0
 11
151.380688
 21
11.0101465
 31
0.0
  0
LINE
  5
2D9
330
1D
100
AcDbEntity
  8
0
100
AcDbLine
 10
151.380688
 20
11.0101465
 30
0.0
 11
152.378688
 21
11.5861465
 31
0.0
  0
LINE
  5
2DC
330
1D
100
AcDbEntity
  8
0
100
AcDbLine
 10
89.991588
 20
86.7616465
 30
0.0
 11
90.237988
 21
90.5133465
 31
0.0
  0
LINE
  5
2E5
330
1D
100
AcDbEntity
  8
0
100
AcDbLine
 10
152.378688
 20
11.5861465
 30
0.0
 11
152.752688
 21
11.8021465
 31
0.0
  0
LINE
  5
2E6
330
1D
100
AcDbEntity
  8
0
100
AcDbLine
 10
152.701688
 20
12.4657465
 30
0.0
 11
152.752688
 21
11.8021465
 31
0.0
  0
LINE
  5
2E8
330
1D
100
AcDbEntity
  8
0
100
AcDbLine
 10
148.241853900076
 20
20.190463831331
 30
0.0
 11
152.701688
 21
12.4657465
 31
0.0
  0
LINE
  5
2E9
330
1D
100
AcDbEntity
  8
0
100
AcDbLine
 10
148.259056444765
 20
20.160667925894
 30
0.0
 11
148.634688
 21
20.3927465
 31
0.0
  0
LINE
  5
2EA
330
1D
100
AcDbEntity
  8
0
100
AcDbLine
 10
149.085688
 20
21.3992465
 30
0.0
 11
149.169688
 21
20.8630465
 31
0.0
  0
LINE
  5
2EC
330
1D
100
AcDbEntity
  8
0
100
AcDbLine
 10
148.634688
 20
20.3927465
 30
0.0
 11
149.169688
 21
20.8630465
 31
0.0
  0
LINE
  5
2ED
330
1D
100
AcDbEntity
  8
0
100
AcDbLine
 10
148.259056444765
 20
20.160667925894
 30
0.0
 11
148.634688
 21
20.3927465
 31
0.0
  0
LINE
  5
2F7
330
1D
100
AcDbEntity
  8
0
100
AcDbLine
 10
105.427688
 20
103.0428465
 30
0.0
 11
108.166688
 21
97.8462465
 31
0.0
  0
LINE
  5
2FA
330
1D
100
AcDbEntity
  8
0
100
AcDbLine
 10
108.166688
 20
97.8462465
 30
0.0
 11
149.085688
 21
21.3992465
 31
0.0
  0
LINE
  5
2FE
330
1D
100
AcDbEntity
  8
0
100
AcDbLine
 10
73.811388
 20
107.7768465
 30
0.0
 11
74.140588
 21
107.4698465
 31
0.0
  0
LINE
  5
2FF
330
1D
100
AcDbEntity
  8
0
100
AcDbLine
 10
73.811388
 20
107.7768465
 30
0.0
 11
74.85980210471
 21
108.901201450418
 31
0.0
  0
LINE
  5
301
330
1D
100
AcDbEntity
  8
0
100
AcDbLine
 10
74.140588
 20
107.4698465
 30
0.0
 11
74.908488
 21
106.7538465
 31
0.0
  0
LINE
  5
303
330
1D
100
AcDbEntity
  8
0
100
AcDbLine
 10
74.908488
 20
106.7538465
 30
0.0
 11
75.676388
 21
106.0378465
 31
0.0
  0
LINE
  5
305
330
1D
100
AcDbEntity
  8
0
100
AcDbLine
 10
75.676388
 20
106.0378465
 30
0.0
 11
76.005488
 21
105.7308465
 31
0.0
  0
LINE
  5
306
330
1D
100
AcDbEntity
  8
0
100
AcDbLine
 10
76.005488
 20
105.7308465
 30
0.0
 11
77.37882784633
 21
107.203662868923
 31
0.0
  0
LINE
  5
30B
330
1D
100
AcDbEntity
  8
0
100
AcDbLine
 10
77.053688
 20
107.5048465
 30
0.0
 11
77.523288
 21
107.0698465
 31
0.0
  0
LINE
  5
30D
330
1D
100
AcDbEntity
  8
0
100
AcDbLine
 10
74.388289959907
 20
108.395535786622
 30
0.0
 11
74.85980210471
 21
108.901201450418
 31
0.0
  0
LINE
  5
30E
330
1D
100
AcDbEntity
  8
0
100
AcDbLine
 10
75.990188
 20
108.2408465
 30
0.0
 11
77.053688
 21
107.5048465
 31
0.0
  0
LINE
  5
312
330
1D
100
AcDbEntity
  8
0
100
AcDbLine
 10
103.750688
 20
106.7078465
 30
0.0
 11
105.427688
 21
103.0428465
 31
0.0
  0
LINE
  5
314
330
1D
100
AcDbEntity
  8
0
100
AcDbLine
 10
77.561088
 20
107.0258465
 30
0.0
 11
77.593588
 21
106.9858465
 31
0.0
  0
LINE
  5
315
330
1D
100
AcDbEntity
  8
0
100
AcDbLine
 10
77.561088
 20
107.0258465
 30
0.0
 11
77.593488
 21
106.9858465
 31
0.0
  0
LINE
  5
317
330
1D
100
AcDbEntity
  8
0
100
AcDbLine
 10
77.523288
 20
107.0698465
 30
0.0
 11
77.561088
 21
107.0258465
 31
0.0
  0
LINE
  5
319
330
1D
100
AcDbEntity
  8
0
100
AcDbLine
 10
103.635688
 20
107.4348465
 30
0.0
 11
103.750688
 21
106.7078465
 31
0.0
  0
LINE
  5
31A
330
1D
100
AcDbEntity
  8
0
100
AcDbLine
 10
103.419688
 20
108.3308465
 30
0.0
 11
103.635688
 21
107.4348465
 31
0.0
  0
LINE
  5
31B
330
1D
100
AcDbEntity
  8
0
100
AcDbLine
 10
79.996788
 20
107.1678465
 30
0.0
 11
82.886988
 21
104.4738465
 31
0.0
  0
LINE
  5
31C
330
1D
100
AcDbEntity
  8
0
100
AcDbLine
 10
77.143908312502
 20
106.8626230625
 30
0.0
 11
77.480588
 21
106.7588465
 31
0.0
  0
LINE
  5
321
330
1D
100
AcDbEntity
  8
0
100
AcDbLine
 10
72.068588
 20
108.5488465
 30
0.0
 11
72.418488
 21
108.5048465
 31
0.0
  0
LINE
  5
323
330
1D
100
AcDbEntity
  8
0
100
AcDbLine
 10
66.375988
 20
108.9678465
 30
0.0
 11
66.705088
 21
108.6608465
 31
0.0
  0
LINE
  5
325
330
1D
100
AcDbEntity
  8
0
100
AcDbLine
 10
64.953088
 20
108.9278465
 30
0.0
 11
65.282188
 21
108.6208465
 31
0.0
  0
LINE
  5
326
330
1D
100
AcDbEntity
  8
0
100
AcDbLine
 10
64.953088
 20
108.9278465
 30
0.0
 11
65.634900849619
 21
109.658845848448
 31
0.0
  0
LINE
  5
327
330
1D
100
AcDbEntity
  8
0
100
AcDbLine
 10
66.751790052173
 20
108.710931369441
 30
0.0
 11
67.050088
 21
108.3658465
 31
0.0
  0
LINE
  5
328
330
1D
100
AcDbEntity
  8
0
100
AcDbLine
 10
64.511088
 20
110.7068465
 30
0.0
 11
64.840188
 21
110.3998465
 31
0.0
  0
LINE
  5
329
330
1D
100
AcDbEntity
  8
0
100
AcDbLine
 10
64.511088
 20
110.7068465
 30
0.0
 11
65.409539391279
 21
111.670376335164
 31
0.0
  0
LINE
  5
32A
330
1D
100
AcDbEntity
  8
0
100
AcDbLine
 10
64.511088
 20
110.7068465
 30
0.0
 11
64.646620023565
 21
110.852195652545
 31
0.0
  0
LINE
  5
32C
330
1D
100
AcDbEntity
  8
0
100
AcDbLine
 10
64.840188
 20
110.3998465
 30
0.0
 11
65.608088
 21
109.6838465
 31
0.0
  0
LINE
  5
32F
330
1D
100
AcDbEntity
  8
0
100
AcDbLine
 10
65.608088
 20
109.6838465
 30
0.0
 11
66.375988
 21
108.9678465
 31
0.0
  0
LINE
  5
331
330
1D
100
AcDbEntity
  8
0
100
AcDbLine
 10
67.292363270375
 20
109.290660477642
 30
0.0
 11
67.729688
 21
108.9968465
 31
0.0
  0
LINE
  5
332
330
1D
100
AcDbEntity
  8
0
100
AcDbLine
 10
66.760688
 20
110.5638465
 30
0.0
 11
67.795288
 21
109.5018465
 31
0.0
  0
LINE
  5
333
330
1D
100
AcDbEntity
  8
0
100
AcDbLine
 10
67.729688
 20
108.9968465
 30
0.0
 11
67.989688
 21
108.9408465
 31
0.0
  0
LINE
  5
337
330
1D
100
AcDbEntity
  8
0
100
AcDbLine
 10
67.989688
 20
108.9408465
 30
0.0
 11
68.007888
 21
109.0898465
 31
0.0
  0
LINE
  5
338
330
1D
100
AcDbEntity
  8
0
100
AcDbLine
 10
68.394088
 20
109.4108465
 30
0.0
 11
68.723188
 21
109.1038465
 31
0.0
  0
LINE
  5
339
330
1D
100
AcDbEntity
  8
0
100
AcDbLine
 10
68.394088
 20
109.4108465
 30
0.0
 11
69.523105843218
 21
110.621312551263
 31
0.0
  0
LINE
  5
33B
330
1D
100
AcDbEntity
  8
0
100
AcDbLine
 10
68.723188
 20
109.1038465
 30
0.0
 11
69.491088
 21
108.3878465
 31
0.0
  0
LINE
  5
342
330
1D
100
AcDbEntity
  8
0
100
AcDbLine
 10
67.795288
 20
109.5018465
 30
0.0
 11
68.007888
 21
109.0898465
 31
0.0
  0
LINE
  5
343
330
1D
100
AcDbEntity
  8
0
100
AcDbLine
 10
64.384488
 20
112.0788465
 30
0.0
 11
64.778375992772
 21
111.630617946185
 31
0.0
  0
LINE
  5
344
330
1D
100
AcDbEntity
  8
0
100
AcDbLine
 10
65.079066719867
 20
111.315966200456
 30
0.0
 11
65.409539391279
 21
111.670376335164
 31
0.0
  0
LINE
  5
346
330
1D
100
AcDbEntity
  8
0
100
AcDbLine
 10
65.913288
 20
111.7238465
 30
0.0
 11
67.390626258219
 21
113.30819430361
 31
0.0
  0
LINE
  5
348
330
1D
100
AcDbEntity
  8
0
100
AcDbLine
 10
65.584188
 20
112.0308465
 30
0.0
 11
65.913288
 21
111.7238465
 31
0.0
  0
LINE
  5
34B
330
1D
100
AcDbEntity
  8
0
100
AcDbLine
 10
65.470288
 20
111.6298465
 30
0.0
 11
66.760688
 21
110.5638465
 31
0.0
  0
LINE
  5
34C
330
1D
100
AcDbEntity
  8
0
100
AcDbLine
 10
64.740888
 20
111.6698465
 30
0.0
 11
65.079066719867
 21
111.315966200456
 31
0.0
  0
LINE
  5
350
330
1D
100
AcDbEntity
  8
0
100
AcDbLine
 10
64.680388
 20
112.1568465
 30
0.0
 11
65.470288
 21
111.6298465
 31
0.0
  0
LINE
  5
354
330
1D
100
AcDbEntity
  8
0
100
AcDbLine
 10
69.792388
 20
111.5248465
 30
0.0
 11
70.560388
 21
110.8088465
 31
0.0
  0
LINE
  5
356
330
1D
100
AcDbEntity
  8
0
100
AcDbLine
 10
68.780888
 20
110.8308465
 30
0.0
 11
69.296818031975
 21
110.37870016478
 31
0.0
  0
LINE
  5
357
330
1D
100
AcDbEntity
  8
0
100
AcDbLine
 10
68.778288
 20
110.9658465
 30
0.0
 11
69.187688
 21
110.8188465
 31
0.0
  0
LINE
  5
358
330
1D
100
AcDbEntity
  8
0
100
AcDbLine
 10
68.778288
 20
110.9658465
 30
0.0
 11
68.780888
 21
110.8308465
 31
0.0
  0
LINE
  5
359
330
1D
100
AcDbEntity
  8
0
100
AcDbLine
 10
69.187688
 20
110.8188465
 30
0.0
 11
70.220088
 21
110.2108465
 31
0.0
  0
LINE
  5
35A
330
1D
100
AcDbEntity
  8
0
100
AcDbLine
 10
70.889488
 20
110.5018465
 30
0.0
 11
72.219870406906
 21
111.928593849576
 31
0.0
  0
LINE
  5
35C
330
1D
100
AcDbEntity
  8
0
100
AcDbLine
 10
70.560388
 20
110.8088465
 30
0.0
 11
70.889488
 21
110.5018465
 31
0.0
  0
LINE
  5
364
330
1D
100
AcDbEntity
  8
0
100
AcDbLine
 10
71.324588
 20
109.4678465
 30
0.0
 11
72.136588
 21
108.8358465
 31
0.0
  0
LINE
  5
365
330
1D
100
AcDbEntity
  8
0
100
AcDbLine
 10
70.220088
 20
110.2108465
 30
0.0
 11
71.324588
 21
109.4678465
 31
0.0
  0
LINE
  5
366
330
1D
100
AcDbEntity
  8
0
100
AcDbLine
 10
64.332088
 20
112.3308465
 30
0.0
 11
64.384488
 21
112.0788465
 31
0.0
  0
LINE
  5
367
330
1D
100
AcDbEntity
  8
0
100
AcDbLine
 10
64.332088
 20
112.3308465
 30
0.0
 11
64.680388
 21
112.1568465
 31
0.0
  0
LINE
  5
368
330
1D
100
AcDbEntity
  8
0
100
AcDbLine
 10
68.695388
 20
112.5478465
 30
0.0
 11
69.024488
 21
112.2408465
 31
0.0
  0
LINE
  5
369
330
1D
100
AcDbEntity
  8
0
100
AcDbLine
 10
68.695388
 20
112.5478465
 30
0.0
 11
69.673949678089
 21
113.597289331897
 31
0.0
  0
LINE
  5
36B
330
1D
100
AcDbEntity
  8
0
100
AcDbLine
 10
69.024488
 20
112.2408465
 30
0.0
 11
69.792388
 21
111.5248465
 31
0.0
  0
LINE
  5
36D
330
1D
100
AcDbEntity
  8
0
100
AcDbLine
 10
71.607988
 20
112.4468465
 30
0.0
 11
72.179288
 21
111.9728465
 31
0.0
  0
LINE
  5
36F
330
1D
100
AcDbEntity
  8
0
100
AcDbLine
 10
64.816288
 20
112.7468465
 30
0.0
 11
65.584188
 21
112.0308465
 31
0.0
  0
LINE
  5
373
330
1D
100
AcDbEntity
  8
0
100
AcDbLine
 10
67.720488
 20
112.5768465
 30
0.0
 11
68.070588
 21
112.5228465
 31
0.0
  0
LINE
  5
37B
330
1D
100
AcDbEntity
  8
0
100
AcDbLine
 10
71.838803458586
 20
111.519924691216
 30
0.0
 11
72.535088
 21
111.2858465
 31
0.0
  0
LINE
  5
37E
330
1D
100
AcDbEntity
  8
0
100
AcDbLine
 10
67.159688
 20
113.5108465
 30
0.0
 11
67.755688
 21
112.9878465
 31
0.0
  0
LINE
  5
37F
330
1D
100
AcDbEntity
  8
0
100
AcDbLine
 10
66.310488
 20
114.1618465
 30
0.0
 11
67.159688
 21
113.5108465
 31
0.0
  0
LINE
  5
380
330
1D
100
AcDbEntity
  8
0
100
AcDbLine
 10
68.817188
 20
113.8438465
 30
0.0
 11
68.867688
 21
113.5768465
 31
0.0
  0
LINE
  5
381
330
1D
100
AcDbEntity
  8
0
100
AcDbLine
 10
68.817188
 20
113.8438465
 30
0.0
 11
69.437988
 21
113.7128465
 31
0.0
  0
LINE
  5
382
330
1D
100
AcDbEntity
  8
0
100
AcDbLine
 10
67.755688
 20
112.9878465
 30
0.0
 11
68.070588
 21
112.5228465
 31
0.0
  0
LINE
  5
384
330
1D
100
AcDbEntity
  8
0
100
AcDbLine
 10
65.069688
 20
114.9758465
 30
0.0
 11
66.310488
 21
114.1618465
 31
0.0
  0
LINE
  5
388
330
1D
100
AcDbEntity
  8
0
100
AcDbLine
 10
68.867688
 20
113.5768465
 30
0.0
 11
69.227688
 21
113.1788465
 31
0.0
  0
LINE
  5
389
330
1D
100
AcDbEntity
  8
0
100
AcDbLine
 10
70.528388
 20
113.1788465
 30
0.0
 11
71.607988
 21
112.4468465
 31
0.0
  0
LINE
  5
38B
330
1D
100
AcDbEntity
  8
0
100
AcDbLine
 10
69.437988
 20
113.7128465
 30
0.0
 11
70.528388
 21
113.1788465
 31
0.0
  0
LINE
  5
38D
330
1D
100
AcDbEntity
  8
0
100
AcDbLine
 10
67.053141083029
 20
112.946263721301
 30
0.0
 11
67.720488
 21
112.5768465
 31
0.0
  0
LINE
  5
390
330
1D
100
AcDbEntity
  8
0
100
AcDbLine
 10
77.932052065872
 20
109.092956289403
 30
0.0
 11
78.027588
 21
108.9908465
 31
0.0
  0
LINE
  5
391
330
1D
100
AcDbEntity
  8
0
100
AcDbLine
 10
73.717688
 20
108.9018465
 30
0.0
 11
74.388289959907
 21
108.395535786622
 31
0.0
  0
LINE
  5
395
330
1D
100
AcDbEntity
  8
0
100
AcDbLine
 10
72.179288
 20
111.9728465
 30
0.0
 11
72.566288
 21
111.5508465
 31
0.0
  0
LINE
  5
396
330
1D
100
AcDbEntity
  8
0
100
AcDbLine
 10
102.832688
 20
109.1618465
 30
0.0
 11
103.362688
 21
108.4388465
 31
0.0
  0
LINE
  5
397
330
1D
100
AcDbEntity
  8
0
100
AcDbLine
 10
102.832688
 20
109.1618465
 30
0.0
 11
103.419688
 21
108.3308465
 31
0.0
  0
LINE
  5
399
330
1D
100
AcDbEntity
  8
0
100
AcDbLine
 10
73.186388
 20
113.5168465
 30
0.0
 11
76.752388
 21
110.1928465
 31
0.0
  0
LINE
  5
39B
330
1D
100
AcDbEntity
  8
0
100
AcDbLine
 10
76.752388
 20
110.1928465
 30
0.0
 11
79.996788
 21
107.1678465
 31
0.0
  0
LINE
  5
39F
330
1D
100
AcDbEntity
  8
0
100
AcDbLine
 10
73.564288
 20
109.4368465
 30
0.0
 11
74.523188
 21
109.0978465
 31
0.0
  0
LINE
  5
3A0
330
1D
100
AcDbEntity
  8
0
100
AcDbLine
 10
73.316188
 20
109.3678465
 30
0.0
 11
73.717688
 21
108.9018465
 31
0.0
  0
LINE
  5
3A1
330
1D
100
AcDbEntity
  8
0
100
AcDbLine
 10
73.316188
 20
109.3678465
 30
0.0
 11
73.564288
 21
109.4368465
 31
0.0
  0
LINE
  5
3A2
330
1D
100
AcDbEntity
  8
0
100
AcDbLine
 10
72.535088
 20
111.2858465
 30
0.0
 11
72.566288
 21
111.5508465
 31
0.0
  0
LINE
  5
3A3
330
1D
100
AcDbEntity
  8
0
100
AcDbLine
 10
74.523188
 20
109.0978465
 30
0.0
 11
75.990188
 21
108.2408465
 31
0.0
  0
LINE
  5
3A4
330
1D
100
AcDbEntity
  8
0
100
AcDbLine
 10
72.136588
 20
108.8358465
 30
0.0
 11
72.418488
 21
108.5048465
 31
0.0
  0
LINE
  5
3A5
330
1D
100
AcDbEntity
  8
0
100
AcDbLine
 10
71.81911057699
 20
108.684568770227
 30
0.0
 11
72.068588
 21
108.5488465
 31
0.0
  0
LINE
  5
3A6
330
1D
100
AcDbEntity
  8
0
100
AcDbLine
 10
64.060688
 20
115.2298465
 30
0.0
 11
64.579310209323
 21
114.692163573165
 31
0.0
  0
LINE
  5
3A7
330
1D
100
AcDbEntity
  8
0
100
AcDbLine
 10
64.060688
 20
115.2298465
 30
0.0
 11
64.176188
 21
115.3998465
 31
0.0
  0
LINE
  5
3A8
330
1D
100
AcDbEntity
  8
0
100
AcDbLine
 10
49.996588
 20
124.2418465
 30
0.0
 11
51.328241176146
 21
125.669956665738
 31
0.0
  0
LINE
  5
3AA
330
1D
100
AcDbEntity
  8
0
100
AcDbLine
 10
49.667488
 20
124.5488465
 30
0.0
 11
49.996588
 21
124.2418465
 31
0.0
  0
LINE
  5
3AE
330
1D
100
AcDbEntity
  8
0
100
AcDbLine
 10
51.397088
 20
123.0068465
 30
0.0
 11
51.751688
 21
122.6178465
 31
0.0
  0
LINE
  5
3AF
330
1D
100
AcDbEntity
  8
0
100
AcDbLine
 10
51.397088
 20
123.0068465
 30
0.0
 11
51.464788
 21
123.0598465
 31
0.0
  0
LINE
  5
3B0
330
1D
100
AcDbEntity
  8
0
100
AcDbLine
 10
51.655188
 20
122.0118465
 30
0.0
 11
51.984288
 21
121.7048465
 31
0.0
  0
LINE
  5
3B1
330
1D
100
AcDbEntity
  8
0
100
AcDbLine
 10
51.655188
 20
122.0118465
 30
0.0
 11
52.195276835863
 21
122.591056140102
 31
0.0
  0
LINE
  5
3B2
330
1D
100
AcDbEntity
  8
0
100
AcDbLine
 10
52.001865826369
 20
122.383635594144
 30
0.0
 11
52.195276835863
 21
122.591056140102
 31
0.0
  0
LINE
  5
3B4
330
1D
100
AcDbEntity
  8
0
100
AcDbLine
 10
51.984288
 20
121.7048465
 30
0.0
 11
52.752188
 21
120.9888465
 31
0.0
  0
LINE
  5
3B5
330
1D
100
AcDbEntity
  8
0
100
AcDbLine
 10
51.751688
 20
122.6178465
 30
0.0
 11
52.001865826369
 21
122.383635594144
 31
0.0
  0
LINE
  5
3B7
330
1D
100
AcDbEntity
  8
0
100
AcDbLine
 10
52.752188
 20
120.9888465
 30
0.0
 11
53.520088
 21
120.2728465
 31
0.0
  0
LINE
  5
3B8
330
1D
100
AcDbEntity
  8
0
100
AcDbLine
 10
52.030188
 20
122.7138465
 30
0.0
 11
52.943088
 21
122.0348465
 31
0.0
  0
LINE
  5
3B9
330
1D
100
AcDbEntity
  8
0
100
AcDbLine
 10
51.464788
 20
123.0598465
 30
0.0
 11
52.030188
 21
122.7138465
 31
0.0
  0
LINE
  5
3BB
330
1D
100
AcDbEntity
  8
0
100
AcDbLine
 10
52.704188
 20
124.0418465
 30
0.0
 11
53.472088
 21
123.3258465
 31
0.0
  0
LINE
  5
3BF
330
1D
100
AcDbEntity
  8
0
100
AcDbLine
 10
51.607188
 20
125.0648465
 30
0.0
 11
51.936288
 21
124.7578465
 31
0.0
  0
LINE
  5
3C0
330
1D
100
AcDbEntity
  8
0
100
AcDbLine
 10
51.607188
 20
125.0648465
 30
0.0
 11
52.975270095956
 21
126.531623081471
 31
0.0
  0
LINE
  5
3C2
330
1D
100
AcDbEntity
  8
0
100
AcDbLine
 10
51.936288
 20
124.7578465
 30
0.0
 11
52.704188
 21
124.0418465
 31
0.0
  0
LINE
  5
3C5
330
1D
100
AcDbEntity
  8
0
100
AcDbLine
 10
48.899588
 20
125.2648465
 30
0.0
 11
49.667488
 21
124.5488465
 31
0.0
  0
LINE
  5
3C8
330
1D
100
AcDbEntity
  8
0
100
AcDbLine
 10
45.136788
 20
125.8278465
 30
0.0
 11
45.352088
 21
125.6998465
 31
0.0
  0
LINE
  5
3C9
330
1D
100
AcDbEntity
  8
0
100
AcDbLine
 10
45.352088
 20
125.6998465
 30
0.0
 11
46.095981621894
 21
126.339181375833
 31
0.0
  0
LINE
  5
3CB
330
1D
100
AcDbEntity
  8
0
100
AcDbLine
 10
45.113488
 20
125.9488465
 30
0.0
 11
45.352088
 21
125.6998465
 31
0.0
  0
LINE
  5
3CE
330
1D
100
AcDbEntity
  8
0
100
AcDbLine
 10
47.040288
 20
125.4738465
 30
0.0
 11
48.236988
 21
124.2178465
 31
0.0
  0
LINE
  5
3D0
330
1D
100
AcDbEntity
  8
0
100
AcDbLine
 10
48.131688
 20
125.9808465
 30
0.0
 11
48.899588
 21
125.2648465
 31
0.0
  0
LINE
  5
3D1
330
1D
100
AcDbEntity
  8
0
100
AcDbLine
 10
47.995688
 20
125.5728465
 30
0.0
 11
51.813008932165
 21
122.181099036342
 31
0.0
  0
LINE
  5
3D4
330
1D
100
AcDbEntity
  8
0
100
AcDbLine
 10
51.082613425356
 20
125.406537110126
 30
0.0
 11
51.323088
 21
125.2528465
 31
0.0
  0
LINE
  5
3D9
330
1D
100
AcDbEntity
  8
0
100
AcDbLine
 10
45.79695390419
 20
126.082183811744
 30
0.0
 11
48.236988
 21
124.2178465
 31
0.0
  0
LINE
  5
3DB
330
1D
100
AcDbEntity
  8
0
100
AcDbLine
 10
50.989688
 20
126.0448465
 30
0.0
 11
51.430388
 21
125.5568465
 31
0.0
  0
LINE
  5
3E0
330
1D
100
AcDbEntity
  8
0
100
AcDbLine
 10
52.475050315045
 20
125.995317064166
 30
0.0
 11
52.975270095956
 21
126.531623081471
 31
0.0
  0
LINE
  5
3E2
330
1D
100
AcDbEntity
  8
0
100
AcDbLine
 10
51.430388
 20
125.5568465
 30
0.0
 11
51.670188
 21
125.1998465
 31
0.0
  0
LINE
  5
3E3
330
1D
100
AcDbEntity
  8
0
100
AcDbLine
 10
51.323088
 20
125.2528465
 30
0.0
 11
51.670188
 21
125.1998465
 31
0.0
  0
LINE
  5
3E8
330
1D
100
AcDbEntity
  8
0
100
AcDbLine
 10
44.111788
 20
126.5638465
 30
0.0
 11
44.407488
 21
126.3428465
 31
0.0
  0
LINE
  5
3EC
330
1D
100
AcDbEntity
  8
0
100
AcDbLine
 10
44.407488
 20
126.3428465
 30
0.0
 11
45.136788
 21
125.8278465
 31
0.0
  0
LINE
  5
3F1
330
1D
100
AcDbEntity
  8
0
100
AcDbLine
 10
47.802588
 20
126.2878465
 30
0.0
 11
48.131688
 21
125.9808465
 31
0.0
  0
LINE
  5
3F2
330
1D
100
AcDbEntity
  8
0
100
AcDbLine
 10
47.802588
 20
126.2878465
 30
0.0
 11
49.066301364228
 21
127.643095700288
 31
0.0
  0
LINE
  5
3F4
330
1D
100
AcDbEntity
  8
0
100
AcDbLine
 10
43.834188
 20
126.7698465
 30
0.0
 11
44.111788
 21
126.5638465
 31
0.0
  0
LINE
  5
3F8
330
1D
100
AcDbEntity
  8
0
100
AcDbLine
 10
44.213888
 20
126.6708465
 30
0.0
 11
45.113488
 21
125.9488465
 31
0.0
  0
LINE
  5
3FA
330
1D
100
AcDbEntity
  8
0
100
AcDbLine
 10
50.365188
 20
126.6288465
 30
0.0
 11
50.989688
 21
126.0448465
 31
0.0
  0
LINE
  5
3FE
330
1D
100
AcDbEntity
  8
0
100
AcDbLine
 10
52.037288
 20
126.4818465
 30
0.0
 11
52.468749880139
 21
125.988562111081
 31
0.0
  0
LINE
  5
3FF
330
1D
100
AcDbEntity
  8
0
100
AcDbLine
 10
51.804788
 20
126.8948465
 30
0.0
 11
51.895188
 21
127.0398465
 31
0.0
  0
LINE
  5
400
330
1D
100
AcDbEntity
  8
0
100
AcDbLine
 10
51.804788
 20
126.8948465
 30
0.0
 11
52.037288
 21
126.4818465
 31
0.0
  0
LINE
  5
406
330
1D
100
AcDbEntity
  8
0
100
AcDbLine
 10
56.957588
 20
117.0668465
 30
0.0
 11
57.286688
 21
116.7598465
 31
0.0
  0
LINE
  5
407
330
1D
100
AcDbEntity
  8
0
100
AcDbLine
 10
56.957588
 20
117.0668465
 30
0.0
 11
57.426276649305
 21
117.569498891715
 31
0.0
  0
LINE
  5
408
330
1D
100
AcDbEntity
  8
0
100
AcDbLine
 10
56.957588
 20
117.0668465
 30
0.0
 11
57.116918073672
 21
117.237722502059
 31
0.0
  0
LINE
  5
409
330
1D
100
AcDbEntity
  8
0
100
AcDbLine
 10
57.291888
 20
117.4388465
 30
0.0
 11
58.451249133502
 21
118.682184818245
 31
0.0
  0
LINE
  5
40B
330
1D
100
AcDbEntity
  8
0
100
AcDbLine
 10
57.298879376193
 20
117.432869715559
 30
0.0
 11
57.426276649305
 21
117.569498891715
 31
0.0
  0
LINE
  5
40D
330
1D
100
AcDbEntity
  8
0
100
AcDbLine
 10
57.286688
 20
116.7598465
 30
0.0
 11
58.054588
 21
116.0438465
 31
0.0
  0
LINE
  5
40F
330
1D
100
AcDbEntity
  8
0
100
AcDbLine
 10
58.054588
 20
116.0438465
 30
0.0
 11
58.822488
 21
115.3278465
 31
0.0
  0
LINE
  5
411
330
1D
100
AcDbEntity
  8
0
100
AcDbLine
 10
57.41876655366
 20
117.574915377049
 30
0.0
 11
58.146788
 21
117.0498465
 31
0.0
  0
LINE
  5
412
330
1D
100
AcDbEntity
  8
0
100
AcDbLine
 10
58.146788
 20
117.0498465
 30
0.0
 11
59.444488
 21
116.0308465
 31
0.0
  0
LINE
  5
413
330
1D
100
AcDbEntity
  8
0
100
AcDbLine
 10
59.444488
 20
116.0308465
 30
0.0
 11
60.570088
 21
115.0128465
 31
0.0
  0
LINE
  5
415
330
1D
100
AcDbEntity
  8
0
100
AcDbLine
 10
59.953188
 20
117.2818465
 30
0.0
 11
60.282288
 21
116.9748465
 31
0.0
  0
LINE
  5
417
330
1D
100
AcDbEntity
  8
0
100
AcDbLine
 10
59.64447561912
 20
115.549435949595
 30
0.0
 11
60.013588
 21
115.2738465
 31
0.0
  0
LINE
  5
419
330
1D
100
AcDbEntity
  8
0
100
AcDbLine
 10
59.185288
 20
117.9978465
 30
0.0
 11
59.953188
 21
117.2818465
 31
0.0
  0
LINE
  5
41B
330
1D
100
AcDbEntity
  8
0
100
AcDbLine
 10
56.962788
 20
117.7458465
 30
0.0
 11
57.291888
 21
117.4388465
 31
0.0
  0
LINE
  5
41D
330
1D
100
AcDbEntity
  8
0
100
AcDbLine
 10
56.915188
 20
117.4148465
 30
0.0
 11
57.116918073672
 21
117.237722502059
 31
0.0
  0
LINE
  5
41E
330
1D
100
AcDbEntity
  8
0
100
AcDbLine
 10
53.849188
 20
119.9658465
 30
0.0
 11
54.510323826089
 21
120.674871050149
 31
0.0
  0
LINE
  5
420
330
1D
100
AcDbEntity
  8
0
100
AcDbLine
 10
53.520088
 20
120.2728465
 30
0.0
 11
53.849188
 21
119.9658465
 31
0.0
  0
LINE
  5
421
330
1D
100
AcDbEntity
  8
0
100
AcDbLine
 10
53.801288
 20
123.0188465
 30
0.0
 11
55.189872002803
 21
124.507647671368
 31
0.0
  0
LINE
  5
423
330
1D
100
AcDbEntity
  8
0
100
AcDbLine
 10
53.472088
 20
123.3258465
 30
0.0
 11
53.801288
 21
123.0188465
 31
0.0
  0
LINE
  5
424
330
1D
100
AcDbEntity
  8
0
100
AcDbLine
 10
52.943088
 20
122.0348465
 30
0.0
 11
53.873588
 21
121.2588465
 31
0.0
  0
LINE
  5
425
330
1D
100
AcDbEntity
  8
0
100
AcDbLine
 10
53.873588
 20
121.2588465
 30
0.0
 11
54.596488
 21
120.5958465
 31
0.0
  0
LINE
  5
428
330
1D
100
AcDbEntity
  8
0
100
AcDbLine
 10
54.04696318294
 20
120.177947334021
 30
0.0
 11
56.065388
 21
118.3048465
 31
0.0
  0
LINE
  5
42A
330
1D
100
AcDbEntity
  8
0
100
AcDbLine
 10
53.650288
 20
126.0558465
 30
0.0
 11
54.219788
 21
125.5948465
 31
0.0
  0
LINE
  5
42B
330
1D
100
AcDbEntity
  8
0
100
AcDbLine
 10
54.579788
 20
120.3508465
 30
0.0
 11
54.845988
 21
120.2658465
 31
0.0
  0
LINE
  5
430
330
1D
100
AcDbEntity
  8
0
100
AcDbLine
 10
54.356824343722
 20
120.510252983575
 30
0.0
 11
54.579788
 21
120.3508465
 31
0.0
  0
LINE
  5
431
330
1D
100
AcDbEntity
  8
0
100
AcDbLine
 10
54.356824343722
 20
120.510252983575
 30
0.0
 11
54.510323826089
 21
120.674871050149
 31
0.0
  0
LINE
  5
432
330
1D
100
AcDbEntity
  8
0
100
AcDbLine
 10
54.596488
 20
120.5958465
 30
0.0
 11
54.845988
 21
120.2658465
 31
0.0
  0
LINE
  5
435
330
1D
100
AcDbEntity
  8
0
100
AcDbLine
 10
54.219788
 20
125.5948465
 30
0.0
 11
55.258288
 21
124.4178465
 31
0.0
  0
LINE
  5
43A
330
1D
100
AcDbEntity
  8
0
100
AcDbLine
 10
56.194888
 20
118.4618465
 30
0.0
 11
56.962788
 21
117.7458465
 31
0.0
  0
LINE
  5
43B
330
1D
100
AcDbEntity
  8
0
100
AcDbLine
 10
56.065388
 20
118.3048465
 30
0.0
 11
56.915188
 21
117.4148465
 31
0.0
  0
LINE
  5
43C
330
1D
100
AcDbEntity
  8
0
100
AcDbLine
 10
55.097788
 20
119.4848465
 30
0.0
 11
55.426888
 21
119.1778465
 31
0.0
  0
LINE
  5
43D
330
1D
100
AcDbEntity
  8
0
100
AcDbLine
 10
55.097788
 20
119.4848465
 30
0.0
 11
56.345797343972
 21
120.823254174752
 31
0.0
  0
LINE
  5
43F
330
1D
100
AcDbEntity
  8
0
100
AcDbLine
 10
55.426888
 20
119.1778465
 30
0.0
 11
56.194888
 21
118.4618465
 31
0.0
  0
LINE
  5
440
330
1D
100
AcDbEntity
  8
0
100
AcDbLine
 10
56.032918403818
 20
120.487712155942
 30
0.0
 11
56.345797343972
 21
120.823254174752
 31
0.0
  0
LINE
  5
443
330
1D
100
AcDbEntity
  8
0
100
AcDbLine
 10
58.088188
 20
119.0208465
 30
0.0
 11
58.417288
 21
118.7138465
 31
0.0
  0
LINE
  5
444
330
1D
100
AcDbEntity
  8
0
100
AcDbLine
 10
58.088188
 20
119.0208465
 30
0.0
 11
59.326979568133
 21
120.349368718376
 31
0.0
  0
LINE
  5
446
330
1D
100
AcDbEntity
  8
0
100
AcDbLine
 10
58.417288
 20
118.7138465
 30
0.0
 11
59.185288
 21
117.9978465
 31
0.0
  0
LINE
  5
447
330
1D
100
AcDbEntity
  8
0
100
AcDbLine
 10
58.513988
 20
119.6438465
 30
0.0
 11
58.60196903762
 21
119.571842762339
 31
0.0
  0
LINE
  5
44A
330
1D
100
AcDbEntity
  8
0
100
AcDbLine
 10
56.861488
 20
120.4548465
 30
0.0
 11
57.667388
 21
119.8228465
 31
0.0
  0
LINE
  5
44B
330
1D
100
AcDbEntity
  8
0
100
AcDbLine
 10
57.667388
 20
119.8228465
 30
0.0
 11
58.315691967823
 21
119.264829494231
 31
0.0
  0
LINE
  5
44C
330
1D
100
AcDbEntity
  8
0
100
AcDbLine
 10
56.217588
 20
120.9148465
 30
0.0
 11
56.861488
 21
120.4548465
 31
0.0
  0
LINE
  5
44F
330
1D
100
AcDbEntity
  8
0
100
AcDbLine
 10
58.610788
 20
120.6298465
 30
0.0
 11
59.184788
 21
120.4388465
 31
0.0
  0
LINE
  5
454
330
1D
100
AcDbEntity
  8
0
100
AcDbLine
 10
55.185888
 20
121.4668465
 30
0.0
 11
55.343888
 21
121.1518465
 31
0.0
  0
LINE
  5
455
330
1D
100
AcDbEntity
  8
0
100
AcDbLine
 10
55.185888
 20
121.4668465
 30
0.0
 11
55.687288
 21
121.2428465
 31
0.0
  0
LINE
  5
457
330
1D
100
AcDbEntity
  8
0
100
AcDbLine
 10
57.210988
 20
121.0718465
 30
0.0
 11
58.513988
 21
119.6438465
 31
0.0
  0
LINE
  5
459
330
1D
100
AcDbEntity
  8
0
100
AcDbLine
 10
57.210988
 20
121.0718465
 30
0.0
 11
57.263388
 21
121.0678465
 31
0.0
  0
LINE
  5
45B
330
1D
100
AcDbEntity
  8
0
100
AcDbLine
 10
56.920688
 20
123.5278465
 30
0.0
 11
57.688588
 21
122.8118465
 31
0.0
  0
LINE
  5
45D
330
1D
100
AcDbEntity
  8
0
100
AcDbLine
 10
57.688588
 20
122.8118465
 30
0.0
 11
58.456588
 21
122.0958465
 31
0.0
  0
LINE
  5
45F
330
1D
100
AcDbEntity
  8
0
100
AcDbLine
 10
58.456588
 20
122.0958465
 30
0.0
 11
58.785688
 21
121.7888465
 31
0.0
  0
LINE
  5
461
330
1D
100
AcDbEntity
  8
0
100
AcDbLine
 10
55.687288
 20
121.2428465
 30
0.0
 11
56.217588
 21
120.9148465
 31
0.0
  0
LINE
  5
462
330
1D
100
AcDbEntity
  8
0
100
AcDbLine
 10
55.343888
 20
121.1518465
 30
0.0
 11
56.024431663982
 21
120.478610687443
 31
0.0
  0
LINE
  5
463
330
1D
100
AcDbEntity
  8
0
100
AcDbLine
 10
56.591588
 20
123.8348465
 30
0.0
 11
56.920688
 21
123.5278465
 31
0.0
  0
LINE
  5
464
330
1D
100
AcDbEntity
  8
0
100
AcDbLine
 10
56.591588
 20
123.8348465
 30
0.0
 11
57.715269153319
 21
125.03992039375
 31
0.0
  0
LINE
  5
468
330
1D
100
AcDbEntity
  8
0
100
AcDbLine
 10
57.179012591271
 20
124.464820614451
 30
0.0
 11
57.715269153319
 21
125.03992039375
 31
0.0
  0
LINE
  5
469
330
1D
100
AcDbEntity
  8
0
100
AcDbLine
 10
57.076388
 20
124.5728465
 30
0.0
 11
57.179012591271
 21
124.464820614451
 31
0.0
  0
LINE
  5
46E
330
1D
100
AcDbEntity
  8
0
100
AcDbLine
 10
56.742188
 20
125.1328465
 30
0.0
 11
57.193388
 21
125.2968465
 31
0.0
  0
LINE
  5
46F
330
1D
100
AcDbEntity
  8
0
100
AcDbLine
 10
56.742188
 20
125.1328465
 30
0.0
 11
57.076388
 21
124.5728465
 31
0.0
  0
LINE
  5
470
330
1D
100
AcDbEntity
  8
0
100
AcDbLine
 10
57.193388
 20
125.2968465
 30
0.0
 11
58.135888
 21
124.8328465
 31
0.0
  0
LINE
  5
471
330
1D
100
AcDbEntity
  8
0
100
AcDbLine
 10
58.135888
 20
124.8328465
 30
0.0
 11
58.888088
 21
124.3078465
 31
0.0
  0
LINE
  5
472
330
1D
100
AcDbEntity
  8
0
100
AcDbLine
 10
55.258288
 20
124.4178465
 30
0.0
 11
55.641688
 21
124.0488465
 31
0.0
  0
LINE
  5
473
330
1D
100
AcDbEntity
  8
0
100
AcDbLine
 10
55.624088
 20
123.7888465
 30
0.0
 11
55.641688
 21
124.0488465
 31
0.0
  0
LINE
  5
474
330
1D
100
AcDbEntity
  8
0
100
AcDbLine
 10
54.845096695708
 20
124.137989170315
 30
0.0
 11
55.624088
 21
123.7888465
 31
0.0
  0
LINE
  5
475
330
1D
100
AcDbEntity
  8
0
100
AcDbLine
 10
57.263388
 20
121.0678465
 30
0.0
 11
58.610788
 21
120.6298465
 31
0.0
  0
LINE
  5
476
330
1D
100
AcDbEntity
  8
0
100
AcDbLine
 10
58.785688
 20
121.7888465
 30
0.0
 11
60.088069818761
 21
123.185565066337
 31
0.0
  0
LINE
  5
480
330
1D
100
AcDbEntity
  8
0
100
AcDbLine
 10
60.013288
 20
122.4858465
 30
0.0
 11
60.401088
 21
122.6028465
 31
0.0
  0
LINE
  5
481
330
1D
100
AcDbEntity
  8
0
100
AcDbLine
 10
59.59996930874
 20
122.662109475385
 30
0.0
 11
60.013288
 21
122.4858465
 31
0.0
  0
LINE
  5
482
330
1D
100
AcDbEntity
  8
0
100
AcDbLine
 10
58.888088
 20
124.3078465
 30
0.0
 11
59.541288
 21
123.7578465
 31
0.0
  0
LINE
  5
483
330
1D
100
AcDbEntity
  8
0
100
AcDbLine
 10
59.541288
 20
123.7578465
 30
0.0
 11
60.103088
 21
123.1698465
 31
0.0
  0
LINE
  5
485
330
1D
100
AcDbEntity
  8
0
100
AcDbLine
 10
60.103088
 20
123.1698465
 30
0.0
 11
60.401088
 21
122.6028465
 31
0.0
  0
LINE
  5
486
330
1D
100
AcDbEntity
  8
0
100
AcDbLine
 10
59.184788
 20
120.4388465
 30
0.0
 11
60.222488
 21
119.7858465
 31
0.0
  0
LINE
  5
488
330
1D
100
AcDbEntity
  8
0
100
AcDbLine
 10
52.796188
 20
126.6578465
 30
0.0
 11
53.650288
 21
126.0558465
 31
0.0
  0
LINE
  5
48B
330
1D
100
AcDbEntity
  8
0
100
AcDbLine
 10
39.563688
 20
131.6138465
 30
0.0
 11
41.963439846316
 21
129.451375230459
 31
0.0
  0
LINE
  5
48D
330
1D
100
AcDbEntity
  8
0
100
AcDbLine
 10
39.931288
 20
131.4788465
 30
0.0
 11
41.641888
 21
130.2378465
 31
0.0
  0
LINE
  5
48E
330
1D
100
AcDbEntity
  8
0
100
AcDbLine
 10
39.931288
 20
131.4788465
 30
0.0
 11
41.191388
 21
131.0138465
 31
0.0
  0
LINE
  5
490
330
1D
100
AcDbEntity
  8
0
100
AcDbLine
 10
40.898388
 20
132.7258465
 30
0.0
 11
41.666288
 21
132.0098465
 31
0.0
  0
LINE
  5
493
330
1D
100
AcDbEntity
  8
0
100
AcDbLine
 10
41.534988
 20
128.6148465
 30
0.0
 11
41.855988
 21
128.4248465
 31
0.0
  0
LINE
  5
494
330
1D
100
AcDbEntity
  8
0
100
AcDbLine
 10
41.534988
 20
128.6148465
 30
0.0
 11
42.234603523475
 21
129.980807437488
 31
0.0
  0
LINE
  5
495
330
1D
100
AcDbEntity
  8
0
100
AcDbLine
 10
41.534988
 20
128.6148465
 30
0.0
 11
41.878188
 21
128.2888465
 31
0.0
  0
LINE
  5
497
330
1D
100
AcDbEntity
  8
0
100
AcDbLine
 10
41.878188
 20
128.2888465
 30
0.0
 11
42.555088
 21
127.7488465
 31
0.0
  0
LINE
  5
49C
330
1D
100
AcDbEntity
  8
0
100
AcDbLine
 10
41.855988
 20
128.4248465
 30
0.0
 11
43.023788
 21
127.5868465
 31
0.0
  0
LINE
  5
4A4
330
1D
100
AcDbEntity
  8
0
100
AcDbLine
 10
42.801088
 20
127.5598465
 30
0.0
 11
43.373188
 21
127.1158465
 31
0.0
  0
LINE
  5
4A5
330
1D
100
AcDbEntity
  8
0
100
AcDbLine
 10
42.555088
 20
127.7488465
 30
0.0
 11
42.801088
 21
127.5598465
 31
0.0
  0
LINE
  5
4AA
330
1D
100
AcDbEntity
  8
0
100
AcDbLine
 10
41.995388
 20
131.7028465
 30
0.0
 11
43.300915754269
 21
133.102938874593
 31
0.0
  0
LINE
  5
4AC
330
1D
100
AcDbEntity
  8
0
100
AcDbLine
 10
41.666288
 20
132.0098465
 30
0.0
 11
41.995388
 21
131.7028465
 31
0.0
  0
LINE
  5
4AE
330
1D
100
AcDbEntity
  8
0
100
AcDbLine
 10
41.641888
 20
130.2378465
 30
0.0
 11
42.117624993281
 21
129.752413273253
 31
0.0
  0
LINE
  5
4B4
330
1D
100
AcDbEntity
  8
0
100
AcDbLine
 10
41.191388
 20
131.0138465
 30
0.0
 11
43.631188
 21
128.5978465
 31
0.0
  0
LINE
  5
4B6
330
1D
100
AcDbEntity
  8
0
100
AcDbLine
 10
39.801288
 20
133.7488465
 30
0.0
 11
40.130488
 21
133.4418465
 31
0.0
  0
LINE
  5
4B7
330
1D
100
AcDbEntity
  8
0
100
AcDbLine
 10
39.801288
 20
133.7488465
 30
0.0
 11
41.153869772857
 21
135.199401204791
 31
0.0
  0
LINE
  5
4BA
330
1D
100
AcDbEntity
  8
0
100
AcDbLine
 10
38.072388
 20
135.7458465
 30
0.0
 11
38.090188
 21
135.5838465
 31
0.0
  0
LINE
  5
4BB
330
1D
100
AcDbEntity
  8
0
100
AcDbLine
 10
38.926788
 20
136.8888465
 30
0.0
 11
40.295193273026
 21
138.35637086465
 31
0.0
  0
LINE
  5
4BD
330
1D
100
AcDbEntity
  8
0
100
AcDbLine
 10
38.597688
 20
137.1958465
 30
0.0
 11
38.926788
 21
136.8888465
 31
0.0
  0
LINE
  5
4C6
330
1D
100
AcDbEntity
  8
0
100
AcDbLine
 10
40.130488
 20
133.4418465
 30
0.0
 11
40.898388
 21
132.7258465
 31
0.0
  0
LINE
  5
4C8
330
1D
100
AcDbEntity
  8
0
100
AcDbLine
 10
40.251088
 20
135.7968465
 30
0.0
 11
40.639488
 21
135.5828465
 31
0.0
  0
LINE
  5
4C9
330
1D
100
AcDbEntity
  8
0
100
AcDbLine
 10
40.049888
 20
135.7308465
 30
0.0
 11
40.251088
 21
135.7968465
 31
0.0
  0
LINE
  5
4CA
330
1D
100
AcDbEntity
  8
0
100
AcDbLine
 10
40.049888
 20
135.7308465
 30
0.0
 11
40.471788
 21
135.0938465
 31
0.0
  0
LINE
  5
4CB
330
1D
100
AcDbEntity
  8
0
100
AcDbLine
 10
37.982088
 20
140.6618465
 30
0.0
 11
38.547688
 21
140.0768465
 31
0.0
  0
LINE
  5
4CE
330
1D
100
AcDbEntity
  8
0
100
AcDbLine
 10
38.547688
 20
140.0768465
 30
0.0
 11
39.589288
 21
139.2238465
 31
0.0
  0
LINE
  5
4CF
330
1D
100
AcDbEntity
  8
0
100
AcDbLine
 10
38.504488
 20
143.1098465
 30
0.0
 11
38.624488
 21
142.1928465
 31
0.0
  0
LINE
  5
4D0
330
1D
100
AcDbEntity
  8
0
100
AcDbLine
 10
38.188588
 20
142.2968465
 30
0.0
 11
38.624488
 21
142.1928465
 31
0.0
  0
LINE
  5
4D1
330
1D
100
AcDbEntity
  8
0
100
AcDbLine
 10
38.228588
 20
146.1068465
 30
0.0
 11
42.180188
 21
142.4238465
 31
0.0
  0
LINE
  5
4D2
330
1D
100
AcDbEntity
  8
0
100
AcDbLine
 10
37.925188
 20
143.8938465
 30
0.0
 11
37.996188
 21
143.8048465
 31
0.0
  0
LINE
  5
4D3
330
1D
100
AcDbEntity
  8
0
100
AcDbLine
 10
37.996188
 20
143.8048465
 30
0.0
 11
38.504488
 21
143.1098465
 31
0.0
  0
LINE
  5
4D4
330
1D
100
AcDbEntity
  8
0
100
AcDbLine
 10
39.852984379187
 20
137.882131004013
 30
0.0
 11
40.232688
 21
137.6388465
 31
0.0
  0
LINE
  5
4D6
330
1D
100
AcDbEntity
  8
0
100
AcDbLine
 10
39.589288
 20
139.2238465
 30
0.0
 11
40.262588
 21
138.4078465
 31
0.0
  0
LINE
  5
4D7
330
1D
100
AcDbEntity
  8
0
100
AcDbLine
 10
40.232688
 20
137.6388465
 30
0.0
 11
40.671588
 21
137.5148465
 31
0.0
  0
LINE
  5
4D8
330
1D
100
AcDbEntity
  8
0
100
AcDbLine
 10
40.262588
 20
138.4078465
 30
0.0
 11
40.531788
 21
137.9828465
 31
0.0
  0
LINE
  5
4E0
330
1D
100
AcDbEntity
  8
0
100
AcDbLine
 10
40.764384837346
 20
134.781704310608
 30
0.0
 11
41.153869772857
 21
135.199401204791
 31
0.0
  0
LINE
  5
4E1
330
1D
100
AcDbEntity
  8
0
100
AcDbLine
 10
40.471788
 20
135.0938465
 30
0.0
 11
40.764384837346
 21
134.781704310608
 31
0.0
  0
LINE
  5
4E2
330
1D
100
AcDbEntity
  8
0
100
AcDbLine
 10
42.748888
 20
133.7618465
 30
0.0
 11
43.644488
 21
132.6928465
 31
0.0
  0
LINE
  5
4E4
330
1D
100
AcDbEntity
  8
0
100
AcDbLine
 10
42.036488
 20
134.4518465
 30
0.0
 11
42.748888
 21
133.7618465
 31
0.0
  0
LINE
  5
4E5
330
1D
100
AcDbEntity
  8
0
100
AcDbLine
 10
41.276688
 20
135.1078465
 30
0.0
 11
42.036488
 21
134.4518465
 31
0.0
  0
LINE
  5
4EA
330
1D
100
AcDbEntity
  8
0
100
AcDbLine
 10
42.491288
 20
136.9838465
 30
0.0
 11
42.820388
 21
136.6768465
 31
0.0
  0
LINE
  5
4EB
330
1D
100
AcDbEntity
  8
0
100
AcDbLine
 10
42.491288
 20
136.9838465
 30
0.0
 11
43.692026938028
 21
138.271207660537
 31
0.0
  0
LINE
  5
4ED
330
1D
100
AcDbEntity
  8
0
100
AcDbLine
 10
42.820388
 20
136.6768465
 30
0.0
 11
43.588288
 21
135.9608465
 31
0.0
  0
LINE
  5
4F0
330
1D
100
AcDbEntity
  8
0
100
AcDbLine
 10
42.180188
 20
142.4238465
 30
0.0
 11
46.173088
 21
138.7008465
 31
0.0
  0
LINE
  5
4F2
330
1D
100
AcDbEntity
  8
0
100
AcDbLine
 10
40.531788
 20
137.9828465
 30
0.0
 11
40.671588
 21
137.5148465
 31
0.0
  0
LINE
  5
4F3
330
1D
100
AcDbEntity
  8
0
100
AcDbLine
 10
40.639488
 20
135.5828465
 30
0.0
 11
41.276688
 21
135.1078465
 31
0.0
  0
LINE
  5
4F6
330
1D
100
AcDbEntity
  8
0
100
AcDbLine
 10
43.373188
 20
127.1158465
 30
0.0
 11
43.834188
 21
126.7698465
 31
0.0
  0
LINE
  5
4F7
330
1D
100
AcDbEntity
  8
0
100
AcDbLine
 10
45.925388
 20
127.3548465
 30
0.0
 11
46.589207980473
 21
128.066749628619
 31
0.0
  0
LINE
  5
4FB
330
1D
100
AcDbEntity
  8
0
100
AcDbLine
 10
43.023788
 20
127.5868465
 30
0.0
 11
44.213888
 21
126.6708465
 31
0.0
  0
LINE
  5
4FD
330
1D
100
AcDbEntity
  8
0
100
AcDbLine
 10
45.596288
 20
127.6618465
 30
0.0
 11
45.925388
 21
127.3548465
 31
0.0
  0
LINE
  5
500
330
1D
100
AcDbEntity
  8
0
100
AcDbLine
 10
46.321528223166
 20
127.779680751061
 30
0.0
 11
46.405088
 21
127.7128465
 31
0.0
  0
LINE
  5
501
330
1D
100
AcDbEntity
  8
0
100
AcDbLine
 10
46.405088
 20
127.7128465
 30
0.0
 11
47.000088
 21
127.3548465
 31
0.0
  0
LINE
  5
502
330
1D
100
AcDbEntity
  8
0
100
AcDbLine
 10
47.044788
 20
127.3358465
 30
0.0
 11
47.064988
 21
127.5178465
 31
0.0
  0
LINE
  5
508
330
1D
100
AcDbEntity
  8
0
100
AcDbLine
 10
48.609288
 20
127.4778465
 30
0.0
 11
48.767135682165
 21
127.322260245946
 31
0.0
  0
LINE
  5
509
330
1D
100
AcDbEntity
  8
0
100
AcDbLine
 10
49.508488
 20
127.3458465
 30
0.0
 11
50.365188
 21
126.6288465
 31
0.0
  0
LINE
  5
50A
330
1D
100
AcDbEntity
  8
0
100
AcDbLine
 10
46.989088
 20
127.3648465
 30
0.0
 11
47.044788
 21
127.3358465
 31
0.0
  0
LINE
  5
50C
330
1D
100
AcDbEntity
  8
0
100
AcDbLine
 10
44.828388
 20
128.3778465
 30
0.0
 11
45.596288
 21
127.6618465
 31
0.0
  0
LINE
  5
50F
330
1D
100
AcDbEntity
  8
0
100
AcDbLine
 10
46.569188
 20
128.0898465
 30
0.0
 11
47.064988
 21
127.5178465
 31
0.0
  0
LINE
  5
510
330
1D
100
AcDbEntity
  8
0
100
AcDbLine
 10
52.047488
 20
128.0718465
 30
0.0
 11
53.329569293184
 21
129.446794092133
 31
0.0
  0
LINE
  5
512
330
1D
100
AcDbEntity
  8
0
100
AcDbLine
 10
51.718288
 20
128.3788465
 30
0.0
 11
52.047488
 21
128.0718465
 31
0.0
  0
LINE
  5
517
330
1D
100
AcDbEntity
  8
0
100
AcDbLine
 10
48.537088
 20
127.9988465
 30
0.0
 11
49.508488
 21
127.3458465
 31
0.0
  0
LINE
  5
518
330
1D
100
AcDbEntity
  8
0
100
AcDbLine
 10
43.274288
 20
130.7438465
 30
0.0
 11
43.807288
 21
130.4638465
 31
0.0
  0
LINE
  5
519
330
1D
100
AcDbEntity
  8
0
100
AcDbLine
 10
43.274288
 20
130.7438465
 30
0.0
 11
43.673288
 21
130.1888465
 31
0.0
  0
LINE
  5
51A
330
1D
100
AcDbEntity
  8
0
100
AcDbLine
 10
43.731388
 20
129.4008465
 30
0.0
 11
44.060488
 21
129.0938465
 31
0.0
  0
LINE
  5
51B
330
1D
100
AcDbEntity
  8
0
100
AcDbLine
 10
43.731388
 20
129.4008465
 30
0.0
 11
44.354786260416
 21
130.06940000098
 31
0.0
  0
LINE
  5
51D
330
1D
100
AcDbEntity
  8
0
100
AcDbLine
 10
44.060488
 20
129.0938465
 30
0.0
 11
44.828388
 21
128.3778465
 31
0.0
  0
LINE
  5
51E
330
1D
100
AcDbEntity
  8
0
100
AcDbLine
 10
43.673288
 20
130.1888465
 30
0.0
 11
44.070360447711
 21
129.764372083953
 31
0.0
  0
LINE
  5
51F
330
1D
100
AcDbEntity
  8
0
100
AcDbLine
 10
44.541788
 20
131.6528465
 30
0.0
 11
44.870888
 21
131.3458465
 31
0.0
  0
LINE
  5
520
330
1D
100
AcDbEntity
  8
0
100
AcDbLine
 10
44.541788
 20
131.6528465
 30
0.0
 11
45.92037890025
 21
133.131294277775
 31
0.0
  0
LINE
  5
522
330
1D
100
AcDbEntity
  8
0
100
AcDbLine
 10
44.870888
 20
131.3458465
 30
0.0
 11
45.638788
 21
130.6298465
 31
0.0
  0
LINE
  5
523
330
1D
100
AcDbEntity
  8
0
100
AcDbLine
 10
43.807288
 20
130.4638465
 30
0.0
 11
44.479088
 21
129.9798465
 31
0.0
  0
LINE
  5
524
330
1D
100
AcDbEntity
  8
0
100
AcDbLine
 10
44.479088
 20
129.9798465
 30
0.0
 11
45.842388
 21
128.8058465
 31
0.0
  0
LINE
  5
527
330
1D
100
AcDbEntity
  8
0
100
AcDbLine
 10
44.685288
 20
134.9378465
 30
0.0
 11
45.925800658397
 21
136.26785068742
 31
0.0
  0
LINE
  5
528
330
1D
100
AcDbEntity
  8
0
100
AcDbLine
 10
43.159074295122
 20
137.699807407615
 30
0.0
 11
43.692026938028
 21
138.271207660537
 31
0.0
  0
LINE
  5
52A
330
1D
100
AcDbEntity
  8
0
100
AcDbLine
 10
43.588288
 20
135.9608465
 30
0.0
 11
44.356188
 21
135.2448465
 31
0.0
  0
LINE
  5
52C
330
1D
100
AcDbEntity
  8
0
100
AcDbLine
 10
44.356188
 20
135.2448465
 30
0.0
 11
44.685288
 21
134.9378465
 31
0.0
  0
LINE
  5
531
330
1D
100
AcDbEntity
  8
0
100
AcDbLine
 10
43.644488
 20
132.6928465
 30
0.0
 11
43.685088
 21
132.3608465
 31
0.0
  0
LINE
  5
532
330
1D
100
AcDbEntity
  8
0
100
AcDbLine
 10
43.001788
 20
137.9048465
 30
0.0
 11
43.155848730843
 21
137.696349148669
 31
0.0
  0
LINE
  5
533
330
1D
100
AcDbEntity
  8
0
100
AcDbLine
 10
43.001788
 20
137.9048465
 30
0.0
 11
43.067888
 21
138.5448465
 31
0.0
  0
LINE
  5
534
330
1D
100
AcDbEntity
  8
0
100
AcDbLine
 10
44.046388
 20
138.1158465
 30
0.0
 11
45.118088
 21
137.2118465
 31
0.0
  0
LINE
  5
536
330
1D
100
AcDbEntity
  8
0
100
AcDbLine
 10
43.067888
 20
138.5448465
 30
0.0
 11
44.046388
 21
138.1158465
 31
0.0
  0
LINE
  5
537
330
1D
100
AcDbEntity
  8
0
100
AcDbLine
 10
43.061581802168
 20
138.483788003588
 30
0.0
 11
43.17818284963
 21
138.496490352334
 31
0.0
  0
LINE
  5
538
330
1D
100
AcDbEntity
  8
0
100
AcDbLine
 10
43.007588
 20
137.9098465
 30
0.0
 11
43.159074295122
 21
137.699807407615
 31
0.0
  0
LINE
  5
539
330
1D
100
AcDbEntity
  8
0
100
AcDbLine
 10
45.34707447233
 20
135.647374753032
 30
0.0
 11
45.591988
 21
135.4858465
 31
0.0
  0
LINE
  5
53A
330
1D
100
AcDbEntity
  8
0
100
AcDbLine
 10
45.076088
 20
133.5928465
 30
0.0
 11
45.558288
 21
133.3718465
 31
0.0
  0
LINE
  5
53B
330
1D
100
AcDbEntity
  8
0
100
AcDbLine
 10
46.735888
 20
129.6068465
 30
0.0
 11
48.056080770465
 21
131.02266613683
 31
0.0
  0
LINE
  5
53D
330
1D
100
AcDbEntity
  8
0
100
AcDbLine
 10
45.638788
 20
130.6298465
 30
0.0
 11
46.406788
 21
129.9138465
 31
0.0
  0
LINE
  5
53F
330
1D
100
AcDbEntity
  8
0
100
AcDbLine
 10
46.406788
 20
129.9138465
 30
0.0
 11
46.735888
 21
129.6068465
 31
0.0
  0
LINE
  5
542
330
1D
100
AcDbEntity
  8
0
100
AcDbLine
 10
45.842388
 20
128.8058465
 30
0.0
 11
46.569188
 21
128.0898465
 31
0.0
  0
LINE
  5
544
330
1D
100
AcDbEntity
  8
0
100
AcDbLine
 10
46.103188
 20
133.0098465
 30
0.0
 11
46.777688
 21
132.4698465
 31
0.0
  0
LINE
  5
545
330
1D
100
AcDbEntity
  8
0
100
AcDbLine
 10
46.777688
 20
132.4698465
 30
0.0
 11
47.389288
 21
131.8858465
 31
0.0
  0
LINE
  5
546
330
1D
100
AcDbEntity
  8
0
100
AcDbLine
 10
49.853388
 20
130.1178465
 30
0.0
 11
50.182488
 21
129.8118465
 31
0.0
  0
LINE
  5
547
330
1D
100
AcDbEntity
  8
0
100
AcDbLine
 10
49.853388
 20
130.1178465
 30
0.0
 11
51.131898077627
 21
131.488964199086
 31
0.0
  0
LINE
  5
549
330
1D
100
AcDbEntity
  8
0
100
AcDbLine
 10
50.182488
 20
129.8118465
 30
0.0
 11
50.950388
 21
129.0948465
 31
0.0
  0
LINE
  5
54B
330
1D
100
AcDbEntity
  8
0
100
AcDbLine
 10
50.950388
 20
129.0948465
 30
0.0
 11
51.718288
 21
128.3788465
 31
0.0
  0
LINE
  5
555
330
1D
100
AcDbEntity
  8
0
100
AcDbLine
 10
50.103388
 20
131.0158465
 30
0.0
 11
50.401562447723
 21
130.705727425315
 31
0.0
  0
LINE
  5
558
330
1D
100
AcDbEntity
  8
0
100
AcDbLine
 10
47.821388
 20
130.7028465
 30
0.0
 11
48.257288
 21
130.6508465
 31
0.0
  0
LINE
  5
55E
330
1D
100
AcDbEntity
  8
0
100
AcDbLine
 10
49.734788
 20
131.6578465
 30
0.0
 11
50.103388
 21
131.0158465
 31
0.0
  0
LINE
  5
55F
330
1D
100
AcDbEntity
  8
0
100
AcDbLine
 10
49.734788
 20
131.6578465
 30
0.0
 11
49.743288
 21
131.9878465
 31
0.0
  0
LINE
  5
561
330
1D
100
AcDbEntity
  8
0
100
AcDbLine
 10
50.200988
 20
131.9708465
 30
0.0
 11
50.854988
 21
131.6798465
 31
0.0
  0
LINE
  5
562
330
1D
100
AcDbEntity
  8
0
100
AcDbLine
 10
49.743288
 20
131.9878465
 30
0.0
 11
50.200988
 21
131.9708465
 31
0.0
  0
LINE
  5
563
330
1D
100
AcDbEntity
  8
0
100
AcDbLine
 10
47.887688
 20
131.3338465
 30
0.0
 11
48.257288
 21
130.6508465
 31
0.0
  0
LINE
  5
564
330
1D
100
AcDbEntity
  8
0
100
AcDbLine
 10
47.389288
 20
131.8858465
 30
0.0
 11
47.887688
 21
131.3338465
 31
0.0
  0
LINE
  5
566
330
1D
100
AcDbEntity
  8
0
100
AcDbLine
 10
50.689788
 20
134.4898465
 30
0.0
 11
54.160288
 21
131.2548465
 31
0.0
  0
LINE
  5
56E
330
1D
100
AcDbEntity
  8
0
100
AcDbLine
 10
45.924288
 20
136.2708465
 30
0.0
 11
46.190888
 21
135.7428465
 31
0.0
  0
LINE
  5
56F
330
1D
100
AcDbEntity
  8
0
100
AcDbLine
 10
46.141788
 20
135.3928465
 30
0.0
 11
46.190888
 21
135.7428465
 31
0.0
  0
LINE
  5
570
330
1D
100
AcDbEntity
  8
0
100
AcDbLine
 10
45.591988
 20
135.4858465
 30
0.0
 11
46.141788
 21
135.3928465
 31
0.0
  0
LINE
  5
571
330
1D
100
AcDbEntity
  8
0
100
AcDbLine
 10
45.558288
 20
133.3718465
 30
0.0
 11
46.103188
 21
133.0098465
 31
0.0
  0
LINE
  5
572
330
1D
100
AcDbEntity
  8
0
100
AcDbLine
 10
45.365488
 20
132.7528465
 30
0.0
 11
45.46458278704
 21
132.642483020881
 31
0.0
  0
LINE
  5
574
330
1D
100
AcDbEntity
  8
0
100
AcDbLine
 10
46.173088
 20
138.7008465
 30
0.0
 11
50.689788
 21
134.4898465
 31
0.0
  0
LINE
  5
576
330
1D
100
AcDbEntity
  8
0
100
AcDbLine
 10
45.118088
 20
137.2118465
 30
0.0
 11
45.924288
 21
136.2708465
 31
0.0
  0
LINE
  5
577
330
1D
100
AcDbEntity
  8
0
100
AcDbLine
 10
44.965488
 20
133.3208465
 30
0.0
 11
45.365488
 21
132.7528465
 31
0.0
  0
LINE
  5
578
330
1D
100
AcDbEntity
  8
0
100
AcDbLine
 10
44.965488
 20
133.3208465
 30
0.0
 11
45.076088
 21
133.5928465
 31
0.0
  0
LINE
  5
579
330
1D
100
AcDbEntity
  8
0
100
AcDbLine
 10
43.631188
 20
128.5978465
 30
0.0
 11
47.040288
 21
125.4738465
 31
0.0
  0
LINE
  5
57D
330
1D
100
AcDbEntity
  8
0
100
AcDbLine
 10
53.050288
 20
128.7368465
 30
0.0
 11
53.532788
 21
128.8028465
 31
0.0
  0
LINE
  5
57E
330
1D
100
AcDbEntity
  8
0
100
AcDbLine
 10
57.577688
 20
128.0688465
 30
0.0
 11
60.921188
 21
124.9518465
 31
0.0
  0
LINE
  5
580
330
1D
100
AcDbEntity
  8
0
100
AcDbLine
 10
53.508688
 20
129.1808465
 30
0.0
 11
53.532788
 21
128.8028465
 31
0.0
  0
LINE
  5
581
330
1D
100
AcDbEntity
  8
0
100
AcDbLine
 10
53.180688
 20
129.6678465
 30
0.0
 11
53.508688
 21
129.1808465
 31
0.0
  0
LINE
  5
58B
330
1D
100
AcDbEntity
  8
0
100
AcDbLine
 10
53.798963695081
 20
131.591652184026
 30
0.0
 11
53.895688
 21
131.4888465
 31
0.0
  0
LINE
  5
58C
330
1D
100
AcDbEntity
  8
0
100
AcDbLine
 10
54.160288
 20
131.2548465
 30
0.0
 11
57.577688
 21
128.0688465
 31
0.0
  0
LINE
  5
58D
330
1D
100
AcDbEntity
  8
0
100
AcDbLine
 10
53.895688
 20
131.4888465
 30
0.0
 11
54.037060880683
 21
131.369711715672
 31
0.0
  0
LINE
  5
58E
330
1D
100
AcDbEntity
  8
0
100
AcDbLine
 10
53.895688
 20
131.4888465
 30
0.0
 11
54.037060880683
 21
131.369711715672
 31
0.0
  0
LINE
  5
593
330
1D
100
AcDbEntity
  8
0
100
AcDbLine
 10
52.790312068287
 20
128.86847629992
 30
0.0
 11
53.050288
 21
128.7368465
 31
0.0
  0
LINE
  5
594
330
1D
100
AcDbEntity
  8
0
100
AcDbLine
 10
48.230488
 20
127.9788465
 30
0.0
 11
48.537088
 21
127.9988465
 31
0.0
  0
LINE
  5
595
330
1D
100
AcDbEntity
  8
0
100
AcDbLine
 10
48.230488
 20
127.9788465
 30
0.0
 11
48.609288
 21
127.4778465
 31
0.0
  0
LINE
  5
596
330
1D
100
AcDbEntity
  8
0
100
AcDbLine
 10
42.984988
 20
132.7528465
 30
0.0
 11
43.685088
 21
132.3608465
 31
0.0
  0
LINE
  5
597
330
1D
100
AcDbEntity
  8
0
100
AcDbLine
 10
51.895188
 20
127.0398465
 30
0.0
 11
52.796188
 21
126.6578465
 31
0.0
  0
LINE
  5
598
330
1D
100
AcDbEntity
  8
0
100
AcDbLine
 10
61.279188
 20
115.6178465
 30
0.0
 11
61.708196686121
 21
115.249966313826
 31
0.0
  0
LINE
  5
59A
330
1D
100
AcDbEntity
  8
0
100
AcDbLine
 10
61.291488
 20
115.8048465
 30
0.0
 11
61.750688
 21
115.5388465
 31
0.0
  0
LINE
  5
59B
330
1D
100
AcDbEntity
  8
0
100
AcDbLine
 10
60.282288
 20
116.9748465
 30
0.0
 11
61.721927191601
 21
118.518764542137
 31
0.0
  0
LINE
  5
59E
330
1D
100
AcDbEntity
  8
0
100
AcDbLine
 10
61.114188
 20
115.8548465
 30
0.0
 11
61.279188
 21
115.6178465
 31
0.0
  0
LINE
  5
59F
330
1D
100
AcDbEntity
  8
0
100
AcDbLine
 10
61.114188
 20
115.8548465
 30
0.0
 11
61.291488
 21
115.8048465
 31
0.0
  0
LINE
  5
5A2
330
1D
100
AcDbEntity
  8
0
100
AcDbLine
 10
64.052488
 20
116.8778465
 30
0.0
 11
64.820388
 21
116.1608465
 31
0.0
  0
LINE
  5
5A4
330
1D
100
AcDbEntity
  8
0
100
AcDbLine
 10
62.955488
 20
117.9008465
 30
0.0
 11
63.284588
 21
117.5938465
 31
0.0
  0
LINE
  5
5A5
330
1D
100
AcDbEntity
  8
0
100
AcDbLine
 10
62.955488
 20
117.9008465
 30
0.0
 11
64.066982358246
 21
119.09255985633
 31
0.0
  0
LINE
  5
5A7
330
1D
100
AcDbEntity
  8
0
100
AcDbLine
 10
63.284588
 20
117.5938465
 30
0.0
 11
64.052488
 21
116.8778465
 31
0.0
  0
LINE
  5
5A8
330
1D
100
AcDbEntity
  8
0
100
AcDbLine
 10
61.750688
 20
115.5388465
 30
0.0
 11
62.478288
 21
115.0458465
 31
0.0
  0
LINE
  5
5AD
330
1D
100
AcDbEntity
  8
0
100
AcDbLine
 10
61.748788
 20
117.9918465
 30
0.0
 11
62.115488
 21
117.9548465
 31
0.0
  0
LINE
  5
5AE
330
1D
100
AcDbEntity
  8
0
100
AcDbLine
 10
61.403180865977
 20
118.176930139554
 30
0.0
 11
61.748788
 21
117.9918465
 31
0.0
  0
LINE
  5
5AF
330
1D
100
AcDbEntity
  8
0
100
AcDbLine
 10
62.979288
 20
119.0098465
 30
0.0
 11
63.485813787928
 21
118.469447069127
 31
0.0
  0
LINE
  5
5B0
330
1D
100
AcDbEntity
  8
0
100
AcDbLine
 10
61.773088
 20
118.4708465
 30
0.0
 11
62.115488
 21
117.9548465
 31
0.0
  0
LINE
  5
5B1
330
1D
100
AcDbEntity
  8
0
100
AcDbLine
 10
65.149488
 20
115.8548465
 30
0.0
 11
66.524102922607
 21
117.328627191217
 31
0.0
  0
LINE
  5
5B3
330
1D
100
AcDbEntity
  8
0
100
AcDbLine
 10
64.820388
 20
116.1608465
 30
0.0
 11
65.149488
 21
115.8548465
 31
0.0
  0
LINE
  5
5BE
330
1D
100
AcDbEntity
  8
0
100
AcDbLine
 10
65.828788
 20
117.9568465
 30
0.0
 11
66.406888
 21
117.4448465
 31
0.0
  0
LINE
  5
5BF
330
1D
100
AcDbEntity
  8
0
100
AcDbLine
 10
65.828788
 20
117.9568465
 30
0.0
 11
66.391088
 21
117.4628465
 31
0.0
  0
LINE
  5
5C0
330
1D
100
AcDbEntity
  8
0
100
AcDbLine
 10
66.703788
 20
117.1368465
 30
0.0
 11
66.753388
 21
117.0778465
 31
0.0
  0
LINE
  5
5C1
330
1D
100
AcDbEntity
  8
0
100
AcDbLine
 10
66.673988
 20
117.1678465
 30
0.0
 11
66.729688
 21
117.1038465
 31
0.0
  0
LINE
  5
5C2
330
1D
100
AcDbEntity
  8
0
100
AcDbLine
 10
66.673888
 20
117.1678465
 30
0.0
 11
66.729688
 21
117.1038465
 31
0.0
  0
LINE
  5
5C3
330
1D
100
AcDbEntity
  8
0
100
AcDbLine
 10
66.649488
 20
117.1978465
 30
0.0
 11
66.703788
 21
117.1368465
 31
0.0
  0
LINE
  5
5C4
330
1D
100
AcDbEntity
  8
0
100
AcDbLine
 10
66.613588
 20
117.2348465
 30
0.0
 11
66.649488
 21
117.1978465
 31
0.0
  0
LINE
  5
5C5
330
1D
100
AcDbEntity
  8
0
100
AcDbLine
 10
66.613588
 20
117.2348465
 30
0.0
 11
66.673988
 21
117.1678465
 31
0.0
  0
LINE
  5
5C6
330
1D
100
AcDbEntity
  8
0
100
AcDbLine
 10
66.613588
 20
117.2348465
 30
0.0
 11
66.673888
 21
117.1678465
 31
0.0
  0
LINE
  5
5C8
330
1D
100
AcDbEntity
  8
0
100
AcDbLine
 10
66.548388
 20
117.3038465
 30
0.0
 11
66.590888
 21
117.2618465
 31
0.0
  0
LINE
  5
5C9
330
1D
100
AcDbEntity
  8
0
100
AcDbLine
 10
66.548388
 20
117.3038465
 30
0.0
 11
66.613588
 21
117.2348465
 31
0.0
  0
LINE
  5
5CA
330
1D
100
AcDbEntity
  8
0
100
AcDbLine
 10
66.548288
 20
117.3038465
 30
0.0
 11
66.613588
 21
117.2348465
 31
0.0
  0
LINE
  5
5CB
330
1D
100
AcDbEntity
  8
0
100
AcDbLine
 10
66.528388
 20
117.3268465
 30
0.0
 11
66.590888
 21
117.2618465
 31
0.0
  0
LINE
  5
5CC
330
1D
100
AcDbEntity
  8
0
100
AcDbLine
 10
66.479788
 20
117.3738465
 30
0.0
 11
66.528388
 21
117.3268465
 31
0.0
  0
LINE
  5
5CD
330
1D
100
AcDbEntity
  8
0
100
AcDbLine
 10
66.479788
 20
117.3738465
 30
0.0
 11
66.548388
 21
117.3038465
 31
0.0
  0
LINE
  5
5CE
330
1D
100
AcDbEntity
  8
0
100
AcDbLine
 10
66.406888
 20
117.4448465
 30
0.0
 11
66.479788
 21
117.3738465
 31
0.0
  0
LINE
  5
5CF
330
1D
100
AcDbEntity
  8
0
100
AcDbLine
 10
66.461688
 20
117.3948465
 30
0.0
 11
66.528388
 21
117.3268465
 31
0.0
  0
LINE
  5
5D0
330
1D
100
AcDbEntity
  8
0
100
AcDbLine
 10
66.391088
 20
117.4628465
 30
0.0
 11
66.461688
 21
117.3948465
 31
0.0
  0
LINE
  5
5D1
330
1D
100
AcDbEntity
  8
0
100
AcDbLine
 10
65.967247043561
 20
116.731599304475
 30
0.0
 11
66.716288
 21
116.4588465
 31
0.0
  0
LINE
  5
5D2
330
1D
100
AcDbEntity
  8
0
100
AcDbLine
 10
66.931004026769
 20
116.554261986772
 30
0.0
 11
67.028787848495
 21
116.659128683562
 31
0.0
  0
LINE
  5
5D3
330
1D
100
AcDbEntity
  8
0
100
AcDbLine
 10
69.897788
 20
116.5828465
 30
0.0
 11
73.186388
 21
113.5168465
 31
0.0
  0
LINE
  5
5D4
330
1D
100
AcDbEntity
  8
0
100
AcDbLine
 10
66.753388
 20
117.0778465
 30
0.0
 11
67.060588
 21
116.6118465
 31
0.0
  0
LINE
  5
5D6
330
1D
100
AcDbEntity
  8
0
100
AcDbLine
 10
66.729688
 20
117.1038465
 30
0.0
 11
66.770500327462
 21
117.042070394876
 31
0.0
  0
LINE
  5
5D8
330
1D
100
AcDbEntity
  8
0
100
AcDbLine
 10
66.716288
 20
116.4588465
 30
0.0
 11
67.060588
 21
116.6118465
 31
0.0
  0
LINE
  5
5D9
330
1D
100
AcDbEntity
  8
0
100
AcDbLine
 10
64.765488
 20
118.7078465
 30
0.0
 11
65.828788
 21
117.9568465
 31
0.0
  0
LINE
  5
5DD
330
1D
100
AcDbEntity
  8
0
100
AcDbLine
 10
60.921188
 20
124.9518465
 30
0.0
 11
64.018888
 21
122.0638465
 31
0.0
  0
LINE
  5
5DF
330
1D
100
AcDbEntity
  8
0
100
AcDbLine
 10
63.281788
 20
119.4178465
 30
0.0
 11
63.930288
 21
119.1678465
 31
0.0
  0
LINE
  5
5E0
330
1D
100
AcDbEntity
  8
0
100
AcDbLine
 10
62.901388
 20
119.3798465
 30
0.0
 11
62.979288
 21
119.0098465
 31
0.0
  0
LINE
  5
5E1
330
1D
100
AcDbEntity
  8
0
100
AcDbLine
 10
62.901388
 20
119.3798465
 30
0.0
 11
63.281788
 21
119.4178465
 31
0.0
  0
LINE
  5
5E2
330
1D
100
AcDbEntity
  8
0
100
AcDbLine
 10
62.901388
 20
119.3798465
 30
0.0
 11
63.282075279025
 21
119.417735752496
 31
0.0
  0
LINE
  5
5E6
330
1D
100
AcDbEntity
  8
0
100
AcDbLine
 10
63.930288
 20
119.1678465
 30
0.0
 11
64.765488
 21
118.7078465
 31
0.0
  0
LINE
  5
5E9
330
1D
100
AcDbEntity
  8
0
100
AcDbLine
 10
64.018888
 20
122.0638465
 30
0.0
 11
67.015888
 21
119.2698465
 31
0.0
  0
LINE
  5
5EA
330
1D
100
AcDbEntity
  8
0
100
AcDbLine
 10
81.787488
 20
132.2848465
 30
0.0
 11
92.248688
 21
121.0728465
 31
0.0
  0
LINE
  5
5EB
330
1D
100
AcDbEntity
  8
0
100
AcDbLine
 10
92.248688
 20
121.0728465
 30
0.0
 11
102.832688
 21
109.1618465
 31
0.0
  0
LINE
  5
5EC
330
1D
100
AcDbEntity
  8
0
100
AcDbLine
 10
71.362788
 20
142.7988465
 30
0.0
 11
81.787488
 21
132.2848465
 31
0.0
  0
LINE
  5
5ED
330
1D
100
AcDbEntity
  8
0
100
AcDbLine
 10
67.015888
 20
119.2698465
 30
0.0
 11
69.897788
 21
116.5828465
 31
0.0
  0
LINE
  5
5EE
330
1D
100
AcDbEntity
  8
0
100
AcDbLine
 10
61.171988
 20
119.0338465
 30
0.0
 11
61.773088
 21
118.4708465
 31
0.0
  0
LINE
  5
5EF
330
1D
100
AcDbEntity
  8
0
100
AcDbLine
 10
60.222488
 20
119.7858465
 30
0.0
 11
61.171988
 21
119.0338465
 31
0.0
  0
LINE
  5
5F0
330
1D
100
AcDbEntity
  8
0
100
AcDbLine
 10
64.176188
 20
115.3998465
 30
0.0
 11
65.069688
 21
114.9758465
 31
0.0
  0
LINE
  5
5F1
330
1D
100
AcDbEntity
  8
0
100
AcDbLine
 10
37.883988
 20
135.6618465
 30
0.0
 11
38.090188
 21
135.5838465
 31
0.0
  0
LINE
  5
5F2
330
1D
100
AcDbEntity
  8
0
100
AcDbLine
 10
20.815588
 20
151.4538465
 30
0.0
 11
21.943532136342
 21
152.66349216176
 31
0.0
  0
LINE
  5
5F4
330
1D
100
AcDbEntity
  8
0
100
AcDbLine
 10
20.110388
 20
151.4278465
 30
0.0
 11
20.878288
 21
150.7118465
 31
0.0
  0
LINE
  5
5F6
330
1D
100
AcDbEntity
  8
0
100
AcDbLine
 10
20.878288
 20
150.7118465
 30
0.0
 11
21.646188
 21
149.9958465
 31
0.0
  0
LINE
  5
5F8
330
1D
100
AcDbEntity
  8
0
100
AcDbLine
 10
18.950688
 20
153.1928465
 30
0.0
 11
19.718588
 21
152.4768465
 31
0.0
  0
LINE
  5
5FA
330
1D
100
AcDbEntity
  8
0
100
AcDbLine
 10
19.718588
 20
152.4768465
 30
0.0
 11
20.486488
 21
151.7608465
 31
0.0
  0
LINE
  5
5FB
330
1D
100
AcDbEntity
  8
0
100
AcDbLine
 10
19.718588
 20
152.4768465
 30
0.0
 11
20.122280438106
 21
152.100438392585
 31
0.0
  0
LINE
  5
5FD
330
1D
100
AcDbEntity
  8
0
100
AcDbLine
 10
20.486488
 20
151.7608465
 30
0.0
 11
20.815588
 21
151.4538465
 31
0.0
  0
LINE
  5
5FF
330
1D
100
AcDbEntity
  8
0
100
AcDbLine
 10
19.781288
 20
151.7348465
 30
0.0
 11
20.110388
 21
151.4278465
 31
0.0
  0
LINE
  5
600
330
1D
100
AcDbEntity
  8
0
100
AcDbLine
 10
19.781288
 20
151.7348465
 30
0.0
 11
20.122280438106
 21
152.100438392585
 31
0.0
  0
LINE
  5
602
330
1D
100
AcDbEntity
  8
0
100
AcDbLine
 10
21.012249412826
 20
151.664752889063
 30
0.0
 11
21.308188
 21
151.3248465
 31
0.0
  0
LINE
  5
604
330
1D
100
AcDbEntity
  8
0
100
AcDbLine
 10
21.646188
 20
149.9958465
 30
0.0
 11
21.975288
 21
149.6888465
 31
0.0
  0
LINE
  5
605
330
1D
100
AcDbEntity
  8
0
100
AcDbLine
 10
21.771888
 20
151.1808465
 30
0.0
 11
21.954988
 21
151.0338465
 31
0.0
  0
LINE
  5
606
330
1D
100
AcDbEntity
  8
0
100
AcDbLine
 10
21.771888
 20
151.1808465
 30
0.0
 11
22.039288
 21
150.7808465
 31
0.0
  0
LINE
  5
607
330
1D
100
AcDbEntity
  8
0
100
AcDbLine
 10
21.308188
 20
151.3248465
 30
0.0
 11
22.020888
 21
150.5038465
 31
0.0
  0
LINE
  5
609
330
1D
100
AcDbEntity
  8
0
100
AcDbLine
 10
18.621588
 20
153.4998465
 30
0.0
 11
18.950688
 21
153.1928465
 31
0.0
  0
LINE
  5
60A
330
1D
100
AcDbEntity
  8
0
100
AcDbLine
 10
18.621588
 20
153.4998465
 30
0.0
 11
19.982276466535
 21
154.959095098862
 31
0.0
  0
LINE
  5
60B
330
1D
100
AcDbEntity
  8
0
100
AcDbLine
 10
18.621588
 20
153.4998465
 30
0.0
 11
19.0389827082
 21
153.947474783838
 31
0.0
  0
LINE
  5
60C
330
1D
100
AcDbEntity
  8
0
100
AcDbLine
 10
18.884588
 20
154.5118465
 30
0.0
 11
19.207979577232
 21
154.128712775055
 31
0.0
  0
LINE
  5
60D
330
1D
100
AcDbEntity
  8
0
100
AcDbLine
 10
18.884588
 20
154.5118465
 30
0.0
 11
19.207801245417
 21
154.128521525951
 31
0.0
  0
LINE
  5
60E
330
1D
100
AcDbEntity
  8
0
100
AcDbLine
 10
18.630588
 20
154.4278465
 30
0.0
 11
19.0389827082
 21
153.947474783838
 31
0.0
  0
LINE
  5
60F
330
1D
100
AcDbEntity
  8
0
100
AcDbLine
 10
18.630588
 20
154.4278465
 30
0.0
 11
18.884588
 21
154.5118465
 31
0.0
  0
LINE
  5
612
330
1D
100
AcDbEntity
  8
0
100
AcDbLine
 10
20.678388
 20
154.2128465
 30
0.0
 11
21.488188
 21
153.2558465
 31
0.0
  0
LINE
  5
613
330
1D
100
AcDbEntity
  8
0
100
AcDbLine
 10
21.488188
 20
153.2558465
 30
0.0
 11
22.092388
 21
152.4698465
 31
0.0
  0
LINE
  5
614
330
1D
100
AcDbEntity
  8
0
100
AcDbLine
 10
21.926088
 20
149.7348465
 30
0.0
 11
22.255188
 21
149.4278465
 31
0.0
  0
LINE
  5
615
330
1D
100
AcDbEntity
  8
0
100
AcDbLine
 10
21.926088
 20
149.7348465
 30
0.0
 11
22.560041221345
 21
150.414553522856
 31
0.0
  0
LINE
  5
616
330
1D
100
AcDbEntity
  8
0
100
AcDbLine
 10
21.954988
 20
151.0338465
 30
0.0
 11
22.425488
 21
150.5618465
 31
0.0
  0
LINE
  5
618
330
1D
100
AcDbEntity
  8
0
100
AcDbLine
 10
22.255188
 20
149.4278465
 30
0.0
 11
23.023088
 21
148.7118465
 31
0.0
  0
LINE
  5
61A
330
1D
100
AcDbEntity
  8
0
100
AcDbLine
 10
23.023088
 20
148.7118465
 30
0.0
 11
23.790988
 21
147.9958465
 31
0.0
  0
LINE
  5
61C
330
1D
100
AcDbEntity
  8
0
100
AcDbLine
 10
22.612288
 20
152.1028465
 30
0.0
 11
23.380188
 21
151.3868465
 31
0.0
  0
LINE
  5
620
330
1D
100
AcDbEntity
  8
0
100
AcDbLine
 10
22.039288
 20
150.7808465
 30
0.0
 11
22.44526744766
 21
150.29149627291
 31
0.0
  0
LINE
  5
621
330
1D
100
AcDbEntity
  8
0
100
AcDbLine
 10
22.425488
 20
150.5618465
 30
0.0
 11
23.230288
 21
149.6808465
 31
0.0
  0
LINE
  5
622
330
1D
100
AcDbEntity
  8
0
100
AcDbLine
 10
22.020888
 20
150.5038465
 30
0.0
 11
22.297297801968
 21
150.132847331695
 31
0.0
  0
LINE
  5
625
330
1D
100
AcDbEntity
  8
0
100
AcDbLine
 10
22.283188
 20
152.4098465
 30
0.0
 11
22.612288
 21
152.1028465
 31
0.0
  0
LINE
  5
626
330
1D
100
AcDbEntity
  8
0
100
AcDbLine
 10
22.283188
 20
152.4098465
 30
0.0
 11
23.741462403525
 21
153.973321930876
 31
0.0
  0
LINE
  5
62A
330
1D
100
AcDbEntity
  8
0
100
AcDbLine
 10
23.042288
 20
154.0488465
 30
0.0
 11
23.358545336307
 21
153.562780934469
 31
0.0
  0
LINE
  5
62B
330
1D
100
AcDbEntity
  8
0
100
AcDbLine
 10
22.092388
 20
152.4698465
 30
0.0
 11
22.371688
 21
151.9998465
 31
0.0
  0
LINE
  5
62C
330
1D
100
AcDbEntity
  8
0
100
AcDbLine
 10
22.073988
 20
152.1808465
 30
0.0
 11
22.371688
 21
151.9998465
 31
0.0
  0
LINE
  5
62D
330
1D
100
AcDbEntity
  8
0
100
AcDbLine
 10
21.773591962077
 20
152.481242537923
 30
0.0
 11
22.073988
 21
152.1808465
 31
0.0
  0
LINE
  5
62E
330
1D
100
AcDbEntity
  8
0
100
AcDbLine
 10
17.050388
 20
154.9648465
 30
0.0
 11
18.140347005133
 21
156.133789894753
 31
0.0
  0
LINE
  5
62F
330
1D
100
AcDbEntity
  8
0
100
AcDbLine
 10
17.050388
 20
154.9648465
 30
0.0
 11
17.860149658482
 21
155.83328791619
 31
0.0
  0
LINE
  5
631
330
1D
100
AcDbEntity
  8
0
100
AcDbLine
 10
16.721188
 20
155.2718465
 30
0.0
 11
17.050388
 21
154.9648465
 31
0.0
  0
LINE
  5
633
330
1D
100
AcDbEntity
  8
0
100
AcDbLine
 10
19.393288
 20
155.3638465
 30
0.0
 11
19.437988
 21
155.4328465
 31
0.0
  0
LINE
  5
634
330
1D
100
AcDbEntity
  8
0
100
AcDbLine
 10
19.393288
 20
155.3638465
 30
0.0
 11
19.714988
 21
154.8848465
 31
0.0
  0
LINE
  5
636
330
1D
100
AcDbEntity
  8
0
100
AcDbLine
 10
18.732688
 20
155.3678465
 30
0.0
 11
18.779688
 21
155.2088465
 31
0.0
  0
LINE
  5
637
330
1D
100
AcDbEntity
  8
0
100
AcDbLine
 10
19.806159276352
 20
154.770221033026
 30
0.0
 11
19.982276466535
 21
154.959095098862
 31
0.0
  0
LINE
  5
638
330
1D
100
AcDbEntity
  8
0
100
AcDbLine
 10
19.714988
 20
154.8848465
 30
0.0
 11
19.804608440779
 21
154.768557864202
 31
0.0
  0
LINE
  5
63B
330
1D
100
AcDbEntity
  8
0
100
AcDbLine
 10
19.626788
 20
155.2958465
 30
0.0
 11
19.959188
 21
154.9838465
 31
0.0
  0
LINE
  5
63D
330
1D
100
AcDbEntity
  8
0
100
AcDbLine
 10
23.031488
 20
155.1298465
 30
0.0
 11
23.360588
 21
154.8228465
 31
0.0
  0
LINE
  5
63F
330
1D
100
AcDbEntity
  8
0
100
AcDbLine
 10
19.959188
 20
154.9838465
 30
0.0
 11
20.678388
 21
154.2128465
 31
0.0
  0
LINE
  5
642
330
1D
100
AcDbEntity
  8
0
100
AcDbLine
 10
22.838988
 20
154.5848465
 30
0.0
 11
23.129888
 21
154.5118465
 31
0.0
  0
LINE
  5
643
330
1D
100
AcDbEntity
  8
0
100
AcDbLine
 10
22.838988
 20
154.5848465
 30
0.0
 11
23.042288
 21
154.0488465
 31
0.0
  0
LINE
  5
645
330
1D
100
AcDbEntity
  8
0
100
AcDbLine
 10
23.790988
 20
147.9958465
 30
0.0
 11
24.120088
 21
147.6888465
 31
0.0
  0
LINE
  5
646
330
1D
100
AcDbEntity
  8
0
100
AcDbLine
 10
23.360588
 20
154.8228465
 30
0.0
 11
24.372560027317
 21
155.90811972695
 31
0.0
  0
LINE
  5
648
330
1D
100
AcDbEntity
  8
0
100
AcDbLine
 10
23.380188
 20
151.3868465
 30
0.0
 11
24.148188
 21
150.6708465
 31
0.0
  0
LINE
  5
64C
330
1D
100
AcDbEntity
  8
0
100
AcDbLine
 10
23.551388
 20
154.2018465
 30
0.0
 11
24.127788
 21
153.5088465
 31
0.0
  0
LINE
  5
64D
330
1D
100
AcDbEntity
  8
0
100
AcDbLine
 10
23.230288
 20
149.6808465
 30
0.0
 11
24.200388
 21
148.5628465
 31
0.0
  0
LINE
  5
64E
330
1D
100
AcDbEntity
  8
0
100
AcDbLine
 10
23.129888
 20
154.5118465
 30
0.0
 11
23.551388
 21
154.2018465
 31
0.0
  0
LINE
  5
64F
330
1D
100
AcDbEntity
  8
0
100
AcDbLine
 10
14.856288
 20
157.0108465
 30
0.0
 11
15.953288
 21
155.9878465
 31
0.0
  0
LINE
  5
650
330
1D
100
AcDbEntity
  8
0
100
AcDbLine
 10
16.492788
 20
157.8088465
 30
0.0
 11
16.821888
 21
157.5018465
 31
0.0
  0
LINE
  5
651
330
1D
100
AcDbEntity
  8
0
100
AcDbLine
 10
16.492788
 20
157.8088465
 30
0.0
 11
17.940101879852
 21
159.360995138891
 31
0.0
  0
LINE
  5
653
330
1D
100
AcDbEntity
  8
0
100
AcDbLine
 10
16.821888
 20
157.5018465
 30
0.0
 11
17.589788
 21
156.7858465
 31
0.0
  0
LINE
  5
655
330
1D
100
AcDbEntity
  8
0
100
AcDbLine
 10
15.953288
 20
155.9878465
 30
0.0
 11
16.721188
 21
155.2718465
 31
0.0
  0
LINE
  5
656
330
1D
100
AcDbEntity
  8
0
100
AcDbLine
 10
15.580788
 20
159.9378465
 30
0.0
 11
15.612288
 21
159.8638465
 31
0.0
  0
LINE
  5
65C
330
1D
100
AcDbEntity
  8
0
100
AcDbLine
 10
15.772088
 20
160.5108465
 30
0.0
 11
15.906588
 21
160.1238465
 31
0.0
  0
LINE
  5
65F
330
1D
100
AcDbEntity
  8
0
100
AcDbLine
 10
15.630888
 20
160.3268465
 30
0.0
 11
15.906588
 21
160.1238465
 31
0.0
  0
LINE
  5
661
330
1D
100
AcDbEntity
  8
0
100
AcDbLine
 10
15.624288
 20
159.0778465
 30
0.0
 11
15.869488
 21
158.8348465
 31
0.0
  0
LINE
  5
666
330
1D
100
AcDbEntity
  8
0
100
AcDbLine
 10
17.067788
 20
160.6908465
 30
0.0
 11
17.396888
 21
160.3848465
 31
0.0
  0
LINE
  5
66A
330
1D
100
AcDbEntity
  8
0
100
AcDbLine
 10
15.869488
 20
158.8348465
 30
0.0
 11
16.206288
 21
158.4648465
 31
0.0
  0
LINE
  5
66B
330
1D
100
AcDbEntity
  8
0
100
AcDbLine
 10
16.206288
 20
158.4648465
 30
0.0
 11
16.639048018338
 21
157.96570071908
 31
0.0
  0
LINE
  5
66C
330
1D
100
AcDbEntity
  8
0
100
AcDbLine
 10
15.787688
 20
158.7588465
 30
0.0
 11
16.101535331604
 21
158.346292098732
 31
0.0
  0
LINE
  5
66D
330
1D
100
AcDbEntity
  8
0
100
AcDbLine
 10
15.934788
 20
158.3168465
 30
0.0
 11
15.998021554274
 21
158.235280402633
 31
0.0
  0
LINE
  5
66F
330
1D
100
AcDbEntity
  8
0
100
AcDbLine
 10
17.860149658482
 20
155.83328791619
 30
0.0
 11
18.884588
 21
154.5118465
 31
0.0
  0
LINE
  5
671
330
1D
100
AcDbEntity
  8
0
100
AcDbLine
 10
18.357688
 20
156.0698465
 30
0.0
 11
18.686788
 21
155.7628465
 31
0.0
  0
LINE
  5
672
330
1D
100
AcDbEntity
  8
0
100
AcDbLine
 10
18.030479288154
 20
156.015960562225
 30
0.0
 11
18.398388
 21
155.5958465
 31
0.0
  0
LINE
  5
673
330
1D
100
AcDbEntity
  8
0
100
AcDbLine
 10
18.030479288154
 20
156.015960562225
 30
0.0
 11
18.140347005133
 21
156.133789894753
 31
0.0
  0
LINE
  5
674
330
1D
100
AcDbEntity
  8
0
100
AcDbLine
 10
18.686788
 20
155.7628465
 30
0.0
 11
19.838051325605
 21
156.997500453589
 31
0.0
  0
LINE
  5
676
330
1D
100
AcDbEntity
  8
0
100
AcDbLine
 10
18.398388
 20
155.5958465
 30
0.0
 11
18.779688
 21
155.2088465
 31
0.0
  0
LINE
  5
678
330
1D
100
AcDbEntity
  8
0
100
AcDbLine
 10
18.042088
 20
156.2608465
 30
0.0
 11
18.732688
 21
155.3678465
 31
0.0
  0
LINE
  5
67A
330
1D
100
AcDbEntity
  8
0
100
AcDbLine
 10
17.589788
 20
156.7858465
 30
0.0
 11
18.357688
 21
156.0698465
 31
0.0
  0
LINE
  5
67D
330
1D
100
AcDbEntity
  8
0
100
AcDbLine
 10
17.539988
 20
159.2798465
 30
0.0
 11
17.67679303186
 21
159.078613773171
 31
0.0
  0
LINE
  5
67E
330
1D
100
AcDbEntity
  8
0
100
AcDbLine
 10
17.693936582654
 20
156.68873699983
 30
0.0
 11
18.042088
 21
156.2608465
 31
0.0
  0
LINE
  5
684
330
1D
100
AcDbEntity
  8
0
100
AcDbLine
 10
18.675488
 20
158.5588465
 30
0.0
 11
19.838051325605
 21
156.997500453589
 31
0.0
  0
LINE
  5
68B
330
1D
100
AcDbEntity
  8
0
100
AcDbLine
 10
20.052088
 20
156.3268465
 30
0.0
 11
20.117642456054
 21
156.40165719453
 31
0.0
  0
LINE
  5
68D
330
1D
100
AcDbEntity
  8
0
100
AcDbLine
 10
19.58360249853
 20
156.724620875696
 30
0.0
 11
19.704488
 21
156.5978465
 31
0.0
  0
LINE
  5
68E
330
1D
100
AcDbEntity
  8
0
100
AcDbLine
 10
19.704488
 20
156.5978465
 30
0.0
 11
20.052088
 21
156.3268465
 31
0.0
  0
LINE
  5
690
330
1D
100
AcDbEntity
  8
0
100
AcDbLine
 10
19.82921002971
 20
156.988018747111
 30
0.0
 11
20.141888
 21
156.4598465
 31
0.0
  0
LINE
  5
693
330
1D
100
AcDbEntity
  8
0
100
AcDbLine
 10
21.166588
 20
156.8688465
 30
0.0
 11
21.495688
 21
156.5618465
 31
0.0
  0
LINE
  5
694
330
1D
100
AcDbEntity
  8
0
100
AcDbLine
 10
21.166588
 20
156.8688465
 30
0.0
 11
22.543582059034
 21
158.345625078224
 31
0.0
  0
LINE
  5
696
330
1D
100
AcDbEntity
  8
0
100
AcDbLine
 10
21.495688
 20
156.5618465
 30
0.0
 11
22.263588
 21
155.8458465
 31
0.0
  0
LINE
  5
69A
330
1D
100
AcDbEntity
  8
0
100
AcDbLine
 10
21.524288
 20
158.3638465
 30
0.0
 11
21.921730071978
 21
157.678710295778
 31
0.0
  0
LINE
  5
69C
330
1D
100
AcDbEntity
  8
0
100
AcDbLine
 10
21.367788
 20
158.8578465
 30
0.0
 11
21.524288
 21
158.3638465
 31
0.0
  0
LINE
  5
69D
330
1D
100
AcDbEntity
  8
0
100
AcDbLine
 10
21.367788
 20
158.8578465
 30
0.0
 11
21.473088
 21
159.0798465
 31
0.0
  0
LINE
  5
69E
330
1D
100
AcDbEntity
  8
0
100
AcDbLine
 10
20.117642456054
 20
156.40165719453
 30
0.0
 11
20.141888
 21
156.4598465
 31
0.0
  0
LINE
  5
69F
330
1D
100
AcDbEntity
  8
0
100
AcDbLine
 10
19.437988
 20
155.4328465
 30
0.0
 11
19.626788
 21
155.2958465
 31
0.0
  0
LINE
  5
6A0
330
1D
100
AcDbEntity
  8
0
100
AcDbLine
 10
21.921730071978
 20
157.678710295778
 30
0.0
 11
22.543582059034
 21
158.345625078224
 31
0.0
  0
LINE
  5
6A2
330
1D
100
AcDbEntity
  8
0
100
AcDbLine
 10
22.263588
 20
155.8458465
 30
0.0
 11
23.031488
 21
155.1298465
 31
0.0
  0
LINE
  5
6A3
330
1D
100
AcDbEntity
  8
0
100
AcDbLine
 10
23.145488
 20
157.6948465
 30
0.0
 11
23.217788
 21
157.6088465
 31
0.0
  0
LINE
  5
6A5
330
1D
100
AcDbEntity
  8
0
100
AcDbLine
 10
23.860588
 20
156.7598465
 30
0.0
 11
24.516988
 21
155.6678465
 31
0.0
  0
LINE
  5
6A6
330
1D
100
AcDbEntity
  8
0
100
AcDbLine
 10
23.725688
 20
156.9538465
 30
0.0
 11
23.860588
 21
156.7598465
 31
0.0
  0
LINE
  5
6A7
330
1D
100
AcDbEntity
  8
0
100
AcDbLine
 10
23.659788
 20
157.0438465
 30
0.0
 11
23.725688
 21
156.9538465
 31
0.0
  0
LINE
  5
6A8
330
1D
100
AcDbEntity
  8
0
100
AcDbLine
 10
23.591388
 20
157.1358465
 30
0.0
 11
23.659788
 21
157.0438465
 31
0.0
  0
LINE
  5
6A9
330
1D
100
AcDbEntity
  8
0
100
AcDbLine
 10
23.517288
 20
157.2338465
 30
0.0
 11
23.591388
 21
157.1358465
 31
0.0
  0
LINE
  5
6AA
330
1D
100
AcDbEntity
  8
0
100
AcDbLine
 10
23.449488
 20
157.3208465
 30
0.0
 11
23.517288
 21
157.2338465
 31
0.0
  0
LINE
  5
6AB
330
1D
100
AcDbEntity
  8
0
100
AcDbLine
 10
23.372988
 20
157.4178465
 30
0.0
 11
23.443288
 21
157.3298465
 31
0.0
  0
LINE
  5
6AC
330
1D
100
AcDbEntity
  8
0
100
AcDbLine
 10
23.288788
 20
157.5228465
 30
0.0
 11
23.372988
 21
157.4178465
 31
0.0
  0
LINE
  5
6AD
330
1D
100
AcDbEntity
  8
0
100
AcDbLine
 10
23.217788
 20
157.6088465
 30
0.0
 11
23.288788
 21
157.5228465
 31
0.0
  0
LINE
  5
6AF
330
1D
100
AcDbEntity
  8
0
100
AcDbLine
 10
22.997188
 20
157.8668465
 30
0.0
 11
23.071888
 21
157.7808465
 31
0.0
  0
LINE
  5
6B0
330
1D
100
AcDbEntity
  8
0
100
AcDbLine
 10
22.966088
 20
157.8998465
 30
0.0
 11
23.049888
 21
157.8048465
 31
0.0
  0
LINE
  5
6B1
330
1D
100
AcDbEntity
  8
0
100
AcDbLine
 10
22.921688
 20
157.9518465
 30
0.0
 11
22.966088
 21
157.8998465
 31
0.0
  0
LINE
  5
6B2
330
1D
100
AcDbEntity
  8
0
100
AcDbLine
 10
22.921688
 20
157.9518465
 30
0.0
 11
22.997188
 21
157.8668465
 31
0.0
  0
LINE
  5
6B3
330
1D
100
AcDbEntity
  8
0
100
AcDbLine
 10
22.884588
 20
157.9898465
 30
0.0
 11
22.921688
 21
157.9518465
 31
0.0
  0
LINE
  5
6B4
330
1D
100
AcDbEntity
  8
0
100
AcDbLine
 10
22.884588
 20
157.9898465
 30
0.0
 11
22.966088
 21
157.8998465
 31
0.0
  0
LINE
  5
6B5
330
1D
100
AcDbEntity
  8
0
100
AcDbLine
 10
22.845388
 20
158.0348465
 30
0.0
 11
22.921688
 21
157.9518465
 31
0.0
  0
LINE
  5
6B6
330
1D
100
AcDbEntity
  8
0
100
AcDbLine
 10
22.803088
 20
158.0788465
 30
0.0
 11
22.845388
 21
158.0348465
 31
0.0
  0
LINE
  5
6B7
330
1D
100
AcDbEntity
  8
0
100
AcDbLine
 10
22.803088
 20
158.0788465
 30
0.0
 11
22.884588
 21
157.9898465
 31
0.0
  0
LINE
  5
6B8
330
1D
100
AcDbEntity
  8
0
100
AcDbLine
 10
22.768488
 20
158.1178465
 30
0.0
 11
22.803088
 21
158.0788465
 31
0.0
  0
LINE
  5
6B9
330
1D
100
AcDbEntity
  8
0
100
AcDbLine
 10
22.768488
 20
158.1178465
 30
0.0
 11
22.845388
 21
158.0348465
 31
0.0
  0
LINE
  5
6BA
330
1D
100
AcDbEntity
  8
0
100
AcDbLine
 10
22.721088
 20
158.1658465
 30
0.0
 11
22.768488
 21
158.1178465
 31
0.0
  0
LINE
  5
6BB
330
1D
100
AcDbEntity
  8
0
100
AcDbLine
 10
22.721088
 20
158.1658465
 30
0.0
 11
22.803088
 21
158.0788465
 31
0.0
  0
LINE
  5
6BC
330
1D
100
AcDbEntity
  8
0
100
AcDbLine
 10
22.691288
 20
158.1988465
 30
0.0
 11
22.768488
 21
158.1178465
 31
0.0
  0
LINE
  5
6BD
330
1D
100
AcDbEntity
  8
0
100
AcDbLine
 10
22.638688
 20
158.2498465
 30
0.0
 11
22.691288
 21
158.1988465
 31
0.0
  0
LINE
  5
6BE
330
1D
100
AcDbEntity
  8
0
100
AcDbLine
 10
22.638688
 20
158.2498465
 30
0.0
 11
22.721088
 21
158.1658465
 31
0.0
  0
LINE
  5
6BF
330
1D
100
AcDbEntity
  8
0
100
AcDbLine
 10
22.558588
 20
158.3308465
 30
0.0
 11
22.638688
 21
158.2498465
 31
0.0
  0
LINE
  5
6C0
330
1D
100
AcDbEntity
  8
0
100
AcDbLine
 10
22.614688
 20
158.2768465
 30
0.0
 11
22.691288
 21
158.1988465
 31
0.0
  0
LINE
  5
6C1
330
1D
100
AcDbEntity
  8
0
100
AcDbLine
 10
22.538588
 20
158.3538465
 30
0.0
 11
22.614688
 21
158.2768465
 31
0.0
  0
LINE
  5
6C2
330
1D
100
AcDbEntity
  8
0
100
AcDbLine
 10
22.462988
 20
158.4268465
 30
0.0
 11
22.538588
 21
158.3538465
 31
0.0
  0
LINE
  5
6C6
330
1D
100
AcDbEntity
  8
0
100
AcDbLine
 10
22.388388
 20
158.4968465
 30
0.0
 11
22.462988
 21
158.4268465
 31
0.0
  0
LINE
  5
6C7
330
1D
100
AcDbEntity
  8
0
100
AcDbLine
 10
22.315288
 20
158.5638465
 30
0.0
 11
22.388388
 21
158.4968465
 31
0.0
  0
LINE
  5
6C9
330
1D
100
AcDbEntity
  8
0
100
AcDbLine
 10
22.249388
 20
158.6198465
 30
0.0
 11
22.315288
 21
158.5638465
 31
0.0
  0
LINE
  5
6CB
330
1D
100
AcDbEntity
  8
0
100
AcDbLine
 10
23.071888
 20
157.7808465
 30
0.0
 11
23.132688
 21
157.7088465
 31
0.0
  0
LINE
  5
6CC
330
1D
100
AcDbEntity
  8
0
100
AcDbLine
 10
23.049888
 20
157.8048465
 30
0.0
 11
23.132688
 21
157.7088465
 31
0.0
  0
LINE
  5
6CD
330
1D
100
AcDbEntity
  8
0
100
AcDbLine
 10
22.176588
 20
158.6828465
 30
0.0
 11
22.249388
 21
158.6198465
 31
0.0
  0
LINE
  5
6CE
330
1D
100
AcDbEntity
  8
0
100
AcDbLine
 10
22.106288
 20
158.7408465
 30
0.0
 11
22.176588
 21
158.6828465
 31
0.0
  0
LINE
  5
6CF
330
1D
100
AcDbEntity
  8
0
100
AcDbLine
 10
21.828388
 20
158.9438465
 30
0.0
 11
22.106288
 21
158.7408465
 31
0.0
  0
LINE
  5
6D1
330
1D
100
AcDbEntity
  8
0
100
AcDbLine
 10
21.473088
 20
159.0798465
 30
0.0
 11
21.828388
 21
158.9438465
 31
0.0
  0
LINE
  5
6D4
330
1D
100
AcDbEntity
  8
0
100
AcDbLine
 10
17.396888
 20
160.3848465
 30
0.0
 11
18.297324174391
 21
161.350240826561
 31
0.0
  0
LINE
  5
6D9
330
1D
100
AcDbEntity
  8
0
100
AcDbLine
 10
23.473888
 20
159.8618465
 30
0.0
 11
26.913788
 21
156.6558465
 31
0.0
  0
LINE
  5
6DE
330
1D
100
AcDbEntity
  8
0
100
AcDbLine
 10
17.558188
 20
159.6918465
 30
0.0
 11
18.010688
 21
159.2998465
 31
0.0
  0
LINE
  5
6DF
330
1D
100
AcDbEntity
  8
0
100
AcDbLine
 10
18.010688
 20
159.2998465
 30
0.0
 11
18.675488
 21
158.5588465
 31
0.0
  0
LINE
  5
6E0
330
1D
100
AcDbEntity
  8
0
100
AcDbLine
 10
17.325488
 20
159.7788465
 30
0.0
 11
17.558188
 21
159.6918465
 31
0.0
  0
LINE
  5
6E1
330
1D
100
AcDbEntity
  8
0
100
AcDbLine
 10
17.325488
 20
159.7788465
 30
0.0
 11
17.539988
 21
159.2798465
 31
0.0
  0
LINE
  5
6E2
330
1D
100
AcDbEntity
  8
0
100
AcDbLine
 10
23.89826849763
 20
155.399473356256
 30
0.0
 11
24.072988
 21
155.2538465
 31
0.0
  0
LINE
  5
6E5
330
1D
100
AcDbEntity
  8
0
100
AcDbLine
 10
24.120088
 20
147.6888465
 30
0.0
 11
24.52491859872
 21
148.12288188678
 31
0.0
  0
LINE
  5
6E6
330
1D
100
AcDbEntity
  8
0
100
AcDbLine
 10
24.120088
 20
147.6888465
 30
0.0
 11
24.52491859872
 21
148.12288188678
 31
0.0
  0
LINE
  5
6EA
330
1D
100
AcDbEntity
  8
0
100
AcDbLine
 10
24.200388
 20
148.5628465
 30
0.0
 11
24.755506651614
 21
147.810274743095
 31
0.0
  0
LINE
  5
6EB
330
1D
100
AcDbEntity
  8
0
100
AcDbLine
 10
24.740188
 20
147.7938465
 30
0.0
 11
25.069288
 21
147.4868465
 31
0.0
  0
LINE
  5
6EC
330
1D
100
AcDbEntity
  8
0
100
AcDbLine
 10
24.740188
 20
147.7938465
 30
0.0
 11
26.122071885206
 21
149.275825786862
 31
0.0
  0
LINE
  5
6F1
330
1D
100
AcDbEntity
  8
0
100
AcDbLine
 10
24.530188
 20
147.1358465
 30
0.0
 11
25.890399690716
 21
145.618376999399
 31
0.0
  0
LINE
  5
6F2
330
1D
100
AcDbEntity
  8
0
100
AcDbLine
 10
24.113832101869
 20
147.694682296798
 30
0.0
 11
24.530188
 21
147.1358465
 31
0.0
  0
LINE
  5
6F4
330
1D
100
AcDbEntity
  8
0
100
AcDbLine
 10
24.148188
 20
150.6708465
 30
0.0
 11
24.477288
 21
150.3638465
 31
0.0
  0
LINE
  5
6F9
330
1D
100
AcDbEntity
  8
0
100
AcDbLine
 10
24.127788
 20
153.5088465
 30
0.0
 11
24.647988
 21
153.1008465
 31
0.0
  0
LINE
  5
6FA
330
1D
100
AcDbEntity
  8
0
100
AcDbLine
 10
24.072988
 20
155.2538465
 30
0.0
 11
24.508888
 21
155.1128465
 31
0.0
  0
LINE
  5
6FB
330
1D
100
AcDbEntity
  8
0
100
AcDbLine
 10
24.477288
 20
150.3638465
 30
0.0
 11
25.721058815957
 21
151.69734389095
 31
0.0
  0
LINE
  5
6FE
330
1D
100
AcDbEntity
  8
0
100
AcDbLine
 10
24.647988
 20
153.1008465
 30
0.0
 11
25.394788
 21
152.2028465
 31
0.0
  0
LINE
  5
6FF
330
1D
100
AcDbEntity
  8
0
100
AcDbLine
 10
24.508888
 20
155.1128465
 30
0.0
 11
24.516988
 21
155.6678465
 31
0.0
  0
LINE
  5
703
330
1D
100
AcDbEntity
  8
0
100
AcDbLine
 10
24.949188
 20
150.2138465
 30
0.0
 11
25.195888
 21
150.1028465
 31
0.0
  0
LINE
  5
704
330
1D
100
AcDbEntity
  8
0
100
AcDbLine
 10
24.949188
 20
150.2138465
 30
0.0
 11
24.962888
 21
150.0608465
 31
0.0
  0
LINE
  5
707
330
1D
100
AcDbEntity
  8
0
100
AcDbLine
 10
16.299888
 20
161.4078465
 30
0.0
 11
17.067788
 21
160.6908465
 31
0.0
  0
LINE
  5
709
330
1D
100
AcDbEntity
  8
0
100
AcDbLine
 10
17.274388
 20
162.9828465
 30
0.0
 11
17.868088
 21
162.1238465
 31
0.0
  0
LINE
  5
70A
330
1D
100
AcDbEntity
  8
0
100
AcDbLine
 10
17.868088
 20
162.1238465
 30
0.0
 11
18.281888
 21
161.3968465
 31
0.0
  0
LINE
  5
70B
330
1D
100
AcDbEntity
  8
0
100
AcDbLine
 10
15.931688
 20
164.3658465
 30
0.0
 11
16.437788
 21
163.9598465
 31
0.0
  0
LINE
  5
70C
330
1D
100
AcDbEntity
  8
0
100
AcDbLine
 10
16.437788
 20
163.9598465
 30
0.0
 11
17.274388
 21
162.9828465
 31
0.0
  0
LINE
  5
70D
330
1D
100
AcDbEntity
  8
0
100
AcDbLine
 10
15.770788
 20
163.9818465
 30
0.0
 11
16.11424356296
 21
163.407947948147
 31
0.0
  0
LINE
  5
70F
330
1D
100
AcDbEntity
  8
0
100
AcDbLine
 10
17.969508951368
 20
160.998776763402
 30
0.0
 11
18.231788
 21
160.7958465
 31
0.0
  0
LINE
  5
710
330
1D
100
AcDbEntity
  8
0
100
AcDbLine
 10
17.131888
 20
165.7748465
 30
0.0
 11
20.205588
 21
162.9088465
 31
0.0
  0
LINE
  5
712
330
1D
100
AcDbEntity
  8
0
100
AcDbLine
 10
15.699588
 20
164.3918465
 30
0.0
 11
15.770788
 21
163.9818465
 31
0.0
  0
LINE
  5
713
330
1D
100
AcDbEntity
  8
0
100
AcDbLine
 10
15.699588
 20
164.3918465
 30
0.0
 11
15.931688
 21
164.3658465
 31
0.0
  0
LINE
  5
714
330
1D
100
AcDbEntity
  8
0
100
AcDbLine
 10
20.205588
 20
162.9088465
 30
0.0
 11
23.473888
 21
159.8618465
 31
0.0
  0
LINE
  5
716
330
1D
100
AcDbEntity
  8
0
100
AcDbLine
 10
18.281888
 20
161.3968465
 30
0.0
 11
18.479288
 21
160.8008465
 31
0.0
  0
LINE
  5
718
330
1D
100
AcDbEntity
  8
0
100
AcDbLine
 10
18.231788
 20
160.7958465
 30
0.0
 11
18.479288
 21
160.8008465
 31
0.0
  0
LINE
  5
71A
330
1D
100
AcDbEntity
  8
0
100
AcDbLine
 10
25.069288
 20
147.4868465
 30
0.0
 11
25.837188
 21
146.7708465
 31
0.0
  0
LINE
  5
71B
330
1D
100
AcDbEntity
  8
0
100
AcDbLine
 10
25.788104083334
 20
148.917667355353
 30
0.0
 11
26.122071885206
 21
149.275825786862
 31
0.0
  0
LINE
  5
71D
330
1D
100
AcDbEntity
  8
0
100
AcDbLine
 10
25.837188
 20
146.7708465
 30
0.0
 11
26.605088
 21
146.0548465
 31
0.0
  0
LINE
  5
722
330
1D
100
AcDbEntity
  8
0
100
AcDbLine
 10
25.168788
 20
149.7028465
 30
0.0
 11
25.780180059684
 21
148.909169362834
 31
0.0
  0
LINE
  5
723
330
1D
100
AcDbEntity
  8
0
100
AcDbLine
 10
25.651188
 20
149.7278465
 30
0.0
 11
26.192888
 21
149.2078465
 31
0.0
  0
LINE
  5
727
330
1D
100
AcDbEntity
  8
0
100
AcDbLine
 10
30.139288
 20
147.3128465
 30
0.0
 11
30.257024968981
 21
147.115031190781
 31
0.0
  0
LINE
  5
728
330
1D
100
AcDbEntity
  8
0
100
AcDbLine
 10
30.139288
 20
147.3128465
 30
0.0
 11
30.260701934684
 21
147.118974493883
 31
0.0
  0
LINE
  5
729
330
1D
100
AcDbEntity
  8
0
100
AcDbLine
 10
29.833388
 20
147.8618465
 30
0.0
 11
30.095388
 21
147.9168465
 31
0.0
  0
LINE
  5
72A
330
1D
100
AcDbEntity
  8
0
100
AcDbLine
 10
29.833388
 20
147.8618465
 30
0.0
 11
30.139288
 21
147.3128465
 31
0.0
  0
LINE
  5
72B
330
1D
100
AcDbEntity
  8
0
100
AcDbLine
 10
29.986888
 20
148.6438465
 30
0.0
 11
31.030833073226
 21
149.763408709028
 31
0.0
  0
LINE
  5
72F
330
1D
100
AcDbEntity
  8
0
100
AcDbLine
 10
30.095388
 20
147.9168465
 30
0.0
 11
31.132688
 21
147.0678465
 31
0.0
  0
LINE
  5
735
330
1D
100
AcDbEntity
  8
0
100
AcDbLine
 10
31.132688
 20
147.0678465
 30
0.0
 11
32.075888
 21
146.0608465
 31
0.0
  0
LINE
  5
736
330
1D
100
AcDbEntity
  8
0
100
AcDbLine
 10
27.879189167689
 20
146.761297898897
 30
0.0
 11
28.271588
 21
146.4778465
 31
0.0
  0
LINE
  5
737
330
1D
100
AcDbEntity
  8
0
100
AcDbLine
 10
27.435188
 20
147.8498465
 30
0.0
 11
28.265988
 21
146.7228465
 31
0.0
  0
LINE
  5
739
330
1D
100
AcDbEntity
  8
0
100
AcDbLine
 10
29.657788
 20
148.9508465
 30
0.0
 11
29.986888
 21
148.6438465
 31
0.0
  0
LINE
  5
740
330
1D
100
AcDbEntity
  8
0
100
AcDbLine
 10
28.889888
 20
149.6668465
 30
0.0
 11
29.657788
 21
148.9508465
 31
0.0
  0
LINE
  5
742
330
1D
100
AcDbEntity
  8
0
100
AcDbLine
 10
30.601908281785
 20
149.303415171698
 30
0.0
 11
30.934888
 21
149.1268465
 31
0.0
  0
LINE
  5
743
330
1D
100
AcDbEntity
  8
0
100
AcDbLine
 10
34.348088
 20
149.7248465
 30
0.0
 11
38.228588
 21
146.1068465
 31
0.0
  0
LINE
  5
744
330
1D
100
AcDbEntity
  8
0
100
AcDbLine
 10
31.156588
 20
149.1358465
 30
0.0
 11
31.174288
 21
149.3948465
 31
0.0
  0
LINE
  5
746
330
1D
100
AcDbEntity
  8
0
100
AcDbLine
 10
30.934888
 20
149.1268465
 30
0.0
 11
31.156588
 21
149.1358465
 31
0.0
  0
LINE
  5
747
330
1D
100
AcDbEntity
  8
0
100
AcDbLine
 10
26.700888
 20
148.6778465
 30
0.0
 11
27.435188
 21
147.8498465
 31
0.0
  0
LINE
  5
748
330
1D
100
AcDbEntity
  8
0
100
AcDbLine
 10
26.192888
 20
149.2078465
 30
0.0
 11
26.700888
 21
148.6778465
 31
0.0
  0
LINE
  5
74B
330
1D
100
AcDbEntity
  8
0
100
AcDbLine
 10
27.792888
 20
150.6898465
 30
0.0
 11
28.121988
 21
150.3828465
 31
0.0
  0
LINE
  5
74C
330
1D
100
AcDbEntity
  8
0
100
AcDbLine
 10
27.792888
 20
150.6898465
 30
0.0
 11
29.108727533912
 21
152.100997577864
 31
0.0
  0
LINE
  5
74E
330
1D
100
AcDbEntity
  8
0
100
AcDbLine
 10
28.121988
 20
150.3828465
 30
0.0
 11
28.889888
 21
149.6668465
 31
0.0
  0
LINE
  5
756
330
1D
100
AcDbEntity
  8
0
100
AcDbLine
 10
26.123488
 20
151.0738465
 30
0.0
 11
26.131988
 21
150.7878465
 31
0.0
  0
LINE
  5
757
330
1D
100
AcDbEntity
  8
0
100
AcDbLine
 10
25.790288
 20
150.9028465
 30
0.0
 11
26.131988
 21
150.7878465
 31
0.0
  0
LINE
  5
758
330
1D
100
AcDbEntity
  8
0
100
AcDbLine
 10
25.33834289991
 20
151.287018556912
 30
0.0
 11
25.790288
 21
150.9028465
 31
0.0
  0
LINE
  5
759
330
1D
100
AcDbEntity
  8
0
100
AcDbLine
 10
25.394788
 20
152.2028465
 30
0.0
 11
26.123488
 21
151.0738465
 31
0.0
  0
LINE
  5
75A
330
1D
100
AcDbEntity
  8
0
100
AcDbLine
 10
28.150188
 20
152.4108465
 30
0.0
 11
28.456288
 21
151.6168465
 31
0.0
  0
LINE
  5
75B
330
1D
100
AcDbEntity
  8
0
100
AcDbLine
 10
28.150188
 20
152.4108465
 30
0.0
 11
28.400188
 21
152.5488465
 31
0.0
  0
LINE
  5
75E
330
1D
100
AcDbEntity
  8
0
100
AcDbLine
 10
28.546285493059
 20
151.497815600327
 30
0.0
 11
29.108727533912
 21
152.100997577864
 31
0.0
  0
LINE
  5
75F
330
1D
100
AcDbEntity
  8
0
100
AcDbLine
 10
29.444988
 20
151.8228465
 30
0.0
 11
30.086588
 21
151.1638465
 31
0.0
  0
LINE
  5
760
330
1D
100
AcDbEntity
  8
0
100
AcDbLine
 10
28.456288
 20
151.6168465
 30
0.0
 11
28.538708604453
 21
151.489689887239
 31
0.0
  0
LINE
  5
761
330
1D
100
AcDbEntity
  8
0
100
AcDbLine
 10
30.086588
 20
151.1638465
 30
0.0
 11
30.906888
 21
150.0818465
 31
0.0
  0
LINE
  5
768
330
1D
100
AcDbEntity
  8
0
100
AcDbLine
 10
30.906888
 20
150.0818465
 30
0.0
 11
31.174288
 21
149.3948465
 31
0.0
  0
LINE
  5
769
330
1D
100
AcDbEntity
  8
0
100
AcDbLine
 10
28.888888
 20
152.2828465
 30
0.0
 11
29.444988
 21
151.8228465
 31
0.0
  0
LINE
  5
76C
330
1D
100
AcDbEntity
  8
0
100
AcDbLine
 10
11.702488
 20
193.7328465
 30
0.0
 11
37.147488
 21
173.8698465
 31
0.0
  0
LINE
  5
770
330
1D
100
AcDbEntity
  8
0
100
AcDbLine
 10
60.075888
 20
153.6098465
 30
0.0
 11
71.362788
 21
142.7988465
 31
0.0
  0
LINE
  5
771
330
1D
100
AcDbEntity
  8
0
100
AcDbLine
 10
30.567488
 20
153.2488465
 30
0.0
 11
34.348088
 21
149.7248465
 31
0.0
  0
LINE
  5
773
330
1D
100
AcDbEntity
  8
0
100
AcDbLine
 10
37.147488
 20
173.8698465
 30
0.0
 11
50.127788
 21
162.6678465
 31
0.0
  0
LINE
  5
774
330
1D
100
AcDbEntity
  8
0
100
AcDbLine
 10
50.127788
 20
162.6678465
 30
0.0
 11
60.075888
 21
153.6098465
 31
0.0
  0
LINE
  5
775
330
1D
100
AcDbEntity
  8
0
100
AcDbLine
 10
26.913788
 20
156.6558465
 30
0.0
 11
30.567488
 21
153.2488465
 31
0.0
  0
LINE
  5
776
330
1D
100
AcDbEntity
  8
0
100
AcDbLine
 10
27.00271326848
 20
156.572925518608
 30
0.0
 11
27.051688
 21
156.5138465
 31
0.0
  0
LINE
  5
779
330
1D
100
AcDbEntity
  8
0
100
AcDbLine
 10
28.400188
 20
152.5488465
 30
0.0
 11
28.888888
 21
152.2828465
 31
0.0
  0
LINE
  5
77A
330
1D
100
AcDbEntity
  8
0
100
AcDbLine
 10
25.195888
 20
150.1028465
 30
0.0
 11
25.651188
 21
149.7278465
 31
0.0
  0
LINE
  5
77C
330
1D
100
AcDbEntity
  8
0
100
AcDbLine
 10
24.962888
 20
150.0608465
 30
0.0
 11
25.168788
 21
149.7028465
 31
0.0
  0
LINE
  5
77D
330
1D
100
AcDbEntity
  8
0
100
AcDbLine
 10
28.265988
 20
146.7228465
 30
0.0
 11
28.271588
 21
146.4778465
 31
0.0
  0
LINE
  5
77E
330
1D
100
AcDbEntity
  8
0
100
AcDbLine
 10
15.575388
 20
159.0758465
 30
0.0
 11
15.787688
 21
158.7588465
 31
0.0
  0
LINE
  5
7A6
330
1D
100
AcDbEntity
  8
0
100
AcDbLine
 10
127.260448335337
 20
8.53234341569
 30
0.0
 11
148.259056444765
 21
20.160667925894
 31
0.0
  0
LINE
  5
7A7
330
1D
100
AcDbEntity
  8
0
100
AcDbLine
 10
89.218788
 20
81.0485465
 30
0.0
 11
89.991588
 21
86.7616465
 31
0.0
  0
LINE
  5
7A8
330
1D
100
AcDbEntity
  8
0
100
AcDbLine
 10
90.237988
 20
90.5133465
 30
0.0
 11
90.090012934411
 21
92.687818563088
 31
0.0
  0
LINE
  5
7A9
330
1D
100
AcDbEntity
  8
0
100
AcDbLine
 10
90.090012934411
 20
92.687818563088
 30
0.0
 11
89.781775914721
 21
94.265992103902
 31
0.0
  0
LINE
  5
7AA
330
1D
100
AcDbEntity
  8
0
100
AcDbLine
 10
89.781775914721
 20
94.265992103902
 30
0.0
 11
89.134036550986
 21
96.920014629324
 31
0.0
  0
LINE
  5
7AB
330
1D
100
AcDbEntity
  8
0
100
AcDbLine
 10
89.134036550986
 20
96.920014629324
 30
0.0
 11
88.125347547418
 21
99.074941136946
 31
0.0
  0
LINE
  5
7AC
330
1D
100
AcDbEntity
  8
0
100
AcDbLine
 10
88.125347547418
 20
99.074941136946
 30
0.0
 11
87.306988
 21
100.3328465
 31
0.0
  0
LINE
  5
7AD
330
1D
100
AcDbEntity
  8
0
100
AcDbLine
 10
84.315688
 20
88.6063465
 30
0.0
 11
83.747076274945
 21
89.739247155319
 31
0.0
  0
LINE
  5
7AE
330
1D
100
AcDbEntity
  8
0
100
AcDbLine
 10
83.747076274945
 20
89.739247155319
 30
0.0
 11
82.904188
 21
91.0877465
 31
0.0
  0
LINE
  5
7AF
330
1D
100
AcDbEntity
  8
0
100
AcDbLine
 10
82.186888
 20
91.8961465
 30
0.0
 11
81.468088
 21
92.5939465
 31
0.0
  0
LINE
  5
7B0
330
1D
100
AcDbEntity
  8
0
100
AcDbLine
 10
81.468088
 20
92.5939465
 30
0.0
 11
80.20886737913
 21
93.590105035872
 31
0.0
  0
LINE
  5
7B1
330
1D
100
AcDbEntity
  8
0
100
AcDbLine
 10
80.20886737913
 20
93.590105035872
 30
0.0
 11
78.943644903732
 21
94.521768858666
 31
0.0
  0
LINE
  5
7B2
330
1D
100
AcDbEntity
  8
0
100
AcDbLine
 10
78.943644903732
 20
94.521768858666
 30
0.0
 11
78.084639272912
 21
95.072157892241
 31
0.0
  0
LINE
  5
7B3
330
1D
100
AcDbEntity
  8
0
100
AcDbLine
 10
74.909988
 20
96.2146465
 30
0.0
 11
84.512688
 21
79.6640465
 31
0.0
  0
LINE
  5
7B4
330
1D
100
AcDbEntity
  8
0
100
AcDbLine
 10
77.480588
 20
106.7588465
 30
0.0
 11
77.562906766492
 21
106.790642701991
 31
0.0
  0
LINE
  5
7B5
330
1D
100
AcDbEntity
  8
0
100
AcDbLine
 10
77.562906766492
 20
106.790642701991
 30
0.0
 11
77.608630863932
 21
106.882090896871
 31
0.0
  0
LINE
  5
7B6
330
1D
100
AcDbEntity
  8
0
100
AcDbLine
 10
77.608630863932
 20
106.882090896871
 30
0.0
 11
77.593488
 21
106.9858465
 31
0.0
  0
LINE
  5
7B7
330
1D
100
AcDbEntity
  8
0
100
AcDbLine
 10
50.854988
 20
131.6798465
 30
0.0
 11
51.131898077627
 21
131.488964199086
 31
0.0
  0
LINE
  5
7B8
330
1D
100
AcDbEntity
  8
0
100
AcDbLine
 10
51.131898077627
 20
131.488964199086
 30
0.0
 11
52.358900601178
 21
130.514282325209
 31
0.0
  0
LINE
  5
7B9
330
1D
100
AcDbEntity
  8
0
100
AcDbLine
 10
52.358900601178
 20
130.514282325209
 30
0.0
 11
53.180688
 21
129.6678465
 31
0.0
  0
LINE
  5
7BA
330
1D
100
AcDbEntity
  8
0
100
AcDbLine
 10
36.904188
 20
144.9748465
 30
0.0
 11
37.925188
 21
143.8938465
 31
0.0
  0
ENDSEC
  0
SECTION
  2
OBJECTS
  0
DICTIONARY
  5
C
330
0
100
AcDbDictionary
281
     1
  3
ACAD_GROUP
350
D
  3
ACAD_LAYOUT
350
1A
  3
ACAD_MLEADERSTYLE
350
7BC
  3
ACAD_MLINESTYLE
350
17
  3
ACAD_PLOTSETTINGS
350
19
  3
ACAD_PLOTSTYLENAME
350
E
  3
ACAD_SCALELIST
350
784
  3
AcDbVariableDictionary
350
7BE
  3
DWGPROPS
350
7C0
  0
DICTIONARY
  5
D
102
{ACAD_REACTORS
330
C
102
}
330
C
100
AcDbDictionary
281
     1
  0
DICTIONARY
  5
1A
102
{ACAD_REACTORS
330
C
102
}
330
C
100
AcDbDictionary
281
     1
  3
Layout1
350
1C
  3
Model
350
1E
  0
DICTIONARY
  5
7BC
102
{ACAD_REACTORS
330
C
102
}
330
C
100
AcDbDictionary
281
     1
  0
DICTIONARY
  5
17
102
{ACAD_REACTORS
330
C
102
}
330
C
100
AcDbDictionary
281
     1
  3
Standard
350
18
  0
DICTIONARY
  5
19
102
{ACAD_REACTORS
330
C
102
}
330
C
100
AcDbDictionary
281
     1
  0
ACDBDICTIONARYWDFLT
  5
E
102
{ACAD_REACTORS
330
C
102
}
330
C
100
AcDbDictionary
281
     1
  3
Normal
350
F
100
AcDbDictionaryWithDefault
340
F
  0
DICTIONARY
  5
784
102
{ACAD_REACTORS
330
C
102
}
330
C
100
AcDbDictionary
281
     1
  3
A0
350
785
  3
A1
350
786
  3
A2
350
787
  3
A3
350
788
  3
A4
350
789
  3
A5
350
78A
  3
A6
350
78B
  3
A7
350
78C
  3
A8
350
78D
  3
A9
350
78E
  3
B0
350
78F
  3
B1
350
790
  3
B2
350
791
  3
B3
350
792
  3
B4
350
793
  3
B5
350
794
  3
B6
350
795
  3
B7
350
796
  3
B8
350
797
  3
B9
350
798
  3
C0
350
799
  3
C1
350
79A
  3
C2
350
79B
  3
C3
350
79C
  3
C4
350
79D
  3
C5
350
79E
  3
C6
350
79F
  3
C7
350
7A0
  3
C8
350
7A1
  3
C9
350
7A2
  3
D0
350
7A3
  3
D1
350
7A4
  3
D2
350
7A5
  0
DICTIONARY
  5
7BE
102
{ACAD_REACTORS
330
C
102
}
330
C
100
AcDbDictionary
281
     1
  0
XRECORD
  5
7C0
102
{ACAD_REACTORS
330
C
102
}
330
C
100
AcDbXrecord
280
     1
  1
DWGPROPS COOKIE
  2

  3

  4

  6

  7

  8
MARTIN
  9

300
=
301
=
302
=
303
=
304
=
305
=
306
=
307
=
308
=
309
=
 40
0.0
 41
2456464.859768877
 42
2456465.293935544
  1

 90
        0
  0
LAYOUT
  5
1C
102
{ACAD_REACTORS
330
1A
102
}
330
1A
100
AcDbPlotSettings
  1

  2
none_device
  4

  6

 40
0.0
 41
0.0
 42
0.0
 43
0.0
 44
0.0
 45
0.0
 46
0.0
 47
0.0
 48
0.0
 49
0.0
140
0.0
141
0.0
142
1.0
143
1.0
 70
   688
 72
     0
 73
     0
 74
     5
  7

 75
    16
147
1.0
148
0.0
149
0.0
100
AcDbLayout
  1
Layout1
 70
     1
 71
     1
 10
0.0
 20
0.0
 11
12.0
 21
9.0
 12
0.0
 22
0.0
 32
0.0
 14
1.000000000000E+20
 24
1.000000000000E+20
 34
1.000000000000E+20
 15
-1.000000000000E+20
 25
-1.000000000000E+20
 35
-1.000000000000E+20
146
0.0
 13
0.0
 23
0.0
 33
0.0
 16
1.0
 26
0.0
 36
0.0
 17
0.0
 27
1.0
 37
0.0
 76
     0
330
1B
  0
LAYOUT
  5
1E
102
{ACAD_REACTORS
330
1A
102
}
330
1A
100
AcDbPlotSettings
  1

  2
none_device
  4

  6

 40
0.0
 41
0.0
 42
0.0
 43
0.0
 44
0.0
 45
0.0
 46
0.0
 47
0.0
 48
0.0
 49
0.0
140
0.0
141
0.0
142
1.0
143
1.0
 70
  1712
 72
     0
 73
     0
 74
     0
  7

 75
     0
147
1.0
148
0.0
149
0.0
100
AcDbLayout
  1
Model
 70
     1
 71
     0
 10
0.0
 20
0.0
 11
12.0
 21
9.0
 12
0.0
 22
0.0
 32
0.0
 14
0.247312
 24
0.0901535
 34
0.0
 15
152.752688
 25
193.9098465
 35
0.0
146
0.0
 13
0.0
 23
0.0
 33
0.0
 16
1.0
 26
0.0
 36
0.0
 17
0.0
 27
1.0
 37
0.0
 76
     0
330
1D
331
77F
  0
MLINESTYLE
  5
18
102
{ACAD_REACTORS
330
17
102
}
330
17
100
AcDbMlineStyle
  2
Standard
 70
     0
  3

 62
   256
 51
90.0
 52
90.0
 71
     2
 49
0.5
 62
   256
  6
BYLAYER
 49
-0.5
 62
   256
  6
BYLAYER
  0
ACDBPLACEHOLDER
  5
F
102
{ACAD_REACTORS
330
E
102
}
330
E
  0
SCALE
  5
785
102
{ACAD_REACTORS
330
784
102
}
330
784
100
AcDbScale
 70
     0
300
1:1
140
1.0
141
1.0
290
     1
  0
SCALE
  5
786
102
{ACAD_REACTORS
330
784
102
}
330
784
100
AcDbScale
 70
     0
300
1:2
140
1.0
141
2.0
290
     0
  0
SCALE
  5
787
102
{ACAD_REACTORS
330
784
102
}
330
784
100
AcDbScale
 70
     0
300
1:4
140
1.0
141
4.0
290
     0
  0
SCALE
  5
788
102
{ACAD_REACTORS
330
784
102
}
330
784
100
AcDbScale
 70
     0
300
1:5
140
1.0
141
5.0
290
     0
  0
SCALE
  5
789
102
{ACAD_REACTORS
330
784
102
}
330
784
100
AcDbScale
 70
     0
300
1:8
140
1.0
141
8.0
290
     0
  0
SCALE
  5
78A
102
{ACAD_REACTORS
330
784
102
}
330
784
100
AcDbScale
 70
     0
300
1:10
140
1.0
141
10.0
290
     0
  0
SCALE
  5
78B
102
{ACAD_REACTORS
330
784
102
}
330
784
100
AcDbScale
 70
     0
300
1:16
140
1.0
141
16.0
290
     0
  0
SCALE
  5
78C
102
{ACAD_REACTORS
330
784
102
}
330
784
100
AcDbScale
 70
     0
300
1:20
140
1.0
141
20.0
290
     0
  0
SCALE
  5
78D
102
{ACAD_REACTORS
330
784
102
}
330
784
100
AcDbScale
 70
     0
300
1:30
140
1.0
141
30.0
290
     0
  0
SCALE
  5
78E
102
{ACAD_REACTORS
330
784
102
}
330
784
100
AcDbScale
 70
     0
300
1:40
140
1.0
141
40.0
290
     0
  0
SCALE
  5
78F
102
{ACAD_REACTORS
330
784
102
}
330
784
100
AcDbScale
 70
     0
300
1:50
140
1.0
141
50.0
290
     0
  0
SCALE
  5
790
102
{ACAD_REACTORS
330
784
102
}
330
784
100
AcDbScale
 70
     0
300
1:100
140
1.0
141
100.0
290
     0
  0
SCALE
  5
791
102
{ACAD_REACTORS
330
784
102
}
330
784
100
AcDbScale
 70
     0
300
2:1
140
2.0
141
1.0
290
     0
  0
SCALE
  5
792
102
{ACAD_REACTORS
330
784
102
}
330
784
100
AcDbScale
 70
     0
300
4:1
140
4.0
141
1.0
290
     0
  0
SCALE
  5
793
102
{ACAD_REACTORS
330
784
102
}
330
784
100
AcDbScale
 70
     0
300
8:1
140
8.0
141
1.0
290
     0
  0
SCALE
  5
794
102
{ACAD_REACTORS
330
784
102
}
330
784
100
AcDbScale
 70
     0
300
10:1
140
10.0
141
1.0
290
     0
  0
SCALE
  5
795
102
{ACAD_REACTORS
330
784
102
}
330
784
100
AcDbScale
 70
     0
300
100:1
140
100.0
141
1.0
290
     0
  0
SCALE
  5
796
102
{ACAD_REACTORS
330
784
102
}
330
784
100
AcDbScale
 70
     0
300
1/128" = 1'-0"
140
0.0078125
141
12.0
290
     0
  0
SCALE
  5
797
102
{ACAD_REACTORS
330
784
102
}
330
784
100
AcDbScale
 70
     0
300
1/64" = 1'-0"
140
0.015625
141
12.0
290
     0
  0
SCALE
  5
798
102
{ACAD_REACTORS
330
784
102
}
330
784
100
AcDbScale
 70
     0
300
1/32" = 1'-0"
140
0.03125
141
12.0
290
     0
  0
SCALE
  5
799
102
{ACAD_REACTORS
330
784
102
}
330
784
100
AcDbScale
 70
     0
300
1/16" = 1'-0"
140
0.0625
141
12.0
290
     0
  0
SCALE
  5
79A
102
{ACAD_REACTORS
330
784
102
}
330
784
100
AcDbScale
 70
     0
300
3/32" = 1'-0"
140
0.09375
141
12.0
290
     0
  0
SCALE
  5
79B
102
{ACAD_REACTORS
330
784
102
}
330
784
100
AcDbScale
 70
     0
300
1/8" = 1'-0"
140
0.125
141
12.0
290
     0
  0
SCALE
  5
79C
102
{ACAD_REACTORS
330
784
102
}
330
784
100
AcDbScale
 70
     0
300
3/16" = 1'-0"
140
0.1875
141
12.0
290
     0
  0
SCALE
  5
79D
102
{ACAD_REACTORS
330
784
102
}
330
784
100
AcDbScale
 70
     0
300
1/4" = 1'-0"
140
0.25
141
12.0
290
     0
  0
SCALE
  5
79E
102
{ACAD_REACTORS
330
784
102
}
330
784
100
AcDbScale
 70
     0
300
3/8" = 1'-0"
140
0.375
141
12.0
290
     0
  0
SCALE
  5
79F
102
{ACAD_REACTORS
330
784
102
}
330
784
100
AcDbScale
 70
     0
300
1/2" = 1'-0"
140
0.5
141
12.0
290
     0
  0
SCALE
  5
7A0
102
{ACAD_REACTORS
330
784
102
}
330
784
100
AcDbScale
 70
     0
300
3/4" = 1'-0"
140
0.75
141
12.0
290
     0
  0
SCALE
  5
7A1
102
{ACAD_REACTORS
330
784
102
}
330
784
100
AcDbScale
 70
     0
300
1" = 1'-0"
140
1.0
141
12.0
290
     0
  0
SCALE
  5
7A2
102
{ACAD_REACTORS
330
784
102
}
330
784
100
AcDbScale
 70
     0
300
1-1/2" = 1'-0"
140
1.5
141
12.0
290
     0
  0
SCALE
  5
7A3
102
{ACAD_REACTORS
330
784
102
}
330
784
100
AcDbScale
 70
     0
300
3" = 1'-0"
140
3.0
141
12.0
290
     0
  0
SCALE
  5
7A4
102
{ACAD_REACTORS
330
784
102
}
330
784
100
AcDbScale
 70
     0
300
6" = 1'-0"
140
6.0
141
12.0
290
     0
  0
SCALE
  5
7A5
102
{ACAD_REACTORS
330
784
102
}
330
784
100
AcDbScale
 70
     0
300
1'-0" = 1'-0"
140
12.0
141
12.0
290
     0
  0
ENDSEC
  0
SECTION
  2
THUMBNAILIMAGE
 90
    16364
310
28000000B40000005500000001000800000000000000000000000000000000000000000000000000FFFFFF000000FF0000FFFF0000FF0000FFFF0000FF000000FF00FF000000000080808000C0C0C0000000FF007F7FFF000000A5005252A50000007F003F3F7F0000004C0026264C000000260013132600003FFF007F9FFF
310
000029A5005267A500001F7F003F4F7F0000134C00262F4C000009260013172600007FFF007FBFFF000052A500527CA500003F7F003F5F7F0000264C0026394C0000132600131C260000BFFF007FDFFF00007CA5005291A500005F7F003F6F7F0000394C0026424C00001C26001321260000FFFF007FFFFF0000A5A50052A5
310
A500007F7F003F7F7F00004C4C00264C4C00002626001326260000FFBF007FFFDF0000A57C0052A59100007F5F003F7F6F00004C3900264C420000261C001326210000FF7F007FFFBF0000A5520052A57C00007F3F003F7F5F00004C2600264C39000026130013261C0000FF3F007FFF9F0000A5290052A56700007F1F003F
310
7F4F00004C1300264C2F00002609001326170000FF00007FFF7F0000A5000052A55200007F00003F7F3F00004C0000264C260000260000132613003FFF00009FFF7F0029A5000067A552001F7F00004F7F3F00134C00002F4C260009260000172613007FFF0000BFFF7F0052A500007CA552003F7F00005F7F3F00264C0000
310
394C2600132600001C261300BFFF0000DFFF7F007CA5000091A552005F7F00006F7F3F00394C0000424C26001C26000021261300FFFF0000FFFF7F00A5A50000A5A552007F7F00007F7F3F004C4C00004C4C26002626000026261300FFBF0000FFDF7F00A57C0000A59152007F5F00007F6F3F004C3900004C422600261C00
310
0026211300FF7F0000FFBF7F00A5520000A57C52007F3F00007F5F3F004C2600004C39260026130000261C1300FF3F0000FF9F7F00A5290000A56752007F1F00007F4F3F004C1300004C2F26002609000026171300FF000000FF7F7F00A5000000A55252007F0000007F3F3F004C0000004C2626002600000026131300FF00
310
3F00FF7F9F00A5002900A55267007F001F007F3F4F004C0013004C262F002600090026131700FF007F00FF7FBF00A5005200A5527C007F003F007F3F5F004C0026004C2639002600130026131C00FF00BF00FF7FDF00A5007C00A55291007F005F007F3F6F004C0039004C26420026001C0026132100FF00FF00FF7FFF00A5
310
00A500A552A5007F007F007F3F7F004C004C004C264C002600260026132600BF00FF00DF7FFF007C00A5009152A5005F007F006F3F7F0039004C0042264C001C002600211326007F00FF00BF7FFF005200A5007C52A5003F007F005F3F7F0026004C0039264C00130026001C1326003F00FF009F7FFF002900A5006752A500
310
1F007F004F3F7F0013004C002F264C000900260017132600000000002D2D2D005B5B5B0089898900B7B7B700B3B3B30000000000000000000000000000000000000000000000000000000000000000000000000000000000000000000000000000000000000000000000000000000000000000000000000000000000000000
310
00000000000000000000000000000000000000000000000000000000000000000000000707000000000000000000000000000000000000000000000000000000000000000000000000000000000000000000000000000000000000000000000000000000000000000000000000000000000000000000000000000000000000
310
00000000000000000000000000000000000000000000000000000000000000000000000000000000000000000000000000000000000000000000000000000000000000000000000000000000000000000000000000000007000707000000000000000000000000000000000000000000000000000000000000000000000000
310
00000000000000000000000000000000000000000000000000000000000000000000000000000000000000000000000000000000000000000000000000000000000000000000000000000000000000000000000000000000000000000000000000000000000000000000000000000000000000000000000000000000000000
310
00000000000000000000000000070000000707000000000000000000000000000000000000000000000000000000000000000000000000000000000000000000000000000000000000000000000000000000000000000000000000000000000000000000000000000000000000000000000000000000000000000000000000
310
00000000000000000000000000000000000000000000000000000000000000000000000000000000000000000000000000000000000000000000000000000000070700000000000007070000000000000000000000000000000000000000000000000000000000000000000000000000000000000000000000000000000000
310
00000000000000000000000000000000000000000000000000000000000000000000000000000000000000000000000000000000000000000000000000000000000000000000000000000000000000000000000000000000000000000000000000000000000000000000000000000000000000000007070700000000000000
310
07070000000000000000000000000000000000000000000000000000000000000000000000000000000000000000000000000000000000000000000000000000000000000000000000000000000000000000000000000000000000000000000000000000000000000000000000000000000000000000000000000000000000
310
00000000000000000000000000000000000000000000000000000000000000000000000000000000000007000000070700000000000007070000000000000000000000000000000000000000000000000000000000000000000000000000000000000000000000000000000000000000000000000000000000000000000000
310
00000000000000000000000000000000000000000000000000000000000000000000000000000000000000000000000000000000000000000000000000000000000000000000000000000000000000000000000000000000000000000000000700000000000707000000000700000000000000000000000000000000000000
310
00000000000000000000000000000000000000000000000000000000000000000000000000000000000000000000000000000000000000000000000000000000000000000000000000000000000000000000000000000000000000000000000000000000000000000000000000000000000000000000000000000000000000
310
00000000000000000000000000000000000000000700000000000000000707000007000000000000000000000000000000000000000000000000000000000000000000000000000000000000000000000000000000000000000000000000000000000000000000000000000000000000000000000000000000000000000000
310
00000000000000000000000000000000000000000000000000000000000000000000000000000000000000000000000000000000000000000000000000000000000000000000000000070000000000000000000007070000000000000000000000000000000000000000000000000000000000000000000000000000000000
310
00000000000000000000000000000000000000000000000000000000000000000000000000000000000000000000000000000000000000000000000000000000000000000000000000000000000000000000000000000000000000000000000000000000000000000000000000000000000000000000000000000000000700
310
00000000000000000000000700000000000000000000000000000000000000000000000000000000000000000000000000000000000000000000000000000000000000000000000000000000000000000000000000000000000000000000000000000000000000000000000000000000000000000000000000000000000000
310
00000000000000000000000000000000000000000000000000000000000000000000000000000000000000000000000000000007000000000000000000000007000000000000000000000000000000000000000000000000000000000000000000000000000000000000000000000000000000000000000000000000000000
310
00000000000000000000000000000000000000000000000000000000000000000000000000000000000000000000000000000000000000000000000000000000000000000000000000000000000000000000000000000000000000000000000000000000000000070000000000000000000000000700000000000000000000
310
00000000000000000000000000000000000000000000000000000000000000000000000000000000000000000000000000000000000000000000000000000000000000000000000000000000000000000000000000000000000000000000000000000000000000000000000000000000000000000000000000000000000000
310
00000000000000000000000000000000000000000000000000000000070000000000000000000000000700000000000000000000000000000000000000000000000000000000000000000000000000000000000000000000000000000000000000000000000000000000000000000000000000000000000000000000000000
310
00000000000000000000000000000000000000000000000000000000000000000000000000000000000000000000000000000000000000000000000000000000000000000000000000000000000000000007000000000000000000000000070000000000000000000000000000000000000000000000000000000000000000
310
00000000000000000000000000000000000000000000000000000000000000000000000000000000000000000000000000000000000000000000000000000000000000000000000000000000000000000000000000000000000000000000000000000000000000000000000000000000000000000000000000000000000000
310
00000000000007000000000000000000000000070000000000000000000000000000000000000000000000000000000000000000000000000000000000000000000000000000000000000000000000000000000000000000000000000000000000000000000000000000000000000000000000000000000000000000000000
310
00000000000000000000000000000000000000000000000000000000000000000000000000000000000000000000000000000000000000000000000700000000000000000000000007000000000000000000000000000000000000000000000000000000000000000000000000000000000000000000000000000000000000
310
00000000000000000000000000000000000000000000000000000000000000000000000000000000000000000000000000000000000000000000000000000000000000000000000000000000000000000000000000000000000000000000000000000000000000000000000000000007000000000000000000000000070000
310
00000000000000000000000000000000000000000000000000000000000000000000000000000000000000000000000000000000000000000000000000000000000000000000000000000000000000000000000000000000000000000000000000000000000000000000000000000000000000000000000000000000000000
310
00000000000000000000000000000000000000000000000000000000000000000000000000070000000000000000000000000700000000000000000000000000000000000000000000000000000000000000000000000000000000000000000000000000000000000000000000000000000000000000000000000000000000
310
00000000000000000000000000000000000000000000000000000000000000000000000000000000000000000000000000000000000000000000000000000000000000000000000000000000000000000000000000000000000700000000000000000000000007000000000000000000000000000000000000000000000000
310
00000000000000000000000000000000000000000000000000000000000000000000000000000000000000000000000000000000000000000000000000000000000000000000000000000000000000000000000000000000000000000000000000000000000000000000000000000000000000000000000000000000000000
310
00000000000000000000000000000700000000000000000000000000070000000000000000000000000000000000000000000000000000000000000000000000000000000000000000000000000000000000000000000000000000000000000000000000000000000000000000000000000000000000000000000000000000
310
00000000000000000000000000000000000000000000000000000000000000000000000000000000000000000000000000000000000000000000000000000000000000070000000000000000000000000700000000000000000000000000000000000000000000000000000000000000000000000000000000000000000000
310
00000000000000000000000000000000000000000000000000000000000000000000000000000000000000000000000000000000000000000000000000000000000000000000000000000000000000000000000000000000000000000000000000000000000000000000000000000000000000000000000700000000000000
310
00000000000007000000000000000000000000000000000000000000000000000000000000000000000000000000000000000000000000000000000000000000000000000000000000000000000000000000000000000000000000000000000000000000000000000000000000000000000000000000000000000000000000
310
00000000000000000000000000000000000000000000000000000000000000000000000000000000000000000007000000000000000000000000070000000000000000000000000000000000000000000000000000000000000000000000000000000000000000000000000000000000000000000000000000000000000000
310
00000000000000000000000000000000000000000000000000000000000000000000000000000000000000000000000000000000000000000000000000000000000000000000000000000000000000000000000000000000000000000000000000070000000000000000000000000007000000000000000000000000000000
310
00000000000000000000000000000000000000000000000000000000000000000000000000000000000000000000000000000000000000000000000000000000000000000000000000000000000000000000000000000000000000000000000000000000000000000000000000000000000000000000000000000000000000
310
00000000000000000000000000000000000000000000000700000000000000000000000007000000000000000000000000000000000000000000000000000000000000000000000000000000000000000000000000000000000000000000000000000000000000000000000000000000000000000000000000000000000000
310
00000000000000000000000000000000000000000000000000000000000000000000000000000000000000000000000000000000000000000000000000000000000000000000000000000007000000000000000000000000000700000000000000000000000000000000000000000000000000000000000000000000000000
310
00000000000000000000000000000000000000000000000000000000000000000000000000000000000000000000000000000000000000000000000000000000000000000000000000000000000000000000000000000000000000000000000000000000000000000000000000000000000000000000000000000000000000
310
07000000000000000000000000000700000000000000000000000000000000000000000000000000000000000000000000000000000000000000000000000000000000000000000000000000000000000000000000000000000000000000000000000000000000000000000000000000000000000000000000000000000000
310
00000000000000000000000000000000000000000000000000000000000000000000000000000000000000000000000000000000000700000000000000000000000000070000000000000000000000000000000000000000000000000000000000000000000000000000000000000000000000000000000000000000000000
310
00000000000000000000000000000000000000000000000000000000000000000000000000000000000000000000000000000000000000000000000000000000000000000000000000000000000000000000000000000000000000000000000000000000000000000007000000000000000000000000000700000000000000
310
00000000000000000000000000000000000000000000000000000000000000000000000000000000000000000000000000000000000000000000000000000000000000000000000000000000000000000000000000000000000000000000000000000000000000000000000000000000000000000000000000000000000000
310
00000000000000000000000000000000000000000000000000000000000000070000000000000000000000000007000000000000000000000000000000000000000000000000000000000000000000000000000000000000000000000000000000000000000000000000000000000000000000000000000000000000000000
310
00000000000000000000000000000000000000000000000000000000000000000000000000000000000000000000000000000000000000000000000000000000000000000000000000000000000000000000000700000000000000000000000000070000000000000000000000000000000000000000000000000000000000
310
00000000000000000000000000000000000000000000000000000000000000000000000000000000000000000000000000000000000000000000000000000000000000000000000000000000000000000000000000000000000000000000000000000000000000000000000000000000000000000000000000000000000000
310
00000000000000000007000000000000000000000000000700000000000000000000000000000000000000000000000000000000000000000000000000000000000000000000000000000000000000000000000000000000000000000000000000000000000000000000000000000000000000000000000000000000000000
310
00000000000000000000000000000000000000000000000000000000000000000000000000000000000000000000000000000000000000000000000000070000000000000000000000000007000000000000000000000000000000000000000000000000000000000000000000000000000000000000000000000000000000
310
00000000000000000000000000000000000000000000000000000000000000000000000000000000000000000000000000000000000000000000000000000000000000000000000000000000000000000000000000000000000000000000000000000000000000000000000000000000000707000000000000000000000000
310
00070000000000000000000000000000000000000000000000000000000000000000000000000000000000000000000000000000000000000000000000000000000000000000000000000000000000000000000000000000000000000000000000000000000000000000000000000000000000000000000000000000000000
310
00000000000000000000000000000000000000000000000000000000000000000000000000000707070000000000000000000000000700000000000000000000000000000000000000000000000000000000000000000000000000000000000000000000000000000000000000000000000000000000000000000000000000
310
00000000000000000000000000000000000000000000000000000000000000000000000000000000000000000000000000000000000000000000000000000000000000000000000000000000000000000000000000000000000007000700070000000000000000000000070000000000000000000000000000000000000000
310
00000000000000000000000000000000000000000000000000000000000000000000000000000000000000000000000000000000000000000000000000000000000000000000000000000000000000000000000000000000000000000000000000000000000000000000000000000000000000000000000000000000000000
310
00000000000000000000000000000000070000000700000000000000000000070000000000000000000000000000000000000000000000000000000000000000000000000000000000000000000000000000000000000000000000000000000000000000000000000000000000000000000000000000000000000000000000
310
00000000000000000000000000000000000000000000000000000000000000000000000000000000000000000000000000000000000000000000000000000000000000000700000700070000000000000000000007000000000000000000000000000000000000000000000000000000000000000000000000000000000000
310
00000000000000000000000000000000000000000000000000000000000000000000000000000000000000000000000000000000000000000000000000000000000000000000000000000000000000000000000000000000000000000000000000000000000000000000000000000000000000000000000000070007000007
310
00000000000000000007000000000000000000000000000000000000000000000000000000000000000000000000000000000000000000000000000000000000000000000000000000000000000000000000000000000000000000000000000000000000000000000000000000000000000000000000000000000000000000
310
00000000000000000000000000000000000000000000000000000000000000000000000000000000000000000000070007070000070000000000000000000700000000000000000000000000000000000000000000000000000000000000000000000000000000000000000000000000000000000000000000000000000000
310
00000000000000000000000000000000000000000000000000000000000000000000000000000000000000000000000000000000000000000000000000000000000000000000000000000000000000000000000000000000000000000000000000000007070700000007000000000000000007000000000000000000000000
310
00000000000000000000000000000000000000000000000000000000000000000000000000000000000000000000000000000000000000000000000000000000000000000000000000000000000000000000000000000000000000000000000000000000000000000000000000000000000000000000000000000000000000
310
00000000000000000000000000000000000000000000000007070700000007000000000000000000070000000000000000000000000000000000000000000000000000000000000000000000000000000000000000000000000000000000000000000000000000000000000000000000000000000000000000000000000000
310
00000000000000000000000000000000000000000000000000000000000000000000000000000000000000000000000000000000000000000000000000000000000000000000000000000000000700000000000700000000000000000700000000000000000000000000000000000000000000000000000000000000000000
310
00000000000000000000000000000000000000000000000000000000000000000000000000000000000000000000000000000000000000000000000000000000000000000000000000000000000000000000000000000000000000000000000000000000000000000000000000000000000000000000000000000000000000
310
00000700000000000707000000000000000700000000000000000000000000000000000000000000000000000000000000000000000000000000000000000000000000000000000000000000000000000000000000000000000000000000000000000000000000000000000000000000000000000000000000000000000000
310
00000000000000000000000000000000000000000000000000000000000000000000000000000000000000000000000000000000000000070000000000070000000000000007000000000000000000000000000000000000000000000000000000000000000000000000000000000000000000000000000000000000000000
310
00000000000000000000000000000000000000000000000000000000000000000000000000000000000000000000000000000000000000000000000000000000000000000000000000000000000000000000000000000000000000000000000000000000000000000000000700000700000700000000000000000700000000
310
00000000000000000000000000000000000000000000000000000000000000000000000000000000000000000000000000000000000000000000000000000000000000000000000000000000000000000000000000000000000000000000000000000000000000000000000000000000000000000000000000000000000000
310
00000000000000000000000000000000000000000000000000000000000000000707070707070700000000000000000007000000000000000000000000000000000000000000000000000000000000000000000000000000000000000000000000000000000000000000000000000000000000000000000000000000000000
310
00000000000000000000000000000000000000000000000000000000000000000000000000000000000000000000000000000000000000000000000000000000000000000000000000000000000000000000000007070707070707000000000000000000070000000000000000000000000000000000000000000000000000
310
00000000000000000000000000000000000000000000000000000000000000000000000000000000000000000000000000000000000000000000000000000000000000000000000000000000000000000000000000000000000000000000000000000000000000000000000000000000000000000000000000000000000000
310
00000000000000000707070707070700000000000000000000070000000000000000000000000000000000000000000000000000000000000000000000000000000000000000000000000000000000000000000000000000000000000000000000000000000000000000000000000000000000000000000000000000000000
310
00000000000000000000000000000000000000000000000000000000000000000000000000000000000000000000000000000000000000000000000007070707070700070000000000000000000700000000000000000000000000000000000000000000000000000000000000000000000000000000000000000000000000
310
00000000000000000000000000000000000000000000000000000000000000000000000000000000000000000000000000000000000000000000000000000000000000000000000000000000000000000000000000000000000000000000000000000000000000000000000000000000000707070707070700000000000000
310
00000007000000000000000000000000000000000000000000000000000000000000000000000000000000000000000000000000000000000000000000000000000000000000000000000000000000000000000000000000000000000000000000000000000000000000000000000000000000000000000000000000000000
310
00000000000000000000000000000000000000000000000000000000000000000000000000070707070707070000000000000000000000070000000000000000000000000000000000000000000000000000000000000000000000000000000000000000000000000000000000000000000000000000000000000000000000
310
00000000000000000000000000000000000000000000000000000000000000000000000000000000000000000000000000000000000000000000000000000000000000000000000000000000000000000000000000000000000707070707000700000000000000000000000700000000000000000000000000000000000000
310
00000000000000000000000000000000000000000000000000000000000000000000000000000000000000000000000000000000000000000000000000000000000000000000000000000000000000000000000000000000000000000000000000000000000000000000000000000000000000000000000000000000000000
310
00000000000000000000000000000707070707070700000000000000000000000700000000000000000000000000000000000000000000000000000000000000000000000000000000000000000000000000000000000000000000000000000000000000000000000000000000000000000000000000000000000000000000
310
00000000000000000000000000000000000000000000000000000000000000000000000000000000000000000000000000000000000000000000000000000000000707070707000707000000000000000000000007000000000000000000000000000000000000000000000000000000000000000000000000000000000000
310
00000000000000000000000000000000000000000000000000000000000000000000000000000000000000000000000000000000000000000000000000000000000000000000000000000000000000000000000000000000000000000000000000000000000000000000000000000000000000000007070707070700070000
310
00000000000000000007000000000000000000000000000000000000000000000000000000000000000000000000000000000000000000000000000000000000000000000000000000000000000000000000000000000000000000000000000000000000000000000000000000000000000000000000000000000000000000
310
00000000000000000000000000000000000000000000000000000000000000000000000000000000000007070707070707070000000000000000000000070000000000000000000000000000000000000000000000000000000000000000000000000000000000000000000000000000000000000000000000000000000000
310
00000000000000000000000000000000000000000000000000000000000000000000000000000000000000000000000000000000000000000000000000000000000000000000000000000000000000000000000000000000000000000000070707070707070000000000000000000000000700000000000000000000000000
310
00000000000000000000000000000000000000000000000000000000000000000000000000000000000000000000000000000000000000000000000000000000000000000000000000000000000000000000000000000000000000000000000000000000000000000000000000000000000000000000000000000000000000
310
00000000000000000000000000000000000000070707070707000700000000000000000000000700000000000000000000000000000000000000000000000000000000000000000000000000000000000000000000000000000000000000000000000000000000000000000000000000000000000000000000000000000000
310
00000000000000000000000000000000000000000000000000000000000000000000000000000000000000000000000000000000000000000000000000000000000000000000070707070707070707000000000000000000000007000000000000000000000000000000000000000000000000000000000000000000000000
310
00000000000000000000000000000000000000000000000000000000000000000000000000000000000000000000000000000000000000000000000000000000000000000000000000000000000000000000000000000000000000000000000000000000000000000000000000000000000000000000000000000007070707
310
07000700000000000000000000000007000000000000000000000000000000000000000000000000000000000000000000000000000000000000000000000000000000000000000000000000000000000000000000000000000000000000000000000000000000000000000000000000000000000000000000000000000000
310
00000000000000000000000000000000000000000000000000000000000000000000000000000000000000000000000000070707070707000000000000000000000000070000000000000000000000000000000000000000000000000000000000000000000000000000000000000000000000000000000000000000000000
310
00000000000000000000000000000000000000000000000000000000000000000000000000000000000000000000000000000000000000000000000000000000000000000000000000000000000000000000000000000000000000000000000000000000070707070707070000000000000000000000000700000000000000
310
00000000000000000000000000000000000000000000000000000000000000000000000000000000000000000000000000000000000000000000000000000000000000000000000000000000000000000000000000000000000000000000000000000000000000000000000000000000000000000000000000000000000000
310
00000000000000000000000000000000000000000000000000070707070707000700000000000000000000000700000000000000000000000000000000000000000000000000000000000000000000000000000000000000000000000000000000000000000000000000000000000000000000000000000000000000000000
310
00000000000000000000000000000000000000000000000000000000000000000000000000000000000000000000000000000000000000000000000000000000000000000000000000000000000707070707070707000000000000000000000007000000000000000000000000000000000000000000000000000000000000
310
00000000000000000000000000000000000000000000000000000000000000000000000000000000000000000000000000000000000000000000000000000000000000000000000000000000000000000000000000000000000000000000000000000000000000000000000000000000000000000000000000000000000000
310
00000007070707070700000000000000000000000007000000000000000000000000000000000000000000000000000000000000000000000000000000000000000000000000000000000000000000000000000000000000000000000000000000000000000000000000000000000000000000000000000000000000000000
310
00000000000000000000000000000000000000000000000000000000000000000000000000000000000000000000000000000000000000070707070007000000000000000000000000070000000000000000000000000000000000000000000000000000000000000000000000000000000000000000000000000000000000
310
00000000000000000000000000000000000000000000000000000000000000000000000000000000000000000000000000000000000000000000000000000000000000000000000000000000000000000000000000000000000000000000000000000000000000000000000707070707070000000000000000000000000700
310
00000000000000000000000000000000000000000000000000000000000000000000000000000000000000000000000000000000000000000000000000000000000000000000000000000000000000000000000000000000000000000000000000000000000000000000000000000000000000000000000000000000000000
310
00000000000000000000000000000000000000000000000000000000000000000707070707070000000000000000000000000700000000000000000000000000000000000000000000000000000000000000000000000000000000000000000000000000000000000000000000000000000000000000000000000000000000
310
00000000000000000000000000000000000000000000000000000000000000000000000000000000000000000000000000000000000000000000000000000000000000000000000000000000000000000000000007070707000700000000000000000000000007000000000000000000000000000000000000000000000000
310
00000000000000000000000000000000000000000000000000000000000000000000000000000000000000000000000000000000000000000000000000000000000000000000000000000000000000000000000000000000000000000000000000000000000000000000000000000000000000000000000000000000000000
310
00000000000000000007070707070700000000000000000000000007000000000000000000000000000000000000000000000000000000000000000000000000000000000000000000000000000000000000000000000000000000000000000000000000000000000000000000000000000000000000000000000000000000
310
00000000000000000000000000000000000000000000000000000000000000000000000000000000000000000000000000000000000000000000000000000707070007000000000000000000000000070000000000000000000000000000000000000000000000000000000000000000000000000000000000000000000000
310
00000000000000000000000000000000000000000000000000000000000000000000000000000000000000000000000000000000000000000000000000000000000000000000000000000000000000000000000000000000000000000000000000000000000000000000000000000000000000070707070000000000000000
310
00000000070000000000000000000000000000000000000000000000000000000000000000000000000000000000000000000000000000000000000000000000000000000000000000000000000000000000000000000000000000000000000000000000000000000000000000000000000000000000000000000000000000
310
00000000000000000000000000000000000000000000000000000000000000000000000000000000070707000000000000000000000000070700000000000000000000000000000000000000000000000000000000000000000000000000000000000000000000000000000000000000000000000000000000000000000000
310
00000000000000000000000000000000000000000000000000000000000000000000000000000000000000000000000000000000000000000000000000000000000000000000000000000000000000000000000000000000000000000707070000000000000000000000000700000000000000000000000000000000000000
310
00000000000000000000000000000000000000000000000000000000000000000000000000000000000000000000000000000000000000000000000000000000000000000000000000000000000000000000000000000000000000000000000000000000000000000000000000000000000000000000000000000000000000
310
00000000000000000000000000000000000007070000000000000000000000000700000000000000000000000000000000000000000000000000000000000000000000000000000000000000000000000000000000000000000000000000000000000000000000000000000000000000000000000000000000000000000000
310
00000000000000000000000000000000000000000000000000000000000000000000000000000000000000000000000000000000000000000000000000000000000000000000070700000000000000000000000707000000000000000000000000000000000000000000000000000000000000000000000000000000000000
310
00000000000000000000000000000000000000000000000000000000000000000000000000000000000000000000000000000000000000000000000000000000000000000000000000000000000000000000000000000000000000000000000000000000000000000000000000000000000000000000000000000007000000
310
00000000000000000700000000000000000000000000000000000000000000000000000000000000000000000000000000000000000000000000000000000000000000000000000000000000000000000000000000000000000000000000000000000000000000000000000000000000000000000000000000000000000000
310
00000000000000000000000000000000000000000000000000000000000000000000000000000000000000000000000007070000000000000000000007000000000000000000000000000000000000000000000000000000000000000000000000000000000000000000000000000000000000000000000000000000000000
310
00000000000000000000000000000000000000000000000000000000000000000000000000000000000000000000000000000000000000000000000000000000000000000000000000000000000000000000000000000000000000000000000000000000000700000000000000000007070000000000000000000000000000
310
00000000000000000000000000000000000000000000000000000000000000000000000000000000000000000000000000000000000000000000000000000000000000000000000000000000000000000000000000000000000000000000000000000000000000000000000000000000000000000000000000000000000000
310
00000000000000000000000000000000000000000000000000000000070000000000000007000000000000000000000000000000000000000000000000000000000000000000000000000000000000000000000000000000000000000000000000000000000000000000000000000000000000000000000000000000000000
310
00000000000000000000000000000000000000000000000000000000000000000000000000000000000000000000000000000000000000000000000000000000000000000000000000000000000000000000070700000000070000000000000000000000000000000000000000000000000000000000000000000000000000
310
00000000000000000000000000000000000000000000000000000000000000000000000000000000000000000000000000000000000000000000000000000000000000000000000000000000000000000000000000000000000000000000000000000000000000000000000000000000000000000000000000000000000000
310
00000000000000000000070007070000000000000000000000000000000000000000000000000000000000000000000000000000000000000000000000000000000000000000000000000000000000000000000000000000000000000000000000000000000000000000000000000000000000000000000000000000000000
310
00000000000000000000000000000000000000000000000000000000000000000000000000000000000000000000000000000000000000000000000000000000070000000000000000000000000000000000000000000000000000000000000000000000000000000000000000000000000000000000000000000000000000
310
00000000000000000000000000000000000000000000000000000000000000000000000000000000000000000000000000000000000000000000000000000000000000000000000000000000000000000000000000000000000000000000000000000000000000000000000000000000000000000000000000000000000000
310
000000000000000000000000000000000000000000000000000000000000000000000000000000000000000000000000000000000000000000000000000000000000000000000000000000000000000000000000000000000000000000000000000000000000000000000000
  0
ENDSEC
  0
EOF
