  0
SECTION
  2
HEADER
  9
$ACADVER
  1
AC1015
  9
$ACADMAINTVER
 70
     6
  9
$DWGCODEPAGE
  3
ANSI_1252
  9
$INSBASE
 10
0.0
 20
0.0
 30
0.0
  9
$EXTMIN
 10
-0.026
 20
-0.0325
 30
0.0
  9
$EXTMAX
 10
299.972
 20
168.0325
 30
0.0
  9
$LIMMIN
 10
0.0
 20
0.0
  9
$LIMMAX
 10
12.0
 20
9.0
  9
$ORTHOMODE
 70
     0
  9
$REGENMODE
 70
     1
  9
$FILLMODE
 70
     1
  9
$QTEXTMODE
 70
     0
  9
$MIRRTEXT
 70
     1
  9
$LTSCALE
 40
1.0
  9
$ATTMODE
 70
     1
  9
$TEXTSIZE
 40
0.2
  9
$TRACEWID
 40
0.05
  9
$TEXTSTYLE
  7
Standard
  9
$CLAYER
  8
0
  9
$CELTYPE
  6
ByBlock
  9
$CECOLOR
 62
   256
  9
$CELTSCALE
 40
1.0
  9
$DISPSILH
 70
     0
  9
$DIMSCALE
 40
1.0
  9
$DIMASZ
 40
0.18
  9
$DIMEXO
 40
0.0625
  9
$DIMDLI
 40
0.38
  9
$DIMRND
 40
0.0
  9
$DIMDLE
 40
0.0
  9
$DIMEXE
 40
0.18
  9
$DIMTP
 40
0.0
  9
$DIMTM
 40
0.0
  9
$DIMTXT
 40
0.18
  9
$DIMCEN
 40
0.09
  9
$DIMTSZ
 40
0.0
  9
$DIMTOL
 70
     0
  9
$DIMLIM
 70
     0
  9
$DIMTIH
 70
     1
  9
$DIMTOH
 70
     1
  9
$DIMSE1
 70
     0
  9
$DIMSE2
 70
     0
  9
$DIMTAD
 70
     0
  9
$DIMZIN
 70
     0
  9
$DIMBLK
  1

  9
$DIMASO
 70
     1
  9
$DIMSHO
 70
     1
  9
$DIMPOST
  1

  9
$DIMAPOST
  1

  9
$DIMALT
 70
     0
  9
$DIMALTD
 70
     2
  9
$DIMALTF
 40
25.4
  9
$DIMLFAC
 40
1.0
  9
$DIMTOFL
 70
     0
  9
$DIMTVP
 40
0.0
  9
$DIMTIX
 70
     0
  9
$DIMSOXD
 70
     0
  9
$DIMSAH
 70
     0
  9
$DIMBLK1
  1

  9
$DIMBLK2
  1

  9
$DIMSTYLE
  2
Standard
  9
$DIMCLRD
 70
     0
  9
$DIMCLRE
 70
     0
  9
$DIMCLRT
 70
     0
  9
$DIMTFAC
 40
1.0
  9
$DIMGAP
 40
0.09
  9
$DIMJUST
 70
     0
  9
$DIMSD1
 70
     0
  9
$DIMSD2
 70
     0
  9
$DIMTOLJ
 70
     1
  9
$DIMTZIN
 70
     0
  9
$DIMALTZ
 70
     0
  9
$DIMALTTZ
 70
     0
  9
$DIMUPT
 70
     0
  9
$DIMDEC
 70
     4
  9
$DIMTDEC
 70
     4
  9
$DIMALTU
 70
     2
  9
$DIMALTTD
 70
     2
  9
$DIMTXSTY
  7
Standard
  9
$DIMAUNIT
 70
     0
  9
$DIMADEC
 70
     0
  9
$DIMALTRND
 40
0.0
  9
$DIMAZIN
 70
     0
  9
$DIMDSEP
 70
    46
  9
$DIMATFIT
 70
     3
  9
$DIMFRAC
 70
     0
  9
$DIMLDRBLK
  1

  9
$DIMLUNIT
 70
     2
  9
$DIMLWD
 70
    -2
  9
$DIMLWE
 70
    -2
  9
$DIMTMOVE
 70
     2
  9
$LUNITS
 70
     2
  9
$LUPREC
 70
     4
  9
$SKETCHINC
 40
0.1
  9
$FILLETRAD
 40
0.5
  9
$AUNITS
 70
     0
  9
$AUPREC
 70
     0
  9
$MENU
  1
.
  9
$ELEVATION
 40
0.0
  9
$PELEVATION
 40
0.0
  9
$THICKNESS
 40
0.0
  9
$LIMCHECK
 70
     0
  9
$CHAMFERA
 40
0.5
  9
$CHAMFERB
 40
0.5
  9
$CHAMFERC
 40
1.0
  9
$CHAMFERD
 40
0.0
  9
$SKPOLY
 70
     0
  9
$TDCREATE
 40
2456213.949044051
  9
$TDUCREATE
 40
2456213.865710718
  9
$TDUPDATE
 40
2456213.950427326
  9
$TDUUPDATE
 40
2456213.867093993
  9
$TDINDWG
 40
0.0013829282
  9
$TDUSRTIMER
 40
0.0013829282
  9
$USRTIMER
 70
     1
  9
$ANGBASE
 50
0.0
  9
$ANGDIR
 70
     0
  9
$PDMODE
 70
     0
  9
$PDSIZE
 40
0.0
  9
$PLINEWID
 40
0.0
  9
$SPLFRAME
 70
     0
  9
$SPLINETYPE
 70
     6
  9
$SPLINESEGS
 70
     8
  9
$HANDSEED
  5
1D93
  9
$SURFTAB1
 70
     6
  9
$SURFTAB2
 70
     6
  9
$SURFTYPE
 70
     6
  9
$SURFU
 70
     6
  9
$SURFV
 70
     6
  9
$UCSBASE
  2

  9
$UCSNAME
  2

  9
$UCSORG
 10
0.0
 20
0.0
 30
0.0
  9
$UCSXDIR
 10
1.0
 20
0.0
 30
0.0
  9
$UCSYDIR
 10
0.0
 20
1.0
 30
0.0
  9
$UCSORTHOREF
  2

  9
$UCSORTHOVIEW
 70
     0
  9
$UCSORGTOP
 10
0.0
 20
0.0
 30
0.0
  9
$UCSORGBOTTOM
 10
0.0
 20
0.0
 30
0.0
  9
$UCSORGLEFT
 10
0.0
 20
0.0
 30
0.0
  9
$UCSORGRIGHT
 10
0.0
 20
0.0
 30
0.0
  9
$UCSORGFRONT
 10
0.0
 20
0.0
 30
0.0
  9
$UCSORGBACK
 10
0.0
 20
0.0
 30
0.0
  9
$PUCSBASE
  2

  9
$PUCSNAME
  2

  9
$PUCSORG
 10
0.0
 20
0.0
 30
0.0
  9
$PUCSXDIR
 10
1.0
 20
0.0
 30
0.0
  9
$PUCSYDIR
 10
0.0
 20
1.0
 30
0.0
  9
$PUCSORTHOREF
  2

  9
$PUCSORTHOVIEW
 70
     0
  9
$PUCSORGTOP
 10
0.0
 20
0.0
 30
0.0
  9
$PUCSORGBOTTOM
 10
0.0
 20
0.0
 30
0.0
  9
$PUCSORGLEFT
 10
0.0
 20
0.0
 30
0.0
  9
$PUCSORGRIGHT
 10
0.0
 20
0.0
 30
0.0
  9
$PUCSORGFRONT
 10
0.0
 20
0.0
 30
0.0
  9
$PUCSORGBACK
 10
0.0
 20
0.0
 30
0.0
  9
$USERI1
 70
     0
  9
$USERI2
 70
     0
  9
$USERI3
 70
     0
  9
$USERI4
 70
     0
  9
$USERI5
 70
     0
  9
$USERR1
 40
0.0
  9
$USERR2
 40
0.0
  9
$USERR3
 40
0.0
  9
$USERR4
 40
0.0
  9
$USERR5
 40
0.0
  9
$WORLDVIEW
 70
     1
  9
$SHADEDGE
 70
     3
  9
$SHADEDIF
 70
    70
  9
$TILEMODE
 70
     1
  9
$MAXACTVP
 70
    64
  9
$PINSBASE
 10
0.0
 20
0.0
 30
0.0
  9
$PLIMCHECK
 70
     0
  9
$PEXTMIN
 10
1.000000000000E+20
 20
1.000000000000E+20
 30
1.000000000000E+20
  9
$PEXTMAX
 10
-1.000000000000E+20
 20
-1.000000000000E+20
 30
-1.000000000000E+20
  9
$PLIMMIN
 10
0.0
 20
0.0
  9
$PLIMMAX
 10
12.0
 20
9.0
  9
$UNITMODE
 70
     0
  9
$VISRETAIN
 70
     1
  9
$PLINEGEN
 70
     0
  9
$PSLTSCALE
 70
     1
  9
$TREEDEPTH
 70
  3020
  9
$CMLSTYLE
  2
Standard
  9
$CMLJUST
 70
     0
  9
$CMLSCALE
 40
1.0
  9
$PROXYGRAPHICS
 70
     1
  9
$MEASUREMENT
 70
     0
  9
$CELWEIGHT
370
    -1
  9
$ENDCAPS
280
     0
  9
$JOINSTYLE
280
     0
  9
$LWDISPLAY
290
     0
  9
$INSUNITS
 70
     0
  9
$HYPERLINKBASE
  1

  9
$STYLESHEET
  1

  9
$XEDIT
290
     1
  9
$CEPSNTYPE
380
     0
  9
$PSTYLEMODE
290
     1
  9
$FINGERPRINTGUID
  2
{4B0A2CBE-8ED7-49ED-8310-96ACAF690B4A}
  9
$VERSIONGUID
  2
{FAEB1C32-E019-11D5-929B-00C0DF256EC4}
  9
$EXTNAMES
290
     1
  9
$PSVPSCALE
 40
0.0
  9
$OLESTARTUP
290
     0
  0
ENDSEC
  0
SECTION
  2
CLASSES
  0
CLASS
  1
ACDBDICTIONARYWDFLT
  2
AcDbDictionaryWithDefault
  3
ObjectDBX Classes
 90
        0
280
     0
281
     0
  0
CLASS
  1
SCALE
  2
AcDbScale
  3
ObjectDBX Classes
 90
     1153
280
     0
281
     0
  0
CLASS
  1
DICTIONARYVAR
  2
AcDbDictionaryVar
  3
ObjectDBX Classes
 90
        0
280
     0
281
     0
  0
CLASS
  1
ACDBPLACEHOLDER
  2
AcDbPlaceHolder
  3
ObjectDBX Classes
 90
        0
280
     0
281
     0
  0
CLASS
  1
LAYOUT
  2
AcDbLayout
  3
ObjectDBX Classes
 90
        0
280
     0
281
     0
  0
ENDSEC
  0
SECTION
  2
TABLES
  0
TABLE
  2
VPORT
  5
8
330
0
100
AcDbSymbolTable
 70
     1
  0
VPORT
  5
C57
330
8
100
AcDbSymbolTableRecord
100
AcDbViewportTableRecord
  2
*Active
 70
     0
 10
0.0
 20
0.0
 11
1.0
 21
1.0
 12
149.973
 22
84.0
 13
0.0
 23
0.0
 14
0.5
 24
0.5
 15
0.5
 25
0.5
 16
0.0
 26
0.0
 36
1.0
 17
0.0
 27
0.0
 37
0.0
 40
171.4263
 41
1.863448275862
 42
50.0
 43
0.0
 44
0.0
 50
0.0
 51
0.0
 71
    16
 72
   100
 73
     1
 74
     3
 75
     0
 76
     0
 77
     0
 78
     0
281
     0
 65
     1
110
0.0
120
0.0
130
0.0
111
1.0
121
0.0
131
0.0
112
0.0
122
1.0
132
0.0
 79
     0
146
0.0
  0
ENDTAB
  0
TABLE
  2
LTYPE
  5
5
330
0
100
AcDbSymbolTable
 70
     1
  0
LTYPE
  5
14
330
5
100
AcDbSymbolTableRecord
100
AcDbLinetypeTableRecord
  2
ByBlock
 70
     0
  3

 72
    65
 73
     0
 40
0.0
  0
LTYPE
  5
15
330
5
100
AcDbSymbolTableRecord
100
AcDbLinetypeTableRecord
  2
ByLayer
 70
     0
  3

 72
    65
 73
     0
 40
0.0
  0
LTYPE
  5
16
330
5
100
AcDbSymbolTableRecord
100
AcDbLinetypeTableRecord
  2
Continuous
 70
     0
  3
Solid line
 72
    65
 73
     0
 40
0.0
  0
ENDTAB
  0
TABLE
  2
LAYER
  5
2
330
0
100
AcDbSymbolTable
 70
     1
  0
LAYER
  5
10
330
2
100
AcDbSymbolTableRecord
100
AcDbLayerTableRecord
  2
0
 70
     0
 62
     7
  6
Continuous
370
    -3
390
F
  0
ENDTAB
  0
TABLE
  2
STYLE
  5
3
330
0
100
AcDbSymbolTable
 70
     1
  0
STYLE
  5
11
330
3
100
AcDbSymbolTableRecord
100
AcDbTextStyleTableRecord
  2
Standard
 70
     0
 40
0.0
 41
1.0
 50
0.0
 71
     0
 42
0.2
  3
txt
  4

  0
ENDTAB
  0
TABLE
  2
VIEW
  5
6
330
0
100
AcDbSymbolTable
 70
     0
  0
ENDTAB
  0
TABLE
  2
UCS
  5
7
330
0
100
AcDbSymbolTable
 70
     0
  0
ENDTAB
  0
TABLE
  2
APPID
  5
9
330
0
100
AcDbSymbolTable
 70
     1
  0
APPID
  5
12
330
9
100
AcDbSymbolTableRecord
100
AcDbRegAppTableRecord
  2
ACAD
 70
     0
  0
ENDTAB
  0
TABLE
  2
DIMSTYLE
  5
A
330
0
100
AcDbSymbolTable
 70
     1
100
AcDbDimStyleTable
  0
DIMSTYLE
105
20
330
A
100
AcDbSymbolTableRecord
100
AcDbDimStyleTableRecord
  2
Standard
 70
     0
340
11
  0
ENDTAB
  0
TABLE
  2
BLOCK_RECORD
  5
1
330
0
100
AcDbSymbolTable
 70
     1
  0
BLOCK_RECORD
  5
1D
330
1
100
AcDbSymbolTableRecord
100
AcDbBlockTableRecord
  2
*Model_Space
340
1E
  0
BLOCK_RECORD
  5
1B
330
1
100
AcDbSymbolTableRecord
100
AcDbBlockTableRecord
  2
*Paper_Space
340
1C
  0
ENDTAB
  0
ENDSEC
  0
SECTION
  2
BLOCKS
  0
BLOCK
  5
C5A
330
1D
100
AcDbEntity
  8
0
100
AcDbBlockBegin
  2
*Model_Space
 70
     0
 10
0.0
 20
0.0
 30
0.0
  3
*Model_Space
  1
*Model_Space
  0
ENDBLK
  5
C5B
330
1D
100
AcDbEntity
  8
0
100
AcDbBlockEnd
  0
BLOCK
  5
C58
330
1B
100
AcDbEntity
 67
     1
  8
0
100
AcDbBlockBegin
  2
*Paper_Space
 70
     0
 10
0.0
 20
0.0
 30
0.0
  3
*Paper_Space
  1
*Paper_Space
  0
ENDBLK
  5
C59
330
1B
100
AcDbEntity
 67
     1
  8
0
100
AcDbBlockEnd
  0
ENDSEC
  0
SECTION
  2
ENTITIES
  0
LINE
  5
588
330
1D
100
AcDbEntity
  8
0
100
AcDbLine
 10
138.74
 20
84.9675
 30
0.0
 11
139.164
 21
84.9675
 31
0.0
  0
LINE
  5
589
330
1D
100
AcDbEntity
  8
0
100
AcDbLine
 10
138.527
 20
84.9675
 30
0.0
 11
138.74
 21
84.9675
 31
0.0
  0
LINE
  5
59B
330
1D
100
AcDbEntity
  8
0
100
AcDbLine
 10
139.164
 20
84.9675
 30
0.0
 11
139.789
 21
84.9675
 31
0.0
  0
LINE
  5
5A8
330
1D
100
AcDbEntity
  8
0
100
AcDbLine
 10
141.595
 20
84.9675
 30
0.0
 11
142.742
 21
84.9675
 31
0.0
  0
LINE
  5
5A9
330
1D
100
AcDbEntity
  8
0
100
AcDbLine
 10
139.789
 20
84.9675
 30
0.0
 11
140.605
 21
84.9675
 31
0.0
  0
LINE
  5
5AE
330
1D
100
AcDbEntity
  8
0
100
AcDbLine
 10
139.063
 20
84.9675
 30
0.0
 11
139.164
 21
84.9675
 31
0.0
  0
LINE
  5
5AF
330
1D
100
AcDbEntity
  8
0
100
AcDbLine
 10
140.605
 20
84.9675
 30
0.0
 11
140.696
 21
84.9675
 31
0.0
  0
LINE
  5
5B0
330
1D
100
AcDbEntity
  8
0
100
AcDbLine
 10
140.605
 20
84.9675
 30
0.0
 11
141.595
 21
84.9675
 31
0.0
  0
LINE
  5
5BA
330
1D
100
AcDbEntity
  8
0
100
AcDbLine
 10
145.418
 20
84.9675
 30
0.0
 11
146.897
 21
84.9675
 31
0.0
  0
LINE
  5
5BB
330
1D
100
AcDbEntity
  8
0
100
AcDbLine
 10
144.025
 20
84.9675
 30
0.0
 11
145.418
 21
84.9675
 31
0.0
  0
LINE
  5
61A
330
1D
100
AcDbEntity
  8
0
100
AcDbLine
 10
150.0
 20
84.9675
 30
0.0
 11
151.566
 21
84.9675
 31
0.0
  0
LINE
  5
61C
330
1D
100
AcDbEntity
  8
0
100
AcDbLine
 10
154.582
 20
84.9675
 30
0.0
 11
155.975
 21
84.9675
 31
0.0
  0
LINE
  5
61D
330
1D
100
AcDbEntity
  8
0
100
AcDbLine
 10
151.566
 20
84.9675
 30
0.0
 11
153.103
 21
84.9675
 31
0.0
  0
LINE
  5
61F
330
1D
100
AcDbEntity
  8
0
100
AcDbLine
 10
148.434
 20
84.9675
 30
0.0
 11
150.0
 21
84.9675
 31
0.0
  0
LINE
  5
621
330
1D
100
AcDbEntity
  8
0
100
AcDbLine
 10
146.897
 20
84.9675
 30
0.0
 11
148.434
 21
84.9675
 31
0.0
  0
LINE
  5
633
330
1D
100
AcDbEntity
  8
0
100
AcDbLine
 10
158.405
 20
84.9675
 30
0.0
 11
159.395
 21
84.9675
 31
0.0
  0
LINE
  5
634
330
1D
100
AcDbEntity
  8
0
100
AcDbLine
 10
157.257
 20
84.9675
 30
0.0
 11
158.405
 21
84.9675
 31
0.0
  0
LINE
  5
64D
330
1D
100
AcDbEntity
  8
0
100
AcDbLine
 10
161.26
 20
84.9675
 30
0.0
 11
161.473
 21
84.9675
 31
0.0
  0
LINE
  5
64E
330
1D
100
AcDbEntity
  8
0
100
AcDbLine
 10
160.211
 20
84.9675
 30
0.0
 11
160.836
 21
84.9675
 31
0.0
  0
LINE
  5
64F
330
1D
100
AcDbEntity
  8
0
100
AcDbLine
 10
159.395
 20
84.9675
 30
0.0
 11
160.211
 21
84.9675
 31
0.0
  0
LINE
  5
656
330
1D
100
AcDbEntity
  8
0
100
AcDbLine
 10
160.836
 20
84.9675
 30
0.0
 11
160.937
 21
84.9675
 31
0.0
  0
LINE
  5
657
330
1D
100
AcDbEntity
  8
0
100
AcDbLine
 10
160.836
 20
84.9675
 30
0.0
 11
161.26
 21
84.9675
 31
0.0
  0
LINE
  5
658
330
1D
100
AcDbEntity
  8
0
100
AcDbLine
 10
159.304
 20
84.9675
 30
0.0
 11
159.395
 21
84.9675
 31
0.0
  0
LINE
  5
659
330
1D
100
AcDbEntity
  8
0
100
AcDbLine
 10
156.76
 20
84.9675
 30
0.0
 11
157.257
 21
84.9675
 31
0.0
  0
LINE
  5
65A
330
1D
100
AcDbEntity
  8
0
100
AcDbLine
 10
155.975
 20
84.9675
 30
0.0
 11
156.76
 21
84.9675
 31
0.0
  0
LINE
  5
65B
330
1D
100
AcDbEntity
  8
0
100
AcDbLine
 10
155.975
 20
84.9675
 30
0.0
 11
157.257
 21
84.9675
 31
0.0
  0
LINE
  5
65C
330
1D
100
AcDbEntity
  8
0
100
AcDbLine
 10
153.103
 20
84.9675
 30
0.0
 11
153.554
 21
84.9675
 31
0.0
  0
LINE
  5
65D
330
1D
100
AcDbEntity
  8
0
100
AcDbLine
 10
153.103
 20
84.9675
 30
0.0
 11
154.582
 21
84.9675
 31
0.0
  0
LINE
  5
65E
330
1D
100
AcDbEntity
  8
0
100
AcDbLine
 10
146.446
 20
84.9675
 30
0.0
 11
146.897
 21
84.9675
 31
0.0
  0
LINE
  5
65F
330
1D
100
AcDbEntity
  8
0
100
AcDbLine
 10
143.24
 20
84.9675
 30
0.0
 11
144.025
 21
84.9675
 31
0.0
  0
LINE
  5
660
330
1D
100
AcDbEntity
  8
0
100
AcDbLine
 10
142.742
 20
84.9675
 30
0.0
 11
143.24
 21
84.9675
 31
0.0
  0
LINE
  5
661
330
1D
100
AcDbEntity
  8
0
100
AcDbLine
 10
142.742
 20
84.9675
 30
0.0
 11
144.025
 21
84.9675
 31
0.0
  0
LINE
  5
662
330
1D
100
AcDbEntity
  8
0
100
AcDbLine
 10
110.425
 20
98.8325
 30
0.0
 11
110.587
 21
96.9365
 31
0.0
  0
LINE
  5
663
330
1D
100
AcDbEntity
  8
0
100
AcDbLine
 10
110.587
 20
96.9365
 30
0.0
 11
110.707
 21
95.9935
 31
0.0
  0
LINE
  5
664
330
1D
100
AcDbEntity
  8
0
100
AcDbLine
 10
133.051
 20
87.9815
 30
0.0
 11
138.5
 21
87.944211037528
 31
0.0
  0
LINE
  5
668
330
1D
100
AcDbEntity
  8
0
100
AcDbLine
 10
114.357
 20
89.7075
 30
0.0
 11
116.557
 21
88.9365
 31
0.0
  0
LINE
  5
669
330
1D
100
AcDbEntity
  8
0
100
AcDbLine
 10
111.092
 20
94.0975
 30
0.0
 11
111.388
 21
93.1795
 31
0.0
  0
LINE
  5
66A
330
1D
100
AcDbEntity
  8
0
100
AcDbLine
 10
110.87
 20
95.0395
 30
0.0
 11
111.092
 21
94.0975
 31
0.0
  0
LINE
  5
66B
330
1D
100
AcDbEntity
  8
0
100
AcDbLine
 10
111.388
 20
93.1795
 30
0.0
 11
111.832
 21
92.2025
 31
0.0
  0
LINE
  5
66C
330
1D
100
AcDbEntity
  8
0
100
AcDbLine
 10
111.832
 20
92.2025
 30
0.0
 11
112.107
 21
91.7425
 31
0.0
  0
LINE
  5
66D
330
1D
100
AcDbEntity
  8
0
100
AcDbLine
 10
112.107
 20
91.7425
 30
0.0
 11
112.799
 21
90.8555
 31
0.0
  0
LINE
  5
66E
330
1D
100
AcDbEntity
  8
0
100
AcDbLine
 10
112.799
 20
90.8555
 30
0.0
 11
114.357
 21
89.7075
 31
0.0
  0
LINE
  5
66F
330
1D
100
AcDbEntity
  8
0
100
AcDbLine
 10
116.557
 20
88.9365
 30
0.0
 11
120.054
 21
88.4185
 31
0.0
  0
LINE
  5
670
330
1D
100
AcDbEntity
  8
0
100
AcDbLine
 10
120.054
 20
88.4185
 30
0.0
 11
133.051
 21
87.9815
 31
0.0
  0
LINE
  5
671
330
1D
100
AcDbEntity
  8
0
100
AcDbLine
 10
110.707
 20
95.9935
 30
0.0
 11
110.87
 21
95.0395
 31
0.0
  0
LINE
  5
672
330
1D
100
AcDbEntity
  8
0
100
AcDbLine
 10
110.114
 20
106.8055
 30
0.0
 11
110.277
 21
101.8225
 31
0.0
  0
LINE
  5
674
330
1D
100
AcDbEntity
  8
0
100
AcDbLine
 10
109.98
 20
113.8885
 30
0.0
 11
110.114
 21
106.8055
 31
0.0
  0
LINE
  5
675
330
1D
100
AcDbEntity
  8
0
100
AcDbLine
 10
109.915
 20
135.6885
 30
0.0
 11
110.064
 21
147.0705
 31
0.0
  0
LINE
  5
676
330
1D
100
AcDbEntity
  8
0
100
AcDbLine
 10
109.915
 20
135.6885
 30
0.0
 11
109.98
 21
113.8885
 31
0.0
  0
LINE
  5
677
330
1D
100
AcDbEntity
  8
0
100
AcDbLine
 10
110.277
 20
101.8225
 30
0.0
 11
110.425
 21
98.8325
 31
0.0
  0
LINE
  5
679
330
1D
100
AcDbEntity
  8
0
100
AcDbLine
 10
138.5
 20
99.2135
 30
0.0
 11
138.5
 21
84.9675
 31
0.0
  0
LINE
  5
67A
330
1D
100
AcDbEntity
  8
0
100
AcDbLine
 10
138.5
 20
99.2135
 30
0.0
 11
138.5
 21
106.2545
 31
0.0
  0
LINE
  5
67B
330
1D
100
AcDbEntity
  8
0
100
AcDbLine
 10
138.5
 20
106.2545
 30
0.0
 11
138.5
 21
111.4675
 31
0.0
  0
LINE
  5
67C
330
1D
100
AcDbEntity
  8
0
100
AcDbLine
 10
138.5
 20
106.2545
 30
0.0
 11
138.5
 21
99.2135
 31
0.0
  0
LINE
  5
67D
330
1D
100
AcDbEntity
  8
0
100
AcDbLine
 10
138.5
 20
120.2465
 30
0.0
 11
138.338
 21
128.2965
 31
0.0
  0
LINE
  5
67E
330
1D
100
AcDbEntity
  8
0
100
AcDbLine
 10
138.5
 20
120.2465
 30
0.0
 11
138.5
 21
116.1795
 31
0.0
  0
LINE
  5
680
330
1D
100
AcDbEntity
  8
0
100
AcDbLine
 10
138.338
 20
128.2965
 30
0.0
 11
138.5
 21
120.2465
 31
0.0
  0
LINE
  5
685
330
1D
100
AcDbEntity
  8
0
100
AcDbLine
 10
138.5
 20
116.1795
 30
0.0
 11
138.5
 21
111.4675
 31
0.0
  0
LINE
  5
686
330
1D
100
AcDbEntity
  8
0
100
AcDbLine
 10
138.5
 20
116.1795
 30
0.0
 11
138.5
 21
120.2465
 31
0.0
  0
LINE
  5
687
330
1D
100
AcDbEntity
  8
0
100
AcDbLine
 10
138.5
 20
111.4675
 30
0.0
 11
138.5
 21
106.2545
 31
0.0
  0
LINE
  5
688
330
1D
100
AcDbEntity
  8
0
100
AcDbLine
 10
138.5
 20
111.4675
 30
0.0
 11
138.5
 21
116.1795
 31
0.0
  0
LINE
  5
68C
330
1D
100
AcDbEntity
  8
0
100
AcDbLine
 10
139.257
 20
132.4885
 30
0.0
 11
140.199
 21
134.2745
 31
0.0
  0
LINE
  5
68E
330
1D
100
AcDbEntity
  8
0
100
AcDbLine
 10
141.434
 20
135.8715
 30
0.0
 11
142.828
 21
137.1555
 31
0.0
  0
LINE
  5
691
330
1D
100
AcDbEntity
  8
0
100
AcDbLine
 10
142.828
 20
137.1555
 30
0.0
 11
144.412
 21
138.1955
 31
0.0
  0
LINE
  5
692
330
1D
100
AcDbEntity
  8
0
100
AcDbLine
 10
140.199
 20
134.2745
 30
0.0
 11
141.434
 21
135.8715
 31
0.0
  0
LINE
  5
693
330
1D
100
AcDbEntity
  8
0
100
AcDbLine
 10
138.638
 20
130.5665
 30
0.0
 11
139.257
 21
132.4885
 31
0.0
  0
LINE
  5
694
330
1D
100
AcDbEntity
  8
0
100
AcDbLine
 10
138.338
 20
128.2965
 30
0.0
 11
138.638
 21
130.5665
 31
0.0
  0
LINE
  5
696
330
1D
100
AcDbEntity
  8
0
100
AcDbLine
 10
110.064
 20
147.0705
 30
0.0
 11
110.278
 21
154.1125
 31
0.0
  0
LINE
  5
697
330
1D
100
AcDbEntity
  8
0
100
AcDbLine
 10
110.341
 20
155.5765
 30
0.0
 11
110.456
 21
157.5465
 31
0.0
  0
LINE
  5
698
330
1D
100
AcDbEntity
  8
0
100
AcDbLine
 10
110.655
 20
159.5625
 30
0.0
 11
110.813
 21
160.5895
 31
0.0
  0
LINE
  5
699
330
1D
100
AcDbEntity
  8
0
100
AcDbLine
 10
111.086
 20
161.8165
 30
0.0
 11
111.487
 21
163.0065
 31
0.0
  0
LINE
  5
69A
330
1D
100
AcDbEntity
  8
0
100
AcDbLine
 10
111.738
 20
163.5545
 30
0.0
 11
112.034
 21
164.0785
 31
0.0
  0
LINE
  5
69B
330
1D
100
AcDbEntity
  8
0
100
AcDbLine
 10
112.625
 20
164.8695
 30
0.0
 11
113.487
 21
165.6695
 31
0.0
  0
LINE
  5
69C
330
1D
100
AcDbEntity
  8
0
100
AcDbLine
 10
114.718
 20
166.3895
 30
0.0
 11
116.485
 21
166.9765
 31
0.0
  0
LINE
  5
69D
330
1D
100
AcDbEntity
  8
0
100
AcDbLine
 10
113.487
 20
165.6695
 30
0.0
 11
114.718
 21
166.3895
 31
0.0
  0
LINE
  5
69E
330
1D
100
AcDbEntity
  8
0
100
AcDbLine
 10
112.034
 20
164.0785
 30
0.0
 11
112.625
 21
164.8695
 31
0.0
  0
LINE
  5
69F
330
1D
100
AcDbEntity
  8
0
100
AcDbLine
 10
111.487
 20
163.0065
 30
0.0
 11
111.738
 21
163.5545
 31
0.0
  0
LINE
  5
6A0
330
1D
100
AcDbEntity
  8
0
100
AcDbLine
 10
110.813
 20
160.5895
 30
0.0
 11
111.086
 21
161.8165
 31
0.0
  0
LINE
  5
6A1
330
1D
100
AcDbEntity
  8
0
100
AcDbLine
 10
110.456
 20
157.5465
 30
0.0
 11
110.655
 21
159.5625
 31
0.0
  0
LINE
  5
6A2
330
1D
100
AcDbEntity
  8
0
100
AcDbLine
 10
110.278
 20
154.1125
 30
0.0
 11
110.341
 21
155.5765
 31
0.0
  0
LINE
  5
6A3
330
1D
100
AcDbEntity
  8
0
100
AcDbLine
 10
139.288
 20
168.0325
 30
0.0
 11
164.997
 21
167.9955
 31
0.0
  0
LINE
  5
6A4
330
1D
100
AcDbEntity
  8
0
100
AcDbLine
 10
125.939
 20
167.7775
 30
0.0
 11
139.288
 21
168.0325
 31
0.0
  0
LINE
  5
6A5
330
1D
100
AcDbEntity
  8
0
100
AcDbLine
 10
119.102
 20
167.4135
 30
0.0
 11
125.939
 21
167.7775
 31
0.0
  0
LINE
  5
6A6
330
1D
100
AcDbEntity
  8
0
100
AcDbLine
 10
116.485
 20
166.9765
 30
0.0
 11
119.102
 21
167.4135
 31
0.0
  0
LINE
  5
6A7
330
1D
100
AcDbEntity
  8
0
100
AcDbLine
 10
144.412
 20
138.1955
 30
0.0
 11
145.731
 21
138.8125
 31
0.0
  0
LINE
  5
6A8
330
1D
100
AcDbEntity
  8
0
100
AcDbLine
 10
147.116
 20
139.2605
 30
0.0
 11
148.797
 21
139.5605
 31
0.0
  0
LINE
  5
6AC
330
1D
100
AcDbEntity
  8
0
100
AcDbLine
 10
157.429
 20
136.9485
 30
0.0
 11
158.661
 21
135.7665
 31
0.0
  0
LINE
  5
6AE
330
1D
100
AcDbEntity
  8
0
100
AcDbLine
 10
156.037
 20
137.9375
 30
0.0
 11
157.429
 21
136.9485
 31
0.0
  0
LINE
  5
6B1
330
1D
100
AcDbEntity
  8
0
100
AcDbLine
 10
161.158
 20
131.3365
 30
0.0
 11
161.53
 21
129.6705
 31
0.0
  0
LINE
  5
6B2
330
1D
100
AcDbEntity
  8
0
100
AcDbLine
 10
160.546
 20
132.9305
 30
0.0
 11
161.158
 21
131.3365
 31
0.0
  0
LINE
  5
6B4
330
1D
100
AcDbEntity
  8
0
100
AcDbLine
 10
159.708
 20
134.4175
 30
0.0
 11
160.546
 21
132.9305
 31
0.0
  0
LINE
  5
6B5
330
1D
100
AcDbEntity
  8
0
100
AcDbLine
 10
158.661
 20
135.7665
 30
0.0
 11
159.708
 21
134.4175
 31
0.0
  0
LINE
  5
6B7
330
1D
100
AcDbEntity
  8
0
100
AcDbLine
 10
154.516
 20
138.7125
 30
0.0
 11
156.037
 21
137.9375
 31
0.0
  0
LINE
  5
6B8
330
1D
100
AcDbEntity
  8
0
100
AcDbLine
 10
152.898
 20
139.2565
 30
0.0
 11
154.516
 21
138.7125
 31
0.0
  0
LINE
  5
6B9
330
1D
100
AcDbEntity
  8
0
100
AcDbLine
 10
150.0
 20
139.6225
 30
0.0
 11
151.218
 21
139.5585
 31
0.0
  0
LINE
  5
6BA
330
1D
100
AcDbEntity
  8
0
100
AcDbLine
 10
148.797
 20
139.5605
 30
0.0
 11
150.0
 21
139.6225
 31
0.0
  0
LINE
  5
6BC
330
1D
100
AcDbEntity
  8
0
100
AcDbLine
 10
151.218
 20
139.5585
 30
0.0
 11
152.898
 21
139.2565
 31
0.0
  0
LINE
  5
6BD
330
1D
100
AcDbEntity
  8
0
100
AcDbLine
 10
145.731
 20
138.8125
 30
0.0
 11
147.116
 21
139.2605
 31
0.0
  0
LINE
  5
6BE
330
1D
100
AcDbEntity
  8
0
100
AcDbLine
 10
138.5
 20
84.9675
 30
0.0
 11
138.5
 21
99.2135
 31
0.0
  0
LINE
  5
6BF
330
1D
100
AcDbEntity
  8
0
100
AcDbLine
 10
161.5
 20
84.9675
 30
0.0
 11
161.5
 21
99.2145
 31
0.0
  0
LINE
  5
6C0
330
1D
100
AcDbEntity
  8
0
100
AcDbLine
 10
161.5
 20
87.957424623116
 30
0.0
 11
167.337
 21
87.9845
 31
0.0
  0
LINE
  5
6C1
330
1D
100
AcDbEntity
  8
0
100
AcDbLine
 10
161.5
 20
99.2145
 30
0.0
 11
161.5
 21
84.9675
 31
0.0
  0
LINE
  5
6C2
330
1D
100
AcDbEntity
  8
0
100
AcDbLine
 10
161.5
 20
99.2145
 30
0.0
 11
161.5
 21
106.2545
 31
0.0
  0
LINE
  5
6C3
330
1D
100
AcDbEntity
  8
0
100
AcDbLine
 10
161.5
 20
118.3895
 30
0.0
 11
161.5
 21
111.4675
 31
0.0
  0
LINE
  5
6C4
330
1D
100
AcDbEntity
  8
0
100
AcDbLine
 10
161.5
 20
118.3895
 30
0.0
 11
161.5
 21
123.5465
 31
0.0
  0
LINE
  5
6C5
330
1D
100
AcDbEntity
  8
0
100
AcDbLine
 10
161.5
 20
111.4675
 30
0.0
 11
161.5
 21
106.2545
 31
0.0
  0
LINE
  5
6C6
330
1D
100
AcDbEntity
  8
0
100
AcDbLine
 10
161.5
 20
111.4675
 30
0.0
 11
161.5
 21
118.3895
 31
0.0
  0
LINE
  5
6C7
330
1D
100
AcDbEntity
  8
0
100
AcDbLine
 10
161.5
 20
106.2545
 30
0.0
 11
161.5
 21
99.2145
 31
0.0
  0
LINE
  5
6C8
330
1D
100
AcDbEntity
  8
0
100
AcDbLine
 10
161.5
 20
106.2545
 30
0.0
 11
161.5
 21
111.4675
 31
0.0
  0
LINE
  5
6C9
330
1D
100
AcDbEntity
  8
0
100
AcDbLine
 10
161.5
 20
123.5465
 30
0.0
 11
161.662
 21
127.6385
 31
0.0
  0
LINE
  5
6CA
330
1D
100
AcDbEntity
  8
0
100
AcDbLine
 10
161.5
 20
123.5465
 30
0.0
 11
161.5
 21
118.3895
 31
0.0
  0
LINE
  5
6CD
330
1D
100
AcDbEntity
  8
0
100
AcDbLine
 10
161.662
 20
127.6385
 30
0.0
 11
161.5
 21
123.5465
 31
0.0
  0
LINE
  5
79C
330
1D
100
AcDbEntity
  8
0
100
AcDbLine
 10
178.404
 20
88.3405
 30
0.0
 11
182.038
 21
88.6695
 31
0.0
  0
LINE
  5
79D
330
1D
100
AcDbEntity
  8
0
100
AcDbLine
 10
167.337
 20
87.9845
 30
0.0
 11
178.404
 21
88.3405
 31
0.0
  0
LINE
  5
7EB
330
1D
100
AcDbEntity
  8
0
100
AcDbLine
 10
184.48
 20
89.2255
 30
0.0
 11
185.942
 21
89.8905
 31
0.0
  0
LINE
  5
7EC
330
1D
100
AcDbEntity
  8
0
100
AcDbLine
 10
182.038
 20
88.6695
 30
0.0
 11
184.48
 21
89.2255
 31
0.0
  0
LINE
  5
7ED
330
1D
100
AcDbEntity
  8
0
100
AcDbLine
 10
185.942
 20
89.8905
 30
0.0
 11
187.087
 21
90.7375
 31
0.0
  0
LINE
  5
7FC
330
1D
100
AcDbEntity
  8
0
100
AcDbLine
 10
187.8
 20
91.6065
 30
0.0
 11
188.099
 21
92.0785
 31
0.0
  0
LINE
  5
80A
330
1D
100
AcDbEntity
  8
0
100
AcDbLine
 10
188.099
 20
92.0785
 30
0.0
 11
188.513
 21
92.9285
 31
0.0
  0
LINE
  5
80B
330
1D
100
AcDbEntity
  8
0
100
AcDbLine
 10
188.513
 20
92.9285
 30
0.0
 11
188.914
 21
94.1185
 31
0.0
  0
LINE
  5
C3A
330
1D
100
AcDbEntity
  8
0
100
AcDbLine
 10
189.187
 20
95.3455
 30
0.0
 11
189.358
 21
96.4725
 31
0.0
  0
LINE
  5
C3B
330
1D
100
AcDbEntity
  8
0
100
AcDbLine
 10
188.914
 20
94.1185
 30
0.0
 11
189.187
 21
95.3455
 31
0.0
  0
LINE
  5
C3C
330
1D
100
AcDbEntity
  8
0
100
AcDbLine
 10
189.722
 20
101.8225
 30
0.0
 11
189.936
 21
108.8645
 31
0.0
  0
LINE
  5
C3D
330
1D
100
AcDbEntity
  8
0
100
AcDbLine
 10
189.659
 20
100.3585
 30
0.0
 11
189.722
 21
101.8225
 31
0.0
  0
LINE
  5
C3E
330
1D
100
AcDbEntity
  8
0
100
AcDbLine
 10
189.48
 20
97.6065
 30
0.0
 11
189.659
 21
100.3585
 31
0.0
  0
LINE
  5
C3F
330
1D
100
AcDbEntity
  8
0
100
AcDbLine
 10
190.042
 20
115.9095
 30
0.0
 11
190.074
 21
121.2495
 31
0.0
  0
LINE
  5
C40
330
1D
100
AcDbEntity
  8
0
100
AcDbLine
 10
190.074
 20
121.2495
 30
0.0
 11
190.084
 21
127.9685
 31
0.0
  0
LINE
  5
C41
330
1D
100
AcDbEntity
  8
0
100
AcDbLine
 10
189.936
 20
108.8645
 30
0.0
 11
190.042
 21
115.9095
 31
0.0
  0
LINE
  5
C42
330
1D
100
AcDbEntity
  8
0
100
AcDbLine
 10
189.358
 20
96.4725
 30
0.0
 11
189.48
 21
97.6065
 31
0.0
  0
LINE
  5
C43
330
1D
100
AcDbEntity
  8
0
100
AcDbLine
 10
187.087
 20
90.7375
 30
0.0
 11
187.8
 21
91.6065
 31
0.0
  0
LINE
  5
C44
330
1D
100
AcDbEntity
  8
0
100
AcDbLine
 10
177.303
 20
167.6465
 30
0.0
 11
181.802
 21
167.3045
 31
0.0
  0
LINE
  5
C45
330
1D
100
AcDbEntity
  8
0
100
AcDbLine
 10
164.997
 20
167.9955
 30
0.0
 11
177.303
 21
167.6465
 31
0.0
  0
LINE
  5
C46
330
1D
100
AcDbEntity
  8
0
100
AcDbLine
 10
181.802
 20
167.3045
 30
0.0
 11
184.824
 21
166.5995
 31
0.0
  0
LINE
  5
C48
330
1D
100
AcDbEntity
  8
0
100
AcDbLine
 10
188.909
 20
161.8365
 30
0.0
 11
189.129
 21
160.8945
 31
0.0
  0
LINE
  5
C4A
330
1D
100
AcDbEntity
  8
0
100
AcDbLine
 10
189.292
 20
159.9425
 30
0.0
 11
189.413
 21
158.9995
 31
0.0
  0
LINE
  5
C4B
330
1D
100
AcDbEntity
  8
0
100
AcDbLine
 10
189.413
 20
158.9995
 30
0.0
 11
189.574
 21
157.1035
 31
0.0
  0
LINE
  5
C4C
330
1D
100
AcDbEntity
  8
0
100
AcDbLine
 10
189.129
 20
160.8945
 30
0.0
 11
189.292
 21
159.9425
 31
0.0
  0
LINE
  5
C4D
330
1D
100
AcDbEntity
  8
0
100
AcDbLine
 10
187.89
 20
164.2365
 30
0.0
 11
188.612
 21
162.7565
 31
0.0
  0
LINE
  5
C4E
330
1D
100
AcDbEntity
  8
0
100
AcDbLine
 10
188.612
 20
162.7565
 30
0.0
 11
188.909
 21
161.8365
 31
0.0
  0
LINE
  5
C4F
330
1D
100
AcDbEntity
  8
0
100
AcDbLine
 10
189.723
 20
154.1125
 30
0.0
 11
189.886
 21
149.1295
 31
0.0
  0
LINE
  5
C50
330
1D
100
AcDbEntity
  8
0
100
AcDbLine
 10
189.886
 20
149.1295
 30
0.0
 11
190.02
 21
142.0465
 31
0.0
  0
LINE
  5
C51
330
1D
100
AcDbEntity
  8
0
100
AcDbLine
 10
190.02
 20
142.0465
 30
0.0
 11
190.084
 21
127.9685
 31
0.0
  0
LINE
  5
C52
330
1D
100
AcDbEntity
  8
0
100
AcDbLine
 10
189.574
 20
157.1035
 30
0.0
 11
189.723
 21
154.1125
 31
0.0
  0
LINE
  5
C53
330
1D
100
AcDbEntity
  8
0
100
AcDbLine
 10
184.824
 20
166.5995
 30
0.0
 11
186.615
 21
165.6025
 31
0.0
  0
LINE
  5
C54
330
1D
100
AcDbEntity
  8
0
100
AcDbLine
 10
186.615
 20
165.6025
 30
0.0
 11
187.89
 21
164.2365
 31
0.0
  0
LINE
  5
C55
330
1D
100
AcDbEntity
  8
0
100
AcDbLine
 10
161.53
 20
129.6705
 30
0.0
 11
161.662
 21
127.6385
 31
0.0
  0
LINE
  5
1507
330
1D
100
AcDbEntity
  8
0
100
AcDbLine
 10
0.889
 20
13.4555
 30
0.0
 11
1.169
 21
12.8065
 31
0.0
  0
LINE
  5
1508
330
1D
100
AcDbEntity
  8
0
100
AcDbLine
 10
1.169
 20
12.8065
 30
0.0
 11
1.626
 21
12.3455
 31
0.0
  0
LINE
  5
1509
330
1D
100
AcDbEntity
  8
0
100
AcDbLine
 10
0.082
 20
27.8665
 30
0.0
 11
0.685
 21
14.8195
 31
0.0
  0
LINE
  5
150A
330
1D
100
AcDbEntity
  8
0
100
AcDbLine
 10
0.082
 20
27.8665
 30
0.0
 11
0.685
 21
14.8195
 31
0.0
  0
LINE
  5
150B
330
1D
100
AcDbEntity
  8
0
100
AcDbLine
 10
-0.026
 20
34.2925
 30
0.0
 11
0.082
 21
27.8665
 31
0.0
  0
LINE
  5
150C
330
1D
100
AcDbEntity
  8
0
100
AcDbLine
 10
0.685
 20
14.8195
 30
0.0
 11
0.889
 21
13.4555
 31
0.0
  0
LINE
  5
150D
330
1D
100
AcDbEntity
  8
0
100
AcDbLine
 10
15.915
 20
8.8015
 30
0.0
 11
16.0509
 21
8.782141770934
 31
0.0
  0
LINE
  5
150E
330
1D
100
AcDbEntity
  8
0
100
AcDbLine
 10
15.772
 20
8.8135
 30
0.0
 11
15.915
 21
8.8015
 31
0.0
  0
LINE
  5
150F
330
1D
100
AcDbEntity
  8
0
100
AcDbLine
 10
16.2191
 20
6.9675
 30
0.0
 11
16.8191
 21
6.9675
 31
0.0
  0
LINE
  5
1510
330
1D
100
AcDbEntity
  8
0
100
AcDbLine
 10
16.0509
 20
6.9675
 30
0.0
 11
16.6509
 21
6.9675
 31
0.0
  0
LINE
  5
1511
330
1D
100
AcDbEntity
  8
0
100
AcDbLine
 10
16.0509
 20
6.9675
 30
0.0
 11
16.0509
 21
8.68946391226
 31
0.0
  0
LINE
  5
1512
330
1D
100
AcDbEntity
  8
0
100
AcDbLine
 10
16.8191
 20
6.9675
 30
0.0
 11
18.2191
 21
6.9675
 31
0.0
  0
LINE
  5
1513
330
1D
100
AcDbEntity
  8
0
100
AcDbLine
 10
18.2191
 20
6.9675
 30
0.0
 11
19.6191
 21
6.9675
 31
0.0
  0
LINE
  5
1514
330
1D
100
AcDbEntity
  8
0
100
AcDbLine
 10
18.0509
 20
6.9675
 30
0.0
 11
19.4509
 21
6.9675
 31
0.0
  0
LINE
  5
1515
330
1D
100
AcDbEntity
  8
0
100
AcDbLine
 10
16.6509
 20
6.9675
 30
0.0
 11
18.0509
 21
6.9675
 31
0.0
  0
LINE
  5
1516
330
1D
100
AcDbEntity
  8
0
100
AcDbLine
 10
18.2191
 20
6.9675
 30
0.0
 11
19.6191
 21
6.9675
 31
0.0
  0
LINE
  5
1517
330
1D
100
AcDbEntity
  8
0
100
AcDbLine
 10
16.8191
 20
6.9675
 30
0.0
 11
18.2191
 21
6.9675
 31
0.0
  0
LINE
  5
1518
330
1D
100
AcDbEntity
  8
0
100
AcDbLine
 10
16.2191
 20
6.9675
 30
0.0
 11
16.8191
 21
6.9675
 31
0.0
  0
LINE
  5
1519
330
1D
100
AcDbEntity
  8
0
100
AcDbLine
 10
16.0509
 20
8.68946391226
 30
0.0
 11
16.0509
 21
6.9675
 31
0.0
  0
LINE
  5
151A
330
1D
100
AcDbEntity
  8
0
100
AcDbLine
 10
16.056
 20
8.6885
 30
0.0
 11
16.2191
 21
8.662693037975
 31
0.0
  0
LINE
  5
151B
330
1D
100
AcDbEntity
  8
0
100
AcDbLine
 10
16.03
 20
8.7585
 30
0.0
 11
16.2191
 21
8.725532775453
 31
0.0
  0
LINE
  5
151C
330
1D
100
AcDbEntity
  8
0
100
AcDbLine
 10
18.272
 20
8.7545
 30
0.0
 11
18.77
 21
8.7325
 31
0.0
  0
LINE
  5
151D
330
1D
100
AcDbEntity
  8
0
100
AcDbLine
 10
18.272
 20
8.7545
 30
0.0
 11
18.6575
 21
8.653775534442
 31
0.0
  0
LINE
  5
151E
330
1D
100
AcDbEntity
  8
0
100
AcDbLine
 10
16.954
 20
8.6535
 30
0.0
 11
18.603
 21
8.4055
 31
0.0
  0
LINE
  5
151F
330
1D
100
AcDbEntity
  8
0
100
AcDbLine
 10
15.915
 20
8.8015
 30
0.0
 11
16.954
 21
8.6535
 31
0.0
  0
LINE
  5
1520
330
1D
100
AcDbEntity
  8
0
100
AcDbLine
 10
12.728
 20
9.3175
 30
0.0
 11
16.2191
 21
8.723344140333
 31
0.0
  0
LINE
  5
1521
330
1D
100
AcDbEntity
  8
0
100
AcDbLine
 10
15.772
 20
8.8135
 30
0.0
 11
15.915
 21
8.8015
 31
0.0
  0
LINE
  5
1522
330
1D
100
AcDbEntity
  8
0
100
AcDbLine
 10
15.772
 20
8.8135
 30
0.0
 11
16.03
 21
8.7585
 31
0.0
  0
LINE
  5
1523
330
1D
100
AcDbEntity
  8
0
100
AcDbLine
 10
47.2969
 20
2.9675
 30
0.0
 11
48.6969
 21
2.9675
 31
0.0
  0
LINE
  5
1524
330
1D
100
AcDbEntity
  8
0
100
AcDbLine
 10
47.2969
 20
2.9675
 30
0.0
 11
48.6969
 21
2.9675
 31
0.0
  0
LINE
  5
1525
330
1D
100
AcDbEntity
  8
0
100
AcDbLine
 10
46.6969
 20
2.9675
 30
0.0
 11
47.2969
 21
2.9675
 31
0.0
  0
LINE
  5
1526
330
1D
100
AcDbEntity
  8
0
100
AcDbLine
 10
46.6969
 20
2.9675
 30
0.0
 11
47.2969
 21
2.9675
 31
0.0
  0
LINE
  5
1527
330
1D
100
AcDbEntity
  8
0
100
AcDbLine
 10
46.6969
 20
2.9675
 30
0.0
 11
46.6969
 21
3.4075
 31
0.0
  0
LINE
  5
1528
330
1D
100
AcDbEntity
  8
0
100
AcDbLine
 10
48.6969
 20
2.9675
 30
0.0
 11
50.0969
 21
2.9675
 31
0.0
  0
LINE
  5
1529
330
1D
100
AcDbEntity
  8
0
100
AcDbLine
 10
50.0969
 20
2.9675
 30
0.0
 11
50.6969
 21
2.9675
 31
0.0
  0
LINE
  5
152A
330
1D
100
AcDbEntity
  8
0
100
AcDbLine
 10
50.0969
 20
2.9675
 30
0.0
 11
50.6969
 21
2.9675
 31
0.0
  0
LINE
  5
152B
330
1D
100
AcDbEntity
  8
0
100
AcDbLine
 10
48.6969
 20
2.9675
 30
0.0
 11
50.0969
 21
2.9675
 31
0.0
  0
LINE
  5
152C
330
1D
100
AcDbEntity
  8
0
100
AcDbLine
 10
48.6969
 20
2.9675
 30
0.0
 11
50.0969
 21
2.9675
 31
0.0
  0
LINE
  5
152D
330
1D
100
AcDbEntity
  8
0
100
AcDbLine
 10
58.3799
 20
1.9675
 30
0.0
 11
58.9799
 21
1.9675
 31
0.0
  0
LINE
  5
152E
330
1D
100
AcDbEntity
  8
0
100
AcDbLine
 10
58.3799
 20
1.9675
 30
0.0
 11
58.3799
 21
3.936512037833
 31
0.0
  0
LINE
  5
152F
330
1D
100
AcDbEntity
  8
0
100
AcDbLine
 10
58.9799
 20
1.9675
 30
0.0
 11
60.3799
 21
1.9675
 31
0.0
  0
LINE
  5
1530
330
1D
100
AcDbEntity
  8
0
100
AcDbLine
 10
58.9799
 20
1.9675
 30
0.0
 11
60.3799
 21
1.9675
 31
0.0
  0
LINE
  5
1531
330
1D
100
AcDbEntity
  8
0
100
AcDbLine
 10
58.9799
 20
1.9675
 30
0.0
 11
60.3799
 21
1.9675
 31
0.0
  0
LINE
  5
1532
330
1D
100
AcDbEntity
  8
0
100
AcDbLine
 10
58.3799
 20
1.9675
 30
0.0
 11
58.9799
 21
1.9675
 31
0.0
  0
LINE
  5
1533
330
1D
100
AcDbEntity
  8
0
100
AcDbLine
 10
58.3799
 20
1.9675
 30
0.0
 11
58.9799
 21
1.9675
 31
0.0
  0
LINE
  5
1534
330
1D
100
AcDbEntity
  8
0
100
AcDbLine
 10
58.3799
 20
1.9675
 30
0.0
 11
58.3799
 21
3.965941378016
 31
0.0
  0
LINE
  5
1535
330
1D
100
AcDbEntity
  8
0
100
AcDbLine
 10
50.6969
 20
2.9675
 30
0.0
 11
50.6969
 21
3.9675
 31
0.0
  0
LINE
  5
1536
330
1D
100
AcDbEntity
  8
0
100
AcDbLine
 10
50.0969
 20
2.9675
 30
0.0
 11
50.6969
 21
2.9675
 31
0.0
  0
LINE
  5
1537
330
1D
100
AcDbEntity
  8
0
100
AcDbLine
 10
48.6969
 20
2.9675
 30
0.0
 11
50.0969
 21
2.9675
 31
0.0
  0
LINE
  5
1538
330
1D
100
AcDbEntity
  8
0
100
AcDbLine
 10
47.2969
 20
2.9675
 30
0.0
 11
48.6969
 21
2.9675
 31
0.0
  0
LINE
  5
1539
330
1D
100
AcDbEntity
  8
0
100
AcDbLine
 10
47.2969
 20
2.9675
 30
0.0
 11
48.6969
 21
2.9675
 31
0.0
  0
LINE
  5
153A
330
1D
100
AcDbEntity
  8
0
100
AcDbLine
 10
46.6969
 20
2.9675
 30
0.0
 11
47.2969
 21
2.9675
 31
0.0
  0
LINE
  5
153B
330
1D
100
AcDbEntity
  8
0
100
AcDbLine
 10
46.6969
 20
2.9675
 30
0.0
 11
46.6969
 21
5.219246678024
 31
0.0
  0
LINE
  5
153C
330
1D
100
AcDbEntity
  8
0
100
AcDbLine
 10
60.3799
 20
1.9675
 30
0.0
 11
61.7799
 21
1.9675
 31
0.0
  0
LINE
  5
153D
330
1D
100
AcDbEntity
  8
0
100
AcDbLine
 10
61.7799
 20
1.9675
 30
0.0
 11
62.3799
 21
1.9675
 31
0.0
  0
LINE
  5
153E
330
1D
100
AcDbEntity
  8
0
100
AcDbLine
 10
60.3799
 20
1.9675
 30
0.0
 11
61.7799
 21
1.9675
 31
0.0
  0
LINE
  5
153F
330
1D
100
AcDbEntity
  8
0
100
AcDbLine
 10
61.7799
 20
1.9675
 30
0.0
 11
62.3799
 21
1.9675
 31
0.0
  0
LINE
  5
1540
330
1D
100
AcDbEntity
  8
0
100
AcDbLine
 10
62.3799
 20
1.9675
 30
0.0
 11
62.3799
 21
2.9675
 31
0.0
  0
LINE
  5
1541
330
1D
100
AcDbEntity
  8
0
100
AcDbLine
 10
61.7799
 20
1.9675
 30
0.0
 11
62.3799
 21
1.9675
 31
0.0
  0
LINE
  5
1542
330
1D
100
AcDbEntity
  8
0
100
AcDbLine
 10
62.999
 20
2.9675
 30
0.0
 11
63.599
 21
2.9675
 31
0.0
  0
LINE
  5
1543
330
1D
100
AcDbEntity
  8
0
100
AcDbLine
 10
62.3799
 20
2.9675
 30
0.0
 11
62.999
 21
2.9675
 31
0.0
  0
LINE
  5
1544
330
1D
100
AcDbEntity
  8
0
100
AcDbLine
 10
60.3799
 20
1.9675
 30
0.0
 11
61.7799
 21
1.9675
 31
0.0
  0
LINE
  5
1545
330
1D
100
AcDbEntity
  8
0
100
AcDbLine
 10
60.199
 20
2.9675
 30
0.0
 11
61.599
 21
2.9675
 31
0.0
  0
LINE
  5
1546
330
1D
100
AcDbEntity
  8
0
100
AcDbLine
 10
61.599
 20
2.9675
 30
0.0
 11
62.999
 21
2.9675
 31
0.0
  0
LINE
  5
1547
330
1D
100
AcDbEntity
  8
0
100
AcDbLine
 10
66.4096
 20
2.9675
 30
0.0
 11
67.8096
 21
2.9675
 31
0.0
  0
LINE
  5
1548
330
1D
100
AcDbEntity
  8
0
100
AcDbLine
 10
66.4096
 20
2.9675
 30
0.0
 11
67.8096
 21
2.9675
 31
0.0
  0
LINE
  5
1549
330
1D
100
AcDbEntity
  8
0
100
AcDbLine
 10
65.8096
 20
2.9675
 30
0.0
 11
66.4096
 21
2.9675
 31
0.0
  0
LINE
  5
154A
330
1D
100
AcDbEntity
  8
0
100
AcDbLine
 10
65.8096
 20
2.9675
 30
0.0
 11
66.4096
 21
2.9675
 31
0.0
  0
LINE
  5
154B
330
1D
100
AcDbEntity
  8
0
100
AcDbLine
 10
65.8096
 20
2.9675
 30
0.0
 11
65.8096
 21
3.624143160942
 31
0.0
  0
LINE
  5
154C
330
1D
100
AcDbEntity
  8
0
100
AcDbLine
 10
63.599
 20
2.9675
 30
0.0
 11
63.599
 21
4.238982536962
 31
0.0
  0
LINE
  5
154D
330
1D
100
AcDbEntity
  8
0
100
AcDbLine
 10
62.999
 20
2.9675
 30
0.0
 11
63.599
 21
2.9675
 31
0.0
  0
LINE
  5
154E
330
1D
100
AcDbEntity
  8
0
100
AcDbLine
 10
62.3799
 20
2.9675
 30
0.0
 11
62.3799
 21
1.9675
 31
0.0
  0
LINE
  5
154F
330
1D
100
AcDbEntity
  8
0
100
AcDbLine
 10
62.999
 20
2.9675
 30
0.0
 11
63.599
 21
2.9675
 31
0.0
  0
LINE
  5
1550
330
1D
100
AcDbEntity
  8
0
100
AcDbLine
 10
61.599
 20
2.9675
 30
0.0
 11
62.999
 21
2.9675
 31
0.0
  0
LINE
  5
1551
330
1D
100
AcDbEntity
  8
0
100
AcDbLine
 10
60.199
 20
2.9675
 30
0.0
 11
61.599
 21
2.9675
 31
0.0
  0
LINE
  5
1552
330
1D
100
AcDbEntity
  8
0
100
AcDbLine
 10
59.599
 20
2.9675
 30
0.0
 11
60.199
 21
2.9675
 31
0.0
  0
LINE
  5
1553
330
1D
100
AcDbEntity
  8
0
100
AcDbLine
 10
59.599
 20
2.9675
 30
0.0
 11
60.199
 21
2.9675
 31
0.0
  0
LINE
  5
1554
330
1D
100
AcDbEntity
  8
0
100
AcDbLine
 10
59.599
 20
2.9675
 30
0.0
 11
59.599
 21
4.412388326069
 31
0.0
  0
LINE
  5
1555
330
1D
100
AcDbEntity
  8
0
100
AcDbLine
 10
69.2096
 20
2.9675
 30
0.0
 11
69.8096
 21
2.9675
 31
0.0
  0
LINE
  5
1556
330
1D
100
AcDbEntity
  8
0
100
AcDbLine
 10
67.8096
 20
2.9675
 30
0.0
 11
69.2096
 21
2.9675
 31
0.0
  0
LINE
  5
1557
330
1D
100
AcDbEntity
  8
0
100
AcDbLine
 10
69.2096
 20
2.9675
 30
0.0
 11
69.8096
 21
2.9675
 31
0.0
  0
LINE
  5
1558
330
1D
100
AcDbEntity
  8
0
100
AcDbLine
 10
67.8096
 20
2.9675
 30
0.0
 11
69.2096
 21
2.9675
 31
0.0
  0
LINE
  5
1559
330
1D
100
AcDbEntity
  8
0
100
AcDbLine
 10
69.8096
 20
2.9675
 30
0.0
 11
69.8096
 21
4.931267172023
 31
0.0
  0
LINE
  5
155A
330
1D
100
AcDbEntity
  8
0
100
AcDbLine
 10
69.2096
 20
2.9675
 30
0.0
 11
69.8096
 21
2.9675
 31
0.0
  0
LINE
  5
155B
330
1D
100
AcDbEntity
  8
0
100
AcDbLine
 10
67.8096
 20
2.9675
 30
0.0
 11
69.2096
 21
2.9675
 31
0.0
  0
LINE
  5
155C
330
1D
100
AcDbEntity
  8
0
100
AcDbLine
 10
66.4096
 20
2.9675
 30
0.0
 11
67.8096
 21
2.9675
 31
0.0
  0
LINE
  5
155D
330
1D
100
AcDbEntity
  8
0
100
AcDbLine
 10
46.6969
 20
3.4075
 30
0.0
 11
46.6969
 21
2.9675
 31
0.0
  0
LINE
  5
155E
330
1D
100
AcDbEntity
  8
0
100
AcDbLine
 10
46.417
 20
3.4075
 30
0.0
 11
46.6969
 21
3.4075
 31
0.0
  0
LINE
  5
155F
330
1D
100
AcDbEntity
  8
0
100
AcDbLine
 10
46.417
 20
3.4075
 30
0.0
 11
46.417
 21
5.098018314297
 31
0.0
  0
LINE
  5
1560
330
1D
100
AcDbEntity
  8
0
100
AcDbLine
 10
45.817
 20
3.4075
 30
0.0
 11
46.417
 21
3.4075
 31
0.0
  0
LINE
  5
1561
330
1D
100
AcDbEntity
  8
0
100
AcDbLine
 10
45.817
 20
3.4075
 30
0.0
 11
45.817
 21
5.132865771812
 31
0.0
  0
LINE
  5
1562
330
1D
100
AcDbEntity
  8
0
100
AcDbLine
 10
65.8096
 20
2.9675
 30
0.0
 11
66.4096
 21
2.9675
 31
0.0
  0
LINE
  5
1563
330
1D
100
AcDbEntity
  8
0
100
AcDbLine
 10
65.8096
 20
2.9675
 30
0.0
 11
65.8096
 21
4.9675
 31
0.0
  0
LINE
  5
1564
330
1D
100
AcDbEntity
  8
0
100
AcDbLine
 10
71.9837
 20
0.9675
 30
0.0
 11
73.3837
 21
0.9675
 31
0.0
  0
LINE
  5
1565
330
1D
100
AcDbEntity
  8
0
100
AcDbLine
 10
71.9837
 20
0.9675
 30
0.0
 11
73.3837
 21
0.9675
 31
0.0
  0
LINE
  5
1566
330
1D
100
AcDbEntity
  8
0
100
AcDbLine
 10
71.3837
 20
0.9675
 30
0.0
 11
71.9837
 21
0.9675
 31
0.0
  0
LINE
  5
1567
330
1D
100
AcDbEntity
  8
0
100
AcDbLine
 10
71.3837
 20
0.9675
 30
0.0
 11
71.9837
 21
0.9675
 31
0.0
  0
LINE
  5
1568
330
1D
100
AcDbEntity
  8
0
100
AcDbLine
 10
71.3837
 20
0.9675
 30
0.0
 11
71.3837
 21
3.444448327931
 31
0.0
  0
LINE
  5
1569
330
1D
100
AcDbEntity
  8
0
100
AcDbLine
 10
73.3837
 20
0.9675
 30
0.0
 11
74.7837
 21
0.9675
 31
0.0
  0
LINE
  5
156A
330
1D
100
AcDbEntity
  8
0
100
AcDbLine
 10
73.3837
 20
0.9675
 30
0.0
 11
74.7837
 21
0.9675
 31
0.0
  0
LINE
  5
156B
330
1D
100
AcDbEntity
  8
0
100
AcDbLine
 10
72.5932
 20
1.9675
 30
0.0
 11
73.9932
 21
1.9675
 31
0.0
  0
LINE
  5
156C
330
1D
100
AcDbEntity
  8
0
100
AcDbLine
 10
71.3837
 20
3.444448327931
 30
0.0
 11
71.3837
 21
0.9675
 31
0.0
  0
LINE
  5
156D
330
1D
100
AcDbEntity
  8
0
100
AcDbLine
 10
71.9932
 20
1.9675
 30
0.0
 11
72.5932
 21
1.9675
 31
0.0
  0
LINE
  5
156E
330
1D
100
AcDbEntity
  8
0
100
AcDbLine
 10
71.9932
 20
1.9675
 30
0.0
 11
71.9932
 21
3.63975046799
 31
0.0
  0
LINE
  5
156F
330
1D
100
AcDbEntity
  8
0
100
AcDbLine
 10
71.1239
 20
3.4385
 30
0.0
 11
71.9932
 21
3.418922640943
 31
0.0
  0
LINE
  5
1570
330
1D
100
AcDbEntity
  8
0
100
AcDbLine
 10
71.1239
 20
3.4385
 30
0.0
 11
71.3837
 21
3.432649087906
 31
0.0
  0
LINE
  5
1571
330
1D
100
AcDbEntity
  8
0
100
AcDbLine
 10
70.7146
 20
3.4475
 30
0.0
 11
71.1239
 21
3.4385
 31
0.0
  0
LINE
  5
1572
330
1D
100
AcDbEntity
  8
0
100
AcDbLine
 10
70.5727
 20
3.4505
 30
0.0
 11
70.7146
 21
3.4475
 31
0.0
  0
LINE
  5
1573
330
1D
100
AcDbEntity
  8
0
100
AcDbLine
 10
52.3319
 20
3.9675
 30
0.0
 11
52.9319
 21
3.9675
 31
0.0
  0
LINE
  5
1574
330
1D
100
AcDbEntity
  8
0
100
AcDbLine
 10
50.9319
 20
3.9675
 30
0.0
 11
52.3319
 21
3.9675
 31
0.0
  0
LINE
  5
1575
330
1D
100
AcDbEntity
  8
0
100
AcDbLine
 10
50.6969
 20
3.9675
 30
0.0
 11
50.9319
 21
3.9675
 31
0.0
  0
LINE
  5
1576
330
1D
100
AcDbEntity
  8
0
100
AcDbLine
 10
52.9319
 20
3.9675
 30
0.0
 11
52.9319
 21
5.380307320907
 31
0.0
  0
LINE
  5
1577
330
1D
100
AcDbEntity
  8
0
100
AcDbLine
 10
52.3319
 20
3.9675
 30
0.0
 11
52.9319
 21
3.9675
 31
0.0
  0
LINE
  5
1578
330
1D
100
AcDbEntity
  8
0
100
AcDbLine
 10
50.9319
 20
3.9675
 30
0.0
 11
52.3319
 21
3.9675
 31
0.0
  0
LINE
  5
1579
330
1D
100
AcDbEntity
  8
0
100
AcDbLine
 10
49.5319
 20
3.9675
 30
0.0
 11
50.9319
 21
3.9675
 31
0.0
  0
LINE
  5
157A
330
1D
100
AcDbEntity
  8
0
100
AcDbLine
 10
50.6969
 20
3.9675
 30
0.0
 11
50.6969
 21
2.9675
 31
0.0
  0
LINE
  5
157B
330
1D
100
AcDbEntity
  8
0
100
AcDbLine
 10
48.9319
 20
3.9675
 30
0.0
 11
49.5319
 21
3.9675
 31
0.0
  0
LINE
  5
157C
330
1D
100
AcDbEntity
  8
0
100
AcDbLine
 10
48.9319
 20
3.9675
 30
0.0
 11
48.9319
 21
5.4675
 31
0.0
  0
LINE
  5
157D
330
1D
100
AcDbEntity
  8
0
100
AcDbLine
 10
56.1665
 20
3.9675
 30
0.0
 11
57.5665
 21
3.9675
 31
0.0
  0
LINE
  5
157E
330
1D
100
AcDbEntity
  8
0
100
AcDbLine
 10
55.5665
 20
3.9675
 30
0.0
 11
56.1665
 21
3.9675
 31
0.0
  0
LINE
  5
157F
330
1D
100
AcDbEntity
  8
0
100
AcDbLine
 10
55.5665
 20
3.9675
 30
0.0
 11
55.5665
 21
4.083079583927
 31
0.0
  0
LINE
  5
1580
330
1D
100
AcDbEntity
  8
0
100
AcDbLine
 10
57.5665
 20
3.9675
 30
0.0
 11
57.700188793104
 21
3.9675
 31
0.0
  0
LINE
  5
1581
330
1D
100
AcDbEntity
  8
0
100
AcDbLine
 10
57.5665
 20
3.9675
 30
0.0
 11
58.9665
 21
3.9675
 31
0.0
  0
LINE
  5
1582
330
1D
100
AcDbEntity
  8
0
100
AcDbLine
 10
56.1665
 20
3.9675
 30
0.0
 11
57.5665
 21
3.9675
 31
0.0
  0
LINE
  5
1583
330
1D
100
AcDbEntity
  8
0
100
AcDbLine
 10
55.5665
 20
3.9675
 30
0.0
 11
56.1665
 21
3.9675
 31
0.0
  0
LINE
  5
1584
330
1D
100
AcDbEntity
  8
0
100
AcDbLine
 10
55.5665
 20
3.9675
 30
0.0
 11
55.5665
 21
6.329154082858
 31
0.0
  0
LINE
  5
1585
330
1D
100
AcDbEntity
  8
0
100
AcDbLine
 10
58.3799
 20
3.936512037833
 30
0.0
 11
58.3799
 21
1.9675
 31
0.0
  0
LINE
  5
1586
330
1D
100
AcDbEntity
  8
0
100
AcDbLine
 10
59.2333
 20
3.9355
 30
0.0
 11
59.599
 21
3.919407084931
 31
0.0
  0
LINE
  5
1587
330
1D
100
AcDbEntity
  8
0
100
AcDbLine
 10
58.3799
 20
3.965941378016
 30
0.0
 11
58.3799
 21
1.9675
 31
0.0
  0
LINE
  5
1588
330
1D
100
AcDbEntity
  8
0
100
AcDbLine
 10
59.5665
 20
3.9675
 30
0.0
 11
59.5665
 21
6.125013468678
 31
0.0
  0
LINE
  5
1589
330
1D
100
AcDbEntity
  8
0
100
AcDbLine
 10
58.9665
 20
3.9675
 30
0.0
 11
59.5665
 21
3.9675
 31
0.0
  0
LINE
  5
158A
330
1D
100
AcDbEntity
  8
0
100
AcDbLine
 10
58.336205263158
 20
3.9675
 30
0.0
 11
59.2333
 21
3.9355
 31
0.0
  0
LINE
  5
158B
330
1D
100
AcDbEntity
  8
0
100
AcDbLine
 10
55.5665
 20
4.083079583927
 30
0.0
 11
55.5665
 21
3.9675
 31
0.0
  0
LINE
  5
158C
330
1D
100
AcDbEntity
  8
0
100
AcDbLine
 10
54.650625257575
 20
4.132691515152
 30
0.0
 11
55.5665
 21
4.083079583927
 31
0.0
  0
LINE
  5
158D
330
1D
100
AcDbEntity
  8
0
100
AcDbLine
 10
54.650625257575
 20
4.132691515152
 30
0.0
 11
55.5665
 21
4.083079583927
 31
0.0
  0
LINE
  5
158E
330
1D
100
AcDbEntity
  8
0
100
AcDbLine
 10
63.599
 20
4.066791562029
 30
0.0
 11
64.3696
 21
4.0755
 31
0.0
  0
LINE
  5
158F
330
1D
100
AcDbEntity
  8
0
100
AcDbLine
 10
54.6355
 20
4.1335
 30
0.0
 11
55.5665
 21
4.083735598292
 31
0.0
  0
LINE
  5
1590
330
1D
100
AcDbEntity
  8
0
100
AcDbLine
 10
63.599
 20
3.704732603024
 30
0.0
 11
65.8096
 21
3.624143160942
 31
0.0
  0
LINE
  5
1591
330
1D
100
AcDbEntity
  8
0
100
AcDbLine
 10
69.8096
 20
3.478319507488
 30
0.0
 11
70.5727
 21
3.4505
 31
0.0
  0
LINE
  5
1592
330
1D
100
AcDbEntity
  8
0
100
AcDbLine
 10
64.0379
 20
4.2045
 30
0.0
 11
64.5728
 21
4.1105
 31
0.0
  0
LINE
  5
1593
330
1D
100
AcDbEntity
  8
0
100
AcDbLine
 10
71.9837
 20
3.565571031862
 30
0.0
 11
71.9837
 21
3.639252527143
 31
0.0
  0
LINE
  5
1594
330
1D
100
AcDbEntity
  8
0
100
AcDbLine
 10
71.7149
 20
3.5805
 30
0.0
 11
71.9932
 21
3.56504340836
 31
0.0
  0
LINE
  5
1595
330
1D
100
AcDbEntity
  8
0
100
AcDbLine
 10
65.8096
 20
3.624143160942
 30
0.0
 11
65.8096
 21
2.9675
 31
0.0
  0
LINE
  5
1596
330
1D
100
AcDbEntity
  8
0
100
AcDbLine
 10
71.9837
 20
3.639252527143
 30
0.0
 11
71.9837
 21
3.565571031862
 31
0.0
  0
LINE
  5
1597
330
1D
100
AcDbEntity
  8
0
100
AcDbLine
 10
71.9932
 20
3.63975046799
 30
0.0
 11
71.9932
 21
1.9675
 31
0.0
  0
LINE
  5
1598
330
1D
100
AcDbEntity
  8
0
100
AcDbLine
 10
72.0075
 20
3.6405
 30
0.0
 11
73.4076
 21
3.6335
 31
0.0
  0
LINE
  5
1599
330
1D
100
AcDbEntity
  8
0
100
AcDbLine
 10
71.4733
 20
3.6125
 30
0.0
 11
71.7149
 21
3.5805
 31
0.0
  0
LINE
  5
159A
330
1D
100
AcDbEntity
  8
0
100
AcDbLine
 10
71.4733
 20
3.6125
 30
0.0
 11
72.0075
 21
3.6405
 31
0.0
  0
LINE
  5
159B
330
1D
100
AcDbEntity
  8
0
100
AcDbLine
 10
64.3696
 20
4.0755
 30
0.0
 11
64.5728
 21
4.1105
 31
0.0
  0
LINE
  5
159C
330
1D
100
AcDbEntity
  8
0
100
AcDbLine
 10
69.8096
 20
3.480709386925
 30
0.0
 11
70.5727
 21
3.4505
 31
0.0
  0
LINE
  5
159D
330
1D
100
AcDbEntity
  8
0
100
AcDbLine
 10
63.599
 20
3.704732603024
 30
0.0
 11
65.8096
 21
3.624143160942
 31
0.0
  0
LINE
  5
159E
330
1D
100
AcDbEntity
  8
0
100
AcDbLine
 10
69.8096
 20
3.478319507488
 30
0.0
 11
70.5727
 21
3.4505
 31
0.0
  0
LINE
  5
159F
330
1D
100
AcDbEntity
  8
0
100
AcDbLine
 10
75.3837
 20
0.9675
 30
0.0
 11
75.3837
 21
1.9675
 31
0.0
  0
LINE
  5
15A0
330
1D
100
AcDbEntity
  8
0
100
AcDbLine
 10
74.7837
 20
0.9675
 30
0.0
 11
75.3837
 21
0.9675
 31
0.0
  0
LINE
  5
15A1
330
1D
100
AcDbEntity
  8
0
100
AcDbLine
 10
75.3932
 20
1.9675
 30
0.0
 11
75.9932
 21
1.9675
 31
0.0
  0
LINE
  5
15A2
330
1D
100
AcDbEntity
  8
0
100
AcDbLine
 10
75.3932
 20
1.9675
 30
0.0
 11
75.9932
 21
1.9675
 31
0.0
  0
LINE
  5
15A3
330
1D
100
AcDbEntity
  8
0
100
AcDbLine
 10
74.7837
 20
0.9675
 30
0.0
 11
75.3837
 21
0.9675
 31
0.0
  0
LINE
  5
15A4
330
1D
100
AcDbEntity
  8
0
100
AcDbLine
 10
75.8975
 20
1.9675
 30
0.0
 11
76.4975
 21
1.9675
 31
0.0
  0
LINE
  5
15A5
330
1D
100
AcDbEntity
  8
0
100
AcDbLine
 10
75.8975
 20
1.9675
 30
0.0
 11
76.4975
 21
1.9675
 31
0.0
  0
LINE
  5
15A6
330
1D
100
AcDbEntity
  8
0
100
AcDbLine
 10
75.3932
 20
1.9675
 30
0.0
 11
75.9932
 21
1.9675
 31
0.0
  0
LINE
  5
15A7
330
1D
100
AcDbEntity
  8
0
100
AcDbLine
 10
75.3932
 20
1.9675
 30
0.0
 11
75.3932
 21
3.58534043412
 31
0.0
  0
LINE
  5
15A8
330
1D
100
AcDbEntity
  8
0
100
AcDbLine
 10
75.3837
 20
1.9675
 30
0.0
 11
75.3837
 21
0.9675
 31
0.0
  0
LINE
  5
15A9
330
1D
100
AcDbEntity
  8
0
100
AcDbLine
 10
73.9932
 20
1.9675
 30
0.0
 11
75.3932
 21
1.9675
 31
0.0
  0
LINE
  5
15AA
330
1D
100
AcDbEntity
  8
0
100
AcDbLine
 10
76.4975
 20
1.9675
 30
0.0
 11
77.8975
 21
1.9675
 31
0.0
  0
LINE
  5
15AB
330
1D
100
AcDbEntity
  8
0
100
AcDbLine
 10
76.4975
 20
1.9675
 30
0.0
 11
77.8975
 21
1.9675
 31
0.0
  0
LINE
  5
15AC
330
1D
100
AcDbEntity
  8
0
100
AcDbLine
 10
77.8975
 20
1.9675
 30
0.0
 11
79.2975
 21
1.9675
 31
0.0
  0
LINE
  5
15AD
330
1D
100
AcDbEntity
  8
0
100
AcDbLine
 10
77.8975
 20
1.9675
 30
0.0
 11
79.2975
 21
1.9675
 31
0.0
  0
LINE
  5
15AE
330
1D
100
AcDbEntity
  8
0
100
AcDbLine
 10
76.4975
 20
1.9675
 30
0.0
 11
77.8975
 21
1.9675
 31
0.0
  0
LINE
  5
15AF
330
1D
100
AcDbEntity
  8
0
100
AcDbLine
 10
77.8975
 20
1.9675
 30
0.0
 11
79.2975
 21
1.9675
 31
0.0
  0
LINE
  5
15B0
330
1D
100
AcDbEntity
  8
0
100
AcDbLine
 10
79.2975
 20
1.9675
 30
0.0
 11
79.8975
 21
1.9675
 31
0.0
  0
LINE
  5
15B1
330
1D
100
AcDbEntity
  8
0
100
AcDbLine
 10
79.2975
 20
1.9675
 30
0.0
 11
79.8975
 21
1.9675
 31
0.0
  0
LINE
  5
15B2
330
1D
100
AcDbEntity
  8
0
100
AcDbLine
 10
79.8975
 20
1.9675
 30
0.0
 11
79.8975
 21
4.125164050235
 31
0.0
  0
LINE
  5
15B3
330
1D
100
AcDbEntity
  8
0
100
AcDbLine
 10
79.2975
 20
1.9675
 30
0.0
 11
79.8975
 21
1.9675
 31
0.0
  0
LINE
  5
15B4
330
1D
100
AcDbEntity
  8
0
100
AcDbLine
 10
79.2975
 20
1.9675
 30
0.0
 11
79.8975
 21
1.9675
 31
0.0
  0
LINE
  5
15B5
330
1D
100
AcDbEntity
  8
0
100
AcDbLine
 10
77.8975
 20
1.9675
 30
0.0
 11
79.2975
 21
1.9675
 31
0.0
  0
LINE
  5
15B6
330
1D
100
AcDbEntity
  8
0
100
AcDbLine
 10
76.4975
 20
1.9675
 30
0.0
 11
77.8975
 21
1.9675
 31
0.0
  0
LINE
  5
15B7
330
1D
100
AcDbEntity
  8
0
100
AcDbLine
 10
75.8975
 20
1.9675
 30
0.0
 11
76.4975
 21
1.9675
 31
0.0
  0
LINE
  5
15B8
330
1D
100
AcDbEntity
  8
0
100
AcDbLine
 10
75.8975
 20
1.9675
 30
0.0
 11
76.4975
 21
1.9675
 31
0.0
  0
LINE
  5
15B9
330
1D
100
AcDbEntity
  8
0
100
AcDbLine
 10
75.8975
 20
1.9675
 30
0.0
 11
75.8975
 21
3.9675
 31
0.0
  0
LINE
  5
15BA
330
1D
100
AcDbEntity
  8
0
100
AcDbLine
 10
79.8975
 20
3.068106960227
 30
0.0
 11
80.2898
 21
2.7945
 31
0.0
  0
LINE
  5
15BB
330
1D
100
AcDbEntity
  8
0
100
AcDbLine
 10
80.2898
 20
2.7945
 30
0.0
 11
84.2858
 21
2.72026929911
 31
0.0
  0
LINE
  5
15BC
330
1D
100
AcDbEntity
  8
0
100
AcDbLine
 10
86.2858
 20
0.9675
 30
0.0
 11
87.6858
 21
0.9675
 31
0.0
  0
LINE
  5
15BD
330
1D
100
AcDbEntity
  8
0
100
AcDbLine
 10
84.8858
 20
0.9675
 30
0.0
 11
86.2858
 21
0.9675
 31
0.0
  0
LINE
  5
15BE
330
1D
100
AcDbEntity
  8
0
100
AcDbLine
 10
86.2858
 20
0.9675
 30
0.0
 11
87.6858
 21
0.9675
 31
0.0
  0
LINE
  5
15BF
330
1D
100
AcDbEntity
  8
0
100
AcDbLine
 10
84.8858
 20
0.9675
 30
0.0
 11
86.2858
 21
0.9675
 31
0.0
  0
LINE
  5
15C0
330
1D
100
AcDbEntity
  8
0
100
AcDbLine
 10
84.2858
 20
0.9675
 30
0.0
 11
84.8858
 21
0.9675
 31
0.0
  0
LINE
  5
15C1
330
1D
100
AcDbEntity
  8
0
100
AcDbLine
 10
84.2858
 20
0.9675
 30
0.0
 11
84.8858
 21
0.9675
 31
0.0
  0
LINE
  5
15C2
330
1D
100
AcDbEntity
  8
0
100
AcDbLine
 10
84.2858
 20
0.9675
 30
0.0
 11
84.2858
 21
2.71775513086
 31
0.0
  0
LINE
  5
15C3
330
1D
100
AcDbEntity
  8
0
100
AcDbLine
 10
84.8858
 20
0.9675
 30
0.0
 11
86.2858
 21
0.9675
 31
0.0
  0
LINE
  5
15C4
330
1D
100
AcDbEntity
  8
0
100
AcDbLine
 10
86.2858
 20
0.9675
 30
0.0
 11
87.6858
 21
0.9675
 31
0.0
  0
LINE
  5
15C5
330
1D
100
AcDbEntity
  8
0
100
AcDbLine
 10
84.2858
 20
2.71775513086
 30
0.0
 11
84.2858
 21
0.9675
 31
0.0
  0
LINE
  5
15C6
330
1D
100
AcDbEntity
  8
0
100
AcDbLine
 10
86.2858
 20
0.9675
 30
0.0
 11
87.6858
 21
0.9675
 31
0.0
  0
LINE
  5
15C7
330
1D
100
AcDbEntity
  8
0
100
AcDbLine
 10
84.8858
 20
0.9675
 30
0.0
 11
86.2858
 21
0.9675
 31
0.0
  0
LINE
  5
15C8
330
1D
100
AcDbEntity
  8
0
100
AcDbLine
 10
84.2858
 20
0.9675
 30
0.0
 11
84.8858
 21
0.9675
 31
0.0
  0
LINE
  5
15C9
330
1D
100
AcDbEntity
  8
0
100
AcDbLine
 10
84.2858
 20
0.9675
 30
0.0
 11
84.8858
 21
0.9675
 31
0.0
  0
LINE
  5
15CA
330
1D
100
AcDbEntity
  8
0
100
AcDbLine
 10
84.2858
 20
0.9675
 30
0.0
 11
84.2858
 21
2.760821459105
 31
0.0
  0
LINE
  5
15CB
330
1D
100
AcDbEntity
  8
0
100
AcDbLine
 10
87.6858
 20
0.9675
 30
0.0
 11
88.2858
 21
0.9675
 31
0.0
  0
LINE
  5
15CC
330
1D
100
AcDbEntity
  8
0
100
AcDbLine
 10
87.6858
 20
0.9675
 30
0.0
 11
88.2858
 21
0.9675
 31
0.0
  0
LINE
  5
15CD
330
1D
100
AcDbEntity
  8
0
100
AcDbLine
 10
87.6858
 20
0.9675
 30
0.0
 11
88.2858
 21
0.9675
 31
0.0
  0
LINE
  5
15CE
330
1D
100
AcDbEntity
  8
0
100
AcDbLine
 10
87.6858
 20
0.9675
 30
0.0
 11
88.2858
 21
0.9675
 31
0.0
  0
LINE
  5
15CF
330
1D
100
AcDbEntity
  8
0
100
AcDbLine
 10
87.4373
 20
1.9675
 30
0.0
 11
88.0373
 21
1.9675
 31
0.0
  0
LINE
  5
15D0
330
1D
100
AcDbEntity
  8
0
100
AcDbLine
 10
87.4373
 20
1.9675
 30
0.0
 11
88.0373
 21
1.9675
 31
0.0
  0
LINE
  5
15D1
330
1D
100
AcDbEntity
  8
0
100
AcDbLine
 10
87.4373
 20
1.9675
 30
0.0
 11
87.4373
 21
2.9675
 31
0.0
  0
LINE
  5
15D2
330
1D
100
AcDbEntity
  8
0
100
AcDbLine
 10
84.2858
 20
2.760821459105
 30
0.0
 11
84.2858
 21
0.9675
 31
0.0
  0
LINE
  5
15D3
330
1D
100
AcDbEntity
  8
0
100
AcDbLine
 10
84.4902
 20
2.9675
 30
0.0
 11
85.8902
 21
2.9675
 31
0.0
  0
LINE
  5
15D4
330
1D
100
AcDbEntity
  8
0
100
AcDbLine
 10
84.4902
 20
2.9675
 30
0.0
 11
85.8902
 21
2.9675
 31
0.0
  0
LINE
  5
15D5
330
1D
100
AcDbEntity
  8
0
100
AcDbLine
 10
83.8902
 20
2.9675
 30
0.0
 11
84.4902
 21
2.9675
 31
0.0
  0
LINE
  5
15D6
330
1D
100
AcDbEntity
  8
0
100
AcDbLine
 10
83.8902
 20
2.9675
 30
0.0
 11
84.4902
 21
2.9675
 31
0.0
  0
LINE
  5
15D7
330
1D
100
AcDbEntity
  8
0
100
AcDbLine
 10
83.8902
 20
2.9675
 30
0.0
 11
83.8902
 21
4.90852116235
 31
0.0
  0
LINE
  5
15D8
330
1D
100
AcDbEntity
  8
0
100
AcDbLine
 10
85.8902
 20
2.9675
 30
0.0
 11
87.2902
 21
2.9675
 31
0.0
  0
LINE
  5
15D9
330
1D
100
AcDbEntity
  8
0
100
AcDbLine
 10
87.2902
 20
2.9675
 30
0.0
 11
87.8902
 21
2.9675
 31
0.0
  0
LINE
  5
15DA
330
1D
100
AcDbEntity
  8
0
100
AcDbLine
 10
87.2902
 20
2.9675
 30
0.0
 11
87.8902
 21
2.9675
 31
0.0
  0
LINE
  5
15DB
330
1D
100
AcDbEntity
  8
0
100
AcDbLine
 10
85.8902
 20
2.9675
 30
0.0
 11
87.2902
 21
2.9675
 31
0.0
  0
LINE
  5
15DC
330
1D
100
AcDbEntity
  8
0
100
AcDbLine
 10
87.4373
 20
2.9675
 30
0.0
 11
87.4373
 21
1.9675
 31
0.0
  0
LINE
  5
15DD
330
1D
100
AcDbEntity
  8
0
100
AcDbLine
 10
84.2858
 20
2.7615
 30
0.0
 11
86.1126
 21
2.7495
 31
0.0
  0
LINE
  5
15DE
330
1D
100
AcDbEntity
  8
0
100
AcDbLine
 10
86.1126
 20
2.7495
 30
0.0
 11
87.4373
 21
2.729103103162
 31
0.0
  0
LINE
  5
15DF
330
1D
100
AcDbEntity
  8
0
100
AcDbLine
 10
75.3932
 20
3.58534043412
 30
0.0
 11
75.3932
 21
1.9675
 31
0.0
  0
LINE
  5
15E0
330
1D
100
AcDbEntity
  8
0
100
AcDbLine
 10
75.8975
 20
3.9675
 30
0.0
 11
75.8975
 21
1.9675
 31
0.0
  0
LINE
  5
15E1
330
1D
100
AcDbEntity
  8
0
100
AcDbLine
 10
75.1783
 20
3.9675
 30
0.0
 11
76.5783
 21
3.9675
 31
0.0
  0
LINE
  5
15E2
330
1D
100
AcDbEntity
  8
0
100
AcDbLine
 10
76.5783
 20
3.9675
 30
0.0
 11
77.9783
 21
3.9675
 31
0.0
  0
LINE
  5
15E3
330
1D
100
AcDbEntity
  8
0
100
AcDbLine
 10
78.5783
 20
3.9675
 30
0.0
 11
78.5783
 21
5.751824808184
 31
0.0
  0
LINE
  5
15E4
330
1D
100
AcDbEntity
  8
0
100
AcDbLine
 10
77.9783
 20
3.9675
 30
0.0
 11
78.5783
 21
3.9675
 31
0.0
  0
LINE
  5
15E5
330
1D
100
AcDbEntity
  8
0
100
AcDbLine
 10
77.9783
 20
3.9675
 30
0.0
 11
78.5783
 21
3.9675
 31
0.0
  0
LINE
  5
15E6
330
1D
100
AcDbEntity
  8
0
100
AcDbLine
 10
76.5783
 20
3.9675
 30
0.0
 11
77.9783
 21
3.9675
 31
0.0
  0
LINE
  5
15E7
330
1D
100
AcDbEntity
  8
0
100
AcDbLine
 10
75.1783
 20
3.9675
 30
0.0
 11
76.5783
 21
3.9675
 31
0.0
  0
LINE
  5
15E8
330
1D
100
AcDbEntity
  8
0
100
AcDbLine
 10
74.5783
 20
3.9675
 30
0.0
 11
75.1783
 21
3.9675
 31
0.0
  0
LINE
  5
15E9
330
1D
100
AcDbEntity
  8
0
100
AcDbLine
 10
74.5783
 20
3.9675
 30
0.0
 11
75.1783
 21
3.9675
 31
0.0
  0
LINE
  5
15EA
330
1D
100
AcDbEntity
  8
0
100
AcDbLine
 10
74.5783
 20
3.9675
 30
0.0
 11
74.5783
 21
5.842544575504
 31
0.0
  0
LINE
  5
15EB
330
1D
100
AcDbEntity
  8
0
100
AcDbLine
 10
75.1379
 20
3.5945
 30
0.0
 11
75.8975
 21
3.567247331599
 31
0.0
  0
LINE
  5
15EC
330
1D
100
AcDbEntity
  8
0
100
AcDbLine
 10
79.8975
 20
3.937459157071
 30
0.0
 11
80.4005
 21
3.9615
 31
0.0
  0
LINE
  5
15ED
330
1D
100
AcDbEntity
  8
0
100
AcDbLine
 10
79.8975
 20
4.125164050235
 30
0.0
 11
79.8975
 21
1.9675
 31
0.0
  0
LINE
  5
15EE
330
1D
100
AcDbEntity
  8
0
100
AcDbLine
 10
80.039
 20
4.1185
 30
0.0
 11
80.5734
 21
4.0075
 31
0.0
  0
LINE
  5
15EF
330
1D
100
AcDbEntity
  8
0
100
AcDbLine
 10
80.4005
 20
3.9615
 30
0.0
 11
80.5734
 21
4.0075
 31
0.0
  0
LINE
  5
15F0
330
1D
100
AcDbEntity
  8
0
100
AcDbLine
 10
78.5783
 20
4.18729277865
 30
0.0
 11
80.039
 21
4.1185
 31
0.0
  0
LINE
  5
15F1
330
1D
100
AcDbEntity
  8
0
100
AcDbLine
 10
73.4076
 20
3.6335
 30
0.0
 11
75.1379
 21
3.5945
 31
0.0
  0
LINE
  5
15F2
330
1D
100
AcDbEntity
  8
0
100
AcDbLine
 10
33.3838
 20
4.4675
 30
0.0
 11
34.7838
 21
4.4675
 31
0.0
  0
LINE
  5
15F3
330
1D
100
AcDbEntity
  8
0
100
AcDbLine
 10
33.3838
 20
4.4675
 30
0.0
 11
34.7838
 21
4.4675
 31
0.0
  0
LINE
  5
15F4
330
1D
100
AcDbEntity
  8
0
100
AcDbLine
 10
32.7838
 20
4.4675
 30
0.0
 11
33.3838
 21
4.4675
 31
0.0
  0
LINE
  5
15F5
330
1D
100
AcDbEntity
  8
0
100
AcDbLine
 10
32.7838
 20
4.4675
 30
0.0
 11
33.3838
 21
4.4675
 31
0.0
  0
LINE
  5
15F6
330
1D
100
AcDbEntity
  8
0
100
AcDbLine
 10
32.7838
 20
4.4675
 30
0.0
 11
32.7838
 21
6.136406658446
 31
0.0
  0
LINE
  5
15F7
330
1D
100
AcDbEntity
  8
0
100
AcDbLine
 10
33.3838
 20
4.4675
 30
0.0
 11
34.7838
 21
4.4675
 31
0.0
  0
LINE
  5
15F8
330
1D
100
AcDbEntity
  8
0
100
AcDbLine
 10
32.7838
 20
4.4675
 30
0.0
 11
33.3838
 21
4.4675
 31
0.0
  0
LINE
  5
15F9
330
1D
100
AcDbEntity
  8
0
100
AcDbLine
 10
32.7838
 20
4.4675
 30
0.0
 11
32.7838
 21
6.166756986301
 31
0.0
  0
LINE
  5
15FA
330
1D
100
AcDbEntity
  8
0
100
AcDbLine
 10
36.1838
 20
4.4675
 30
0.0
 11
36.7838
 21
4.4675
 31
0.0
  0
LINE
  5
15FB
330
1D
100
AcDbEntity
  8
0
100
AcDbLine
 10
34.7838
 20
4.4675
 30
0.0
 11
36.1838
 21
4.4675
 31
0.0
  0
LINE
  5
15FC
330
1D
100
AcDbEntity
  8
0
100
AcDbLine
 10
36.1838
 20
4.4675
 30
0.0
 11
36.7838
 21
4.4675
 31
0.0
  0
LINE
  5
15FD
330
1D
100
AcDbEntity
  8
0
100
AcDbLine
 10
34.7838
 20
4.4675
 30
0.0
 11
36.1838
 21
4.4675
 31
0.0
  0
LINE
  5
15FE
330
1D
100
AcDbEntity
  8
0
100
AcDbLine
 10
36.7838
 20
4.4675
 30
0.0
 11
36.7838
 21
4.9675
 31
0.0
  0
LINE
  5
15FF
330
1D
100
AcDbEntity
  8
0
100
AcDbLine
 10
36.1838
 20
4.4675
 30
0.0
 11
36.7838
 21
4.4675
 31
0.0
  0
LINE
  5
1600
330
1D
100
AcDbEntity
  8
0
100
AcDbLine
 10
36.7838
 20
4.9675
 30
0.0
 11
37.3979
 21
4.9675
 31
0.0
  0
LINE
  5
1601
330
1D
100
AcDbEntity
  8
0
100
AcDbLine
 10
37.3979
 20
4.9675
 30
0.0
 11
37.9979
 21
4.9675
 31
0.0
  0
LINE
  5
1602
330
1D
100
AcDbEntity
  8
0
100
AcDbLine
 10
36.7838
 20
4.9675
 30
0.0
 11
36.7838
 21
4.4675
 31
0.0
  0
LINE
  5
1603
330
1D
100
AcDbEntity
  8
0
100
AcDbLine
 10
34.7838
 20
4.4675
 30
0.0
 11
36.1838
 21
4.4675
 31
0.0
  0
LINE
  5
1604
330
1D
100
AcDbEntity
  8
0
100
AcDbLine
 10
38.0616
 20
4.9675
 30
0.0
 11
38.6616
 21
4.9675
 31
0.0
  0
LINE
  5
1605
330
1D
100
AcDbEntity
  8
0
100
AcDbLine
 10
38.0616
 20
4.9675
 30
0.0
 11
38.0616
 21
5.670983081496
 31
0.0
  0
LINE
  5
1606
330
1D
100
AcDbEntity
  8
0
100
AcDbLine
 10
37.9979
 20
4.9675
 30
0.0
 11
37.9979
 21
6.008659212598
 31
0.0
  0
LINE
  5
1607
330
1D
100
AcDbEntity
  8
0
100
AcDbLine
 10
37.3979
 20
4.9675
 30
0.0
 11
37.9979
 21
4.9675
 31
0.0
  0
LINE
  5
1608
330
1D
100
AcDbEntity
  8
0
100
AcDbLine
 10
35.9979
 20
4.9675
 30
0.0
 11
37.3979
 21
4.9675
 31
0.0
  0
LINE
  5
1609
330
1D
100
AcDbEntity
  8
0
100
AcDbLine
 10
34.5979
 20
4.9675
 30
0.0
 11
35.9979
 21
4.9675
 31
0.0
  0
LINE
  5
160A
330
1D
100
AcDbEntity
  8
0
100
AcDbLine
 10
33.9979
 20
4.9675
 30
0.0
 11
34.5979
 21
4.9675
 31
0.0
  0
LINE
  5
160B
330
1D
100
AcDbEntity
  8
0
100
AcDbLine
 10
33.9979
 20
4.9675
 30
0.0
 11
33.9979
 21
6.342524711316
 31
0.0
  0
LINE
  5
160C
330
1D
100
AcDbEntity
  8
0
100
AcDbLine
 10
38.6616
 20
4.9675
 30
0.0
 11
40.0616
 21
4.9675
 31
0.0
  0
LINE
  5
160D
330
1D
100
AcDbEntity
  8
0
100
AcDbLine
 10
40.0616
 20
4.9675
 30
0.0
 11
41.4616
 21
4.9675
 31
0.0
  0
LINE
  5
160E
330
1D
100
AcDbEntity
  8
0
100
AcDbLine
 10
38.6616
 20
4.9675
 30
0.0
 11
40.0616
 21
4.9675
 31
0.0
  0
LINE
  5
160F
330
1D
100
AcDbEntity
  8
0
100
AcDbLine
 10
40.0616
 20
4.9675
 30
0.0
 11
41.4616
 21
4.9675
 31
0.0
  0
LINE
  5
1610
330
1D
100
AcDbEntity
  8
0
100
AcDbLine
 10
41.4616
 20
4.9675
 30
0.0
 11
42.0616
 21
4.9675
 31
0.0
  0
LINE
  5
1611
330
1D
100
AcDbEntity
  8
0
100
AcDbLine
 10
42.0616
 20
4.9675
 30
0.0
 11
42.0616
 21
6.49312194617
 31
0.0
  0
LINE
  5
1612
330
1D
100
AcDbEntity
  8
0
100
AcDbLine
 10
41.4616
 20
4.9675
 30
0.0
 11
42.0616
 21
4.9675
 31
0.0
  0
LINE
  5
1613
330
1D
100
AcDbEntity
  8
0
100
AcDbLine
 10
41.4616
 20
4.9675
 30
0.0
 11
42.0616
 21
4.9675
 31
0.0
  0
LINE
  5
1614
330
1D
100
AcDbEntity
  8
0
100
AcDbLine
 10
40.0616
 20
4.9675
 30
0.0
 11
41.4616
 21
4.9675
 31
0.0
  0
LINE
  5
1615
330
1D
100
AcDbEntity
  8
0
100
AcDbLine
 10
38.6616
 20
4.9675
 30
0.0
 11
40.0616
 21
4.9675
 31
0.0
  0
LINE
  5
1616
330
1D
100
AcDbEntity
  8
0
100
AcDbLine
 10
38.0616
 20
4.9675
 30
0.0
 11
38.6616
 21
4.9675
 31
0.0
  0
LINE
  5
1617
330
1D
100
AcDbEntity
  8
0
100
AcDbLine
 10
38.0616
 20
4.9675
 30
0.0
 11
38.6616
 21
4.9675
 31
0.0
  0
LINE
  5
1618
330
1D
100
AcDbEntity
  8
0
100
AcDbLine
 10
38.0616
 20
4.9675
 30
0.0
 11
38.0616
 21
6.8031073903
 31
0.0
  0
LINE
  5
1619
330
1D
100
AcDbEntity
  8
0
100
AcDbLine
 10
54.0992
 20
4.2195
 30
0.0
 11
54.6355
 21
4.1335
 31
0.0
  0
LINE
  5
161A
330
1D
100
AcDbEntity
  8
0
100
AcDbLine
 10
45.817
 20
5.132865771812
 30
0.0
 11
45.817
 21
3.4075
 31
0.0
  0
LINE
  5
161B
330
1D
100
AcDbEntity
  8
0
100
AcDbLine
 10
46.067
 20
5.1155
 30
0.0
 11
46.6969
 21
5.075613240132
 31
0.0
  0
LINE
  5
161C
330
1D
100
AcDbEntity
  8
0
100
AcDbLine
 10
45.201
 20
5.1705
 30
0.0
 11
45.817
 21
5.131377598152
 31
0.0
  0
LINE
  5
161D
330
1D
100
AcDbEntity
  8
0
100
AcDbLine
 10
45.201
 20
5.1705
 30
0.0
 11
46.067
 21
5.1155
 31
0.0
  0
LINE
  5
161E
330
1D
100
AcDbEntity
  8
0
100
AcDbLine
 10
53.5697
 20
5.2055
 30
0.0
 11
53.7732
 21
5.2405
 31
0.0
  0
LINE
  5
161F
330
1D
100
AcDbEntity
  8
0
100
AcDbLine
 10
52.9319
 20
5.202715252511
 30
0.0
 11
53.5697
 21
5.2055
 31
0.0
  0
LINE
  5
1620
330
1D
100
AcDbEntity
  8
0
100
AcDbLine
 10
47.813
 20
5.1615
 30
0.0
 11
48.9319
 21
5.094051857969
 31
0.0
  0
LINE
  5
1621
330
1D
100
AcDbEntity
  8
0
100
AcDbLine
 10
46.767
 20
5.2165
 30
0.0
 11
47.813
 21
5.1615
 31
0.0
  0
LINE
  5
1622
330
1D
100
AcDbEntity
  8
0
100
AcDbLine
 10
52.9319
 20
4.700394819769
 30
0.0
 11
53.583
 21
4.6625
 31
0.0
  0
LINE
  5
1623
330
1D
100
AcDbEntity
  8
0
100
AcDbLine
 10
46.278
 20
5.1965
 30
0.0
 11
46.6969
 21
5.163127467301
 31
0.0
  0
LINE
  5
1624
330
1D
100
AcDbEntity
  8
0
100
AcDbLine
 10
53.583
 20
4.6625
 30
0.0
 11
54.0992
 21
4.2195
 31
0.0
  0
LINE
  5
1625
330
1D
100
AcDbEntity
  8
0
100
AcDbLine
 10
46.6969
 20
5.219246678024
 30
0.0
 11
46.6969
 21
2.9675
 31
0.0
  0
LINE
  5
1626
330
1D
100
AcDbEntity
  8
0
100
AcDbLine
 10
46.18
 20
5.2395
 30
0.0
 11
46.767
 21
5.2165
 31
0.0
  0
LINE
  5
1627
330
1D
100
AcDbEntity
  8
0
100
AcDbLine
 10
45.973
 20
5.2355
 30
0.0
 11
46.278
 21
5.1965
 31
0.0
  0
LINE
  5
1628
330
1D
100
AcDbEntity
  8
0
100
AcDbLine
 10
45.973
 20
5.2355
 30
0.0
 11
46.18
 21
5.2395
 31
0.0
  0
LINE
  5
1629
330
1D
100
AcDbEntity
  8
0
100
AcDbLine
 10
59.599
 20
4.412388326069
 30
0.0
 11
59.599
 21
2.9675
 31
0.0
  0
LINE
  5
162A
330
1D
100
AcDbEntity
  8
0
100
AcDbLine
 10
63.599
 20
4.238982536962
 30
0.0
 11
63.599
 21
2.9675
 31
0.0
  0
LINE
  5
162B
330
1D
100
AcDbEntity
  8
0
100
AcDbLine
 10
63.599
 20
4.238982536962
 30
0.0
 11
64.0379
 21
4.2045
 31
0.0
  0
LINE
  5
162C
330
1D
100
AcDbEntity
  8
0
100
AcDbLine
 10
62.6378
 20
4.3145
 30
0.0
 11
64.0379
 21
4.2045
 31
0.0
  0
LINE
  5
162D
330
1D
100
AcDbEntity
  8
0
100
AcDbLine
 10
61.336
 20
4.3805
 30
0.0
 11
62.6378
 21
4.3145
 31
0.0
  0
LINE
  5
162E
330
1D
100
AcDbEntity
  8
0
100
AcDbLine
 10
60.1273
 20
4.4155
 30
0.0
 11
61.336
 21
4.3805
 31
0.0
  0
LINE
  5
162F
330
1D
100
AcDbEntity
  8
0
100
AcDbLine
 10
69.984169399852
 20
4.697126983514
 30
0.0
 11
70.2728
 21
4.7715
 31
0.0
  0
LINE
  5
1630
330
1D
100
AcDbEntity
  8
0
100
AcDbLine
 10
69.8096
 20
4.684572960251
 30
0.0
 11
70.1006
 21
4.7055
 31
0.0
  0
LINE
  5
1631
330
1D
100
AcDbEntity
  8
0
100
AcDbLine
 10
83.1733
 20
4.7565
 30
0.0
 11
83.3956
 21
4.8515
 31
0.0
  0
LINE
  5
1632
330
1D
100
AcDbEntity
  8
0
100
AcDbLine
 10
70.1006
 20
4.7055
 30
0.0
 11
70.2728
 21
4.7715
 31
0.0
  0
LINE
  5
1633
330
1D
100
AcDbEntity
  8
0
100
AcDbLine
 10
65.8096
 20
4.814323671191
 30
0.0
 11
65.8096
 21
4.9675
 31
0.0
  0
LINE
  5
1634
330
1D
100
AcDbEntity
  8
0
100
AcDbLine
 10
69.8096
 20
4.901924614416
 30
0.0
 11
70.027529075233
 21
4.86865561804
 31
0.0
  0
LINE
  5
1635
330
1D
100
AcDbEntity
  8
0
100
AcDbLine
 10
83.3956
 20
4.8515
 30
0.0
 11
83.8902
 21
4.90852116235
 31
0.0
  0
LINE
  5
1636
330
1D
100
AcDbEntity
  8
0
100
AcDbLine
 10
65.3567
 20
4.8735
 30
0.0
 11
65.8096
 21
4.814323671191
 31
0.0
  0
LINE
  5
1637
330
1D
100
AcDbEntity
  8
0
100
AcDbLine
 10
83.1733
 20
4.7565
 30
0.0
 11
83.7082
 21
4.6025
 31
0.0
  0
LINE
  5
1638
330
1D
100
AcDbEntity
  8
0
100
AcDbLine
 10
83.1733
 20
4.7565
 30
0.0
 11
83.3956
 21
4.8515
 31
0.0
  0
LINE
  5
1639
330
1D
100
AcDbEntity
  8
0
100
AcDbLine
 10
83.8902
 20
4.588078241005
 30
0.0
 11
83.8902
 21
4.90852116235
 31
0.0
  0
LINE
  5
163A
330
1D
100
AcDbEntity
  8
0
100
AcDbLine
 10
83.8902
 20
4.90852116235
 30
0.0
 11
83.8902
 21
4.588078241005
 31
0.0
  0
LINE
  5
163B
330
1D
100
AcDbEntity
  8
0
100
AcDbLine
 10
83.8902
 20
4.90852116235
 30
0.0
 11
83.8902
 21
2.9675
 31
0.0
  0
LINE
  5
163C
330
1D
100
AcDbEntity
  8
0
100
AcDbLine
 10
83.7082
 20
4.6025
 30
0.0
 11
83.8902
 21
4.588078241005
 31
0.0
  0
LINE
  5
163D
330
1D
100
AcDbEntity
  8
0
100
AcDbLine
 10
83.3956
 20
4.8515
 30
0.0
 11
84.0288
 21
4.9245
 31
0.0
  0
LINE
  5
163E
330
1D
100
AcDbEntity
  8
0
100
AcDbLine
 10
65.2664
 20
4.9675
 30
0.0
 11
65.8096
 21
4.9675
 31
0.0
  0
LINE
  5
163F
330
1D
100
AcDbEntity
  8
0
100
AcDbLine
 10
65.2664
 20
4.9675
 30
0.0
 11
65.2664
 21
5.042942564559
 31
0.0
  0
LINE
  5
1640
330
1D
100
AcDbEntity
  8
0
100
AcDbLine
 10
65.8096
 20
4.9675
 30
0.0
 11
65.8096
 21
2.9675
 31
0.0
  0
LINE
  5
1641
330
1D
100
AcDbEntity
  8
0
100
AcDbLine
 10
65.8096
 20
4.9675
 30
0.0
 11
65.8096
 21
4.814323671191
 31
0.0
  0
LINE
  5
1642
330
1D
100
AcDbEntity
  8
0
100
AcDbLine
 10
69.8096
 20
4.931267172023
 30
0.0
 11
69.8096
 21
2.9675
 31
0.0
  0
LINE
  5
1643
330
1D
100
AcDbEntity
  8
0
100
AcDbLine
 10
69.2664
 20
4.9675
 30
0.0
 11
69.2664
 21
7.019567805603
 31
0.0
  0
LINE
  5
1644
330
1D
100
AcDbEntity
  8
0
100
AcDbLine
 10
68.6664
 20
4.9675
 30
0.0
 11
69.2664
 21
4.9675
 31
0.0
  0
LINE
  5
1645
330
1D
100
AcDbEntity
  8
0
100
AcDbLine
 10
67.2664
 20
4.9675
 30
0.0
 11
68.6664
 21
4.9675
 31
0.0
  0
LINE
  5
1646
330
1D
100
AcDbEntity
  8
0
100
AcDbLine
 10
65.8664
 20
4.9675
 30
0.0
 11
67.2664
 21
4.9675
 31
0.0
  0
LINE
  5
1647
330
1D
100
AcDbEntity
  8
0
100
AcDbLine
 10
65.2664
 20
4.9675
 30
0.0
 11
65.8664
 21
4.9675
 31
0.0
  0
LINE
  5
1648
330
1D
100
AcDbEntity
  8
0
100
AcDbLine
 10
65.2664
 20
4.9675
 30
0.0
 11
65.2664
 21
7.141549010299
 31
0.0
  0
LINE
  5
1649
330
1D
100
AcDbEntity
  8
0
100
AcDbLine
 10
65.2664
 20
5.042942564559
 30
0.0
 11
65.2664
 21
4.9675
 31
0.0
  0
LINE
  5
164A
330
1D
100
AcDbEntity
  8
0
100
AcDbLine
 10
65.073
 20
4.9775
 30
0.0
 11
65.2664
 21
5.042942564559
 31
0.0
  0
LINE
  5
164B
330
1D
100
AcDbEntity
  8
0
100
AcDbLine
 10
69.263125
 20
4.9675
 30
0.0
 11
69.8815
 21
4.9265
 31
0.0
  0
LINE
  5
164C
330
1D
100
AcDbEntity
  8
0
100
AcDbLine
 10
65.073
 20
4.9775
 30
0.0
 11
65.2664
 21
5.042942564559
 31
0.0
  0
LINE
  5
164D
330
1D
100
AcDbEntity
  8
0
100
AcDbLine
 10
65.073
 20
4.9775
 30
0.0
 11
65.3567
 21
4.8735
 31
0.0
  0
LINE
  5
164E
330
1D
100
AcDbEntity
  8
0
100
AcDbLine
 10
69.8815
 20
4.9265
 30
0.0
 11
70.2728
 21
4.7715
 31
0.0
  0
LINE
  5
164F
330
1D
100
AcDbEntity
  8
0
100
AcDbLine
 10
86.9734
 20
4.9675
 30
0.0
 11
88.3734
 21
4.9675
 31
0.0
  0
LINE
  5
1650
330
1D
100
AcDbEntity
  8
0
100
AcDbLine
 10
86.3734
 20
4.9675
 30
0.0
 11
86.9734
 21
4.9675
 31
0.0
  0
LINE
  5
1651
330
1D
100
AcDbEntity
  8
0
100
AcDbLine
 10
86.3734
 20
4.9675
 30
0.0
 11
86.3734
 21
6.776641140761
 31
0.0
  0
LINE
  5
1652
330
1D
100
AcDbEntity
  8
0
100
AcDbLine
 10
85.5787
 20
4.9825
 30
0.0
 11
87.6978
 21
4.8645
 31
0.0
  0
LINE
  5
1653
330
1D
100
AcDbEntity
  8
0
100
AcDbLine
 10
84.0288
 20
4.9245
 30
0.0
 11
85.5787
 21
4.9825
 31
0.0
  0
LINE
  5
1654
330
1D
100
AcDbEntity
  8
0
100
AcDbLine
 10
59.5665
 20
4.412196901873
 30
0.0
 11
60.1273
 21
4.4155
 31
0.0
  0
LINE
  5
1655
330
1D
100
AcDbEntity
  8
0
100
AcDbLine
 10
64.0379
 20
4.2045
 30
0.0
 11
64.5728
 21
4.1105
 31
0.0
  0
LINE
  5
1656
330
1D
100
AcDbEntity
  8
0
100
AcDbLine
 10
98.8039
 20
0.9675
 30
0.0
 11
100.204
 21
0.9675
 31
0.0
  0
LINE
  5
1657
330
1D
100
AcDbEntity
  8
0
100
AcDbLine
 10
98.8039
 20
0.9675
 30
0.0
 11
100.204
 21
0.9675
 31
0.0
  0
LINE
  5
1658
330
1D
100
AcDbEntity
  8
0
100
AcDbLine
 10
98.2039
 20
0.9675
 30
0.0
 11
98.8039
 21
0.9675
 31
0.0
  0
LINE
  5
1659
330
1D
100
AcDbEntity
  8
0
100
AcDbLine
 10
98.2039
 20
0.9675
 30
0.0
 11
98.8039
 21
0.9675
 31
0.0
  0
LINE
  5
165A
330
1D
100
AcDbEntity
  8
0
100
AcDbLine
 10
97.4832
 20
0.9675
 30
0.0
 11
98.8832
 21
0.9675
 31
0.0
  0
LINE
  5
165B
330
1D
100
AcDbEntity
  8
0
100
AcDbLine
 10
97.4832
 20
0.9675
 30
0.0
 11
98.8832
 21
0.9675
 31
0.0
  0
LINE
  5
165C
330
1D
100
AcDbEntity
  8
0
100
AcDbLine
 10
96.8832
 20
0.9675
 30
0.0
 11
97.4832
 21
0.9675
 31
0.0
  0
LINE
  5
165D
330
1D
100
AcDbEntity
  8
0
100
AcDbLine
 10
96.8832
 20
0.9675
 30
0.0
 11
97.4832
 21
0.9675
 31
0.0
  0
LINE
  5
165E
330
1D
100
AcDbEntity
  8
0
100
AcDbLine
 10
96.8832
 20
0.9675
 30
0.0
 11
96.8832
 21
2.587279236014
 31
0.0
  0
LINE
  5
165F
330
1D
100
AcDbEntity
  8
0
100
AcDbLine
 10
88.2858
 20
0.9675
 30
0.0
 11
88.2858
 21
1.9675
 31
0.0
  0
LINE
  5
1660
330
1D
100
AcDbEntity
  8
0
100
AcDbLine
 10
98.8039
 20
0.9675
 30
0.0
 11
100.204
 21
0.9675
 31
0.0
  0
LINE
  5
1661
330
1D
100
AcDbEntity
  8
0
100
AcDbLine
 10
100.204
 20
0.9675
 30
0.0
 11
101.604
 21
0.9675
 31
0.0
  0
LINE
  5
1662
330
1D
100
AcDbEntity
  8
0
100
AcDbLine
 10
100.204
 20
0.9675
 30
0.0
 11
101.604
 21
0.9675
 31
0.0
  0
LINE
  5
1663
330
1D
100
AcDbEntity
  8
0
100
AcDbLine
 10
98.8832
 20
0.9675
 30
0.0
 11
100.283
 21
0.9675
 31
0.0
  0
LINE
  5
1664
330
1D
100
AcDbEntity
  8
0
100
AcDbLine
 10
98.8832
 20
0.9675
 30
0.0
 11
100.283
 21
0.9675
 31
0.0
  0
LINE
  5
1665
330
1D
100
AcDbEntity
  8
0
100
AcDbLine
 10
101.604
 20
0.9675
 30
0.0
 11
102.204
 21
0.9675
 31
0.0
  0
LINE
  5
1666
330
1D
100
AcDbEntity
  8
0
100
AcDbLine
 10
101.604
 20
0.9675
 30
0.0
 11
102.204
 21
0.9675
 31
0.0
  0
LINE
  5
1667
330
1D
100
AcDbEntity
  8
0
100
AcDbLine
 10
100.283
 20
0.9675
 30
0.0
 11
100.883
 21
0.9675
 31
0.0
  0
LINE
  5
1668
330
1D
100
AcDbEntity
  8
0
100
AcDbLine
 10
100.283
 20
0.9675
 30
0.0
 11
100.883
 21
0.9675
 31
0.0
  0
LINE
  5
1669
330
1D
100
AcDbEntity
  8
0
100
AcDbLine
 10
100.204
 20
0.9675
 30
0.0
 11
101.604
 21
0.9675
 31
0.0
  0
LINE
  5
166A
330
1D
100
AcDbEntity
  8
0
100
AcDbLine
 10
101.604
 20
0.9675
 30
0.0
 11
102.204
 21
0.9675
 31
0.0
  0
LINE
  5
166B
330
1D
100
AcDbEntity
  8
0
100
AcDbLine
 10
102.204
 20
0.9675
 30
0.0
 11
102.204
 21
2.878832774518
 31
0.0
  0
LINE
  5
166C
330
1D
100
AcDbEntity
  8
0
100
AcDbLine
 10
101.604
 20
0.9675
 30
0.0
 11
102.204
 21
0.9675
 31
0.0
  0
LINE
  5
166D
330
1D
100
AcDbEntity
  8
0
100
AcDbLine
 10
100.204
 20
0.9675
 30
0.0
 11
101.604
 21
0.9675
 31
0.0
  0
LINE
  5
166E
330
1D
100
AcDbEntity
  8
0
100
AcDbLine
 10
98.8039
 20
0.9675
 30
0.0
 11
100.204
 21
0.9675
 31
0.0
  0
LINE
  5
166F
330
1D
100
AcDbEntity
  8
0
100
AcDbLine
 10
88.0373
 20
1.9675
 30
0.0
 11
89.4373
 21
1.9675
 31
0.0
  0
LINE
  5
1670
330
1D
100
AcDbEntity
  8
0
100
AcDbLine
 10
89.4373
 20
1.9675
 30
0.0
 11
90.8373
 21
1.9675
 31
0.0
  0
LINE
  5
1671
330
1D
100
AcDbEntity
  8
0
100
AcDbLine
 10
89.4373
 20
1.9675
 30
0.0
 11
90.8373
 21
1.9675
 31
0.0
  0
LINE
  5
1672
330
1D
100
AcDbEntity
  8
0
100
AcDbLine
 10
88.2858
 20
1.9675
 30
0.0
 11
89.4373
 21
1.9675
 31
0.0
  0
LINE
  5
1673
330
1D
100
AcDbEntity
  8
0
100
AcDbLine
 10
88.2858
 20
1.9675
 30
0.0
 11
89.4373
 21
1.9675
 31
0.0
  0
LINE
  5
1674
330
1D
100
AcDbEntity
  8
0
100
AcDbLine
 10
90.8373
 20
1.9675
 30
0.0
 11
91.4373
 21
1.9675
 31
0.0
  0
LINE
  5
1675
330
1D
100
AcDbEntity
  8
0
100
AcDbLine
 10
89.4373
 20
1.9675
 30
0.0
 11
90.8373
 21
1.9675
 31
0.0
  0
LINE
  5
1676
330
1D
100
AcDbEntity
  8
0
100
AcDbLine
 10
90.8373
 20
1.9675
 30
0.0
 11
91.4373
 21
1.9675
 31
0.0
  0
LINE
  5
1677
330
1D
100
AcDbEntity
  8
0
100
AcDbLine
 10
105.22
 20
1.9675
 30
0.0
 11
106.62
 21
1.9675
 31
0.0
  0
LINE
  5
1678
330
1D
100
AcDbEntity
  8
0
100
AcDbLine
 10
104.62
 20
1.9675
 30
0.0
 11
105.22
 21
1.9675
 31
0.0
  0
LINE
  5
1679
330
1D
100
AcDbEntity
  8
0
100
AcDbLine
 10
104.62
 20
1.9675
 30
0.0
 11
104.62
 21
2.582713592233
 31
0.0
  0
LINE
  5
167A
330
1D
100
AcDbEntity
  8
0
100
AcDbLine
 10
91.4373
 20
1.9675
 30
0.0
 11
91.4373
 21
3.118218975379
 31
0.0
  0
LINE
  5
167B
330
1D
100
AcDbEntity
  8
0
100
AcDbLine
 10
90.8373
 20
1.9675
 30
0.0
 11
91.4373
 21
1.9675
 31
0.0
  0
LINE
  5
167C
330
1D
100
AcDbEntity
  8
0
100
AcDbLine
 10
89.4373
 20
1.9675
 30
0.0
 11
90.8373
 21
1.9675
 31
0.0
  0
LINE
  5
167D
330
1D
100
AcDbEntity
  8
0
100
AcDbLine
 10
88.0373
 20
1.9675
 30
0.0
 11
89.4373
 21
1.9675
 31
0.0
  0
LINE
  5
167E
330
1D
100
AcDbEntity
  8
0
100
AcDbLine
 10
98.2039
 20
0.9675
 30
0.0
 11
98.8039
 21
0.9675
 31
0.0
  0
LINE
  5
167F
330
1D
100
AcDbEntity
  8
0
100
AcDbLine
 10
98.2039
 20
0.9675
 30
0.0
 11
98.8039
 21
0.9675
 31
0.0
  0
LINE
  5
1680
330
1D
100
AcDbEntity
  8
0
100
AcDbLine
 10
98.2039
 20
0.9675
 30
0.0
 11
98.2039
 21
2.852402652927
 31
0.0
  0
LINE
  5
1681
330
1D
100
AcDbEntity
  8
0
100
AcDbLine
 10
105.463
 20
1.9675
 30
0.0
 11
106.063
 21
1.9675
 31
0.0
  0
LINE
  5
1682
330
1D
100
AcDbEntity
  8
0
100
AcDbLine
 10
105.22
 20
1.9675
 30
0.0
 11
106.62
 21
1.9675
 31
0.0
  0
LINE
  5
1683
330
1D
100
AcDbEntity
  8
0
100
AcDbLine
 10
88.2858
 20
1.9675
 30
0.0
 11
88.2858
 21
0.9675
 31
0.0
  0
LINE
  5
1684
330
1D
100
AcDbEntity
  8
0
100
AcDbLine
 10
105.22
 20
1.9675
 30
0.0
 11
106.62
 21
1.9675
 31
0.0
  0
LINE
  5
1685
330
1D
100
AcDbEntity
  8
0
100
AcDbLine
 10
104.62
 20
1.9675
 30
0.0
 11
105.22
 21
1.9675
 31
0.0
  0
LINE
  5
1686
330
1D
100
AcDbEntity
  8
0
100
AcDbLine
 10
104.62
 20
1.9675
 30
0.0
 11
105.22
 21
1.9675
 31
0.0
  0
LINE
  5
1687
330
1D
100
AcDbEntity
  8
0
100
AcDbLine
 10
104.62
 20
1.9675
 30
0.0
 11
104.62
 21
3.338781341108
 31
0.0
  0
LINE
  5
1688
330
1D
100
AcDbEntity
  8
0
100
AcDbLine
 10
106.063
 20
1.9675
 30
0.0
 11
107.463
 21
1.9675
 31
0.0
  0
LINE
  5
1689
330
1D
100
AcDbEntity
  8
0
100
AcDbLine
 10
106.62
 20
1.9675
 30
0.0
 11
108.02
 21
1.9675
 31
0.0
  0
LINE
  5
168A
330
1D
100
AcDbEntity
  8
0
100
AcDbLine
 10
107.463
 20
1.9675
 30
0.0
 11
108.863
 21
1.9675
 31
0.0
  0
LINE
  5
168B
330
1D
100
AcDbEntity
  8
0
100
AcDbLine
 10
106.62
 20
1.9675
 30
0.0
 11
108.02
 21
1.9675
 31
0.0
  0
LINE
  5
168C
330
1D
100
AcDbEntity
  8
0
100
AcDbLine
 10
106.62
 20
1.9675
 30
0.0
 11
108.02
 21
1.9675
 31
0.0
  0
LINE
  5
168D
330
1D
100
AcDbEntity
  8
0
100
AcDbLine
 10
106.063
 20
1.9675
 30
0.0
 11
107.463
 21
1.9675
 31
0.0
  0
LINE
  5
168E
330
1D
100
AcDbEntity
  8
0
100
AcDbLine
 10
107.463
 20
1.9675
 30
0.0
 11
108.863
 21
1.9675
 31
0.0
  0
LINE
  5
168F
330
1D
100
AcDbEntity
  8
0
100
AcDbLine
 10
108.02
 20
1.9675
 30
0.0
 11
108.62
 21
1.9675
 31
0.0
  0
LINE
  5
1690
330
1D
100
AcDbEntity
  8
0
100
AcDbLine
 10
108.863
 20
1.9675
 30
0.0
 11
109.463
 21
1.9675
 31
0.0
  0
LINE
  5
1691
330
1D
100
AcDbEntity
  8
0
100
AcDbLine
 10
108.02
 20
1.9675
 30
0.0
 11
108.62
 21
1.9675
 31
0.0
  0
LINE
  5
1692
330
1D
100
AcDbEntity
  8
0
100
AcDbLine
 10
108.02
 20
1.9675
 30
0.0
 11
108.62
 21
1.9675
 31
0.0
  0
LINE
  5
1693
330
1D
100
AcDbEntity
  8
0
100
AcDbLine
 10
110.384
 20
-0.0325
 30
0.0
 11
110.984
 21
-0.0325
 31
0.0
  0
LINE
  5
1694
330
1D
100
AcDbEntity
  8
0
100
AcDbLine
 10
110.384
 20
-0.0325
 30
0.0
 11
110.984
 21
-0.0325
 31
0.0
  0
LINE
  5
1695
330
1D
100
AcDbEntity
  8
0
100
AcDbLine
 10
110.384
 20
-0.0325
 30
0.0
 11
110.384
 21
2.036129302864
 31
0.0
  0
LINE
  5
1696
330
1D
100
AcDbEntity
  8
0
100
AcDbLine
 10
110.984
 20
-0.0325
 30
0.0
 11
112.384
 21
-0.0325
 31
0.0
  0
LINE
  5
1697
330
1D
100
AcDbEntity
  8
0
100
AcDbLine
 10
112.384
 20
-0.0325
 30
0.0
 11
113.784
 21
-0.0325
 31
0.0
  0
LINE
  5
1698
330
1D
100
AcDbEntity
  8
0
100
AcDbLine
 10
112.384
 20
-0.0325
 30
0.0
 11
113.784
 21
-0.0325
 31
0.0
  0
LINE
  5
1699
330
1D
100
AcDbEntity
  8
0
100
AcDbLine
 10
110.984
 20
-0.0325
 30
0.0
 11
112.384
 21
-0.0325
 31
0.0
  0
LINE
  5
169A
330
1D
100
AcDbEntity
  8
0
100
AcDbLine
 10
110.984
 20
-0.0325
 30
0.0
 11
112.384
 21
-0.0325
 31
0.0
  0
LINE
  5
169B
330
1D
100
AcDbEntity
  8
0
100
AcDbLine
 10
113.784
 20
-0.0325
 30
0.0
 11
114.384
 21
-0.0325
 31
0.0
  0
LINE
  5
169C
330
1D
100
AcDbEntity
  8
0
100
AcDbLine
 10
113.784
 20
-0.0325
 30
0.0
 11
114.384
 21
-0.0325
 31
0.0
  0
LINE
  5
169D
330
1D
100
AcDbEntity
  8
0
100
AcDbLine
 10
112.384
 20
-0.0325
 30
0.0
 11
113.784
 21
-0.0325
 31
0.0
  0
LINE
  5
169E
330
1D
100
AcDbEntity
  8
0
100
AcDbLine
 10
113.784
 20
-0.0325
 30
0.0
 11
114.384
 21
-0.0325
 31
0.0
  0
LINE
  5
169F
330
1D
100
AcDbEntity
  8
0
100
AcDbLine
 10
114.384
 20
-0.0325
 30
0.0
 11
114.384
 21
2.103217171717
 31
0.0
  0
LINE
  5
16A0
330
1D
100
AcDbEntity
  8
0
100
AcDbLine
 10
113.784
 20
-0.0325
 30
0.0
 11
114.384
 21
-0.0325
 31
0.0
  0
LINE
  5
16A1
330
1D
100
AcDbEntity
  8
0
100
AcDbLine
 10
112.384
 20
-0.0325
 30
0.0
 11
113.784
 21
-0.0325
 31
0.0
  0
LINE
  5
16A2
330
1D
100
AcDbEntity
  8
0
100
AcDbLine
 10
110.984
 20
-0.0325
 30
0.0
 11
112.384
 21
-0.0325
 31
0.0
  0
LINE
  5
16A3
330
1D
100
AcDbEntity
  8
0
100
AcDbLine
 10
110.384
 20
-0.0325
 30
0.0
 11
110.984
 21
-0.0325
 31
0.0
  0
LINE
  5
16A4
330
1D
100
AcDbEntity
  8
0
100
AcDbLine
 10
110.384
 20
-0.0325
 30
0.0
 11
110.984
 21
-0.0325
 31
0.0
  0
LINE
  5
16A5
330
1D
100
AcDbEntity
  8
0
100
AcDbLine
 10
110.384
 20
-0.0325
 30
0.0
 11
110.384
 21
2.154448663854
 31
0.0
  0
LINE
  5
16A6
330
1D
100
AcDbEntity
  8
0
100
AcDbLine
 10
109.463
 20
1.9675
 30
0.0
 11
109.463
 21
4.40034319754
 31
0.0
  0
LINE
  5
16A7
330
1D
100
AcDbEntity
  8
0
100
AcDbLine
 10
108.863
 20
1.9675
 30
0.0
 11
109.463
 21
1.9675
 31
0.0
  0
LINE
  5
16A8
330
1D
100
AcDbEntity
  8
0
100
AcDbLine
 10
108.863
 20
1.9675
 30
0.0
 11
109.463
 21
1.9675
 31
0.0
  0
LINE
  5
16A9
330
1D
100
AcDbEntity
  8
0
100
AcDbLine
 10
107.463
 20
1.9675
 30
0.0
 11
108.863
 21
1.9675
 31
0.0
  0
LINE
  5
16AA
330
1D
100
AcDbEntity
  8
0
100
AcDbLine
 10
106.063
 20
1.9675
 30
0.0
 11
107.463
 21
1.9675
 31
0.0
  0
LINE
  5
16AB
330
1D
100
AcDbEntity
  8
0
100
AcDbLine
 10
105.463
 20
1.9675
 30
0.0
 11
106.063
 21
1.9675
 31
0.0
  0
LINE
  5
16AC
330
1D
100
AcDbEntity
  8
0
100
AcDbLine
 10
105.463
 20
1.9675
 30
0.0
 11
106.063
 21
1.9675
 31
0.0
  0
LINE
  5
16AD
330
1D
100
AcDbEntity
  8
0
100
AcDbLine
 10
105.463
 20
1.9675
 30
0.0
 11
105.463
 21
4.369819796954
 31
0.0
  0
LINE
  5
16AE
330
1D
100
AcDbEntity
  8
0
100
AcDbLine
 10
110.384
 20
2.036129302864
 30
0.0
 11
110.384
 21
-0.0325
 31
0.0
  0
LINE
  5
16AF
330
1D
100
AcDbEntity
  8
0
100
AcDbLine
 10
109.463
 20
2.050915389066
 30
0.0
 11
110.384
 21
2.036129302864
 31
0.0
  0
LINE
  5
16B0
330
1D
100
AcDbEntity
  8
0
100
AcDbLine
 10
114.384
 20
1.991610849365
 30
0.0
 11
115.256
 21
1.986931880644
 31
0.0
  0
LINE
  5
16B1
330
1D
100
AcDbEntity
  8
0
100
AcDbLine
 10
115.256
 20
1.986931880644
 30
0.0
 11
115.256
 21
0.9675
 31
0.0
  0
LINE
  5
16B2
330
1D
100
AcDbEntity
  8
0
100
AcDbLine
 10
115.256
 20
0.9675
 30
0.0
 11
115.856
 21
0.9675
 31
0.0
  0
LINE
  5
16B3
330
1D
100
AcDbEntity
  8
0
100
AcDbLine
 10
115.256
 20
0.9675
 30
0.0
 11
115.856
 21
0.9675
 31
0.0
  0
LINE
  5
16B4
330
1D
100
AcDbEntity
  8
0
100
AcDbLine
 10
115.256
 20
0.9675
 30
0.0
 11
115.256
 21
1.986931880644
 31
0.0
  0
LINE
  5
16B5
330
1D
100
AcDbEntity
  8
0
100
AcDbLine
 10
115.256
 20
0.9675
 30
0.0
 11
115.856
 21
0.9675
 31
0.0
  0
LINE
  5
16B6
330
1D
100
AcDbEntity
  8
0
100
AcDbLine
 10
115.256
 20
0.9675
 30
0.0
 11
115.856
 21
0.9675
 31
0.0
  0
LINE
  5
16B7
330
1D
100
AcDbEntity
  8
0
100
AcDbLine
 10
115.256
 20
0.9675
 30
0.0
 11
115.256
 21
2.497279439252
 31
0.0
  0
LINE
  5
16B8
330
1D
100
AcDbEntity
  8
0
100
AcDbLine
 10
114.568
 20
2.0595
 30
0.0
 11
114.873
 21
2.0745
 31
0.0
  0
LINE
  5
16B9
330
1D
100
AcDbEntity
  8
0
100
AcDbLine
 10
114.384
 20
2.058862770563
 30
0.0
 11
114.568
 21
2.0595
 31
0.0
  0
LINE
  5
16BA
330
1D
100
AcDbEntity
  8
0
100
AcDbLine
 10
87.8902
 20
2.9675
 30
0.0
 11
87.8902
 21
4.834260314342
 31
0.0
  0
LINE
  5
16BB
330
1D
100
AcDbEntity
  8
0
100
AcDbLine
 10
87.8902
 20
3.154594263185
 30
0.0
 11
89.003
 21
3.1715
 31
0.0
  0
LINE
  5
16BC
330
1D
100
AcDbEntity
  8
0
100
AcDbLine
 10
91.4373
 20
3.118218975379
 30
0.0
 11
91.4373
 21
1.9675
 31
0.0
  0
LINE
  5
16BD
330
1D
100
AcDbEntity
  8
0
100
AcDbLine
 10
91.4373
 20
3.118218975379
 30
0.0
 11
91.8091
 21
3.1025
 31
0.0
  0
LINE
  5
16BE
330
1D
100
AcDbEntity
  8
0
100
AcDbLine
 10
91.4373
 20
2.989418660287
 30
0.0
 11
91.5051
 21
2.9905
 31
0.0
  0
LINE
  5
16BF
330
1D
100
AcDbEntity
  8
0
100
AcDbLine
 10
89.003
 20
3.1715
 30
0.0
 11
90.6028
 21
3.1535
 31
0.0
  0
LINE
  5
16C0
330
1D
100
AcDbEntity
  8
0
100
AcDbLine
 10
90.6028
 20
3.1535
 30
0.0
 11
91.8091
 21
3.1025
 31
0.0
  0
LINE
  5
16C1
330
1D
100
AcDbEntity
  8
0
100
AcDbLine
 10
96.8832
 20
2.587279236014
 30
0.0
 11
96.8832
 21
0.9675
 31
0.0
  0
LINE
  5
16C2
330
1D
100
AcDbEntity
  8
0
100
AcDbLine
 10
91.8091
 20
3.1025
 30
0.0
 11
92.173
 21
3.0495
 31
0.0
  0
LINE
  5
16C3
330
1D
100
AcDbEntity
  8
0
100
AcDbLine
 10
91.8091
 20
3.1025
 30
0.0
 11
92.173
 21
3.0495
 31
0.0
  0
LINE
  5
16C4
330
1D
100
AcDbEntity
  8
0
100
AcDbLine
 10
92.0007
 20
3.0155
 30
0.0
 11
92.173
 21
3.0495
 31
0.0
  0
LINE
  5
16C5
330
1D
100
AcDbEntity
  8
0
100
AcDbLine
 10
92.0007
 20
3.0155
 30
0.0
 11
92.173
 21
3.0495
 31
0.0
  0
LINE
  5
16C6
330
1D
100
AcDbEntity
  8
0
100
AcDbLine
 10
91.5051
 20
2.9905
 30
0.0
 11
92.0007
 21
3.0155
 31
0.0
  0
LINE
  5
16C7
330
1D
100
AcDbEntity
  8
0
100
AcDbLine
 10
95.4326
 20
2.9675
 30
0.0
 11
96.8326
 21
2.9675
 31
0.0
  0
LINE
  5
16C8
330
1D
100
AcDbEntity
  8
0
100
AcDbLine
 10
96.8326
 20
2.9675
 30
0.0
 11
98.2326
 21
2.9675
 31
0.0
  0
LINE
  5
16C9
330
1D
100
AcDbEntity
  8
0
100
AcDbLine
 10
98.2326
 20
2.9675
 30
0.0
 11
98.8326
 21
2.9675
 31
0.0
  0
LINE
  5
16CA
330
1D
100
AcDbEntity
  8
0
100
AcDbLine
 10
98.2326
 20
2.9675
 30
0.0
 11
98.8326
 21
2.9675
 31
0.0
  0
LINE
  5
16CB
330
1D
100
AcDbEntity
  8
0
100
AcDbLine
 10
96.8326
 20
2.9675
 30
0.0
 11
98.2326
 21
2.9675
 31
0.0
  0
LINE
  5
16CC
330
1D
100
AcDbEntity
  8
0
100
AcDbLine
 10
95.4326
 20
2.9675
 30
0.0
 11
96.8326
 21
2.9675
 31
0.0
  0
LINE
  5
16CD
330
1D
100
AcDbEntity
  8
0
100
AcDbLine
 10
94.8326
 20
2.9675
 30
0.0
 11
95.4326
 21
2.9675
 31
0.0
  0
LINE
  5
16CE
330
1D
100
AcDbEntity
  8
0
100
AcDbLine
 10
94.8326
 20
2.9675
 30
0.0
 11
95.4326
 21
2.9675
 31
0.0
  0
LINE
  5
16CF
330
1D
100
AcDbEntity
  8
0
100
AcDbLine
 10
94.8326
 20
2.9675
 30
0.0
 11
94.8326
 21
3.736409947104
 31
0.0
  0
LINE
  5
16D0
330
1D
100
AcDbEntity
  8
0
100
AcDbLine
 10
98.2039
 20
2.852402652927
 30
0.0
 11
98.2039
 21
0.9675
 31
0.0
  0
LINE
  5
16D1
330
1D
100
AcDbEntity
  8
0
100
AcDbLine
 10
98.8326
 20
2.9675
 30
0.0
 11
98.8326
 21
3.713773575569
 31
0.0
  0
LINE
  5
16D2
330
1D
100
AcDbEntity
  8
0
100
AcDbLine
 10
98.3293
 20
2.8645
 30
0.0
 11
99.9323
 21
2.8945
 31
0.0
  0
LINE
  5
16D3
330
1D
100
AcDbEntity
  8
0
100
AcDbLine
 10
97.8732
 20
2.8205
 30
0.0
 11
98.3293
 21
2.8645
 31
0.0
  0
LINE
  5
16D4
330
1D
100
AcDbEntity
  8
0
100
AcDbLine
 10
97.8732
 20
2.8205
 30
0.0
 11
98.2039
 21
2.795179427765
 31
0.0
  0
LINE
  5
16D5
330
1D
100
AcDbEntity
  8
0
100
AcDbLine
 10
97.7157
 20
2.5885
 30
0.0
 11
98.2039
 21
2.589064654175
 31
0.0
  0
LINE
  5
16D6
330
1D
100
AcDbEntity
  8
0
100
AcDbLine
 10
91.4373
 20
2.641393593908
 30
0.0
 11
97.7157
 21
2.5885
 31
0.0
  0
LINE
  5
16D7
330
1D
100
AcDbEntity
  8
0
100
AcDbLine
 10
93.9732
 20
3.6215
 30
0.0
 11
94.2491
 21
3.6935
 31
0.0
  0
LINE
  5
16D8
330
1D
100
AcDbEntity
  8
0
100
AcDbLine
 10
94.2491
 20
3.6935
 30
0.0
 11
94.8326
 21
3.736409947104
 31
0.0
  0
LINE
  5
16D9
330
1D
100
AcDbEntity
  8
0
100
AcDbLine
 10
93.9732
 20
3.6215
 30
0.0
 11
94.2491
 21
3.6935
 31
0.0
  0
LINE
  5
16DA
330
1D
100
AcDbEntity
  8
0
100
AcDbLine
 10
93.9732
 20
3.6215
 30
0.0
 11
94.508
 21
3.5265
 31
0.0
  0
LINE
  5
16DB
330
1D
100
AcDbEntity
  8
0
100
AcDbLine
 10
94.8326
 20
3.512588571429
 30
0.0
 11
94.8326
 21
3.736409947104
 31
0.0
  0
LINE
  5
16DC
330
1D
100
AcDbEntity
  8
0
100
AcDbLine
 10
98.8326
 20
3.713773575569
 30
0.0
 11
98.8326
 21
2.9675
 31
0.0
  0
LINE
  5
16DD
330
1D
100
AcDbEntity
  8
0
100
AcDbLine
 10
94.8326
 20
3.736409947104
 30
0.0
 11
94.8326
 21
2.9675
 31
0.0
  0
LINE
  5
16DE
330
1D
100
AcDbEntity
  8
0
100
AcDbLine
 10
94.8326
 20
3.736409947104
 30
0.0
 11
94.8326
 21
3.512588571429
 31
0.0
  0
LINE
  5
16DF
330
1D
100
AcDbEntity
  8
0
100
AcDbLine
 10
94.508
 20
3.5265
 30
0.0
 11
94.8326
 21
3.512588571429
 31
0.0
  0
LINE
  5
16E0
330
1D
100
AcDbEntity
  8
0
100
AcDbLine
 10
97.2197
 20
3.9675
 30
0.0
 11
98.6197
 21
3.9675
 31
0.0
  0
LINE
  5
16E1
330
1D
100
AcDbEntity
  8
0
100
AcDbLine
 10
95.8197
 20
3.9675
 30
0.0
 11
97.2197
 21
3.9675
 31
0.0
  0
LINE
  5
16E2
330
1D
100
AcDbEntity
  8
0
100
AcDbLine
 10
95.2197
 20
3.9675
 30
0.0
 11
95.8197
 21
3.9675
 31
0.0
  0
LINE
  5
16E3
330
1D
100
AcDbEntity
  8
0
100
AcDbLine
 10
95.2197
 20
3.9675
 30
0.0
 11
95.2197
 21
5.692542206897
 31
0.0
  0
LINE
  5
16E4
330
1D
100
AcDbEntity
  8
0
100
AcDbLine
 10
96.3518
 20
3.7835
 30
0.0
 11
98.0596
 21
3.7635
 31
0.0
  0
LINE
  5
16E5
330
1D
100
AcDbEntity
  8
0
100
AcDbLine
 10
98.6197
 20
3.9675
 30
0.0
 11
99.2197
 21
3.9675
 31
0.0
  0
LINE
  5
16E6
330
1D
100
AcDbEntity
  8
0
100
AcDbLine
 10
98.0596
 20
3.7635
 30
0.0
 11
99.4742
 21
3.6725
 31
0.0
  0
LINE
  5
16E7
330
1D
100
AcDbEntity
  8
0
100
AcDbLine
 10
95.0242
 20
3.7505
 30
0.0
 11
96.3518
 21
3.7835
 31
0.0
  0
LINE
  5
16E8
330
1D
100
AcDbEntity
  8
0
100
AcDbLine
 10
94.2491
 20
3.6935
 30
0.0
 11
95.0242
 21
3.7505
 31
0.0
  0
LINE
  5
16E9
330
1D
100
AcDbEntity
  8
0
100
AcDbLine
 10
99.2197
 20
3.9675
 30
0.0
 11
99.2197
 21
5.630256045821
 31
0.0
  0
LINE
  5
16EA
330
1D
100
AcDbEntity
  8
0
100
AcDbLine
 10
98.8332
 20
3.5045
 30
0.0
 11
99.4981
 21
3.5745
 31
0.0
  0
LINE
  5
16EB
330
1D
100
AcDbEntity
  8
0
100
AcDbLine
 10
88.5319
 20
4.5505
 30
0.0
 11
88.7728
 21
4.6425
 31
0.0
  0
LINE
  5
16EC
330
1D
100
AcDbEntity
  8
0
100
AcDbLine
 10
87.8902
 20
4.490405179982
 30
0.0
 11
88.5319
 21
4.5505
 31
0.0
  0
LINE
  5
16ED
330
1D
100
AcDbEntity
  8
0
100
AcDbLine
 10
87.8902
 20
4.834260314342
 30
0.0
 11
87.8902
 21
2.9675
 31
0.0
  0
LINE
  5
16EE
330
1D
100
AcDbEntity
  8
0
100
AcDbLine
 10
90.3734
 20
4.9675
 30
0.0
 11
90.3734
 21
6.758973975552
 31
0.0
  0
LINE
  5
16EF
330
1D
100
AcDbEntity
  8
0
100
AcDbLine
 10
89.7734
 20
4.9675
 30
0.0
 11
90.3734
 21
4.9675
 31
0.0
  0
LINE
  5
16F0
330
1D
100
AcDbEntity
  8
0
100
AcDbLine
 10
88.3734
 20
4.9675
 30
0.0
 11
89.7734
 21
4.9675
 31
0.0
  0
LINE
  5
16F1
330
1D
100
AcDbEntity
  8
0
100
AcDbLine
 10
88.6649
 20
4.7125
 30
0.0
 11
88.7728
 21
4.6425
 31
0.0
  0
LINE
  5
16F2
330
1D
100
AcDbEntity
  8
0
100
AcDbLine
 10
104.62
 20
2.582713592233
 30
0.0
 11
104.62
 21
1.9675
 31
0.0
  0
LINE
  5
16F3
330
1D
100
AcDbEntity
  8
0
100
AcDbLine
 10
102.204
 20
2.596037406076
 30
0.0
 11
104.534
 21
2.6105
 31
0.0
  0
LINE
  5
16F4
330
1D
100
AcDbEntity
  8
0
100
AcDbLine
 10
102.204
 20
2.878832774518
 30
0.0
 11
102.204
 21
0.9675
 31
0.0
  0
LINE
  5
16F5
330
1D
100
AcDbEntity
  8
0
100
AcDbLine
 10
102.204
 20
2.878832774518
 30
0.0
 11
102.724
 21
2.8675
 31
0.0
  0
LINE
  5
16F6
330
1D
100
AcDbEntity
  8
0
100
AcDbLine
 10
102.724
 20
2.8675
 30
0.0
 11
103.073
 21
2.8345
 31
0.0
  0
LINE
  5
16F7
330
1D
100
AcDbEntity
  8
0
100
AcDbLine
 10
102.576
 20
2.7955
 30
0.0
 11
103.073
 21
2.8345
 31
0.0
  0
LINE
  5
16F8
330
1D
100
AcDbEntity
  8
0
100
AcDbLine
 10
102.204
 20
2.787487692308
 30
0.0
 11
102.576
 21
2.7955
 31
0.0
  0
LINE
  5
16F9
330
1D
100
AcDbEntity
  8
0
100
AcDbLine
 10
102.724
 20
2.8675
 30
0.0
 11
103.073
 21
2.8345
 31
0.0
  0
LINE
  5
16FA
330
1D
100
AcDbEntity
  8
0
100
AcDbLine
 10
99.9323
 20
2.8945
 30
0.0
 11
101.531
 21
2.8935
 31
0.0
  0
LINE
  5
16FB
330
1D
100
AcDbEntity
  8
0
100
AcDbLine
 10
101.531
 20
2.8935
 30
0.0
 11
102.724
 21
2.8675
 31
0.0
  0
LINE
  5
16FC
330
1D
100
AcDbEntity
  8
0
100
AcDbLine
 10
104.62
 20
3.198018072289
 30
0.0
 11
104.62
 21
3.338781341108
 31
0.0
  0
LINE
  5
16FD
330
1D
100
AcDbEntity
  8
0
100
AcDbLine
 10
104.241
 20
3.3095
 30
0.0
 11
104.62
 21
3.338781341108
 31
0.0
  0
LINE
  5
16FE
330
1D
100
AcDbEntity
  8
0
100
AcDbLine
 10
104.073
 20
3.2645
 30
0.0
 11
104.241
 21
3.3095
 31
0.0
  0
LINE
  5
16FF
330
1D
100
AcDbEntity
  8
0
100
AcDbLine
 10
104.4
 20
3.2065
 30
0.0
 11
104.62
 21
3.198018072289
 31
0.0
  0
LINE
  5
1700
330
1D
100
AcDbEntity
  8
0
100
AcDbLine
 10
104.073
 20
3.2645
 30
0.0
 11
104.241
 21
3.3095
 31
0.0
  0
LINE
  5
1701
330
1D
100
AcDbEntity
  8
0
100
AcDbLine
 10
104.073
 20
3.2645
 30
0.0
 11
104.4
 21
3.2065
 31
0.0
  0
LINE
  5
1702
330
1D
100
AcDbEntity
  8
0
100
AcDbLine
 10
99.4742
 20
3.6725
 30
0.0
 11
99.4981
 21
3.5745
 31
0.0
  0
LINE
  5
1703
330
1D
100
AcDbEntity
  8
0
100
AcDbLine
 10
104.62
 20
3.338781341108
 30
0.0
 11
104.62
 21
3.198018072289
 31
0.0
  0
LINE
  5
1704
330
1D
100
AcDbEntity
  8
0
100
AcDbLine
 10
104.62
 20
3.338781341108
 30
0.0
 11
104.62
 21
1.9675
 31
0.0
  0
LINE
  5
1705
330
1D
100
AcDbEntity
  8
0
100
AcDbLine
 10
104.241
 20
3.3095
 30
0.0
 11
104.927
 21
3.3625
 31
0.0
  0
LINE
  5
1706
330
1D
100
AcDbEntity
  8
0
100
AcDbLine
 10
104.973
 20
4.2625
 30
0.0
 11
105.198
 21
4.1835
 31
0.0
  0
LINE
  5
1707
330
1D
100
AcDbEntity
  8
0
100
AcDbLine
 10
104.973
 20
4.2625
 30
0.0
 11
105.277
 21
4.3555
 31
0.0
  0
LINE
  5
1708
330
1D
100
AcDbEntity
  8
0
100
AcDbLine
 10
104.927
 20
3.3625
 30
0.0
 11
105.463
 21
3.37987037037
 31
0.0
  0
LINE
  5
1709
330
1D
100
AcDbEntity
  8
0
100
AcDbLine
 10
99.2197
 20
5.23937515996
 30
0.0
 11
99.8592
 21
5.3985
 31
0.0
  0
LINE
  5
170A
330
1D
100
AcDbEntity
  8
0
100
AcDbLine
 10
109.673
 20
2.1295
 30
0.0
 11
110.311
 21
2.1545
 31
0.0
  0
LINE
  5
170B
330
1D
100
AcDbEntity
  8
0
100
AcDbLine
 10
110.384
 20
2.096528037383
 30
0.0
 11
110.384
 21
2.154448663854
 31
0.0
  0
LINE
  5
170C
330
1D
100
AcDbEntity
  8
0
100
AcDbLine
 10
114.384
 20
2.103217171717
 30
0.0
 11
114.384
 21
-0.0325
 31
0.0
  0
LINE
  5
170D
330
1D
100
AcDbEntity
  8
0
100
AcDbLine
 10
114.08
 20
2.1155
 30
0.0
 11
114.773
 21
2.0875
 31
0.0
  0
LINE
  5
170E
330
1D
100
AcDbEntity
  8
0
100
AcDbLine
 10
110.17
 20
2.1005
 30
0.0
 11
110.384
 21
2.096093080725
 31
0.0
  0
LINE
  5
170F
330
1D
100
AcDbEntity
  8
0
100
AcDbLine
 10
109.673
 20
2.1295
 30
0.0
 11
110.17
 21
2.1005
 31
0.0
  0
LINE
  5
1710
330
1D
100
AcDbEntity
  8
0
100
AcDbLine
 10
109.673
 20
2.1295
 30
0.0
 11
110.311
 21
2.1545
 31
0.0
  0
LINE
  5
1711
330
1D
100
AcDbEntity
  8
0
100
AcDbLine
 10
114.773
 20
2.0875
 30
0.0
 11
114.873
 21
2.0745
 31
0.0
  0
LINE
  5
1712
330
1D
100
AcDbEntity
  8
0
100
AcDbLine
 10
110.384
 20
2.154448663854
 30
0.0
 11
110.384
 21
2.096528037383
 31
0.0
  0
LINE
  5
1713
330
1D
100
AcDbEntity
  8
0
100
AcDbLine
 10
110.384
 20
2.154448663854
 30
0.0
 11
110.384
 21
-0.0325
 31
0.0
  0
LINE
  5
1714
330
1D
100
AcDbEntity
  8
0
100
AcDbLine
 10
110.311
 20
2.1545
 30
0.0
 11
110.384
 21
2.154239551478
 31
0.0
  0
LINE
  5
1715
330
1D
100
AcDbEntity
  8
0
100
AcDbLine
 10
110.311
 20
2.1545
 30
0.0
 11
111.733
 21
2.1535
 31
0.0
  0
LINE
  5
1716
330
1D
100
AcDbEntity
  8
0
100
AcDbLine
 10
111.733
 20
2.1535
 30
0.0
 11
112.814
 21
2.1415
 31
0.0
  0
LINE
  5
1717
330
1D
100
AcDbEntity
  8
0
100
AcDbLine
 10
112.814
 20
2.1415
 30
0.0
 11
114.08
 21
2.1155
 31
0.0
  0
LINE
  5
1718
330
1D
100
AcDbEntity
  8
0
100
AcDbLine
 10
115.256
 20
2.377206542056
 30
0.0
 11
115.256
 21
2.497279439252
 31
0.0
  0
LINE
  5
1719
330
1D
100
AcDbEntity
  8
0
100
AcDbLine
 10
115.256
 20
2.497279439252
 30
0.0
 11
115.256
 21
2.377206542056
 31
0.0
  0
LINE
  5
171A
330
1D
100
AcDbEntity
  8
0
100
AcDbLine
 10
115.256
 20
2.497279439252
 30
0.0
 11
115.256
 21
0.9675
 31
0.0
  0
LINE
  5
171B
330
1D
100
AcDbEntity
  8
0
100
AcDbLine
 10
114.773
 20
2.4395
 30
0.0
 11
115.256
 21
2.497279439252
 31
0.0
  0
LINE
  5
171C
330
1D
100
AcDbEntity
  8
0
100
AcDbLine
 10
114.773
 20
2.4395
 30
0.0
 11
115.308
 21
2.5035
 31
0.0
  0
LINE
  5
171D
330
1D
100
AcDbEntity
  8
0
100
AcDbLine
 10
114.773
 20
2.4395
 30
0.0
 11
115.256
 21
2.377206542056
 31
0.0
  0
LINE
  5
171E
330
1D
100
AcDbEntity
  8
0
100
AcDbLine
 10
115.308
 20
2.5035
 30
0.0
 11
116.708
 21
2.5355
 31
0.0
  0
LINE
  5
171F
330
1D
100
AcDbEntity
  8
0
100
AcDbLine
 10
105.463
 20
4.369819796954
 30
0.0
 11
105.463
 21
1.9675
 31
0.0
  0
LINE
  5
1720
330
1D
100
AcDbEntity
  8
0
100
AcDbLine
 10
109.677
 20
4.3885
 30
0.0
 11
110.173
 21
4.2725
 31
0.0
  0
LINE
  5
1721
330
1D
100
AcDbEntity
  8
0
100
AcDbLine
 10
109.676
 20
4.1585
 30
0.0
 11
110.173
 21
4.2725
 31
0.0
  0
LINE
  5
1722
330
1D
100
AcDbEntity
  8
0
100
AcDbLine
 10
105.277
 20
4.3555
 30
0.0
 11
106.459
 21
4.4465
 31
0.0
  0
LINE
  5
1723
330
1D
100
AcDbEntity
  8
0
100
AcDbLine
 10
106.459
 20
4.4465
 30
0.0
 11
107.405
 21
4.4675
 31
0.0
  0
LINE
  5
1724
330
1D
100
AcDbEntity
  8
0
100
AcDbLine
 10
107.405
 20
4.4675
 30
0.0
 11
108.376
 21
4.4605
 31
0.0
  0
LINE
  5
1725
330
1D
100
AcDbEntity
  8
0
100
AcDbLine
 10
109.463
 20
4.40034319754
 30
0.0
 11
109.463
 21
1.9675
 31
0.0
  0
LINE
  5
1726
330
1D
100
AcDbEntity
  8
0
100
AcDbLine
 10
115.205
 20
4.9675
 30
0.0
 11
115.205
 21
6.548275806452
 31
0.0
  0
LINE
  5
1727
330
1D
100
AcDbEntity
  8
0
100
AcDbLine
 10
113.205
 20
4.9675
 30
0.0
 11
114.605
 21
4.9675
 31
0.0
  0
LINE
  5
1728
330
1D
100
AcDbEntity
  8
0
100
AcDbLine
 10
114.605
 20
4.9675
 30
0.0
 11
115.205
 21
4.9675
 31
0.0
  0
LINE
  5
1729
330
1D
100
AcDbEntity
  8
0
100
AcDbLine
 10
111.805
 20
4.9675
 30
0.0
 11
113.205
 21
4.9675
 31
0.0
  0
LINE
  5
172A
330
1D
100
AcDbEntity
  8
0
100
AcDbLine
 10
111.805
 20
4.9675
 30
0.0
 11
113.205
 21
4.9675
 31
0.0
  0
LINE
  5
172B
330
1D
100
AcDbEntity
  8
0
100
AcDbLine
 10
113.205
 20
4.9675
 30
0.0
 11
114.605
 21
4.9675
 31
0.0
  0
LINE
  5
172C
330
1D
100
AcDbEntity
  8
0
100
AcDbLine
 10
111.205
 20
4.9675
 30
0.0
 11
111.805
 21
4.9675
 31
0.0
  0
LINE
  5
172D
330
1D
100
AcDbEntity
  8
0
100
AcDbLine
 10
111.205
 20
4.9675
 30
0.0
 11
111.205
 21
6.616396551724
 31
0.0
  0
LINE
  5
172E
330
1D
100
AcDbEntity
  8
0
100
AcDbLine
 10
109.463
 20
4.40034319754
 30
0.0
 11
109.677
 21
4.3885
 31
0.0
  0
LINE
  5
172F
330
1D
100
AcDbEntity
  8
0
100
AcDbLine
 10
108.376
 20
4.4605
 30
0.0
 11
109.677
 21
4.3885
 31
0.0
  0
LINE
  5
1730
330
1D
100
AcDbEntity
  8
0
100
AcDbLine
 10
109.677
 20
4.3885
 30
0.0
 11
110.173
 21
4.2725
 31
0.0
  0
LINE
  5
1731
330
1D
100
AcDbEntity
  8
0
100
AcDbLine
 10
105.198
 20
4.1835
 30
0.0
 11
105.463
 21
4.162773743017
 31
0.0
  0
LINE
  5
1732
330
1D
100
AcDbEntity
  8
0
100
AcDbLine
 10
109.463
 20
4.144176214197
 30
0.0
 11
109.676
 21
4.1585
 31
0.0
  0
LINE
  5
1733
330
1D
100
AcDbEntity
  8
0
100
AcDbLine
 10
87.6978
 20
4.8645
 30
0.0
 11
88.6649
 21
4.7125
 31
0.0
  0
LINE
  5
1734
330
1D
100
AcDbEntity
  8
0
100
AcDbLine
 10
52.9319
 20
5.380307320907
 30
0.0
 11
52.9319
 21
3.9675
 31
0.0
  0
LINE
  5
1735
330
1D
100
AcDbEntity
  8
0
100
AcDbLine
 10
52.8826
 20
5.3885
 30
0.0
 11
53.7732
 21
5.2405
 31
0.0
  0
LINE
  5
1736
330
1D
100
AcDbEntity
  8
0
100
AcDbLine
 10
37.9979
 20
5.924738549832
 30
0.0
 11
38.0616
 21
5.921332418813
 31
0.0
  0
LINE
  5
1737
330
1D
100
AcDbEntity
  8
0
100
AcDbLine
 10
37.9979
 20
5.92313625
 30
0.0
 11
38.0616
 21
5.919589318182
 31
0.0
  0
LINE
  5
1738
330
1D
100
AcDbEntity
  8
0
100
AcDbLine
 10
37.9979
 20
6.008659212598
 30
0.0
 11
37.9979
 21
4.9675
 31
0.0
  0
LINE
  5
1739
330
1D
100
AcDbEntity
  8
0
100
AcDbLine
 10
37.811
 20
6.0325
 30
0.0
 11
38.0616
 21
6.000533700787
 31
0.0
  0
LINE
  5
173A
330
1D
100
AcDbEntity
  8
0
100
AcDbLine
 10
32.7838
 20
6.136406658446
 30
0.0
 11
32.7838
 21
4.4675
 31
0.0
  0
LINE
  5
173B
330
1D
100
AcDbEntity
  8
0
100
AcDbLine
 10
32.7838
 20
6.166756986301
 30
0.0
 11
32.7838
 21
4.4675
 31
0.0
  0
LINE
  5
173C
330
1D
100
AcDbEntity
  8
0
100
AcDbLine
 10
36.775
 20
6.1355
 30
0.0
 11
37.811
 21
6.0325
 31
0.0
  0
LINE
  5
173D
330
1D
100
AcDbEntity
  8
0
100
AcDbLine
 10
32.636
 20
6.1785
 30
0.0
 11
33.731
 21
6.0915
 31
0.0
  0
LINE
  5
173E
330
1D
100
AcDbEntity
  8
0
100
AcDbLine
 10
33.731
 20
6.0915
 30
0.0
 11
33.9979
 21
6.069086979969
 31
0.0
  0
LINE
  5
173F
330
1D
100
AcDbEntity
  8
0
100
AcDbLine
 10
35.169
 20
6.2695
 30
0.0
 11
36.775
 21
6.1355
 31
0.0
  0
LINE
  5
1740
330
1D
100
AcDbEntity
  8
0
100
AcDbLine
 10
33.373
 20
6.3485
 30
0.0
 11
33.87
 21
6.3505
 31
0.0
  0
LINE
  5
1741
330
1D
100
AcDbEntity
  8
0
100
AcDbLine
 10
33.373
 20
6.3485
 30
0.0
 11
33.598
 21
6.3005
 31
0.0
  0
LINE
  5
1742
330
1D
100
AcDbEntity
  8
0
100
AcDbLine
 10
37.9979
 20
6.573166261615
 30
0.0
 11
37.9979
 21
6.80421073903
 31
0.0
  0
LINE
  5
1743
330
1D
100
AcDbEntity
  8
0
100
AcDbLine
 10
33.9979
 20
6.342524711316
 30
0.0
 11
33.9979
 21
4.9675
 31
0.0
  0
LINE
  5
1744
330
1D
100
AcDbEntity
  8
0
100
AcDbLine
 10
37.807
 20
6.5965
 30
0.0
 11
38.0616
 21
6.565380200143
 31
0.0
  0
LINE
  5
1745
330
1D
100
AcDbEntity
  8
0
100
AcDbLine
 10
33.87
 20
6.3505
 30
0.0
 11
35.169
 21
6.2695
 31
0.0
  0
LINE
  5
1746
330
1D
100
AcDbEntity
  8
0
100
AcDbLine
 10
33.598
 20
6.3005
 30
0.0
 11
33.9979
 21
6.252008188976
 31
0.0
  0
LINE
  5
1747
330
1D
100
AcDbEntity
  8
0
100
AcDbLine
 10
37.9979
 20
6.573182928571
 30
0.0
 11
38.0616
 21
6.565402428571
 31
0.0
  0
LINE
  5
1748
330
1D
100
AcDbEntity
  8
0
100
AcDbLine
 10
37.9979
 20
5.994942563291
 30
0.0
 11
38.0616
 21
5.982142088608
 31
0.0
  0
LINE
  5
1749
330
1D
100
AcDbEntity
  8
0
100
AcDbLine
 10
26.841
 20
6.9675
 30
0.0
 11
32.7838
 21
6.136406658446
 31
0.0
  0
LINE
  5
174A
330
1D
100
AcDbEntity
  8
0
100
AcDbLine
 10
18.6575
 20
6.9675
 30
0.0
 11
19.2575
 21
6.9675
 31
0.0
  0
LINE
  5
174B
330
1D
100
AcDbEntity
  8
0
100
AcDbLine
 10
19.2575
 20
6.9675
 30
0.0
 11
20.6575
 21
6.9675
 31
0.0
  0
LINE
  5
174C
330
1D
100
AcDbEntity
  8
0
100
AcDbLine
 10
19.6191
 20
6.9675
 30
0.0
 11
20.2191
 21
6.9675
 31
0.0
  0
LINE
  5
174D
330
1D
100
AcDbEntity
  8
0
100
AcDbLine
 10
20.6575
 20
6.9675
 30
0.0
 11
22.0575
 21
6.9675
 31
0.0
  0
LINE
  5
174E
330
1D
100
AcDbEntity
  8
0
100
AcDbLine
 10
19.4509
 20
6.9675
 30
0.0
 11
20.0509
 21
6.9675
 31
0.0
  0
LINE
  5
174F
330
1D
100
AcDbEntity
  8
0
100
AcDbLine
 10
19.6191
 20
6.9675
 30
0.0
 11
20.2191
 21
6.9675
 31
0.0
  0
LINE
  5
1750
330
1D
100
AcDbEntity
  8
0
100
AcDbLine
 10
22.0575
 20
6.9675
 30
0.0
 11
22.6575
 21
6.9675
 31
0.0
  0
LINE
  5
1751
330
1D
100
AcDbEntity
  8
0
100
AcDbLine
 10
22.6575
 20
6.9675
 30
0.0
 11
22.6575
 21
8.194717413973
 31
0.0
  0
LINE
  5
1752
330
1D
100
AcDbEntity
  8
0
100
AcDbLine
 10
22.0575
 20
6.9675
 30
0.0
 11
22.6575
 21
6.9675
 31
0.0
  0
LINE
  5
1753
330
1D
100
AcDbEntity
  8
0
100
AcDbLine
 10
20.6575
 20
6.9675
 30
0.0
 11
22.0575
 21
6.9675
 31
0.0
  0
LINE
  5
1754
330
1D
100
AcDbEntity
  8
0
100
AcDbLine
 10
19.2575
 20
6.9675
 30
0.0
 11
20.6575
 21
6.9675
 31
0.0
  0
LINE
  5
1755
330
1D
100
AcDbEntity
  8
0
100
AcDbLine
 10
18.6575
 20
6.9675
 30
0.0
 11
19.2575
 21
6.9675
 31
0.0
  0
LINE
  5
1756
330
1D
100
AcDbEntity
  8
0
100
AcDbLine
 10
18.6575
 20
6.9675
 30
0.0
 11
18.6575
 21
8.737469879518
 31
0.0
  0
LINE
  5
1757
330
1D
100
AcDbEntity
  8
0
100
AcDbLine
 10
22.6575
 20
7.791259342594
 30
0.0
 11
25.8706
 21
7.25940988065
 31
0.0
  0
LINE
  5
1758
330
1D
100
AcDbEntity
  8
0
100
AcDbLine
 10
26.4706
 20
6.9675
 30
0.0
 11
26.7513671875
 21
6.9675
 31
0.0
  0
LINE
  5
1759
330
1D
100
AcDbEntity
  8
0
100
AcDbLine
 10
25.8706
 20
6.9675
 30
0.0
 11
26.4706
 21
6.9675
 31
0.0
  0
LINE
  5
175A
330
1D
100
AcDbEntity
  8
0
100
AcDbLine
 10
25.8706
 20
6.9675
 30
0.0
 11
25.8706
 21
7.25940988065
 31
0.0
  0
LINE
  5
175B
330
1D
100
AcDbEntity
  8
0
100
AcDbLine
 10
26.4706
 20
6.9675
 30
0.0
 11
27.8706
 21
6.9675
 31
0.0
  0
LINE
  5
175C
330
1D
100
AcDbEntity
  8
0
100
AcDbLine
 10
25.8706
 20
7.25940988065
 30
0.0
 11
25.8706
 21
6.9675
 31
0.0
  0
LINE
  5
175D
330
1D
100
AcDbEntity
  8
0
100
AcDbLine
 10
25.8706
 20
6.9675
 30
0.0
 11
26.4706
 21
6.9675
 31
0.0
  0
LINE
  5
175E
330
1D
100
AcDbEntity
  8
0
100
AcDbLine
 10
25.8706
 20
6.9675
 30
0.0
 11
25.8706
 21
8.666053369272
 31
0.0
  0
LINE
  5
175F
330
1D
100
AcDbEntity
  8
0
100
AcDbLine
 10
29.8706
 20
6.9675
 30
0.0
 11
29.8706
 21
8.227497668998
 31
0.0
  0
LINE
  5
1760
330
1D
100
AcDbEntity
  8
0
100
AcDbLine
 10
29.2706
 20
6.9675
 30
0.0
 11
29.8706
 21
6.9675
 31
0.0
  0
LINE
  5
1761
330
1D
100
AcDbEntity
  8
0
100
AcDbLine
 10
27.8706
 20
6.9675
 30
0.0
 11
29.2706
 21
6.9675
 31
0.0
  0
LINE
  5
1762
330
1D
100
AcDbEntity
  8
0
100
AcDbLine
 10
37.9979
 20
6.80421073903
 30
0.0
 11
37.9979
 21
6.573166261615
 31
0.0
  0
LINE
  5
1763
330
1D
100
AcDbEntity
  8
0
100
AcDbLine
 10
37.808
 20
6.8075
 30
0.0
 11
38.674
 21
6.7925
 31
0.0
  0
LINE
  5
1764
330
1D
100
AcDbEntity
  8
0
100
AcDbLine
 10
37.9979
 20
6.80421073903
 30
0.0
 11
38.0616
 21
6.8031073903
 31
0.0
  0
LINE
  5
1765
330
1D
100
AcDbEntity
  8
0
100
AcDbLine
 10
30.396
 20
7.8895
 30
0.0
 11
30.873
 21
7.9565
 31
0.0
  0
LINE
  5
1766
330
1D
100
AcDbEntity
  8
0
100
AcDbLine
 10
23.089
 20
8.0165
 30
0.0
 11
23.473
 21
8.0135
 31
0.0
  0
LINE
  5
1767
330
1D
100
AcDbEntity
  8
0
100
AcDbLine
 10
29.8706
 20
7.908153254438
 30
0.0
 11
30.396
 21
7.8895
 31
0.0
  0
LINE
  5
1768
330
1D
100
AcDbEntity
  8
0
100
AcDbLine
 10
37.273
 20
6.7415
 30
0.0
 11
37.807
 21
6.5965
 31
0.0
  0
LINE
  5
1769
330
1D
100
AcDbEntity
  8
0
100
AcDbLine
 10
37.273
 20
6.7415
 30
0.0
 11
37.808
 21
6.8075
 31
0.0
  0
LINE
  5
176A
330
1D
100
AcDbEntity
  8
0
100
AcDbLine
 10
38.0616
 20
5.670983081496
 30
0.0
 11
38.0616
 21
4.9675
 31
0.0
  0
LINE
  5
176B
330
1D
100
AcDbEntity
  8
0
100
AcDbLine
 10
38.0616
 20
5.921332418813
 30
0.0
 11
38.0616
 21
5.982142088608
 31
0.0
  0
LINE
  5
176C
330
1D
100
AcDbEntity
  8
0
100
AcDbLine
 10
38.0616
 20
5.982142088608
 30
0.0
 11
38.0616
 21
5.921332418813
 31
0.0
  0
LINE
  5
176D
330
1D
100
AcDbEntity
  8
0
100
AcDbLine
 10
42.0616
 20
6.25094359352
 30
0.0
 11
42.59
 21
6.2525
 31
0.0
  0
LINE
  5
176E
330
1D
100
AcDbEntity
  8
0
100
AcDbLine
 10
48.6426
 20
5.4675
 30
0.0
 11
50.0426
 21
5.4675
 31
0.0
  0
LINE
  5
176F
330
1D
100
AcDbEntity
  8
0
100
AcDbLine
 10
47.2426
 20
5.4675
 30
0.0
 11
48.6426
 21
5.4675
 31
0.0
  0
LINE
  5
1770
330
1D
100
AcDbEntity
  8
0
100
AcDbLine
 10
46.6426
 20
5.4675
 30
0.0
 11
47.2426
 21
5.4675
 31
0.0
  0
LINE
  5
1771
330
1D
100
AcDbEntity
  8
0
100
AcDbLine
 10
46.6426
 20
5.4675
 30
0.0
 11
46.6426
 21
7.567751881188
 31
0.0
  0
LINE
  5
1772
330
1D
100
AcDbEntity
  8
0
100
AcDbLine
 10
48.7179390625
 20
5.4675
 30
0.0
 11
48.9319
 21
5.447940651336
 31
0.0
  0
LINE
  5
1773
330
1D
100
AcDbEntity
  8
0
100
AcDbLine
 10
48.9319
 20
5.4675
 30
0.0
 11
48.9319
 21
3.9675
 31
0.0
  0
LINE
  5
1774
330
1D
100
AcDbEntity
  8
0
100
AcDbLine
 10
50.6426
 20
5.4675
 30
0.0
 11
50.6426
 21
7.356076560395
 31
0.0
  0
LINE
  5
1775
330
1D
100
AcDbEntity
  8
0
100
AcDbLine
 10
50.0426
 20
5.4675
 30
0.0
 11
50.6426
 21
5.4675
 31
0.0
  0
LINE
  5
1776
330
1D
100
AcDbEntity
  8
0
100
AcDbLine
 10
48.834851182796
 20
5.4675
 30
0.0
 11
48.9319
 21
5.457813033959
 31
0.0
  0
LINE
  5
1777
330
1D
100
AcDbEntity
  8
0
100
AcDbLine
 10
50.6426
 20
5.569932644846
 30
0.0
 11
50.9147
 21
5.5625
 31
0.0
  0
LINE
  5
1778
330
1D
100
AcDbEntity
  8
0
100
AcDbLine
 10
50.9147
 20
5.5625
 30
0.0
 11
52.8826
 21
5.3885
 31
0.0
  0
LINE
  5
1779
330
1D
100
AcDbEntity
  8
0
100
AcDbLine
 10
54.9733
 20
6.2045
 30
0.0
 11
55.1149
 21
6.2765
 31
0.0
  0
LINE
  5
177A
330
1D
100
AcDbEntity
  8
0
100
AcDbLine
 10
54.9733
 20
6.2045
 30
0.0
 11
55.4693
 21
6.0415
 31
0.0
  0
LINE
  5
177B
330
1D
100
AcDbEntity
  8
0
100
AcDbLine
 10
42.59
 20
6.2525
 30
0.0
 11
42.912
 21
6.3285
 31
0.0
  0
LINE
  5
177C
330
1D
100
AcDbEntity
  8
0
100
AcDbLine
 10
55.4693
 20
6.0415
 30
0.0
 11
55.5665
 21
6.030440109172
 31
0.0
  0
LINE
  5
177D
330
1D
100
AcDbEntity
  8
0
100
AcDbLine
 10
54.9733
 20
6.2045
 30
0.0
 11
55.1149
 21
6.2765
 31
0.0
  0
LINE
  5
177E
330
1D
100
AcDbEntity
  8
0
100
AcDbLine
 10
42.0616
 20
6.49312194617
 30
0.0
 11
42.0616
 21
4.9675
 31
0.0
  0
LINE
  5
177F
330
1D
100
AcDbEntity
  8
0
100
AcDbLine
 10
38.0616
 20
6.565402428571
 30
0.0
 11
38.0616
 21
6.8031073903
 31
0.0
  0
LINE
  5
1780
330
1D
100
AcDbEntity
  8
0
100
AcDbLine
 10
38.0616
 20
6.8031073903
 30
0.0
 11
38.0616
 21
6.565402428571
 31
0.0
  0
LINE
  5
1781
330
1D
100
AcDbEntity
  8
0
100
AcDbLine
 10
38.0616
 20
6.8031073903
 30
0.0
 11
38.0616
 21
4.9675
 31
0.0
  0
LINE
  5
1782
330
1D
100
AcDbEntity
  8
0
100
AcDbLine
 10
38.674
 20
6.7925
 30
0.0
 11
40.366
 21
6.6855
 31
0.0
  0
LINE
  5
1783
330
1D
100
AcDbEntity
  8
0
100
AcDbLine
 10
40.366
 20
6.6855
 30
0.0
 11
41.946
 21
6.5155
 31
0.0
  0
LINE
  5
1784
330
1D
100
AcDbEntity
  8
0
100
AcDbLine
 10
41.946
 20
6.5155
 30
0.0
 11
42.912
 21
6.3285
 31
0.0
  0
LINE
  5
1785
330
1D
100
AcDbEntity
  8
0
100
AcDbLine
 10
55.1149
 20
6.2765
 30
0.0
 11
55.525
 21
6.3285
 31
0.0
  0
LINE
  5
1786
330
1D
100
AcDbEntity
  8
0
100
AcDbLine
 10
55.525
 20
6.3285
 30
0.0
 11
56.8574
 21
6.3495
 31
0.0
  0
LINE
  5
1787
330
1D
100
AcDbEntity
  8
0
100
AcDbLine
 10
42.817337630722
 20
6.346824909995
 30
0.0
 11
42.861324008811
 21
6.316539207048
 31
0.0
  0
LINE
  5
1788
330
1D
100
AcDbEntity
  8
0
100
AcDbLine
 10
55.1149
 20
6.2765
 30
0.0
 11
55.525
 21
6.3285
 31
0.0
  0
LINE
  5
1789
330
1D
100
AcDbEntity
  8
0
100
AcDbLine
 10
55.5665
 20
6.030440109172
 30
0.0
 11
55.5665
 21
6.329154082858
 31
0.0
  0
LINE
  5
178A
330
1D
100
AcDbEntity
  8
0
100
AcDbLine
 10
55.5665
 20
6.329154082858
 30
0.0
 11
55.5665
 21
3.9675
 31
0.0
  0
LINE
  5
178B
330
1D
100
AcDbEntity
  8
0
100
AcDbLine
 10
55.5665
 20
6.329154082858
 30
0.0
 11
55.5665
 21
6.030440109172
 31
0.0
  0
LINE
  5
178C
330
1D
100
AcDbEntity
  8
0
100
AcDbLine
 10
56.8574
 20
6.3495
 30
0.0
 11
58.4629
 21
6.2645
 31
0.0
  0
LINE
  5
178D
330
1D
100
AcDbEntity
  8
0
100
AcDbLine
 10
59.5665
 20
6.125013468678
 30
0.0
 11
59.5665
 21
3.9675
 31
0.0
  0
LINE
  5
178E
330
1D
100
AcDbEntity
  8
0
100
AcDbLine
 10
59.599
 20
5.830411479945
 30
0.0
 11
59.599
 21
6.120905719251
 31
0.0
  0
LINE
  5
178F
330
1D
100
AcDbEntity
  8
0
100
AcDbLine
 10
59.599
 20
6.120905719251
 30
0.0
 11
59.599
 21
5.830411479945
 31
0.0
  0
LINE
  5
1790
330
1D
100
AcDbEntity
  8
0
100
AcDbLine
 10
59.7288
 20
6.1045
 30
0.0
 11
60.1729
 21
5.9455
 31
0.0
  0
LINE
  5
1791
330
1D
100
AcDbEntity
  8
0
100
AcDbLine
 10
59.6777
 20
5.8315
 30
0.0
 11
60.1729
 21
5.9455
 31
0.0
  0
LINE
  5
1792
330
1D
100
AcDbEntity
  8
0
100
AcDbLine
 10
59.5665
 20
5.829961964039
 30
0.0
 11
59.6777
 21
5.8315
 31
0.0
  0
LINE
  5
1793
330
1D
100
AcDbEntity
  8
0
100
AcDbLine
 10
64.5153
 20
6.8465
 30
0.0
 11
65.2664
 21
6.627903872241
 31
0.0
  0
LINE
  5
1794
330
1D
100
AcDbEntity
  8
0
100
AcDbLine
 10
58.4629
 20
6.2645
 30
0.0
 11
59.7288
 21
6.1045
 31
0.0
  0
LINE
  5
1795
330
1D
100
AcDbEntity
  8
0
100
AcDbLine
 10
50.6426
 20
6.963891737892
 30
0.0
 11
51.0991
 21
7.0035
 31
0.0
  0
LINE
  5
1796
330
1D
100
AcDbEntity
  8
0
100
AcDbLine
 10
51.0991
 20
7.0035
 30
0.0
 11
51.3227
 21
7.1145
 31
0.0
  0
LINE
  5
1797
330
1D
100
AcDbEntity
  8
0
100
AcDbLine
 10
64.47278802329
 20
6.915196168454
 30
0.0
 11
64.5153
 21
6.8465
 31
0.0
  0
LINE
  5
1798
330
1D
100
AcDbEntity
  8
0
100
AcDbLine
 10
64.468
 20
6.9125
 30
0.0
 11
64.777
 21
7.0865
 31
0.0
  0
LINE
  5
1799
330
1D
100
AcDbEntity
  8
0
100
AcDbLine
 10
64.468
 20
6.9125
 30
0.0
 11
64.5153
 21
6.8465
 31
0.0
  0
LINE
  5
179A
330
1D
100
AcDbEntity
  8
0
100
AcDbLine
 10
69.2664
 20
6.487931775867
 30
0.0
 11
69.5362
 21
6.4975
 31
0.0
  0
LINE
  5
179B
330
1D
100
AcDbEntity
  8
0
100
AcDbLine
 10
65.2664
 20
6.627903872241
 30
0.0
 11
65.2664
 21
7.141549010299
 31
0.0
  0
LINE
  5
179C
330
1D
100
AcDbEntity
  8
0
100
AcDbLine
 10
69.2664
 20
7.019567805603
 30
0.0
 11
69.2664
 21
4.9675
 31
0.0
  0
LINE
  5
179D
330
1D
100
AcDbEntity
  8
0
100
AcDbLine
 10
65.2664
 20
7.141549010299
 30
0.0
 11
65.2664
 21
4.9675
 31
0.0
  0
LINE
  5
179E
330
1D
100
AcDbEntity
  8
0
100
AcDbLine
 10
65.2664
 20
7.141549010299
 30
0.0
 11
65.2664
 21
6.627903872241
 31
0.0
  0
LINE
  5
179F
330
1D
100
AcDbEntity
  8
0
100
AcDbLine
 10
69.5362
 20
6.4975
 30
0.0
 11
70.0724
 21
6.7075
 31
0.0
  0
LINE
  5
17A0
330
1D
100
AcDbEntity
  8
0
100
AcDbLine
 10
64.777
 20
7.0865
 30
0.0
 11
66.1461
 21
7.2405
 31
0.0
  0
LINE
  5
17A1
330
1D
100
AcDbEntity
  8
0
100
AcDbLine
 10
46.123
 20
7.4385
 30
0.0
 11
46.196
 21
7.5085
 31
0.0
  0
LINE
  5
17A2
330
1D
100
AcDbEntity
  8
0
100
AcDbLine
 10
46.123
 20
7.4385
 30
0.0
 11
46.619
 21
7.2275
 31
0.0
  0
LINE
  5
17A3
330
1D
100
AcDbEntity
  8
0
100
AcDbLine
 10
50.6426
 20
7.356076560395
 30
0.0
 11
50.6426
 21
5.4675
 31
0.0
  0
LINE
  5
17A4
330
1D
100
AcDbEntity
  8
0
100
AcDbLine
 10
46.6426
 20
7.567751881188
 30
0.0
 11
46.6426
 21
5.4675
 31
0.0
  0
LINE
  5
17A5
330
1D
100
AcDbEntity
  8
0
100
AcDbLine
 10
50.2114
 20
7.4495
 30
0.0
 11
51.1022
 21
7.2565
 31
0.0
  0
LINE
  5
17A6
330
1D
100
AcDbEntity
  8
0
100
AcDbLine
 10
51.1022
 20
7.2565
 30
0.0
 11
51.3227
 21
7.1145
 31
0.0
  0
LINE
  5
17A7
330
1D
100
AcDbEntity
  8
0
100
AcDbLine
 10
46.196
 20
7.5085
 30
0.0
 11
47.206
 21
7.6425
 31
0.0
  0
LINE
  5
17A8
330
1D
100
AcDbEntity
  8
0
100
AcDbLine
 10
48.998
 20
7.5845
 30
0.0
 11
50.2114
 21
7.4495
 31
0.0
  0
LINE
  5
17A9
330
1D
100
AcDbEntity
  8
0
100
AcDbLine
 10
66.1461
 20
7.2405
 30
0.0
 11
67.6675
 21
7.2045
 31
0.0
  0
LINE
  5
17AA
330
1D
100
AcDbEntity
  8
0
100
AcDbLine
 10
67.6675
 20
7.2045
 30
0.0
 11
69.5523
 21
6.9865
 31
0.0
  0
LINE
  5
17AB
330
1D
100
AcDbEntity
  8
0
100
AcDbLine
 10
74.5783
 20
5.842544575504
 30
0.0
 11
74.5783
 21
3.9675
 31
0.0
  0
LINE
  5
17AC
330
1D
100
AcDbEntity
  8
0
100
AcDbLine
 10
75.6713
 20
5.9175
 30
0.0
 11
76.7729
 21
5.9065
 31
0.0
  0
LINE
  5
17AD
330
1D
100
AcDbEntity
  8
0
100
AcDbLine
 10
74.2131
 20
5.8175
 30
0.0
 11
75.6713
 21
5.9175
 31
0.0
  0
LINE
  5
17AE
330
1D
100
AcDbEntity
  8
0
100
AcDbLine
 10
73.873
 20
5.6685
 30
0.0
 11
74.4079
 21
5.4715
 31
0.0
  0
LINE
  5
17AF
330
1D
100
AcDbEntity
  8
0
100
AcDbLine
 10
73.873
 20
5.6685
 30
0.0
 11
74.2131
 21
5.8175
 31
0.0
  0
LINE
  5
17B0
330
1D
100
AcDbEntity
  8
0
100
AcDbLine
 10
78.5783
 20
5.751824808184
 30
0.0
 11
78.5783
 21
3.9675
 31
0.0
  0
LINE
  5
17B1
330
1D
100
AcDbEntity
  8
0
100
AcDbLine
 10
78.3983
 20
5.7885
 30
0.0
 11
79.5713
 21
5.5495
 31
0.0
  0
LINE
  5
17B2
330
1D
100
AcDbEntity
  8
0
100
AcDbLine
 10
76.7729
 20
5.9065
 30
0.0
 11
78.3983
 21
5.7885
 31
0.0
  0
LINE
  5
17B3
330
1D
100
AcDbEntity
  8
0
100
AcDbLine
 10
74.4079
 20
5.4715
 30
0.0
 11
74.5783
 21
5.45326369863
 31
0.0
  0
LINE
  5
17B4
330
1D
100
AcDbEntity
  8
0
100
AcDbLine
 10
69.5523
 20
6.9865
 30
0.0
 11
70.0724
 21
6.7075
 31
0.0
  0
LINE
  5
17B5
330
1D
100
AcDbEntity
  8
0
100
AcDbLine
 10
47.206
 20
7.6425
 30
0.0
 11
48.998
 21
7.5845
 31
0.0
  0
LINE
  5
17B6
330
1D
100
AcDbEntity
  8
0
100
AcDbLine
 10
37.9979
 20
5.675448550904
 30
0.0
 11
38.0616
 21
5.670983081496
 31
0.0
  0
LINE
  5
17B7
330
1D
100
AcDbEntity
  8
0
100
AcDbLine
 10
42.0616
 20
5.390576839237
 30
0.0
 11
45.201
 21
5.1705
 31
0.0
  0
LINE
  5
17B8
330
1D
100
AcDbEntity
  8
0
100
AcDbLine
 10
94.676546153846
 20
5.502730769231
 30
0.0
 11
94.7251
 21
5.4455
 31
0.0
  0
LINE
  5
17B9
330
1D
100
AcDbEntity
  8
0
100
AcDbLine
 10
94.8326
 20
5.412367170022
 30
0.0
 11
94.8326
 21
5.565366184448
 31
0.0
  0
LINE
  5
17BA
330
1D
100
AcDbEntity
  8
0
100
AcDbLine
 10
94.8326
 20
5.565366184448
 30
0.0
 11
94.8326
 21
5.412367170022
 31
0.0
  0
LINE
  5
17BB
330
1D
100
AcDbEntity
  8
0
100
AcDbLine
 10
94.7251
 20
5.4455
 30
0.0
 11
94.8326
 21
5.412622615039
 31
0.0
  0
LINE
  5
17BC
330
1D
100
AcDbEntity
  8
0
100
AcDbLine
 10
95.0815
 20
5.3365
 30
0.0
 11
95.2197
 21
5.317478742927
 31
0.0
  0
LINE
  5
17BD
330
1D
100
AcDbEntity
  8
0
100
AcDbLine
 10
94.7239
 20
5.4455
 30
0.0
 11
95.0815
 21
5.3365
 31
0.0
  0
LINE
  5
17BE
330
1D
100
AcDbEntity
  8
0
100
AcDbLine
 10
95.2197
 20
5.692542206897
 30
0.0
 11
95.2197
 21
3.9675
 31
0.0
  0
LINE
  5
17BF
330
1D
100
AcDbEntity
  8
0
100
AcDbLine
 10
99.2197
 20
5.630256045821
 30
0.0
 11
99.2197
 21
3.9675
 31
0.0
  0
LINE
  5
17C0
330
1D
100
AcDbEntity
  8
0
100
AcDbLine
 10
98.5849
 20
5.7225
 30
0.0
 11
99.5277
 21
5.5855
 31
0.0
  0
LINE
  5
17C1
330
1D
100
AcDbEntity
  8
0
100
AcDbLine
 10
95.8953
 20
5.7615
 30
0.0
 11
96.825
 21
5.7925
 31
0.0
  0
LINE
  5
17C2
330
1D
100
AcDbEntity
  8
0
100
AcDbLine
 10
111.205
 20
6.007227013542
 30
0.0
 11
111.205
 21
6.616396551724
 31
0.0
  0
LINE
  5
17C3
330
1D
100
AcDbEntity
  8
0
100
AcDbLine
 10
115.583
 20
6.0315
 30
0.0
 11
115.973
 21
6.2505
 31
0.0
  0
LINE
  5
17C4
330
1D
100
AcDbEntity
  8
0
100
AcDbLine
 10
115.205
 20
5.986246478873
 30
0.0
 11
115.583
 21
6.0315
 31
0.0
  0
LINE
  5
17C5
330
1D
100
AcDbEntity
  8
0
100
AcDbLine
 10
110.91
 20
6.0415
 30
0.0
 11
111.205
 21
6.007227013542
 31
0.0
  0
LINE
  5
17C6
330
1D
100
AcDbEntity
  8
0
100
AcDbLine
 10
96.825
 20
5.7925
 30
0.0
 11
97.7322
 21
5.7775
 31
0.0
  0
LINE
  5
17C7
330
1D
100
AcDbEntity
  8
0
100
AcDbLine
 10
97.7322
 20
5.7775
 30
0.0
 11
98.5849
 21
5.7225
 31
0.0
  0
LINE
  5
17C8
330
1D
100
AcDbEntity
  8
0
100
AcDbLine
 10
95.1703
 20
5.6875
 30
0.0
 11
95.8953
 21
5.7615
 31
0.0
  0
LINE
  5
17C9
330
1D
100
AcDbEntity
  8
0
100
AcDbLine
 10
99.5277
 20
5.5855
 30
0.0
 11
99.8592
 21
5.3985
 31
0.0
  0
LINE
  5
17CA
330
1D
100
AcDbEntity
  8
0
100
AcDbLine
 10
94.6726
 20
5.5075
 30
0.0
 11
94.7239
 21
5.4455
 31
0.0
  0
LINE
  5
17CB
330
1D
100
AcDbEntity
  8
0
100
AcDbLine
 10
94.6726
 20
5.5075
 30
0.0
 11
95.1703
 21
5.6875
 31
0.0
  0
LINE
  5
17CC
330
1D
100
AcDbEntity
  8
0
100
AcDbLine
 10
90.702
 20
6.7135
 30
0.0
 11
91.1734
 21
6.4645
 31
0.0
  0
LINE
  5
17CD
330
1D
100
AcDbEntity
  8
0
100
AcDbLine
 10
110.373
 20
6.3025
 30
0.0
 11
110.908
 21
6.5705
 31
0.0
  0
LINE
  5
17CE
330
1D
100
AcDbEntity
  8
0
100
AcDbLine
 10
110.373
 20
6.3025
 30
0.0
 11
110.91
 21
6.0415
 31
0.0
  0
LINE
  5
17CF
330
1D
100
AcDbEntity
  8
0
100
AcDbLine
 10
115.205
 20
6.548275806452
 30
0.0
 11
115.205
 21
4.9675
 31
0.0
  0
LINE
  5
17D0
330
1D
100
AcDbEntity
  8
0
100
AcDbLine
 10
111.205
 20
6.616396551724
 30
0.0
 11
111.205
 21
6.007227013542
 31
0.0
  0
LINE
  5
17D1
330
1D
100
AcDbEntity
  8
0
100
AcDbLine
 10
111.205
 20
6.616396551724
 30
0.0
 11
111.205
 21
4.9675
 31
0.0
  0
LINE
  5
17D2
330
1D
100
AcDbEntity
  8
0
100
AcDbLine
 10
115.647
 20
6.4695
 30
0.0
 11
115.973
 21
6.2505
 31
0.0
  0
LINE
  5
17D3
330
1D
100
AcDbEntity
  8
0
100
AcDbLine
 10
115.205
 20
6.548275806452
 30
0.0
 11
115.647
 21
6.4695
 31
0.0
  0
LINE
  5
17D4
330
1D
100
AcDbEntity
  8
0
100
AcDbLine
 10
114.407
 20
6.6905
 30
0.0
 11
115.647
 21
6.4695
 31
0.0
  0
LINE
  5
17D5
330
1D
100
AcDbEntity
  8
0
100
AcDbLine
 10
110.908
 20
6.5705
 30
0.0
 11
111.691
 21
6.6915
 31
0.0
  0
LINE
  5
17D6
330
1D
100
AcDbEntity
  8
0
100
AcDbLine
 10
112.694
 20
6.7505
 30
0.0
 11
114.407
 21
6.6905
 31
0.0
  0
LINE
  5
17D7
330
1D
100
AcDbEntity
  8
0
100
AcDbLine
 10
111.691
 20
6.6915
 30
0.0
 11
112.694
 21
6.7505
 31
0.0
  0
LINE
  5
17D8
330
1D
100
AcDbEntity
  8
0
100
AcDbLine
 10
91.0701
 20
6.3565
 30
0.0
 11
91.1734
 21
6.4645
 31
0.0
  0
LINE
  5
17D9
330
1D
100
AcDbEntity
  8
0
100
AcDbLine
 10
90.3734
 20
6.220483139212
 30
0.0
 11
91.0701
 21
6.3565
 31
0.0
  0
LINE
  5
17DA
330
1D
100
AcDbEntity
  8
0
100
AcDbLine
 10
85.9726
 20
6.5755
 30
0.0
 11
86.2563
 21
6.7565
 31
0.0
  0
LINE
  5
17DB
330
1D
100
AcDbEntity
  8
0
100
AcDbLine
 10
85.9726
 20
6.5755
 30
0.0
 11
86.3734
 21
6.382265769385
 31
0.0
  0
LINE
  5
17DC
330
1D
100
AcDbEntity
  8
0
100
AcDbLine
 10
86.3734
 20
6.776641140761
 30
0.0
 11
86.3734
 21
4.9675
 31
0.0
  0
LINE
  5
17DD
330
1D
100
AcDbEntity
  8
0
100
AcDbLine
 10
87.047
 20
6.8925
 30
0.0
 11
87.9222
 21
6.9445
 31
0.0
  0
LINE
  5
17DE
330
1D
100
AcDbEntity
  8
0
100
AcDbLine
 10
87.9222
 20
6.9445
 30
0.0
 11
89.4013
 21
6.8935
 31
0.0
  0
LINE
  5
17DF
330
1D
100
AcDbEntity
  8
0
100
AcDbLine
 10
90.3734
 20
6.758973975552
 30
0.0
 11
90.3734
 21
4.9675
 31
0.0
  0
LINE
  5
17E0
330
1D
100
AcDbEntity
  8
0
100
AcDbLine
 10
89.4013
 20
6.8935
 30
0.0
 11
90.702
 21
6.7135
 31
0.0
  0
LINE
  5
17E1
330
1D
100
AcDbEntity
  8
0
100
AcDbLine
 10
86.2563
 20
6.7565
 30
0.0
 11
87.047
 21
6.8925
 31
0.0
  0
LINE
  5
17E2
330
1D
100
AcDbEntity
  8
0
100
AcDbLine
 10
79.0832
 20
5.3595
 30
0.0
 11
79.5713
 21
5.5495
 31
0.0
  0
LINE
  5
17E3
330
1D
100
AcDbEntity
  8
0
100
AcDbLine
 10
78.5783
 20
5.319345105094
 30
0.0
 11
79.0832
 21
5.3595
 31
0.0
  0
LINE
  5
17E4
330
1D
100
AcDbEntity
  8
0
100
AcDbLine
 10
115.856
 20
0.9675
 30
0.0
 11
117.256
 21
0.9675
 31
0.0
  0
LINE
  5
17E5
330
1D
100
AcDbEntity
  8
0
100
AcDbLine
 10
115.856
 20
0.9675
 30
0.0
 11
117.256
 21
0.9675
 31
0.0
  0
LINE
  5
17E6
330
1D
100
AcDbEntity
  8
0
100
AcDbLine
 10
115.856
 20
0.9675
 30
0.0
 11
117.256
 21
0.9675
 31
0.0
  0
LINE
  5
17E7
330
1D
100
AcDbEntity
  8
0
100
AcDbLine
 10
117.256
 20
0.9675
 30
0.0
 11
118.656
 21
0.9675
 31
0.0
  0
LINE
  5
17E8
330
1D
100
AcDbEntity
  8
0
100
AcDbLine
 10
117.256
 20
0.9675
 30
0.0
 11
118.656
 21
0.9675
 31
0.0
  0
LINE
  5
17E9
330
1D
100
AcDbEntity
  8
0
100
AcDbLine
 10
118.656
 20
0.9675
 30
0.0
 11
119.256
 21
0.9675
 31
0.0
  0
LINE
  5
17EA
330
1D
100
AcDbEntity
  8
0
100
AcDbLine
 10
118.656
 20
0.9675
 30
0.0
 11
119.256
 21
0.9675
 31
0.0
  0
LINE
  5
17EB
330
1D
100
AcDbEntity
  8
0
100
AcDbLine
 10
117.256
 20
0.9675
 30
0.0
 11
118.656
 21
0.9675
 31
0.0
  0
LINE
  5
17EC
330
1D
100
AcDbEntity
  8
0
100
AcDbLine
 10
118.656
 20
0.9675
 30
0.0
 11
119.256
 21
0.9675
 31
0.0
  0
LINE
  5
17ED
330
1D
100
AcDbEntity
  8
0
100
AcDbLine
 10
119.256
 20
0.9675
 30
0.0
 11
119.256
 21
1.9675
 31
0.0
  0
LINE
  5
17EE
330
1D
100
AcDbEntity
  8
0
100
AcDbLine
 10
118.656
 20
0.9675
 30
0.0
 11
119.256
 21
0.9675
 31
0.0
  0
LINE
  5
17EF
330
1D
100
AcDbEntity
  8
0
100
AcDbLine
 10
117.256
 20
0.9675
 30
0.0
 11
118.656
 21
0.9675
 31
0.0
  0
LINE
  5
17F0
330
1D
100
AcDbEntity
  8
0
100
AcDbLine
 10
115.856
 20
0.9675
 30
0.0
 11
117.256
 21
0.9675
 31
0.0
  0
LINE
  5
17F1
330
1D
100
AcDbEntity
  8
0
100
AcDbLine
 10
120.73
 20
1.9675
 30
0.0
 11
120.73
 21
3.90485150079
 31
0.0
  0
LINE
  5
17F2
330
1D
100
AcDbEntity
  8
0
100
AcDbLine
 10
120.13
 20
1.9675
 30
0.0
 11
120.73
 21
1.9675
 31
0.0
  0
LINE
  5
17F3
330
1D
100
AcDbEntity
  8
0
100
AcDbLine
 10
118.73
 20
1.9675
 30
0.0
 11
120.13
 21
1.9675
 31
0.0
  0
LINE
  5
17F4
330
1D
100
AcDbEntity
  8
0
100
AcDbLine
 10
119.256
 20
1.9675
 30
0.0
 11
119.256
 21
0.9675
 31
0.0
  0
LINE
  5
17F5
330
1D
100
AcDbEntity
  8
0
100
AcDbLine
 10
117.33
 20
1.9675
 30
0.0
 11
118.73
 21
1.9675
 31
0.0
  0
LINE
  5
17F6
330
1D
100
AcDbEntity
  8
0
100
AcDbLine
 10
116.73
 20
1.9675
 30
0.0
 11
117.33
 21
1.9675
 31
0.0
  0
LINE
  5
17F7
330
1D
100
AcDbEntity
  8
0
100
AcDbLine
 10
116.73
 20
1.9675
 30
0.0
 11
116.73
 21
3.862141851107
 31
0.0
  0
LINE
  5
17F8
330
1D
100
AcDbEntity
  8
0
100
AcDbLine
 10
119.256
 20
1.965468721372
 30
0.0
 11
127.05
 21
1.923647755529
 31
0.0
  0
LINE
  5
17F9
330
1D
100
AcDbEntity
  8
0
100
AcDbLine
 10
120.73
 20
2.16433180778
 30
0.0
 11
123.427
 21
2.0625
 31
0.0
  0
LINE
  5
17FA
330
1D
100
AcDbEntity
  8
0
100
AcDbLine
 10
116.73
 20
3.862141851107
 30
0.0
 11
116.73
 21
1.9675
 31
0.0
  0
LINE
  5
17FB
330
1D
100
AcDbEntity
  8
0
100
AcDbLine
 10
116.273
 20
3.7895
 30
0.0
 11
116.77
 21
3.8685
 31
0.0
  0
LINE
  5
17FC
330
1D
100
AcDbEntity
  8
0
100
AcDbLine
 10
116.273
 20
3.7895
 30
0.0
 11
116.73
 21
3.703065392354
 31
0.0
  0
LINE
  5
17FD
330
1D
100
AcDbEntity
  8
0
100
AcDbLine
 10
120.73
 20
3.684694805195
 30
0.0
 11
121.373
 21
3.7515
 31
0.0
  0
LINE
  5
17FE
330
1D
100
AcDbEntity
  8
0
100
AcDbLine
 10
120.73
 20
3.90485150079
 30
0.0
 11
120.73
 21
1.9675
 31
0.0
  0
LINE
  5
17FF
330
1D
100
AcDbEntity
  8
0
100
AcDbLine
 10
120.73
 20
3.90485150079
 30
0.0
 11
121.029
 21
3.8895
 31
0.0
  0
LINE
  5
1800
330
1D
100
AcDbEntity
  8
0
100
AcDbLine
 10
121.373
 20
3.7515
 30
0.0
 11
121.465329411765
 21
3.793048235294
 31
0.0
  0
LINE
  5
1801
330
1D
100
AcDbEntity
  8
0
100
AcDbLine
 10
121.029
 20
3.8895
 30
0.0
 11
123.404
 21
3.3645
 31
0.0
  0
LINE
  5
1802
330
1D
100
AcDbEntity
  8
0
100
AcDbLine
 10
121.373
 20
3.7505
 30
0.0
 11
121.465442040185
 21
3.793023338485
 31
0.0
  0
LINE
  5
1803
330
1D
100
AcDbEntity
  8
0
100
AcDbLine
 10
120.73
 20
3.684622655123
 30
0.0
 11
121.373
 21
3.7505
 31
0.0
  0
LINE
  5
1804
330
1D
100
AcDbEntity
  8
0
100
AcDbLine
 10
119.763
 20
3.9545
 30
0.0
 11
121.029
 21
3.8895
 31
0.0
  0
LINE
  5
1805
330
1D
100
AcDbEntity
  8
0
100
AcDbLine
 10
117.959
 20
3.9485
 30
0.0
 11
119.763
 21
3.9545
 31
0.0
  0
LINE
  5
1806
330
1D
100
AcDbEntity
  8
0
100
AcDbLine
 10
116.77
 20
3.8685
 30
0.0
 11
117.959
 21
3.9485
 31
0.0
  0
LINE
  5
1807
330
1D
100
AcDbEntity
  8
0
100
AcDbLine
 10
120.73
 20
2.164812600074
 30
0.0
 11
123.427
 21
2.0625
 31
0.0
  0
LINE
  5
1808
330
1D
100
AcDbEntity
  8
0
100
AcDbLine
 10
127.65
 20
0.9675
 30
0.0
 11
129.05
 21
0.9675
 31
0.0
  0
LINE
  5
1809
330
1D
100
AcDbEntity
  8
0
100
AcDbLine
 10
127.65
 20
0.9675
 30
0.0
 11
129.05
 21
0.9675
 31
0.0
  0
LINE
  5
180A
330
1D
100
AcDbEntity
  8
0
100
AcDbLine
 10
127.05
 20
0.9675
 30
0.0
 11
127.65
 21
0.9675
 31
0.0
  0
LINE
  5
180B
330
1D
100
AcDbEntity
  8
0
100
AcDbLine
 10
127.05
 20
0.9675
 30
0.0
 11
127.65
 21
0.9675
 31
0.0
  0
LINE
  5
180C
330
1D
100
AcDbEntity
  8
0
100
AcDbLine
 10
127.05
 20
0.9675
 30
0.0
 11
127.05
 21
1.923647755529
 31
0.0
  0
LINE
  5
180D
330
1D
100
AcDbEntity
  8
0
100
AcDbLine
 10
130.45
 20
0.9675
 30
0.0
 11
131.05
 21
0.9675
 31
0.0
  0
LINE
  5
180E
330
1D
100
AcDbEntity
  8
0
100
AcDbLine
 10
129.05
 20
0.9675
 30
0.0
 11
130.45
 21
0.9675
 31
0.0
  0
LINE
  5
180F
330
1D
100
AcDbEntity
  8
0
100
AcDbLine
 10
130.45
 20
0.9675
 30
0.0
 11
131.05
 21
0.9675
 31
0.0
  0
LINE
  5
1810
330
1D
100
AcDbEntity
  8
0
100
AcDbLine
 10
129.05
 20
0.9675
 30
0.0
 11
130.45
 21
0.9675
 31
0.0
  0
LINE
  5
1811
330
1D
100
AcDbEntity
  8
0
100
AcDbLine
 10
127.65
 20
0.9675
 30
0.0
 11
129.05
 21
0.9675
 31
0.0
  0
LINE
  5
1812
330
1D
100
AcDbEntity
  8
0
100
AcDbLine
 10
129.05
 20
0.9675
 30
0.0
 11
130.45
 21
0.9675
 31
0.0
  0
LINE
  5
1813
330
1D
100
AcDbEntity
  8
0
100
AcDbLine
 10
131.05
 20
0.9675
 30
0.0
 11
131.05
 21
2.898220207254
 31
0.0
  0
LINE
  5
1814
330
1D
100
AcDbEntity
  8
0
100
AcDbLine
 10
130.45
 20
0.9675
 30
0.0
 11
131.05
 21
0.9675
 31
0.0
  0
LINE
  5
1815
330
1D
100
AcDbEntity
  8
0
100
AcDbLine
 10
127.05
 20
1.923647755529
 30
0.0
 11
127.05
 21
0.9675
 31
0.0
  0
LINE
  5
1816
330
1D
100
AcDbEntity
  8
0
100
AcDbLine
 10
130.45
 20
0.9675
 30
0.0
 11
131.05
 21
0.9675
 31
0.0
  0
LINE
  5
1817
330
1D
100
AcDbEntity
  8
0
100
AcDbLine
 10
129.05
 20
0.9675
 30
0.0
 11
130.45
 21
0.9675
 31
0.0
  0
LINE
  5
1818
330
1D
100
AcDbEntity
  8
0
100
AcDbLine
 10
127.65
 20
0.9675
 30
0.0
 11
129.05
 21
0.9675
 31
0.0
  0
LINE
  5
1819
330
1D
100
AcDbEntity
  8
0
100
AcDbLine
 10
127.05
 20
0.9675
 30
0.0
 11
127.65
 21
0.9675
 31
0.0
  0
LINE
  5
181A
330
1D
100
AcDbEntity
  8
0
100
AcDbLine
 10
127.05
 20
0.9675
 30
0.0
 11
127.65
 21
0.9675
 31
0.0
  0
LINE
  5
181B
330
1D
100
AcDbEntity
  8
0
100
AcDbLine
 10
127.05
 20
0.9675
 30
0.0
 11
127.05
 21
2.8936663286
 31
0.0
  0
LINE
  5
181C
330
1D
100
AcDbEntity
  8
0
100
AcDbLine
 10
131.05
 20
2.01132916053
 30
0.0
 11
133.018
 21
2.0635
 31
0.0
  0
LINE
  5
181D
330
1D
100
AcDbEntity
  8
0
100
AcDbLine
 10
126.573
 20
2.8165
 30
0.0
 11
126.728
 21
2.8695
 31
0.0
  0
LINE
  5
181E
330
1D
100
AcDbEntity
  8
0
100
AcDbLine
 10
127.05
 20
2.738990316004
 30
0.0
 11
127.05
 21
2.8936663286
 31
0.0
  0
LINE
  5
181F
330
1D
100
AcDbEntity
  8
0
100
AcDbLine
 10
126.725
 20
2.7645
 30
0.0
 11
127.05
 21
2.738990316004
 31
0.0
  0
LINE
  5
1820
330
1D
100
AcDbEntity
  8
0
100
AcDbLine
 10
124.175
 20
2.9675
 30
0.0
 11
125.575
 21
2.9675
 31
0.0
  0
LINE
  5
1821
330
1D
100
AcDbEntity
  8
0
100
AcDbLine
 10
125.575
 20
2.9675
 30
0.0
 11
126.975
 21
2.9675
 31
0.0
  0
LINE
  5
1822
330
1D
100
AcDbEntity
  8
0
100
AcDbLine
 10
125.575
 20
2.9675
 30
0.0
 11
126.975
 21
2.9675
 31
0.0
  0
LINE
  5
1823
330
1D
100
AcDbEntity
  8
0
100
AcDbLine
 10
124.175
 20
2.9675
 30
0.0
 11
125.575
 21
2.9675
 31
0.0
  0
LINE
  5
1824
330
1D
100
AcDbEntity
  8
0
100
AcDbLine
 10
123.575
 20
2.9675
 30
0.0
 11
124.175
 21
2.9675
 31
0.0
  0
LINE
  5
1825
330
1D
100
AcDbEntity
  8
0
100
AcDbLine
 10
123.575
 20
2.9675
 30
0.0
 11
124.175
 21
2.9675
 31
0.0
  0
LINE
  5
1826
330
1D
100
AcDbEntity
  8
0
100
AcDbLine
 10
123.575
 20
2.9675
 30
0.0
 11
123.575
 21
4.947451397327
 31
0.0
  0
LINE
  5
1827
330
1D
100
AcDbEntity
  8
0
100
AcDbLine
 10
126.728
 20
2.8695
 30
0.0
 11
127.05
 21
2.8936663286
 31
0.0
  0
LINE
  5
1828
330
1D
100
AcDbEntity
  8
0
100
AcDbLine
 10
127.05
 20
2.8936663286
 30
0.0
 11
127.05
 21
2.738990316004
 31
0.0
  0
LINE
  5
1829
330
1D
100
AcDbEntity
  8
0
100
AcDbLine
 10
127.05
 20
2.8936663286
 30
0.0
 11
127.05
 21
0.9675
 31
0.0
  0
LINE
  5
182A
330
1D
100
AcDbEntity
  8
0
100
AcDbLine
 10
126.975
 20
2.9675
 30
0.0
 11
127.575
 21
2.9675
 31
0.0
  0
LINE
  5
182B
330
1D
100
AcDbEntity
  8
0
100
AcDbLine
 10
127.575
 20
2.9675
 30
0.0
 11
127.575
 21
4.96709430331
 31
0.0
  0
LINE
  5
182C
330
1D
100
AcDbEntity
  8
0
100
AcDbLine
 10
126.975
 20
2.9675
 30
0.0
 11
127.575
 21
2.9675
 31
0.0
  0
LINE
  5
182D
330
1D
100
AcDbEntity
  8
0
100
AcDbLine
 10
127.714
 20
2.9435
 30
0.0
 11
129.045
 21
2.9655
 31
0.0
  0
LINE
  5
182E
330
1D
100
AcDbEntity
  8
0
100
AcDbLine
 10
126.728
 20
2.8695
 30
0.0
 11
127.714
 21
2.9435
 31
0.0
  0
LINE
  5
182F
330
1D
100
AcDbEntity
  8
0
100
AcDbLine
 10
126.573
 20
2.8165
 30
0.0
 11
126.725
 21
2.7645
 31
0.0
  0
LINE
  5
1830
330
1D
100
AcDbEntity
  8
0
100
AcDbLine
 10
126.573
 20
2.8165
 30
0.0
 11
126.728
 21
2.8695
 31
0.0
  0
LINE
  5
1831
330
1D
100
AcDbEntity
  8
0
100
AcDbLine
 10
122.923
 20
4.7905
 30
0.0
 11
123.216
 21
4.871006542056
 31
0.0
  0
LINE
  5
1832
330
1D
100
AcDbEntity
  8
0
100
AcDbLine
 10
128.132
 20
4.9225
 30
0.0
 11
128.523
 21
4.7955
 31
0.0
  0
LINE
  5
1833
330
1D
100
AcDbEntity
  8
0
100
AcDbLine
 10
123.458
 20
4.6505
 30
0.0
 11
123.575
 21
4.643490014265
 31
0.0
  0
LINE
  5
1834
330
1D
100
AcDbEntity
  8
0
100
AcDbLine
 10
127.575
 20
4.628655279503
 30
0.0
 11
128.308
 21
4.7015
 31
0.0
  0
LINE
  5
1835
330
1D
100
AcDbEntity
  8
0
100
AcDbLine
 10
133.018
 20
2.0635
 30
0.0
 11
136.535
 21
2.1425
 31
0.0
  0
LINE
  5
1836
330
1D
100
AcDbEntity
  8
0
100
AcDbLine
 10
131.623
 20
2.7395
 30
0.0
 11
131.773
 21
2.7905
 31
0.0
  0
LINE
  5
1837
330
1D
100
AcDbEntity
  8
0
100
AcDbLine
 10
131.623
 20
2.7395
 30
0.0
 11
131.773
 21
2.7905
 31
0.0
  0
LINE
  5
1838
330
1D
100
AcDbEntity
  8
0
100
AcDbLine
 10
131.192
 20
2.6985
 30
0.0
 11
131.623
 21
2.7395
 31
0.0
  0
LINE
  5
1839
330
1D
100
AcDbEntity
  8
0
100
AcDbLine
 10
131.05
 20
2.693044132918
 30
0.0
 11
131.192
 21
2.6985
 31
0.0
  0
LINE
  5
183A
330
1D
100
AcDbEntity
  8
0
100
AcDbLine
 10
129.045
 20
2.9655
 30
0.0
 11
130.238
 21
2.9445
 31
0.0
  0
LINE
  5
183B
330
1D
100
AcDbEntity
  8
0
100
AcDbLine
 10
131.05
 20
2.898220207254
 30
0.0
 11
131.05
 21
0.9675
 31
0.0
  0
LINE
  5
183C
330
1D
100
AcDbEntity
  8
0
100
AcDbLine
 10
131.246769859568
 20
2.887005344791
 30
0.0
 11
131.469139784381
 21
2.861427583487
 31
0.0
  0
LINE
  5
183D
330
1D
100
AcDbEntity
  8
0
100
AcDbLine
 10
130.238
 20
2.9445
 30
0.0
 11
131.396
 21
2.8785
 31
0.0
  0
LINE
  5
183E
330
1D
100
AcDbEntity
  8
0
100
AcDbLine
 10
131.396
 20
2.8785
 30
0.0
 11
131.773
 21
2.7905
 31
0.0
  0
LINE
  5
183F
330
1D
100
AcDbEntity
  8
0
100
AcDbLine
 10
128.308
 20
4.7015
 30
0.0
 11
128.523
 21
4.7955
 31
0.0
  0
LINE
  5
1840
330
1D
100
AcDbEntity
  8
0
100
AcDbLine
 10
131.05
 20
2.01132916053
 30
0.0
 11
133.018
 21
2.0635
 31
0.0
  0
LINE
  5
1841
330
1D
100
AcDbEntity
  8
0
100
AcDbLine
 10
139.405
 20
1.63001
 30
0.0
 11
141.433
 21
1.63001
 31
0.0
  0
LINE
  5
1842
330
1D
100
AcDbEntity
  8
0
100
AcDbLine
 10
138.157
 20
1.63001
 30
0.0
 11
139.405
 21
1.63001
 31
0.0
  0
LINE
  5
1843
330
1D
100
AcDbEntity
  8
0
100
AcDbLine
 10
139.405
 20
1.63001
 30
0.0
 11
141.433
 21
1.63001
 31
0.0
  0
LINE
  5
1844
330
1D
100
AcDbEntity
  8
0
100
AcDbLine
 10
138.157
 20
1.63001
 30
0.0
 11
139.405
 21
1.63001
 31
0.0
  0
LINE
  5
1845
330
1D
100
AcDbEntity
  8
0
100
AcDbLine
 10
137.689
 20
1.63001
 30
0.0
 11
138.157
 21
1.63001
 31
0.0
  0
LINE
  5
1846
330
1D
100
AcDbEntity
  8
0
100
AcDbLine
 10
137.689
 20
1.63001
 30
0.0
 11
138.157
 21
1.63001
 31
0.0
  0
LINE
  5
1847
330
1D
100
AcDbEntity
  8
0
100
AcDbLine
 10
139.093
 20
1.93001
 30
0.0
 11
141.173
 21
1.93001
 31
0.0
  0
LINE
  5
1848
330
1D
100
AcDbEntity
  8
0
100
AcDbLine
 10
137.845
 20
1.93001
 30
0.0
 11
139.093
 21
1.93001
 31
0.0
  0
LINE
  5
1849
330
1D
100
AcDbEntity
  8
0
100
AcDbLine
 10
137.377
 20
1.93001
 30
0.0
 11
137.845
 21
1.93001
 31
0.0
  0
LINE
  5
184A
330
1D
100
AcDbEntity
  8
0
100
AcDbLine
 10
137.377
 20
1.93001
 30
0.0
 11
137.689
 21
1.63001
 31
0.0
  0
LINE
  5
184B
330
1D
100
AcDbEntity
  8
0
100
AcDbLine
 10
137.377
 20
1.93001
 30
0.0
 11
137.377
 21
2.157036822228
 31
0.0
  0
LINE
  5
184C
330
1D
100
AcDbEntity
  8
0
100
AcDbLine
 10
136.535
 20
2.1425
 30
0.0
 11
137.377
 21
2.157036822228
 31
0.0
  0
LINE
  5
184D
330
1D
100
AcDbEntity
  8
0
100
AcDbLine
 10
136.526
 20
2.9675
 30
0.0
 11
137.926
 21
2.9675
 31
0.0
  0
LINE
  5
184E
330
1D
100
AcDbEntity
  8
0
100
AcDbLine
 10
135.126
 20
2.9675
 30
0.0
 11
136.526
 21
2.9675
 31
0.0
  0
LINE
  5
184F
330
1D
100
AcDbEntity
  8
0
100
AcDbLine
 10
134.526
 20
2.9675
 30
0.0
 11
135.126
 21
2.9675
 31
0.0
  0
LINE
  5
1850
330
1D
100
AcDbEntity
  8
0
100
AcDbLine
 10
134.526
 20
2.9675
 30
0.0
 11
134.526
 21
4.359707224335
 31
0.0
  0
LINE
  5
1851
330
1D
100
AcDbEntity
  8
0
100
AcDbLine
 10
138.526
 20
2.9675
 30
0.0
 11
138.526
 21
4.351725501771
 31
0.0
  0
LINE
  5
1852
330
1D
100
AcDbEntity
  8
0
100
AcDbLine
 10
137.926
 20
2.9675
 30
0.0
 11
138.526
 21
2.9675
 31
0.0
  0
LINE
  5
1853
330
1D
100
AcDbEntity
  8
0
100
AcDbLine
 10
137.377
 20
2.157036822228
 30
0.0
 11
137.377
 21
1.93001
 31
0.0
  0
LINE
  5
1854
330
1D
100
AcDbEntity
  8
0
100
AcDbLine
 10
136.535
 20
2.1425
 30
0.0
 11
140.242
 21
2.2065
 31
0.0
  0
LINE
  5
1855
330
1D
100
AcDbEntity
  8
0
100
AcDbLine
 10
141.433
 20
1.63001
 30
0.0
 11
144.085
 21
1.63001
 31
0.0
  0
LINE
  5
1856
330
1D
100
AcDbEntity
  8
0
100
AcDbLine
 10
141.433
 20
1.63001
 30
0.0
 11
144.085
 21
1.63001
 31
0.0
  0
LINE
  5
1857
330
1D
100
AcDbEntity
  8
0
100
AcDbLine
 10
144.085
 20
1.63001
 30
0.0
 11
147.101
 21
1.63001
 31
0.0
  0
LINE
  5
1858
330
1D
100
AcDbEntity
  8
0
100
AcDbLine
 10
147.101
 20
1.63001
 30
0.0
 11
150.377
 21
1.63001
 31
0.0
  0
LINE
  5
1859
330
1D
100
AcDbEntity
  8
0
100
AcDbLine
 10
147.101
 20
1.63001
 30
0.0
 11
150.377
 21
1.63001
 31
0.0
  0
LINE
  5
185A
330
1D
100
AcDbEntity
  8
0
100
AcDbLine
 10
144.085
 20
1.63001
 30
0.0
 11
147.101
 21
1.63001
 31
0.0
  0
LINE
  5
185B
330
1D
100
AcDbEntity
  8
0
100
AcDbLine
 10
147.049
 20
1.93001
 30
0.0
 11
150.377
 21
1.93001
 31
0.0
  0
LINE
  5
185C
330
1D
100
AcDbEntity
  8
0
100
AcDbLine
 10
143.929
 20
1.93001
 30
0.0
 11
147.049
 21
1.93001
 31
0.0
  0
LINE
  5
185D
330
1D
100
AcDbEntity
  8
0
100
AcDbLine
 10
141.173
 20
1.93001
 30
0.0
 11
143.929
 21
1.93001
 31
0.0
  0
LINE
  5
185E
330
1D
100
AcDbEntity
  8
0
100
AcDbLine
 10
148.71
 20
1.9675
 30
0.0
 11
150.11
 21
1.9675
 31
0.0
  0
LINE
  5
185F
330
1D
100
AcDbEntity
  8
0
100
AcDbLine
 10
150.11
 20
1.9675
 30
0.0
 11
151.51
 21
1.9675
 31
0.0
  0
LINE
  5
1860
330
1D
100
AcDbEntity
  8
0
100
AcDbLine
 10
152.11
 20
1.9675
 30
0.0
 11
152.11
 21
3.130483903421
 31
0.0
  0
LINE
  5
1861
330
1D
100
AcDbEntity
  8
0
100
AcDbLine
 10
151.51
 20
1.9675
 30
0.0
 11
152.11
 21
1.9675
 31
0.0
  0
LINE
  5
1862
330
1D
100
AcDbEntity
  8
0
100
AcDbLine
 10
151.51
 20
1.9675
 30
0.0
 11
152.11
 21
1.9675
 31
0.0
  0
LINE
  5
1863
330
1D
100
AcDbEntity
  8
0
100
AcDbLine
 10
150.11
 20
1.9675
 30
0.0
 11
151.51
 21
1.9675
 31
0.0
  0
LINE
  5
1864
330
1D
100
AcDbEntity
  8
0
100
AcDbLine
 10
148.71
 20
1.9675
 30
0.0
 11
150.11
 21
1.9675
 31
0.0
  0
LINE
  5
1865
330
1D
100
AcDbEntity
  8
0
100
AcDbLine
 10
148.11
 20
1.9675
 30
0.0
 11
148.71
 21
1.9675
 31
0.0
  0
LINE
  5
1866
330
1D
100
AcDbEntity
  8
0
100
AcDbLine
 10
148.11
 20
1.9675
 30
0.0
 11
148.71
 21
1.9675
 31
0.0
  0
LINE
  5
1867
330
1D
100
AcDbEntity
  8
0
100
AcDbLine
 10
148.11
 20
1.9675
 30
0.0
 11
148.11
 21
2.9675
 31
0.0
  0
LINE
  5
1868
330
1D
100
AcDbEntity
  8
0
100
AcDbLine
 10
152.238
 20
2.8975
 30
0.0
 11
152.773
 21
3.0065
 31
0.0
  0
LINE
  5
1869
330
1D
100
AcDbEntity
  8
0
100
AcDbLine
 10
152.11
 20
2.89041750503
 30
0.0
 11
152.238
 21
2.8975
 31
0.0
  0
LINE
  5
186A
330
1D
100
AcDbEntity
  8
0
100
AcDbLine
 10
146.105
 20
2.2735
 30
0.0
 11
148.11
 21
2.274640933232
 31
0.0
  0
LINE
  5
186B
330
1D
100
AcDbEntity
  8
0
100
AcDbLine
 10
148.11
 20
2.9675
 30
0.0
 11
148.11
 21
1.9675
 31
0.0
  0
LINE
  5
186C
330
1D
100
AcDbEntity
  8
0
100
AcDbLine
 10
148.499
 20
2.9675
 30
0.0
 11
149.899
 21
2.9675
 31
0.0
  0
LINE
  5
186D
330
1D
100
AcDbEntity
  8
0
100
AcDbLine
 10
149.899
 20
2.9675
 30
0.0
 11
151.299
 21
2.9675
 31
0.0
  0
LINE
  5
186E
330
1D
100
AcDbEntity
  8
0
100
AcDbLine
 10
151.899
 20
2.9675
 30
0.0
 11
151.899
 21
5.124437590711
 31
0.0
  0
LINE
  5
186F
330
1D
100
AcDbEntity
  8
0
100
AcDbLine
 10
151.299
 20
2.9675
 30
0.0
 11
151.899
 21
2.9675
 31
0.0
  0
LINE
  5
1870
330
1D
100
AcDbEntity
  8
0
100
AcDbLine
 10
151.299
 20
2.9675
 30
0.0
 11
151.899
 21
2.9675
 31
0.0
  0
LINE
  5
1871
330
1D
100
AcDbEntity
  8
0
100
AcDbLine
 10
149.899
 20
2.9675
 30
0.0
 11
151.299
 21
2.9675
 31
0.0
  0
LINE
  5
1872
330
1D
100
AcDbEntity
  8
0
100
AcDbLine
 10
148.499
 20
2.9675
 30
0.0
 11
149.899
 21
2.9675
 31
0.0
  0
LINE
  5
1873
330
1D
100
AcDbEntity
  8
0
100
AcDbLine
 10
147.899
 20
2.9675
 30
0.0
 11
148.499
 21
2.9675
 31
0.0
  0
LINE
  5
1874
330
1D
100
AcDbEntity
  8
0
100
AcDbLine
 10
147.899
 20
2.9675
 30
0.0
 11
148.499
 21
2.9675
 31
0.0
  0
LINE
  5
1875
330
1D
100
AcDbEntity
  8
0
100
AcDbLine
 10
147.899
 20
2.9675
 30
0.0
 11
147.899
 21
5.108650943396
 31
0.0
  0
LINE
  5
1876
330
1D
100
AcDbEntity
  8
0
100
AcDbLine
 10
152.238
 20
3.1225
 30
0.0
 11
152.773
 21
3.0065
 31
0.0
  0
LINE
  5
1877
330
1D
100
AcDbEntity
  8
0
100
AcDbLine
 10
152.11
 20
3.130483903421
 30
0.0
 11
152.11
 21
1.9675
 31
0.0
  0
LINE
  5
1878
330
1D
100
AcDbEntity
  8
0
100
AcDbLine
 10
147.708
 20
3.1225
 30
0.0
 11
147.899
 21
3.129583443709
 31
0.0
  0
LINE
  5
1879
330
1D
100
AcDbEntity
  8
0
100
AcDbLine
 10
147.173
 20
3.0065
 30
0.0
 11
147.708
 21
3.1225
 31
0.0
  0
LINE
  5
187A
330
1D
100
AcDbEntity
  8
0
100
AcDbLine
 10
147.173
 20
3.0065
 30
0.0
 11
147.708
 21
2.8975
 31
0.0
  0
LINE
  5
187B
330
1D
100
AcDbEntity
  8
0
100
AcDbLine
 10
147.708
 20
2.8975
 30
0.0
 11
148.11
 21
2.875256539235
 31
0.0
  0
LINE
  5
187C
330
1D
100
AcDbEntity
  8
0
100
AcDbLine
 10
140.242
 20
2.2065
 30
0.0
 11
146.105
 21
2.2735
 31
0.0
  0
LINE
  5
187D
330
1D
100
AcDbEntity
  8
0
100
AcDbLine
 10
138.526
 20
4.083675438596
 30
0.0
 11
139.032
 21
4.1325
 31
0.0
  0
LINE
  5
187E
330
1D
100
AcDbEntity
  8
0
100
AcDbLine
 10
138.526
 20
4.351725501771
 30
0.0
 11
138.526
 21
2.9675
 31
0.0
  0
LINE
  5
187F
330
1D
100
AcDbEntity
  8
0
100
AcDbLine
 10
134.526
 20
4.359707224335
 30
0.0
 11
134.526
 21
2.9675
 31
0.0
  0
LINE
  5
1880
330
1D
100
AcDbEntity
  8
0
100
AcDbLine
 10
134.208
 20
4.3455
 30
0.0
 11
136.312
 21
4.4395
 31
0.0
  0
LINE
  5
1881
330
1D
100
AcDbEntity
  8
0
100
AcDbLine
 10
133.673
 20
4.2215
 30
0.0
 11
134.208
 21
4.1005
 31
0.0
  0
LINE
  5
1882
330
1D
100
AcDbEntity
  8
0
100
AcDbLine
 10
133.673
 20
4.2215
 30
0.0
 11
134.208
 21
4.3455
 31
0.0
  0
LINE
  5
1883
330
1D
100
AcDbEntity
  8
0
100
AcDbLine
 10
136.312
 20
4.4395
 30
0.0
 11
138.121
 21
4.3895
 31
0.0
  0
LINE
  5
1884
330
1D
100
AcDbEntity
  8
0
100
AcDbLine
 10
138.121
 20
4.3895
 30
0.0
 11
138.968
 21
4.3105
 31
0.0
  0
LINE
  5
1885
330
1D
100
AcDbEntity
  8
0
100
AcDbLine
 10
151.899
 20
4.806807692308
 30
0.0
 11
152.077
 21
4.8205
 31
0.0
  0
LINE
  5
1886
330
1D
100
AcDbEntity
  8
0
100
AcDbLine
 10
139.032
 20
4.1325
 30
0.0
 11
139.273
 21
4.2145
 31
0.0
  0
LINE
  5
1887
330
1D
100
AcDbEntity
  8
0
100
AcDbLine
 10
138.968
 20
4.3105
 30
0.0
 11
139.273
 21
4.2145
 31
0.0
  0
LINE
  5
1888
330
1D
100
AcDbEntity
  8
0
100
AcDbLine
 10
134.208
 20
4.1005
 30
0.0
 11
134.526
 21
4.081304828974
 31
0.0
  0
LINE
  5
1889
330
1D
100
AcDbEntity
  8
0
100
AcDbLine
 10
152.077
 20
4.8205
 30
0.0
 11
152.573
 21
4.9625
 31
0.0
  0
LINE
  5
188A
330
1D
100
AcDbEntity
  8
0
100
AcDbLine
 10
151.899
 20
3.143644869215
 30
0.0
 11
152.238
 21
3.1225
 31
0.0
  0
LINE
  5
188B
330
1D
100
AcDbEntity
  8
0
100
AcDbLine
 10
133.018
 20
2.0635
 30
0.0
 11
136.535
 21
2.1425
 31
0.0
  0
LINE
  5
188C
330
1D
100
AcDbEntity
  8
0
100
AcDbLine
 10
123.575
 20
4.947451397327
 30
0.0
 11
123.575
 21
2.9675
 31
0.0
  0
LINE
  5
188D
330
1D
100
AcDbEntity
  8
0
100
AcDbLine
 10
123.458
 20
4.9375
 30
0.0
 11
124.281
 21
5.0075
 31
0.0
  0
LINE
  5
188E
330
1D
100
AcDbEntity
  8
0
100
AcDbLine
 10
122.923
 20
4.7905
 30
0.0
 11
123.458
 21
4.9375
 31
0.0
  0
LINE
  5
188F
330
1D
100
AcDbEntity
  8
0
100
AcDbLine
 10
122.923
 20
4.7905
 30
0.0
 11
123.458
 21
4.6505
 31
0.0
  0
LINE
  5
1890
330
1D
100
AcDbEntity
  8
0
100
AcDbLine
 10
127.575
 20
4.96709430331
 30
0.0
 11
127.575
 21
2.9675
 31
0.0
  0
LINE
  5
1891
330
1D
100
AcDbEntity
  8
0
100
AcDbLine
 10
126.833
 20
5.0265
 30
0.0
 11
128.132
 21
4.9225
 31
0.0
  0
LINE
  5
1892
330
1D
100
AcDbEntity
  8
0
100
AcDbLine
 10
133.973
 20
6.5345
 30
0.0
 11
134.47
 21
6.8155
 31
0.0
  0
LINE
  5
1893
330
1D
100
AcDbEntity
  8
0
100
AcDbLine
 10
133.973
 20
6.5345
 30
0.0
 11
134.471
 21
6.2685
 31
0.0
  0
LINE
  5
1894
330
1D
100
AcDbEntity
  8
0
100
AcDbLine
 10
135.337
 20
4.9675
 30
0.0
 11
136.737
 21
4.9675
 31
0.0
  0
LINE
  5
1895
330
1D
100
AcDbEntity
  8
0
100
AcDbLine
 10
136.737
 20
4.9675
 30
0.0
 11
138.137
 21
4.9675
 31
0.0
  0
LINE
  5
1896
330
1D
100
AcDbEntity
  8
0
100
AcDbLine
 10
138.137
 20
4.9675
 30
0.0
 11
138.737
 21
4.9675
 31
0.0
  0
LINE
  5
1897
330
1D
100
AcDbEntity
  8
0
100
AcDbLine
 10
138.137
 20
4.9675
 30
0.0
 11
138.737
 21
4.9675
 31
0.0
  0
LINE
  5
1898
330
1D
100
AcDbEntity
  8
0
100
AcDbLine
 10
136.737
 20
4.9675
 30
0.0
 11
138.137
 21
4.9675
 31
0.0
  0
LINE
  5
1899
330
1D
100
AcDbEntity
  8
0
100
AcDbLine
 10
135.337
 20
4.9675
 30
0.0
 11
136.737
 21
4.9675
 31
0.0
  0
LINE
  5
189A
330
1D
100
AcDbEntity
  8
0
100
AcDbLine
 10
134.737
 20
4.9675
 30
0.0
 11
135.337
 21
4.9675
 31
0.0
  0
LINE
  5
189B
330
1D
100
AcDbEntity
  8
0
100
AcDbLine
 10
134.737
 20
4.9675
 30
0.0
 11
135.337
 21
4.9675
 31
0.0
  0
LINE
  5
189C
330
1D
100
AcDbEntity
  8
0
100
AcDbLine
 10
134.737
 20
4.9675
 30
0.0
 11
134.737
 21
6.852532183908
 31
0.0
  0
LINE
  5
189D
330
1D
100
AcDbEntity
  8
0
100
AcDbLine
 10
134.737
 20
6.852532183908
 30
0.0
 11
134.737
 21
4.9675
 31
0.0
  0
LINE
  5
189E
330
1D
100
AcDbEntity
  8
0
100
AcDbLine
 10
134.471
 20
6.2685
 30
0.0
 11
134.737
 21
6.23606595092
 31
0.0
  0
LINE
  5
189F
330
1D
100
AcDbEntity
  8
0
100
AcDbLine
 10
138.737
 20
4.9675
 30
0.0
 11
138.737
 21
6.767779918864
 31
0.0
  0
LINE
  5
18A0
330
1D
100
AcDbEntity
  8
0
100
AcDbLine
 10
147.899
 20
5.108650943396
 30
0.0
 11
147.899
 21
2.9675
 31
0.0
  0
LINE
  5
18A1
330
1D
100
AcDbEntity
  8
0
100
AcDbLine
 10
151.899
 20
5.124437590711
 30
0.0
 11
151.899
 21
2.9675
 31
0.0
  0
LINE
  5
18A2
330
1D
100
AcDbEntity
  8
0
100
AcDbLine
 10
151.502
 20
5.1665
 30
0.0
 11
152.191
 21
5.0935
 31
0.0
  0
LINE
  5
18A3
330
1D
100
AcDbEntity
  8
0
100
AcDbLine
 10
152.191
 20
5.0935
 30
0.0
 11
152.573
 21
4.9625
 31
0.0
  0
LINE
  5
18A4
330
1D
100
AcDbEntity
  8
0
100
AcDbLine
 10
147.756
 20
5.0935
 30
0.0
 11
148.445
 21
5.1665
 31
0.0
  0
LINE
  5
18A5
330
1D
100
AcDbEntity
  8
0
100
AcDbLine
 10
149.973
 20
5.2165
 30
0.0
 11
151.502
 21
5.1665
 31
0.0
  0
LINE
  5
18A6
330
1D
100
AcDbEntity
  8
0
100
AcDbLine
 10
148.445
 20
5.1665
 30
0.0
 11
149.973
 21
5.2165
 31
0.0
  0
LINE
  5
18A7
330
1D
100
AcDbEntity
  8
0
100
AcDbLine
 10
138.737
 20
6.767779918864
 30
0.0
 11
138.737
 21
4.9675
 31
0.0
  0
LINE
  5
18A8
330
1D
100
AcDbEntity
  8
0
100
AcDbLine
 10
138.737
 20
6.286676470588
 30
0.0
 11
139.173
 21
6.5175
 31
0.0
  0
LINE
  5
18A9
330
1D
100
AcDbEntity
  8
0
100
AcDbLine
 10
138.68
 20
6.8005
 30
0.0
 11
139.173
 21
6.5175
 31
0.0
  0
LINE
  5
18AA
330
1D
100
AcDbEntity
  8
0
100
AcDbLine
 10
137.384
 20
6.9905
 30
0.0
 11
138.68
 21
6.8005
 31
0.0
  0
LINE
  5
18AB
330
1D
100
AcDbEntity
  8
0
100
AcDbLine
 10
134.47
 20
6.8155
 30
0.0
 11
135.775
 21
6.9965
 31
0.0
  0
LINE
  5
18AC
330
1D
100
AcDbEntity
  8
0
100
AcDbLine
 10
135.775
 20
6.9965
 30
0.0
 11
137.384
 21
6.9905
 31
0.0
  0
LINE
  5
18AD
330
1D
100
AcDbEntity
  8
0
100
AcDbLine
 10
124.281
 20
5.0075
 30
0.0
 11
126.833
 21
5.0265
 31
0.0
  0
LINE
  5
18AE
330
1D
100
AcDbEntity
  8
0
100
AcDbLine
 10
147.373
 20
4.9625
 30
0.0
 11
147.87
 21
4.8205
 31
0.0
  0
LINE
  5
18AF
330
1D
100
AcDbEntity
  8
0
100
AcDbLine
 10
147.373
 20
4.9625
 30
0.0
 11
147.756
 21
5.0935
 31
0.0
  0
LINE
  5
18B0
330
1D
100
AcDbEntity
  8
0
100
AcDbLine
 10
115.647
 20
6.4695
 30
0.0
 11
115.973
 21
6.2505
 31
0.0
  0
LINE
  5
18B1
330
1D
100
AcDbEntity
  8
0
100
AcDbLine
 10
22.6575
 20
8.194717413973
 30
0.0
 11
22.6575
 21
6.9675
 31
0.0
  0
LINE
  5
18B2
330
1D
100
AcDbEntity
  8
0
100
AcDbLine
 10
23.36
 20
8.0885
 30
0.0
 11
23.473
 21
8.0135
 31
0.0
  0
LINE
  5
18B3
330
1D
100
AcDbEntity
  8
0
100
AcDbLine
 10
22.401
 20
8.2335
 30
0.0
 11
23.36
 21
8.0885
 31
0.0
  0
LINE
  5
18B4
330
1D
100
AcDbEntity
  8
0
100
AcDbLine
 10
18.6575
 20
8.737469879518
 30
0.0
 11
18.6575
 21
6.9675
 31
0.0
  0
LINE
  5
18B5
330
1D
100
AcDbEntity
  8
0
100
AcDbLine
 10
25.8706
 20
8.406596340024
 30
0.0
 11
25.8706
 21
8.666053369272
 31
0.0
  0
LINE
  5
18B6
330
1D
100
AcDbEntity
  8
0
100
AcDbLine
 10
27.491
 20
8.5625
 30
0.0
 11
29.211
 21
8.3505
 31
0.0
  0
LINE
  5
18B7
330
1D
100
AcDbEntity
  8
0
100
AcDbLine
 10
25.579
 20
8.4665
 30
0.0
 11
25.8706
 21
8.406596340024
 31
0.0
  0
LINE
  5
18B8
330
1D
100
AcDbEntity
  8
0
100
AcDbLine
 10
25.276609654792
 20
8.601084806951
 30
0.0
 11
25.808
 21
8.6685
 31
0.0
  0
LINE
  5
18B9
330
1D
100
AcDbEntity
  8
0
100
AcDbLine
 10
25.8706
 20
8.666053369272
 30
0.0
 11
25.8706
 21
6.9675
 31
0.0
  0
LINE
  5
18BA
330
1D
100
AcDbEntity
  8
0
100
AcDbLine
 10
25.8706
 20
8.666053369272
 30
0.0
 11
25.8706
 21
8.406596340024
 31
0.0
  0
LINE
  5
18BB
330
1D
100
AcDbEntity
  8
0
100
AcDbLine
 10
25.808
 20
8.6685
 30
0.0
 11
25.8706
 21
8.666053369272
 31
0.0
  0
LINE
  5
18BC
330
1D
100
AcDbEntity
  8
0
100
AcDbLine
 10
25.808
 20
8.6685
 30
0.0
 11
26.55
 21
8.6395
 31
0.0
  0
LINE
  5
18BD
330
1D
100
AcDbEntity
  8
0
100
AcDbLine
 10
26.55
 20
8.6395
 30
0.0
 11
27.491
 21
8.5625
 31
0.0
  0
LINE
  5
18BE
330
1D
100
AcDbEntity
  8
0
100
AcDbLine
 10
25.272
 20
8.6005
 30
0.0
 11
25.579
 21
8.4665
 31
0.0
  0
LINE
  5
18BF
330
1D
100
AcDbEntity
  8
0
100
AcDbLine
 10
25.272
 20
8.6005
 30
0.0
 11
25.808
 21
8.6685
 31
0.0
  0
LINE
  5
18C0
330
1D
100
AcDbEntity
  8
0
100
AcDbLine
 10
20.068
 20
8.5755
 30
0.0
 11
21.277
 21
8.4065
 31
0.0
  0
LINE
  5
18C1
330
1D
100
AcDbEntity
  8
0
100
AcDbLine
 10
18.77
 20
8.7325
 30
0.0
 11
20.068
 21
8.5755
 31
0.0
  0
LINE
  5
18C2
330
1D
100
AcDbEntity
  8
0
100
AcDbLine
 10
21.277
 20
8.4065
 30
0.0
 11
22.401
 21
8.2335
 31
0.0
  0
LINE
  5
18C3
330
1D
100
AcDbEntity
  8
0
100
AcDbLine
 10
30.498
 20
8.1105
 30
0.0
 11
30.873
 21
7.9565
 31
0.0
  0
LINE
  5
18C4
330
1D
100
AcDbEntity
  8
0
100
AcDbLine
 10
29.8706
 20
8.227497668998
 30
0.0
 11
29.8706
 21
6.9675
 31
0.0
  0
LINE
  5
18C5
330
1D
100
AcDbEntity
  8
0
100
AcDbLine
 10
30.498
 20
8.1105
 30
0.0
 11
30.873
 21
7.9565
 31
0.0
  0
LINE
  5
18C6
330
1D
100
AcDbEntity
  8
0
100
AcDbLine
 10
29.211
 20
8.3505
 30
0.0
 11
30.498
 21
8.1105
 31
0.0
  0
LINE
  5
18C7
330
1D
100
AcDbEntity
  8
0
100
AcDbLine
 10
22.6575
 20
8.06747673031
 30
0.0
 11
23.089
 21
8.0165
 31
0.0
  0
LINE
  5
18C8
330
1D
100
AcDbEntity
  8
0
100
AcDbLine
 10
18.603
 20
8.4055
 30
0.0
 11
18.6575
 21
8.397192073171
 31
0.0
  0
LINE
  5
18C9
330
1D
100
AcDbEntity
  8
0
100
AcDbLine
 10
129.063
 20
9.9575
 30
0.0
 11
149.973
 21
9.9495
 31
0.0
  0
LINE
  5
18CA
330
1D
100
AcDbEntity
  8
0
100
AcDbLine
 10
4.386
 20
10.9465
 30
0.0
 11
4.639
 21
10.9475
 31
0.0
  0
LINE
  5
18CB
330
1D
100
AcDbEntity
  8
0
100
AcDbLine
 10
4.386
 20
10.9465
 30
0.0
 11
4.639
 21
10.9475
 31
0.0
  0
LINE
  5
18CC
330
1D
100
AcDbEntity
  8
0
100
AcDbLine
 10
2.902839306907
 20
11.409587348683
 30
0.0
 11
3.749
 21
11.0955
 31
0.0
  0
LINE
  5
18CD
330
1D
100
AcDbEntity
  8
0
100
AcDbLine
 10
2.902839306907
 20
11.409587348683
 30
0.0
 11
3.749
 21
11.0955
 31
0.0
  0
LINE
  5
18CE
330
1D
100
AcDbEntity
  8
0
100
AcDbLine
 10
1.626
 20
12.3455
 30
0.0
 11
2.305
 21
11.6315
 31
0.0
  0
LINE
  5
18CF
330
1D
100
AcDbEntity
  8
0
100
AcDbLine
 10
3.749
 20
11.0955
 30
0.0
 11
4.386
 21
10.9465
 31
0.0
  0
LINE
  5
18D0
330
1D
100
AcDbEntity
  8
0
100
AcDbLine
 10
105.273
 20
9.9865
 30
0.0
 11
129.063
 21
9.9575
 31
0.0
  0
LINE
  5
18D1
330
1D
100
AcDbEntity
  8
0
100
AcDbLine
 10
86.363
 20
10.0615
 30
0.0
 11
105.273
 21
9.9865
 31
0.0
  0
LINE
  5
18D2
330
1D
100
AcDbEntity
  8
0
100
AcDbLine
 10
76.004
 20
10.1365
 30
0.0
 11
86.363
 21
10.0615
 31
0.0
  0
LINE
  5
18D3
330
1D
100
AcDbEntity
  8
0
100
AcDbLine
 10
63.605
 20
10.2625
 30
0.0
 11
76.004
 21
10.1365
 31
0.0
  0
LINE
  5
18D4
330
1D
100
AcDbEntity
  8
0
100
AcDbLine
 10
54.231
 20
10.3835
 30
0.0
 11
63.605
 21
10.2625
 31
0.0
  0
LINE
  5
18D5
330
1D
100
AcDbEntity
  8
0
100
AcDbLine
 10
39.414
 20
10.6165
 30
0.0
 11
48.291
 21
10.4715
 31
0.0
  0
LINE
  5
18D6
330
1D
100
AcDbEntity
  8
0
100
AcDbLine
 10
32.48
 20
10.7375
 30
0.0
 11
39.414
 21
10.6165
 31
0.0
  0
LINE
  5
18D7
330
1D
100
AcDbEntity
  8
0
100
AcDbLine
 10
27.748
 20
10.8205
 30
0.0
 11
32.48
 21
10.7375
 31
0.0
  0
LINE
  5
18D8
330
1D
100
AcDbEntity
  8
0
100
AcDbLine
 10
20.517
 20
10.7955
 30
0.0
 11
27.748
 21
10.8205
 31
0.0
  0
LINE
  5
18D9
330
1D
100
AcDbEntity
  8
0
100
AcDbLine
 10
48.291
 20
10.4715
 30
0.0
 11
54.231
 21
10.3835
 31
0.0
  0
LINE
  5
18DA
330
1D
100
AcDbEntity
  8
0
100
AcDbLine
 10
0.421
 20
35.1215
 30
0.0
 11
0.765
 21
35.2125
 31
0.0
  0
LINE
  5
18DB
330
1D
100
AcDbEntity
  8
0
100
AcDbLine
 10
0.966
 20
35.2115
 30
0.0
 11
18.301
 21
37.5725
 31
0.0
  0
LINE
  5
18DC
330
1D
100
AcDbEntity
  8
0
100
AcDbLine
 10
23.445
 20
38.2565
 30
0.0
 11
37.814
 21
39.7965
 31
0.0
  0
LINE
  5
18DD
330
1D
100
AcDbEntity
  8
0
100
AcDbLine
 10
18.301
 20
37.5725
 30
0.0
 11
23.445
 21
38.2565
 31
0.0
  0
LINE
  5
18DE
330
1D
100
AcDbEntity
  8
0
100
AcDbLine
 10
0.966
 20
35.2115
 30
0.0
 11
18.301
 21
37.5725
 31
0.0
  0
LINE
  5
18DF
330
1D
100
AcDbEntity
  8
0
100
AcDbLine
 10
52.505
 20
41.0915
 30
0.0
 11
67.484
 21
42.1525
 31
0.0
  0
LINE
  5
18E0
330
1D
100
AcDbEntity
  8
0
100
AcDbLine
 10
71.442
 20
42.3615
 30
0.0
 11
87.313
 21
43.1845
 31
0.0
  0
LINE
  5
18E1
330
1D
100
AcDbEntity
  8
0
100
AcDbLine
 10
71.442
 20
42.3615
 30
0.0
 11
87.314
 21
43.1845
 31
0.0
  0
LINE
  5
18E2
330
1D
100
AcDbEntity
  8
0
100
AcDbLine
 10
67.484
 20
42.1525
 30
0.0
 11
71.442
 21
42.3615
 31
0.0
  0
LINE
  5
18E3
330
1D
100
AcDbEntity
  8
0
100
AcDbLine
 10
37.814
 20
39.7965
 30
0.0
 11
52.505
 21
41.0915
 31
0.0
  0
LINE
  5
18E4
330
1D
100
AcDbEntity
  8
0
100
AcDbLine
 10
0.765
 20
35.2125
 30
0.0
 11
0.966
 21
35.2115
 31
0.0
  0
LINE
  5
18E5
330
1D
100
AcDbEntity
  8
0
100
AcDbLine
 10
87.314
 20
43.1845
 30
0.0
 11
93.986
 21
43.4775
 31
0.0
  0
LINE
  5
18E6
330
1D
100
AcDbEntity
  8
0
100
AcDbLine
 10
87.313
 20
43.1845
 30
0.0
 11
93.986
 21
43.4775
 31
0.0
  0
LINE
  5
18E7
330
1D
100
AcDbEntity
  8
0
100
AcDbLine
 10
93.986
 20
43.4775
 30
0.0
 11
103.943
 21
43.8075
 31
0.0
  0
LINE
  5
18E8
330
1D
100
AcDbEntity
  8
0
100
AcDbLine
 10
0.265
 20
35.0265
 30
0.0
 11
0.421
 21
35.1215
 31
0.0
  0
LINE
  5
18E9
330
1D
100
AcDbEntity
  8
0
100
AcDbLine
 10
153.014
 20
44.0955
 30
0.0
 11
155.989
 21
44.1245
 31
0.0
  0
LINE
  5
18EA
330
1D
100
AcDbEntity
  8
0
100
AcDbLine
 10
149.973
 20
44.0855
 30
0.0
 11
153.014
 21
44.0955
 31
0.0
  0
LINE
  5
18EB
330
1D
100
AcDbEntity
  8
0
100
AcDbLine
 10
158.803
 20
44.1685
 30
0.0
 11
161.363
 21
44.2235
 31
0.0
  0
LINE
  5
18EC
330
1D
100
AcDbEntity
  8
0
100
AcDbLine
 10
155.989
 20
44.1245
 30
0.0
 11
158.803
 21
44.1685
 31
0.0
  0
LINE
  5
18ED
330
1D
100
AcDbEntity
  8
0
100
AcDbLine
 10
146.932
 20
44.0955
 30
0.0
 11
149.973
 21
44.0855
 31
0.0
  0
LINE
  5
18EE
330
1D
100
AcDbEntity
  8
0
100
AcDbLine
 10
143.957
 20
44.1245
 30
0.0
 11
146.932
 21
44.0955
 31
0.0
  0
LINE
  5
18EF
330
1D
100
AcDbEntity
  8
0
100
AcDbLine
 10
121.253
 20
44.2215
 30
0.0
 11
129.034
 21
44.3405
 31
0.0
  0
LINE
  5
18F0
330
1D
100
AcDbEntity
  8
0
100
AcDbLine
 10
120.189677001025
 20
44.196068704704
 30
0.0
 11
121.19
 21
44.2235
 31
0.0
  0
LINE
  5
18F1
330
1D
100
AcDbEntity
  8
0
100
AcDbLine
 10
141.144
 20
44.1685
 30
0.0
 11
143.957
 21
44.1245
 31
0.0
  0
LINE
  5
18F2
330
1D
100
AcDbEntity
  8
0
100
AcDbLine
 10
121.19
 20
44.2235
 30
0.0
 11
121.253
 21
44.2215
 31
0.0
  0
LINE
  5
18F3
330
1D
100
AcDbEntity
  8
0
100
AcDbLine
 10
129.034
 20
44.3405
 30
0.0
 11
133.14
 21
44.3855
 31
0.0
  0
LINE
  5
18F4
330
1D
100
AcDbEntity
  8
0
100
AcDbLine
 10
136.481
 20
44.2795
 30
0.0
 11
138.583
 21
44.2235
 31
0.0
  0
LINE
  5
18F5
330
1D
100
AcDbEntity
  8
0
100
AcDbLine
 10
161.363
 20
44.2235
 30
0.0
 11
163.465
 21
44.2795
 31
0.0
  0
LINE
  5
18F6
330
1D
100
AcDbEntity
  8
0
100
AcDbLine
 10
138.583
 20
44.2235
 30
0.0
 11
141.144
 21
44.1685
 31
0.0
  0
LINE
  5
18F7
330
1D
100
AcDbEntity
  8
0
100
AcDbLine
 10
134.803
 20
44.3295
 30
0.0
 11
136.481
 21
44.2795
 31
0.0
  0
LINE
  5
18F8
330
1D
100
AcDbEntity
  8
0
100
AcDbLine
 10
134.002
 20
44.356327751196
 30
0.0
 11
134.002
 21
55.4675
 31
0.0
  0
LINE
  5
18F9
330
1D
100
AcDbEntity
  8
0
100
AcDbLine
 10
165.944
 20
44.356327751196
 30
0.0
 11
165.944
 21
55.4675
 31
0.0
  0
LINE
  5
18FA
330
1D
100
AcDbEntity
  8
0
100
AcDbLine
 10
133.758
 20
44.3645
 30
0.0
 11
134.803
 21
44.3295
 31
0.0
  0
LINE
  5
18FB
330
1D
100
AcDbEntity
  8
0
100
AcDbLine
 10
166.663669287115
 20
44.358845684551
 30
0.0
 11
166.736
 21
44.3825
 31
0.0
  0
LINE
  5
18FC
330
1D
100
AcDbEntity
  8
0
100
AcDbLine
 10
166.716
 20
44.3725
 30
0.0
 11
166.806
 21
44.3855
 31
0.0
  0
LINE
  5
18FD
330
1D
100
AcDbEntity
  8
0
100
AcDbLine
 10
166.188
 20
44.3645
 30
0.0
 11
166.736
 21
44.3825
 31
0.0
  0
LINE
  5
18FE
330
1D
100
AcDbEntity
  8
0
100
AcDbLine
 10
165.143
 20
44.3295
 30
0.0
 11
166.188
 21
44.3645
 31
0.0
  0
LINE
  5
18FF
330
1D
100
AcDbEntity
  8
0
100
AcDbLine
 10
166.736
 20
44.3825
 30
0.0
 11
166.806
 21
44.3855
 31
0.0
  0
LINE
  5
1900
330
1D
100
AcDbEntity
  8
0
100
AcDbLine
 10
163.465
 20
44.2795
 30
0.0
 11
165.143
 21
44.3295
 31
0.0
  0
LINE
  5
1901
330
1D
100
AcDbEntity
  8
0
100
AcDbLine
 10
133.21
 20
44.3825
 30
0.0
 11
133.758
 21
44.3645
 31
0.0
  0
LINE
  5
1902
330
1D
100
AcDbEntity
  8
0
100
AcDbLine
 10
134.12
 20
58.5343
 30
0.0
 11
134.471
 21
61.5831
 31
0.0
  0
LINE
  5
1903
330
1D
100
AcDbEntity
  8
0
100
AcDbLine
 10
135.596
 20
65.2693
 30
0.0
 11
136.006
 21
65.3675
 31
0.0
  0
LINE
  5
1904
330
1D
100
AcDbEntity
  8
0
100
AcDbLine
 10
136.083
 20
65.3675
 30
0.0
 11
136.397
 21
65.3675
 31
0.0
  0
LINE
  5
1905
330
1D
100
AcDbEntity
  8
0
100
AcDbLine
 10
136.397
 20
65.3675
 30
0.0
 11
136.943
 21
65.3675
 31
0.0
  0
LINE
  5
1906
330
1D
100
AcDbEntity
  8
0
100
AcDbLine
 10
136.943
 20
65.3675
 30
0.0
 11
137.712
 21
65.3675
 31
0.0
  0
LINE
  5
1907
330
1D
100
AcDbEntity
  8
0
100
AcDbLine
 10
135.249
 20
64.994
 30
0.0
 11
135.596
 21
65.2693
 31
0.0
  0
LINE
  5
1908
330
1D
100
AcDbEntity
  8
0
100
AcDbLine
 10
135.055
 20
64.5957
 30
0.0
 11
135.249
 21
64.994
 31
0.0
  0
LINE
  5
1909
330
1D
100
AcDbEntity
  8
0
100
AcDbLine
 10
134.471
 20
61.5831
 30
0.0
 11
135.055
 21
64.5957
 31
0.0
  0
LINE
  5
190A
330
1D
100
AcDbEntity
  8
0
100
AcDbLine
 10
138.692
 20
65.3675
 30
0.0
 11
139.864
 21
65.3675
 31
0.0
  0
LINE
  5
190B
330
1D
100
AcDbEntity
  8
0
100
AcDbLine
 10
139.927804918155
 20
65.3675
 30
0.0
 11
140.238
 21
65.809
 31
0.0
  0
LINE
  5
190C
330
1D
100
AcDbEntity
  8
0
100
AcDbLine
 10
141.345
 20
67.0124
 30
0.0
 11
141.561
 21
67.2068
 31
0.0
  0
LINE
  5
190D
330
1D
100
AcDbEntity
  8
0
100
AcDbLine
 10
141.561
 20
67.2068
 30
0.0
 11
141.811
 21
67.5314
 31
0.0
  0
LINE
  5
190E
330
1D
100
AcDbEntity
  8
0
100
AcDbLine
 10
141.591
 20
68.6532
 30
0.0
 11
141.829
 21
68.318
 31
0.0
  0
LINE
  5
190F
330
1D
100
AcDbEntity
  8
0
100
AcDbLine
 10
138.777
 20
71.4746
 30
0.0
 11
141.591
 21
68.6532
 31
0.0
  0
LINE
  5
1910
330
1D
100
AcDbEntity
  8
0
100
AcDbLine
 10
140.238
 20
65.809
 30
0.0
 11
141.345
 21
67.0124
 31
0.0
  0
LINE
  5
1911
330
1D
100
AcDbEntity
  8
0
100
AcDbLine
 10
141.829
 20
68.318
 30
0.0
 11
141.901
 21
67.9229
 31
0.0
  0
LINE
  5
1912
330
1D
100
AcDbEntity
  8
0
100
AcDbLine
 10
141.811
 20
67.5314
 30
0.0
 11
141.901
 21
67.9229
 31
0.0
  0
LINE
  5
1913
330
1D
100
AcDbEntity
  8
0
100
AcDbLine
 10
138.56
 20
71.799
 30
0.0
 11
138.777
 21
71.4746
 31
0.0
  0
LINE
  5
1914
330
1D
100
AcDbEntity
  8
0
100
AcDbLine
 10
138.479
 20
72.1817
 30
0.0
 11
138.5
 21
84.9675
 31
0.0
  0
LINE
  5
1915
330
1D
100
AcDbEntity
  8
0
100
AcDbLine
 10
138.479
 20
72.1817
 30
0.0
 11
138.56
 21
71.799
 31
0.0
  0
LINE
  5
1917
330
1D
100
AcDbEntity
  8
0
100
AcDbLine
 10
139.06
 20
84.9675
 30
0.0
 11
139.137
 21
84.9675
 31
0.0
  0
LINE
  5
1918
330
1D
100
AcDbEntity
  8
0
100
AcDbLine
 10
139.137
 20
84.9675
 30
0.0
 11
139.762
 21
84.9675
 31
0.0
  0
LINE
  5
1919
330
1D
100
AcDbEntity
  8
0
100
AcDbLine
 10
138.713
 20
84.9675
 30
0.0
 11
139.137
 21
84.9675
 31
0.0
  0
LINE
  5
191A
330
1D
100
AcDbEntity
  8
0
100
AcDbLine
 10
138.5
 20
84.9675
 30
0.0
 11
138.713
 21
84.9675
 31
0.0
  0
LINE
  5
191B
330
1D
100
AcDbEntity
  8
0
100
AcDbLine
 10
142.715
 20
84.9675
 30
0.0
 11
143.998
 21
84.9675
 31
0.0
  0
LINE
  5
191C
330
1D
100
AcDbEntity
  8
0
100
AcDbLine
 10
141.568
 20
84.9675
 30
0.0
 11
142.715
 21
84.9675
 31
0.0
  0
LINE
  5
191D
330
1D
100
AcDbEntity
  8
0
100
AcDbLine
 10
140.578
 20
84.9675
 30
0.0
 11
141.568
 21
84.9675
 31
0.0
  0
LINE
  5
191E
330
1D
100
AcDbEntity
  8
0
100
AcDbLine
 10
140.578
 20
84.9675
 30
0.0
 11
140.689
 21
84.9675
 31
0.0
  0
LINE
  5
1942
330
1D
100
AcDbEntity
  8
0
100
AcDbLine
 10
139.762
 20
84.9675
 30
0.0
 11
140.578
 21
84.9675
 31
0.0
  0
LINE
  5
1943
330
1D
100
AcDbEntity
  8
0
100
AcDbLine
 10
149.643
 20
65.3675
 30
0.0
 11
151.469
 21
65.3675
 31
0.0
  0
LINE
  5
1944
330
1D
100
AcDbEntity
  8
0
100
AcDbLine
 10
151.469
 20
65.3675
 30
0.0
 11
153.269
 21
65.3675
 31
0.0
  0
LINE
  5
1945
330
1D
100
AcDbEntity
  8
0
100
AcDbLine
 10
153.269
 20
65.3675
 30
0.0
 11
155.014
 21
65.3675
 31
0.0
  0
LINE
  5
1946
330
1D
100
AcDbEntity
  8
0
100
AcDbLine
 10
155.014
 20
65.3675
 30
0.0
 11
156.671
 21
65.3675
 31
0.0
  0
LINE
  5
1947
330
1D
100
AcDbEntity
  8
0
100
AcDbLine
 10
156.671
 20
65.3675
 30
0.0
 11
158.214
 21
65.3675
 31
0.0
  0
LINE
  5
1948
330
1D
100
AcDbEntity
  8
0
100
AcDbLine
 10
158.382
 20
67.2069
 30
0.0
 11
159.018
 21
66.5953
 31
0.0
  0
LINE
  5
1949
330
1D
100
AcDbEntity
  8
0
100
AcDbLine
 10
158.135
 20
67.5315
 30
0.0
 11
158.382
 21
67.2069
 31
0.0
  0
LINE
  5
194A
330
1D
100
AcDbEntity
  8
0
100
AcDbLine
 10
163.379
 20
65.3675
 30
0.0
 11
163.778
 21
65.3675
 31
0.0
  0
LINE
  5
194B
330
1D
100
AcDbEntity
  8
0
100
AcDbLine
 10
163.94
 20
65.3675
 30
0.0
 11
164.35
 21
65.2693
 31
0.0
  0
LINE
  5
194C
330
1D
100
AcDbEntity
  8
0
100
AcDbLine
 10
163.778
 20
65.3675
 30
0.0
 11
163.94
 21
65.3675
 31
0.0
  0
LINE
  5
194D
330
1D
100
AcDbEntity
  8
0
100
AcDbLine
 10
162.751
 20
65.3675
 30
0.0
 11
163.379
 21
65.3675
 31
0.0
  0
LINE
  5
194E
330
1D
100
AcDbEntity
  8
0
100
AcDbLine
 10
161.904
 20
65.3675
 30
0.0
 11
162.751
 21
65.3675
 31
0.0
  0
LINE
  5
194F
330
1D
100
AcDbEntity
  8
0
100
AcDbLine
 10
159.616
 20
65.3675
 30
0.0
 11
160.853
 21
65.3675
 31
0.0
  0
LINE
  5
1950
330
1D
100
AcDbEntity
  8
0
100
AcDbLine
 10
160.853
 20
65.3675
 30
0.0
 11
161.904
 21
65.3675
 31
0.0
  0
LINE
  5
1951
330
1D
100
AcDbEntity
  8
0
100
AcDbLine
 10
164.35
 20
65.2693
 30
0.0
 11
164.697
 21
64.994
 31
0.0
  0
LINE
  5
1952
330
1D
100
AcDbEntity
  8
0
100
AcDbLine
 10
164.697
 20
64.994
 30
0.0
 11
164.89
 21
64.5957
 31
0.0
  0
LINE
  5
1953
330
1D
100
AcDbEntity
  8
0
100
AcDbLine
 10
165.475
 20
61.5831
 30
0.0
 11
165.826
 21
58.5343
 31
0.0
  0
LINE
  5
1954
330
1D
100
AcDbEntity
  8
0
100
AcDbLine
 10
164.89
 20
64.5957
 30
0.0
 11
165.475
 21
61.5831
 31
0.0
  0
LINE
  5
1955
330
1D
100
AcDbEntity
  8
0
100
AcDbLine
 10
165.826
 20
58.5343
 30
0.0
 11
165.944
 21
55.4675
 31
0.0
  0
LINE
  5
1956
330
1D
100
AcDbEntity
  8
0
100
AcDbLine
 10
159.018
 20
66.5953
 30
0.0
 11
160.044755580357
 21
65.3675
 31
0.0
  0
LINE
  5
1957
330
1D
100
AcDbEntity
  8
0
100
AcDbLine
 10
158.117
 20
68.318
 30
0.0
 11
158.355
 21
68.6532
 31
0.0
  0
LINE
  5
1958
330
1D
100
AcDbEntity
  8
0
100
AcDbLine
 10
158.355
 20
68.6532
 30
0.0
 11
161.169
 21
71.4746
 31
0.0
  0
LINE
  5
1959
330
1D
100
AcDbEntity
  8
0
100
AcDbLine
 10
161.386
 20
71.799
 30
0.0
 11
161.467
 21
72.1817
 31
0.0
  0
LINE
  5
195A
330
1D
100
AcDbEntity
  8
0
100
AcDbLine
 10
161.169
 20
71.4746
 30
0.0
 11
161.386
 21
71.799
 31
0.0
  0
LINE
  5
195B
330
1D
100
AcDbEntity
  8
0
100
AcDbLine
 10
158.046
 20
67.9228
 30
0.0
 11
158.117
 21
68.318
 31
0.0
  0
LINE
  5
195C
330
1D
100
AcDbEntity
  8
0
100
AcDbLine
 10
158.046
 20
67.9228
 30
0.0
 11
158.135
 21
67.5315
 31
0.0
  0
LINE
  5
195D
330
1D
100
AcDbEntity
  8
0
100
AcDbLine
 10
146.427
 20
84.9675
 30
0.0
 11
146.87
 21
84.9675
 31
0.0
  0
LINE
  5
195E
330
1D
100
AcDbEntity
  8
0
100
AcDbLine
 10
149.973
 20
84.9675
 30
0.0
 11
151.539
 21
84.9675
 31
0.0
  0
LINE
  5
195F
330
1D
100
AcDbEntity
  8
0
100
AcDbLine
 10
155.948
 20
84.9675
 30
0.0
 11
157.23
 21
84.9675
 31
0.0
  0
LINE
  5
1960
330
1D
100
AcDbEntity
  8
0
100
AcDbLine
 10
154.555
 20
84.9675
 30
0.0
 11
155.948
 21
84.9675
 31
0.0
  0
LINE
  5
1961
330
1D
100
AcDbEntity
  8
0
100
AcDbLine
 10
153.076
 20
84.9675
 30
0.0
 11
154.555
 21
84.9675
 31
0.0
  0
LINE
  5
1962
330
1D
100
AcDbEntity
  8
0
100
AcDbLine
 10
153.076
 20
84.9675
 30
0.0
 11
153.52
 21
84.9675
 31
0.0
  0
LINE
  5
1963
330
1D
100
AcDbEntity
  8
0
100
AcDbLine
 10
151.539
 20
84.9675
 30
0.0
 11
153.076
 21
84.9675
 31
0.0
  0
LINE
  5
1964
330
1D
100
AcDbEntity
  8
0
100
AcDbLine
 10
159.258
 20
84.9675
 30
0.0
 11
159.368
 21
84.9675
 31
0.0
  0
LINE
  5
1966
330
1D
100
AcDbEntity
  8
0
100
AcDbLine
 10
161.233
 20
84.9675
 30
0.0
 11
161.446
 21
84.9675
 31
0.0
  0
LINE
  5
1967
330
1D
100
AcDbEntity
  8
0
100
AcDbLine
 10
161.446
 20
84.9675
 30
0.0
 11
161.467
 21
72.1817
 31
0.0
  0
LINE
  5
1968
330
1D
100
AcDbEntity
  8
0
100
AcDbLine
 10
160.809
 20
84.9675
 30
0.0
 11
161.233
 21
84.9675
 31
0.0
  0
LINE
  5
1969
330
1D
100
AcDbEntity
  8
0
100
AcDbLine
 10
160.809
 20
84.9675
 30
0.0
 11
160.887
 21
84.9675
 31
0.0
  0
LINE
  5
196A
330
1D
100
AcDbEntity
  8
0
100
AcDbLine
 10
160.184
 20
84.9675
 30
0.0
 11
160.809
 21
84.9675
 31
0.0
  0
LINE
  5
196B
330
1D
100
AcDbEntity
  8
0
100
AcDbLine
 10
159.368
 20
84.9675
 30
0.0
 11
160.184
 21
84.9675
 31
0.0
  0
LINE
  5
196C
330
1D
100
AcDbEntity
  8
0
100
AcDbLine
 10
158.378
 20
84.9675
 30
0.0
 11
159.368
 21
84.9675
 31
0.0
  0
LINE
  5
196D
330
1D
100
AcDbEntity
  8
0
100
AcDbLine
 10
157.23
 20
84.9675
 30
0.0
 11
158.378
 21
84.9675
 31
0.0
  0
LINE
  5
196E
330
1D
100
AcDbEntity
  8
0
100
AcDbLine
 10
148.407
 20
84.9675
 30
0.0
 11
149.973
 21
84.9675
 31
0.0
  0
LINE
  5
196F
330
1D
100
AcDbEntity
  8
0
100
AcDbLine
 10
146.87
 20
84.9675
 30
0.0
 11
148.407
 21
84.9675
 31
0.0
  0
LINE
  5
1970
330
1D
100
AcDbEntity
  8
0
100
AcDbLine
 10
145.391
 20
84.9675
 30
0.0
 11
146.87
 21
84.9675
 31
0.0
  0
LINE
  5
197B
330
1D
100
AcDbEntity
  8
0
100
AcDbLine
 10
143.998
 20
84.9675
 30
0.0
 11
145.391
 21
84.9675
 31
0.0
  0
LINE
  5
197C
330
1D
100
AcDbEntity
  8
0
100
AcDbLine
 10
134.002
 20
55.4675
 30
0.0
 11
134.002
 21
44.356327751196
 31
0.0
  0
LINE
  5
197D
330
1D
100
AcDbEntity
  8
0
100
AcDbLine
 10
134.002
 20
55.4675
 30
0.0
 11
134.12
 21
58.5343
 31
0.0
  0
LINE
  5
197E
330
1D
100
AcDbEntity
  8
0
100
AcDbLine
 10
165.944
 20
55.4675
 30
0.0
 11
165.944
 21
44.356327751196
 31
0.0
  0
LINE
  5
197F
330
1D
100
AcDbEntity
  8
0
100
AcDbLine
 10
133.14
 20
44.3855
 30
0.0
 11
133.211
 21
44.3825
 31
0.0
  0
LINE
  5
1980
330
1D
100
AcDbEntity
  8
0
100
AcDbLine
 10
133.14
 20
44.3855
 30
0.0
 11
133.21
 21
44.3825
 31
0.0
  0
LINE
  5
1981
330
1D
100
AcDbEntity
  8
0
100
AcDbLine
 10
133.14
 20
44.3855
 30
0.0
 11
133.23
 21
44.3725
 31
0.0
  0
LINE
  5
1995
330
1D
100
AcDbEntity
  8
0
100
AcDbLine
 10
-0.026
 20
34.2925
 30
0.0
 11
0.082
 21
27.8665
 31
0.0
  0
LINE
  5
1998
330
1D
100
AcDbEntity
  8
0
100
AcDbLine
 10
137.712
 20
65.3675
 30
0.0
 11
159.616
 21
65.3675
 31
0.0
  0
LINE
  5
1999
330
1D
100
AcDbEntity
  8
0
100
AcDbLine
 10
136.006
 20
65.3675
 30
0.0
 11
136.083
 21
65.3675
 31
0.0
  0
LINE
  5
199A
330
1D
100
AcDbEntity
  8
0
100
AcDbLine
 10
-0.026
 20
34.2925
 30
0.0
 11
0.083468704166
 21
34.679202791121
 31
0.0
  0
LINE
  5
199B
330
1D
100
AcDbEntity
  8
0
100
AcDbLine
 10
0.083468704166
 20
34.679202791121
 30
0.0
 11
0.265
 21
35.0265
 31
0.0
  0
LINE
  5
199C
330
1D
100
AcDbEntity
  8
0
100
AcDbLine
 10
103.943
 20
43.8075
 30
0.0
 11
120.189677001025
 21
44.196068704704
 31
0.0
  0
LINE
  5
199D
330
1D
100
AcDbEntity
  8
0
100
AcDbLine
 10
2.305
 20
11.6315
 30
0.0
 11
2.902839306907
 21
11.409587348683
 31
0.0
  0
LINE
  5
199E
330
1D
100
AcDbEntity
  8
0
100
AcDbLine
 10
20.517
 20
10.7955
 30
0.0
 11
4.639
 21
10.9475
 31
0.0
  0
LINE
  5
199F
330
1D
100
AcDbEntity
  8
0
100
AcDbLine
 10
12.728
 20
9.3175
 30
0.0
 11
4.386
 21
10.9465
 31
0.0
  0
LINE
  5
19A0
330
1D
100
AcDbEntity
  8
0
100
AcDbLine
 10
170.883
 20
9.9575
 30
0.0
 11
149.973
 21
9.9495
 31
0.0
  0
LINE
  5
19A1
330
1D
100
AcDbEntity
  8
0
100
AcDbLine
 10
225.1623
 20
0.9675
 30
0.0
 11
224.5623
 21
0.9675
 31
0.0
  0
LINE
  5
19A2
330
1D
100
AcDbEntity
  8
0
100
AcDbLine
 10
225.1623
 20
0.9675
 30
0.0
 11
224.5623
 21
0.9675
 31
0.0
  0
LINE
  5
19A3
330
1D
100
AcDbEntity
  8
0
100
AcDbLine
 10
225.9528
 20
1.9675
 30
0.0
 11
224.5528
 21
1.9675
 31
0.0
  0
LINE
  5
19A4
330
1D
100
AcDbEntity
  8
0
100
AcDbLine
 10
225.3677
 20
3.9675
 30
0.0
 11
224.7677
 21
3.9675
 31
0.0
  0
LINE
  5
19A5
330
1D
100
AcDbEntity
  8
0
100
AcDbLine
 10
225.3677
 20
3.9675
 30
0.0
 11
224.7677
 21
3.9675
 31
0.0
  0
LINE
  5
19A6
330
1D
100
AcDbEntity
  8
0
100
AcDbLine
 10
226.5384
 20
3.6335
 30
0.0
 11
224.8081
 21
3.5945
 31
0.0
  0
LINE
  5
19A7
330
1D
100
AcDbEntity
  8
0
100
AcDbLine
 10
225.7329
 20
5.8175
 30
0.0
 11
224.2747
 21
5.9175
 31
0.0
  0
LINE
  5
19A8
330
1D
100
AcDbEntity
  8
0
100
AcDbLine
 10
236.341
 20
10.2625
 30
0.0
 11
223.942
 21
10.1365
 31
0.0
  0
LINE
  5
19A9
330
1D
100
AcDbEntity
  8
0
100
AcDbLine
 10
228.504
 20
42.3615
 30
0.0
 11
212.633
 21
43.1845
 31
0.0
  0
LINE
  5
19AA
330
1D
100
AcDbEntity
  8
0
100
AcDbLine
 10
228.504
 20
42.3615
 30
0.0
 11
212.632
 21
43.1845
 31
0.0
  0
LINE
  5
19AB
330
1D
100
AcDbEntity
  8
0
100
AcDbLine
 10
262.5481
 20
4.9675
 30
0.0
 11
261.9481
 21
4.9675
 31
0.0
  0
LINE
  5
19AC
330
1D
100
AcDbEntity
  8
0
100
AcDbLine
 10
262.5481
 20
4.9675
 30
0.0
 11
261.9481
 21
4.9675
 31
0.0
  0
LINE
  5
19AD
330
1D
100
AcDbEntity
  8
0
100
AcDbLine
 10
263.171
 20
6.1355
 30
0.0
 11
262.135
 21
6.0325
 31
0.0
  0
LINE
  5
19AE
330
1D
100
AcDbEntity
  8
0
100
AcDbLine
 10
262.673
 20
6.7415
 30
0.0
 11
262.139
 21
6.5965
 31
0.0
  0
LINE
  5
19AF
330
1D
100
AcDbEntity
  8
0
100
AcDbLine
 10
262.673
 20
6.7415
 30
0.0
 11
262.138
 21
6.8075
 31
0.0
  0
LINE
  5
19B0
330
1D
100
AcDbEntity
  8
0
100
AcDbLine
 10
267.466
 20
10.7375
 30
0.0
 11
260.532
 21
10.6165
 31
0.0
  0
LINE
  5
19B1
330
1D
100
AcDbEntity
  8
0
100
AcDbLine
 10
276.501
 20
38.2565
 30
0.0
 11
262.132
 21
39.7965
 31
0.0
  0
LINE
  5
19B2
330
1D
100
AcDbEntity
  8
0
100
AcDbLine
 10
298.98
 20
35.2115
 30
0.0
 11
281.645
 21
37.5725
 31
0.0
  0
LINE
  5
19B3
330
1D
100
AcDbEntity
  8
0
100
AcDbLine
 10
298.98
 20
35.2115
 30
0.0
 11
281.645
 21
37.5725
 31
0.0
  0
LINE
  5
19B4
330
1D
100
AcDbEntity
  8
0
100
AcDbLine
 10
281.7269
 20
6.9675
 30
0.0
 11
280.3269
 21
6.9675
 31
0.0
  0
LINE
  5
19B5
330
1D
100
AcDbEntity
  8
0
100
AcDbLine
 10
281.8951
 20
6.9675
 30
0.0
 11
280.4951
 21
6.9675
 31
0.0
  0
LINE
  5
19B6
330
1D
100
AcDbEntity
  8
0
100
AcDbLine
 10
281.7269
 20
6.9675
 30
0.0
 11
280.3269
 21
6.9675
 31
0.0
  0
LINE
  5
19B7
330
1D
100
AcDbEntity
  8
0
100
AcDbLine
 10
281.674
 20
8.7545
 30
0.0
 11
281.176
 21
8.7325
 31
0.0
  0
LINE
  5
19B8
330
1D
100
AcDbEntity
  8
0
100
AcDbLine
 10
281.2885
 20
6.9675
 30
0.0
 11
280.6885
 21
6.9675
 31
0.0
  0
LINE
  5
19B9
330
1D
100
AcDbEntity
  8
0
100
AcDbLine
 10
281.2885
 20
6.9675
 30
0.0
 11
280.6885
 21
6.9675
 31
0.0
  0
LINE
  5
19BA
330
1D
100
AcDbEntity
  8
0
100
AcDbLine
 10
279.429
 20
10.7955
 30
0.0
 11
295.307
 21
10.9475
 31
0.0
  0
LINE
  5
19BB
330
1D
100
AcDbEntity
  8
0
100
AcDbLine
 10
299.864
 20
27.8665
 30
0.0
 11
299.261
 21
14.8195
 31
0.0
  0
LINE
  5
19BC
330
1D
100
AcDbEntity
  8
0
100
AcDbLine
 10
299.864
 20
27.8665
 30
0.0
 11
299.261
 21
14.8195
 31
0.0
  0
LINE
  5
19BD
330
1D
100
AcDbEntity
  8
0
100
AcDbLine
 10
287.218
 20
9.3175
 30
0.0
 11
295.56
 21
10.9465
 31
0.0
  0
LINE
  5
19BE
330
1D
100
AcDbEntity
  8
0
100
AcDbLine
 10
299.057
 20
13.4555
 30
0.0
 11
298.777
 21
12.8065
 31
0.0
  0
LINE
  5
19BF
330
1D
100
AcDbEntity
  8
0
100
AcDbLine
 10
298.777
 20
12.8065
 30
0.0
 11
298.32
 21
12.3455
 31
0.0
  0
LINE
  5
19C0
330
1D
100
AcDbEntity
  8
0
100
AcDbLine
 10
299.261
 20
14.8195
 30
0.0
 11
299.057
 21
13.4555
 31
0.0
  0
LINE
  5
19C1
330
1D
100
AcDbEntity
  8
0
100
AcDbLine
 10
295.56
 20
10.9465
 30
0.0
 11
295.307
 21
10.9475
 31
0.0
  0
LINE
  5
19C2
330
1D
100
AcDbEntity
  8
0
100
AcDbLine
 10
295.56
 20
10.9465
 30
0.0
 11
295.307
 21
10.9475
 31
0.0
  0
LINE
  5
19C3
330
1D
100
AcDbEntity
  8
0
100
AcDbLine
 10
297.043160693093
 20
11.409587348683
 30
0.0
 11
296.197
 21
11.0955
 31
0.0
  0
LINE
  5
19C4
330
1D
100
AcDbEntity
  8
0
100
AcDbLine
 10
297.043160693093
 20
11.409587348683
 30
0.0
 11
296.197
 21
11.0955
 31
0.0
  0
LINE
  5
19C5
330
1D
100
AcDbEntity
  8
0
100
AcDbLine
 10
298.32
 20
12.3455
 30
0.0
 11
297.641
 21
11.6315
 31
0.0
  0
LINE
  5
19C6
330
1D
100
AcDbEntity
  8
0
100
AcDbLine
 10
296.197
 20
11.0955
 30
0.0
 11
295.56
 21
10.9465
 31
0.0
  0
LINE
  5
19C7
330
1D
100
AcDbEntity
  8
0
100
AcDbLine
 10
297.641
 20
11.6315
 30
0.0
 11
297.043160693093
 21
11.409587348683
 31
0.0
  0
LINE
  5
19C8
330
1D
100
AcDbEntity
  8
0
100
AcDbLine
 10
287.218
 20
9.3175
 30
0.0
 11
283.7269
 21
8.723344140333
 31
0.0
  0
LINE
  5
19C9
330
1D
100
AcDbEntity
  8
0
100
AcDbLine
 10
283.7269
 20
6.9675
 30
0.0
 11
283.1269
 21
6.9675
 31
0.0
  0
LINE
  5
19CA
330
1D
100
AcDbEntity
  8
0
100
AcDbLine
 10
283.8951
 20
6.9675
 30
0.0
 11
283.2951
 21
6.9675
 31
0.0
  0
LINE
  5
19CB
330
1D
100
AcDbEntity
  8
0
100
AcDbLine
 10
283.7269
 20
6.9675
 30
0.0
 11
283.1269
 21
6.9675
 31
0.0
  0
LINE
  5
19CC
330
1D
100
AcDbEntity
  8
0
100
AcDbLine
 10
284.031
 20
8.8015
 30
0.0
 11
282.992
 21
8.6535
 31
0.0
  0
LINE
  5
19CD
330
1D
100
AcDbEntity
  8
0
100
AcDbLine
 10
284.031
 20
8.8015
 30
0.0
 11
283.8951
 21
8.782141770934
 31
0.0
  0
LINE
  5
19CE
330
1D
100
AcDbEntity
  8
0
100
AcDbLine
 10
284.174
 20
8.8135
 30
0.0
 11
284.031
 21
8.8015
 31
0.0
  0
LINE
  5
19CF
330
1D
100
AcDbEntity
  8
0
100
AcDbLine
 10
283.8951
 20
6.9675
 30
0.0
 11
283.8951
 21
8.68946391226
 31
0.0
  0
LINE
  5
19D0
330
1D
100
AcDbEntity
  8
0
100
AcDbLine
 10
283.8951
 20
8.68946391226
 30
0.0
 11
283.8951
 21
6.9675
 31
0.0
  0
LINE
  5
19D1
330
1D
100
AcDbEntity
  8
0
100
AcDbLine
 10
283.89
 20
8.6885
 30
0.0
 11
283.7269
 21
8.662693037975
 31
0.0
  0
LINE
  5
19D2
330
1D
100
AcDbEntity
  8
0
100
AcDbLine
 10
283.916
 20
8.7585
 30
0.0
 11
283.7269
 21
8.725532775453
 31
0.0
  0
LINE
  5
19D3
330
1D
100
AcDbEntity
  8
0
100
AcDbLine
 10
284.174
 20
8.8135
 30
0.0
 11
284.031
 21
8.8015
 31
0.0
  0
LINE
  5
19D4
330
1D
100
AcDbEntity
  8
0
100
AcDbLine
 10
284.174
 20
8.8135
 30
0.0
 11
283.916
 21
8.7585
 31
0.0
  0
LINE
  5
19D5
330
1D
100
AcDbEntity
  8
0
100
AcDbLine
 10
283.1269
 20
6.9675
 30
0.0
 11
281.7269
 21
6.9675
 31
0.0
  0
LINE
  5
19D6
330
1D
100
AcDbEntity
  8
0
100
AcDbLine
 10
283.2951
 20
6.9675
 30
0.0
 11
281.8951
 21
6.9675
 31
0.0
  0
LINE
  5
19D7
330
1D
100
AcDbEntity
  8
0
100
AcDbLine
 10
283.1269
 20
6.9675
 30
0.0
 11
281.7269
 21
6.9675
 31
0.0
  0
LINE
  5
19D8
330
1D
100
AcDbEntity
  8
0
100
AcDbLine
 10
281.674
 20
8.7545
 30
0.0
 11
281.2885
 21
8.653775534442
 31
0.0
  0
LINE
  5
19D9
330
1D
100
AcDbEntity
  8
0
100
AcDbLine
 10
282.992
 20
8.6535
 30
0.0
 11
281.343
 21
8.4055
 31
0.0
  0
LINE
  5
19DA
330
1D
100
AcDbEntity
  8
0
100
AcDbLine
 10
281.2885
 20
6.9675
 30
0.0
 11
281.2885
 21
8.737469879518
 31
0.0
  0
LINE
  5
19DB
330
1D
100
AcDbEntity
  8
0
100
AcDbLine
 10
281.2885
 20
8.737469879518
 30
0.0
 11
281.2885
 21
6.9675
 31
0.0
  0
LINE
  5
19DC
330
1D
100
AcDbEntity
  8
0
100
AcDbLine
 10
281.343
 20
8.4055
 30
0.0
 11
281.2885
 21
8.397192073171
 31
0.0
  0
LINE
  5
19DD
330
1D
100
AcDbEntity
  8
0
100
AcDbLine
 10
299.972
 20
34.2925
 30
0.0
 11
299.864
 21
27.8665
 31
0.0
  0
LINE
  5
19DE
330
1D
100
AcDbEntity
  8
0
100
AcDbLine
 10
299.525
 20
35.1215
 30
0.0
 11
299.181
 21
35.2125
 31
0.0
  0
LINE
  5
19DF
330
1D
100
AcDbEntity
  8
0
100
AcDbLine
 10
299.181
 20
35.2125
 30
0.0
 11
298.98
 21
35.2115
 31
0.0
  0
LINE
  5
19E0
330
1D
100
AcDbEntity
  8
0
100
AcDbLine
 10
299.681
 20
35.0265
 30
0.0
 11
299.525
 21
35.1215
 31
0.0
  0
LINE
  5
19E1
330
1D
100
AcDbEntity
  8
0
100
AcDbLine
 10
299.972
 20
34.2925
 30
0.0
 11
299.864
 21
27.8665
 31
0.0
  0
LINE
  5
19E2
330
1D
100
AcDbEntity
  8
0
100
AcDbLine
 10
299.972
 20
34.2925
 30
0.0
 11
299.862531295834
 21
34.679202791121
 31
0.0
  0
LINE
  5
19E3
330
1D
100
AcDbEntity
  8
0
100
AcDbLine
 10
299.862531295834
 20
34.679202791121
 30
0.0
 11
299.681
 21
35.0265
 31
0.0
  0
LINE
  5
19E4
330
1D
100
AcDbEntity
  8
0
100
AcDbLine
 10
272.0754
 20
6.9675
 30
0.0
 11
270.6754
 21
6.9675
 31
0.0
  0
LINE
  5
19E5
330
1D
100
AcDbEntity
  8
0
100
AcDbLine
 10
272.455
 20
8.5625
 30
0.0
 11
270.735
 21
8.3505
 31
0.0
  0
LINE
  5
19E6
330
1D
100
AcDbEntity
  8
0
100
AcDbLine
 10
272.198
 20
10.8205
 30
0.0
 11
267.466
 21
10.7375
 31
0.0
  0
LINE
  5
19E7
330
1D
100
AcDbEntity
  8
0
100
AcDbLine
 10
277.2885
 20
7.791259342594
 30
0.0
 11
274.0754
 21
7.25940988065
 31
0.0
  0
LINE
  5
19E8
330
1D
100
AcDbEntity
  8
0
100
AcDbLine
 10
276.857
 20
8.0165
 30
0.0
 11
276.473
 21
8.0135
 31
0.0
  0
LINE
  5
19E9
330
1D
100
AcDbEntity
  8
0
100
AcDbLine
 10
276.586
 20
8.0885
 30
0.0
 11
276.473
 21
8.0135
 31
0.0
  0
LINE
  5
19EA
330
1D
100
AcDbEntity
  8
0
100
AcDbLine
 10
279.2885
 20
6.9675
 30
0.0
 11
277.8885
 21
6.9675
 31
0.0
  0
LINE
  5
19EB
330
1D
100
AcDbEntity
  8
0
100
AcDbLine
 10
279.2885
 20
6.9675
 30
0.0
 11
277.8885
 21
6.9675
 31
0.0
  0
LINE
  5
19EC
330
1D
100
AcDbEntity
  8
0
100
AcDbLine
 10
279.878
 20
8.5755
 30
0.0
 11
278.669
 21
8.4065
 31
0.0
  0
LINE
  5
19ED
330
1D
100
AcDbEntity
  8
0
100
AcDbLine
 10
280.6885
 20
6.9675
 30
0.0
 11
279.2885
 21
6.9675
 31
0.0
  0
LINE
  5
19EE
330
1D
100
AcDbEntity
  8
0
100
AcDbLine
 10
280.3269
 20
6.9675
 30
0.0
 11
279.7269
 21
6.9675
 31
0.0
  0
LINE
  5
19EF
330
1D
100
AcDbEntity
  8
0
100
AcDbLine
 10
280.4951
 20
6.9675
 30
0.0
 11
279.8951
 21
6.9675
 31
0.0
  0
LINE
  5
19F0
330
1D
100
AcDbEntity
  8
0
100
AcDbLine
 10
280.3269
 20
6.9675
 30
0.0
 11
279.7269
 21
6.9675
 31
0.0
  0
LINE
  5
19F1
330
1D
100
AcDbEntity
  8
0
100
AcDbLine
 10
280.6885
 20
6.9675
 30
0.0
 11
279.2885
 21
6.9675
 31
0.0
  0
LINE
  5
19F2
330
1D
100
AcDbEntity
  8
0
100
AcDbLine
 10
281.176
 20
8.7325
 30
0.0
 11
279.878
 21
8.5755
 31
0.0
  0
LINE
  5
19F3
330
1D
100
AcDbEntity
  8
0
100
AcDbLine
 10
277.8885
 20
6.9675
 30
0.0
 11
277.2885
 21
6.9675
 31
0.0
  0
LINE
  5
19F4
330
1D
100
AcDbEntity
  8
0
100
AcDbLine
 10
277.2885
 20
6.9675
 30
0.0
 11
277.2885
 21
8.194717413973
 31
0.0
  0
LINE
  5
19F5
330
1D
100
AcDbEntity
  8
0
100
AcDbLine
 10
277.8885
 20
6.9675
 30
0.0
 11
277.2885
 21
6.9675
 31
0.0
  0
LINE
  5
19F6
330
1D
100
AcDbEntity
  8
0
100
AcDbLine
 10
277.2885
 20
8.194717413973
 30
0.0
 11
277.2885
 21
6.9675
 31
0.0
  0
LINE
  5
19F7
330
1D
100
AcDbEntity
  8
0
100
AcDbLine
 10
277.545
 20
8.2335
 30
0.0
 11
276.586
 21
8.0885
 31
0.0
  0
LINE
  5
19F8
330
1D
100
AcDbEntity
  8
0
100
AcDbLine
 10
278.669
 20
8.4065
 30
0.0
 11
277.545
 21
8.2335
 31
0.0
  0
LINE
  5
19F9
330
1D
100
AcDbEntity
  8
0
100
AcDbLine
 10
277.2885
 20
8.06747673031
 30
0.0
 11
276.857
 21
8.0165
 31
0.0
  0
LINE
  5
19FA
330
1D
100
AcDbEntity
  8
0
100
AcDbLine
 10
274.367
 20
8.4665
 30
0.0
 11
274.0754
 21
8.406596340024
 31
0.0
  0
LINE
  5
19FB
330
1D
100
AcDbEntity
  8
0
100
AcDbLine
 10
274.669390345208
 20
8.601084806951
 30
0.0
 11
274.138
 21
8.6685
 31
0.0
  0
LINE
  5
19FC
330
1D
100
AcDbEntity
  8
0
100
AcDbLine
 10
274.674
 20
8.6005
 30
0.0
 11
274.138
 21
8.6685
 31
0.0
  0
LINE
  5
19FD
330
1D
100
AcDbEntity
  8
0
100
AcDbLine
 10
274.674
 20
8.6005
 30
0.0
 11
274.367
 21
8.4665
 31
0.0
  0
LINE
  5
19FE
330
1D
100
AcDbEntity
  8
0
100
AcDbLine
 10
273.4754
 20
6.9675
 30
0.0
 11
273.1946328125
 21
6.9675
 31
0.0
  0
LINE
  5
19FF
330
1D
100
AcDbEntity
  8
0
100
AcDbLine
 10
274.0754
 20
6.9675
 30
0.0
 11
273.4754
 21
6.9675
 31
0.0
  0
LINE
  5
1A00
330
1D
100
AcDbEntity
  8
0
100
AcDbLine
 10
274.0754
 20
6.9675
 30
0.0
 11
274.0754
 21
7.25940988065
 31
0.0
  0
LINE
  5
1A01
330
1D
100
AcDbEntity
  8
0
100
AcDbLine
 10
273.4754
 20
6.9675
 30
0.0
 11
272.0754
 21
6.9675
 31
0.0
  0
LINE
  5
1A02
330
1D
100
AcDbEntity
  8
0
100
AcDbLine
 10
274.0754
 20
7.25940988065
 30
0.0
 11
274.0754
 21
6.9675
 31
0.0
  0
LINE
  5
1A03
330
1D
100
AcDbEntity
  8
0
100
AcDbLine
 10
274.0754
 20
6.9675
 30
0.0
 11
273.4754
 21
6.9675
 31
0.0
  0
LINE
  5
1A04
330
1D
100
AcDbEntity
  8
0
100
AcDbLine
 10
274.0754
 20
6.9675
 30
0.0
 11
274.0754
 21
8.666053369272
 31
0.0
  0
LINE
  5
1A05
330
1D
100
AcDbEntity
  8
0
100
AcDbLine
 10
274.0754
 20
8.406596340024
 30
0.0
 11
274.0754
 21
8.666053369272
 31
0.0
  0
LINE
  5
1A06
330
1D
100
AcDbEntity
  8
0
100
AcDbLine
 10
274.0754
 20
8.666053369272
 30
0.0
 11
274.0754
 21
6.9675
 31
0.0
  0
LINE
  5
1A07
330
1D
100
AcDbEntity
  8
0
100
AcDbLine
 10
274.0754
 20
8.666053369272
 30
0.0
 11
274.0754
 21
8.406596340024
 31
0.0
  0
LINE
  5
1A08
330
1D
100
AcDbEntity
  8
0
100
AcDbLine
 10
274.138
 20
8.6685
 30
0.0
 11
274.0754
 21
8.666053369272
 31
0.0
  0
LINE
  5
1A09
330
1D
100
AcDbEntity
  8
0
100
AcDbLine
 10
274.138
 20
8.6685
 30
0.0
 11
273.396
 21
8.6395
 31
0.0
  0
LINE
  5
1A0A
330
1D
100
AcDbEntity
  8
0
100
AcDbLine
 10
273.396
 20
8.6395
 30
0.0
 11
272.455
 21
8.5625
 31
0.0
  0
LINE
  5
1A0B
330
1D
100
AcDbEntity
  8
0
100
AcDbLine
 10
279.429
 20
10.7955
 30
0.0
 11
272.198
 21
10.8205
 31
0.0
  0
LINE
  5
1A0C
330
1D
100
AcDbEntity
  8
0
100
AcDbLine
 10
267.1622
 20
4.4675
 30
0.0
 11
266.5622
 21
4.4675
 31
0.0
  0
LINE
  5
1A0D
330
1D
100
AcDbEntity
  8
0
100
AcDbLine
 10
267.1622
 20
4.4675
 30
0.0
 11
266.5622
 21
4.4675
 31
0.0
  0
LINE
  5
1A0E
330
1D
100
AcDbEntity
  8
0
100
AcDbLine
 10
267.1622
 20
4.4675
 30
0.0
 11
266.5622
 21
4.4675
 31
0.0
  0
LINE
  5
1A0F
330
1D
100
AcDbEntity
  8
0
100
AcDbLine
 10
267.31
 20
6.1785
 30
0.0
 11
266.215
 21
6.0915
 31
0.0
  0
LINE
  5
1A10
330
1D
100
AcDbEntity
  8
0
100
AcDbLine
 10
267.1622
 20
4.4675
 30
0.0
 11
267.1622
 21
6.136406658446
 31
0.0
  0
LINE
  5
1A11
330
1D
100
AcDbEntity
  8
0
100
AcDbLine
 10
267.1622
 20
4.4675
 30
0.0
 11
267.1622
 21
6.166756986301
 31
0.0
  0
LINE
  5
1A12
330
1D
100
AcDbEntity
  8
0
100
AcDbLine
 10
267.1622
 20
6.136406658446
 30
0.0
 11
267.1622
 21
4.4675
 31
0.0
  0
LINE
  5
1A13
330
1D
100
AcDbEntity
  8
0
100
AcDbLine
 10
267.1622
 20
6.166756986301
 30
0.0
 11
267.1622
 21
4.4675
 31
0.0
  0
LINE
  5
1A14
330
1D
100
AcDbEntity
  8
0
100
AcDbLine
 10
273.1946328125
 20
6.9675
 30
0.0
 11
267.875
 21
6.2205
 31
0.0
  0
LINE
  5
1A15
330
1D
100
AcDbEntity
  8
0
100
AcDbLine
 10
267.875
 20
6.2205
 30
0.0
 11
267.31
 21
6.1785
 31
0.0
  0
LINE
  5
1A16
330
1D
100
AcDbEntity
  8
0
100
AcDbLine
 10
270.0754
 20
6.9675
 30
0.0
 11
270.0754
 21
8.227497668998
 31
0.0
  0
LINE
  5
1A17
330
1D
100
AcDbEntity
  8
0
100
AcDbLine
 10
270.6754
 20
6.9675
 30
0.0
 11
270.0754
 21
6.9675
 31
0.0
  0
LINE
  5
1A18
330
1D
100
AcDbEntity
  8
0
100
AcDbLine
 10
269.55
 20
7.8895
 30
0.0
 11
269.073
 21
7.9565
 31
0.0
  0
LINE
  5
1A19
330
1D
100
AcDbEntity
  8
0
100
AcDbLine
 10
270.0754
 20
7.908153254438
 30
0.0
 11
269.55
 21
7.8895
 31
0.0
  0
LINE
  5
1A1A
330
1D
100
AcDbEntity
  8
0
100
AcDbLine
 10
269.448
 20
8.1105
 30
0.0
 11
269.073
 21
7.9565
 31
0.0
  0
LINE
  5
1A1B
330
1D
100
AcDbEntity
  8
0
100
AcDbLine
 10
270.0754
 20
8.227497668998
 30
0.0
 11
270.0754
 21
6.9675
 31
0.0
  0
LINE
  5
1A1C
330
1D
100
AcDbEntity
  8
0
100
AcDbLine
 10
269.448
 20
8.1105
 30
0.0
 11
269.073
 21
7.9565
 31
0.0
  0
LINE
  5
1A1D
330
1D
100
AcDbEntity
  8
0
100
AcDbLine
 10
270.735
 20
8.3505
 30
0.0
 11
269.448
 21
8.1105
 31
0.0
  0
LINE
  5
1A1E
330
1D
100
AcDbEntity
  8
0
100
AcDbLine
 10
263.1622
 20
4.4675
 30
0.0
 11
263.1622
 21
4.9675
 31
0.0
  0
LINE
  5
1A1F
330
1D
100
AcDbEntity
  8
0
100
AcDbLine
 10
263.1622
 20
4.9675
 30
0.0
 11
263.1622
 21
4.4675
 31
0.0
  0
LINE
  5
1A20
330
1D
100
AcDbEntity
  8
0
100
AcDbLine
 10
266.5622
 20
4.4675
 30
0.0
 11
265.1622
 21
4.4675
 31
0.0
  0
LINE
  5
1A21
330
1D
100
AcDbEntity
  8
0
100
AcDbLine
 10
266.5622
 20
4.4675
 30
0.0
 11
265.1622
 21
4.4675
 31
0.0
  0
LINE
  5
1A22
330
1D
100
AcDbEntity
  8
0
100
AcDbLine
 10
266.5622
 20
4.4675
 30
0.0
 11
265.1622
 21
4.4675
 31
0.0
  0
LINE
  5
1A23
330
1D
100
AcDbEntity
  8
0
100
AcDbLine
 10
263.7622
 20
4.4675
 30
0.0
 11
263.1622
 21
4.4675
 31
0.0
  0
LINE
  5
1A24
330
1D
100
AcDbEntity
  8
0
100
AcDbLine
 10
265.1622
 20
4.4675
 30
0.0
 11
263.7622
 21
4.4675
 31
0.0
  0
LINE
  5
1A25
330
1D
100
AcDbEntity
  8
0
100
AcDbLine
 10
263.7622
 20
4.4675
 30
0.0
 11
263.1622
 21
4.4675
 31
0.0
  0
LINE
  5
1A26
330
1D
100
AcDbEntity
  8
0
100
AcDbLine
 10
265.1622
 20
4.4675
 30
0.0
 11
263.7622
 21
4.4675
 31
0.0
  0
LINE
  5
1A27
330
1D
100
AcDbEntity
  8
0
100
AcDbLine
 10
263.7622
 20
4.4675
 30
0.0
 11
263.1622
 21
4.4675
 31
0.0
  0
LINE
  5
1A28
330
1D
100
AcDbEntity
  8
0
100
AcDbLine
 10
265.1622
 20
4.4675
 30
0.0
 11
263.7622
 21
4.4675
 31
0.0
  0
LINE
  5
1A29
330
1D
100
AcDbEntity
  8
0
100
AcDbLine
 10
263.1622
 20
4.9675
 30
0.0
 11
262.5481
 21
4.9675
 31
0.0
  0
LINE
  5
1A2A
330
1D
100
AcDbEntity
  8
0
100
AcDbLine
 10
263.9481
 20
4.9675
 30
0.0
 11
262.5481
 21
4.9675
 31
0.0
  0
LINE
  5
1A2B
330
1D
100
AcDbEntity
  8
0
100
AcDbLine
 10
265.3481
 20
4.9675
 30
0.0
 11
263.9481
 21
4.9675
 31
0.0
  0
LINE
  5
1A2C
330
1D
100
AcDbEntity
  8
0
100
AcDbLine
 10
265.9481
 20
4.9675
 30
0.0
 11
265.3481
 21
4.9675
 31
0.0
  0
LINE
  5
1A2D
330
1D
100
AcDbEntity
  8
0
100
AcDbLine
 10
265.9481
 20
4.9675
 30
0.0
 11
265.9481
 21
6.342524711316
 31
0.0
  0
LINE
  5
1A2E
330
1D
100
AcDbEntity
  8
0
100
AcDbLine
 10
266.215
 20
6.0915
 30
0.0
 11
265.9481
 21
6.069086979969
 31
0.0
  0
LINE
  5
1A2F
330
1D
100
AcDbEntity
  8
0
100
AcDbLine
 10
264.777
 20
6.2695
 30
0.0
 11
263.171
 21
6.1355
 31
0.0
  0
LINE
  5
1A30
330
1D
100
AcDbEntity
  8
0
100
AcDbLine
 10
266.573
 20
6.3485
 30
0.0
 11
266.076
 21
6.3505
 31
0.0
  0
LINE
  5
1A31
330
1D
100
AcDbEntity
  8
0
100
AcDbLine
 10
266.573
 20
6.3485
 30
0.0
 11
266.348
 21
6.3005
 31
0.0
  0
LINE
  5
1A32
330
1D
100
AcDbEntity
  8
0
100
AcDbLine
 10
265.9481
 20
6.342524711316
 30
0.0
 11
265.9481
 21
4.9675
 31
0.0
  0
LINE
  5
1A33
330
1D
100
AcDbEntity
  8
0
100
AcDbLine
 10
266.076
 20
6.3505
 30
0.0
 11
264.777
 21
6.2695
 31
0.0
  0
LINE
  5
1A34
330
1D
100
AcDbEntity
  8
0
100
AcDbLine
 10
266.348
 20
6.3005
 30
0.0
 11
265.9481
 21
6.252008188976
 31
0.0
  0
LINE
  5
1A35
330
1D
100
AcDbEntity
  8
0
100
AcDbLine
 10
281.645
 20
37.5725
 30
0.0
 11
276.501
 21
38.2565
 31
0.0
  0
LINE
  5
1A36
330
1D
100
AcDbEntity
  8
0
100
AcDbLine
 10
243.7795
 20
3.9675
 30
0.0
 11
242.3795
 21
3.9675
 31
0.0
  0
LINE
  5
1A37
330
1D
100
AcDbEntity
  8
0
100
AcDbLine
 10
243.7795
 20
3.9675
 30
0.0
 11
242.3795
 21
3.9675
 31
0.0
  0
LINE
  5
1A38
330
1D
100
AcDbEntity
  8
0
100
AcDbLine
 10
244.421
 20
6.3285
 30
0.0
 11
243.0886
 21
6.3495
 31
0.0
  0
LINE
  5
1A39
330
1D
100
AcDbEntity
  8
0
100
AcDbLine
 10
245.715
 20
10.3835
 30
0.0
 11
236.341
 21
10.2625
 31
0.0
  0
LINE
  5
1A3A
330
1D
100
AcDbEntity
  8
0
100
AcDbLine
 10
253.2491
 20
2.9675
 30
0.0
 11
252.6491
 21
2.9675
 31
0.0
  0
LINE
  5
1A3B
330
1D
100
AcDbEntity
  8
0
100
AcDbLine
 10
253.2491
 20
2.9675
 30
0.0
 11
252.6491
 21
2.9675
 31
0.0
  0
LINE
  5
1A3C
330
1D
100
AcDbEntity
  8
0
100
AcDbLine
 10
253.2491
 20
2.9675
 30
0.0
 11
252.6491
 21
2.9675
 31
0.0
  0
LINE
  5
1A3D
330
1D
100
AcDbEntity
  8
0
100
AcDbLine
 10
253.179
 20
5.2165
 30
0.0
 11
252.133
 21
5.1615
 31
0.0
  0
LINE
  5
1A3E
330
1D
100
AcDbEntity
  8
0
100
AcDbLine
 10
253.3034
 20
5.4675
 30
0.0
 11
252.7034
 21
5.4675
 31
0.0
  0
LINE
  5
1A3F
330
1D
100
AcDbEntity
  8
0
100
AcDbLine
 10
253.75
 20
7.5085
 30
0.0
 11
252.74
 21
7.6425
 31
0.0
  0
LINE
  5
1A40
330
1D
100
AcDbEntity
  8
0
100
AcDbLine
 10
260.532
 20
10.6165
 30
0.0
 11
251.655
 21
10.4715
 31
0.0
  0
LINE
  5
1A41
330
1D
100
AcDbEntity
  8
0
100
AcDbLine
 10
257.8844
 20
6.25094359352
 30
0.0
 11
257.356
 21
6.2525
 31
0.0
  0
LINE
  5
1A42
330
1D
100
AcDbEntity
  8
0
100
AcDbLine
 10
258.0
 20
6.5155
 30
0.0
 11
257.034
 21
6.3285
 31
0.0
  0
LINE
  5
1A43
330
1D
100
AcDbEntity
  8
0
100
AcDbLine
 10
257.8844
 20
5.390576839237
 30
0.0
 11
254.745
 21
5.1705
 31
0.0
  0
LINE
  5
1A44
330
1D
100
AcDbEntity
  8
0
100
AcDbLine
 10
261.2844
 20
4.9675
 30
0.0
 11
259.8844
 21
4.9675
 31
0.0
  0
LINE
  5
1A45
330
1D
100
AcDbEntity
  8
0
100
AcDbLine
 10
261.2844
 20
4.9675
 30
0.0
 11
259.8844
 21
4.9675
 31
0.0
  0
LINE
  5
1A46
330
1D
100
AcDbEntity
  8
0
100
AcDbLine
 10
261.2844
 20
4.9675
 30
0.0
 11
259.8844
 21
4.9675
 31
0.0
  0
LINE
  5
1A47
330
1D
100
AcDbEntity
  8
0
100
AcDbLine
 10
261.272
 20
6.7925
 30
0.0
 11
259.58
 21
6.6855
 31
0.0
  0
LINE
  5
1A48
330
1D
100
AcDbEntity
  8
0
100
AcDbLine
 10
261.8844
 20
4.9675
 30
0.0
 11
261.2844
 21
4.9675
 31
0.0
  0
LINE
  5
1A49
330
1D
100
AcDbEntity
  8
0
100
AcDbLine
 10
261.8844
 20
4.9675
 30
0.0
 11
261.2844
 21
4.9675
 31
0.0
  0
LINE
  5
1A4A
330
1D
100
AcDbEntity
  8
0
100
AcDbLine
 10
261.8844
 20
4.9675
 30
0.0
 11
261.2844
 21
4.9675
 31
0.0
  0
LINE
  5
1A4B
330
1D
100
AcDbEntity
  8
0
100
AcDbLine
 10
262.138
 20
6.8075
 30
0.0
 11
261.272
 21
6.7925
 31
0.0
  0
LINE
  5
1A4C
330
1D
100
AcDbEntity
  8
0
100
AcDbLine
 10
261.8844
 20
4.9675
 30
0.0
 11
261.8844
 21
5.670983081496
 31
0.0
  0
LINE
  5
1A4D
330
1D
100
AcDbEntity
  8
0
100
AcDbLine
 10
261.9481
 20
4.9675
 30
0.0
 11
261.9481
 21
6.008659212598
 31
0.0
  0
LINE
  5
1A4E
330
1D
100
AcDbEntity
  8
0
100
AcDbLine
 10
261.8844
 20
4.9675
 30
0.0
 11
261.8844
 21
6.8031073903
 31
0.0
  0
LINE
  5
1A4F
330
1D
100
AcDbEntity
  8
0
100
AcDbLine
 10
261.9481
 20
5.924738549832
 30
0.0
 11
261.8844
 21
5.921332418813
 31
0.0
  0
LINE
  5
1A50
330
1D
100
AcDbEntity
  8
0
100
AcDbLine
 10
261.9481
 20
5.92313625
 30
0.0
 11
261.8844
 21
5.919589318182
 31
0.0
  0
LINE
  5
1A51
330
1D
100
AcDbEntity
  8
0
100
AcDbLine
 10
261.9481
 20
6.008659212598
 30
0.0
 11
261.9481
 21
4.9675
 31
0.0
  0
LINE
  5
1A52
330
1D
100
AcDbEntity
  8
0
100
AcDbLine
 10
262.135
 20
6.0325
 30
0.0
 11
261.8844
 21
6.000533700787
 31
0.0
  0
LINE
  5
1A53
330
1D
100
AcDbEntity
  8
0
100
AcDbLine
 10
261.9481
 20
6.573166261615
 30
0.0
 11
261.9481
 21
6.80421073903
 31
0.0
  0
LINE
  5
1A54
330
1D
100
AcDbEntity
  8
0
100
AcDbLine
 10
262.139
 20
6.5965
 30
0.0
 11
261.8844
 21
6.565380200143
 31
0.0
  0
LINE
  5
1A55
330
1D
100
AcDbEntity
  8
0
100
AcDbLine
 10
261.9481
 20
6.573182928571
 30
0.0
 11
261.8844
 21
6.565402428571
 31
0.0
  0
LINE
  5
1A56
330
1D
100
AcDbEntity
  8
0
100
AcDbLine
 10
261.9481
 20
5.994942563291
 30
0.0
 11
261.8844
 21
5.982142088608
 31
0.0
  0
LINE
  5
1A57
330
1D
100
AcDbEntity
  8
0
100
AcDbLine
 10
261.9481
 20
6.80421073903
 30
0.0
 11
261.9481
 21
6.573166261615
 31
0.0
  0
LINE
  5
1A58
330
1D
100
AcDbEntity
  8
0
100
AcDbLine
 10
261.9481
 20
6.80421073903
 30
0.0
 11
261.8844
 21
6.8031073903
 31
0.0
  0
LINE
  5
1A59
330
1D
100
AcDbEntity
  8
0
100
AcDbLine
 10
261.8844
 20
5.670983081496
 30
0.0
 11
261.8844
 21
4.9675
 31
0.0
  0
LINE
  5
1A5A
330
1D
100
AcDbEntity
  8
0
100
AcDbLine
 10
261.8844
 20
5.921332418813
 30
0.0
 11
261.8844
 21
5.982142088608
 31
0.0
  0
LINE
  5
1A5B
330
1D
100
AcDbEntity
  8
0
100
AcDbLine
 10
261.8844
 20
5.982142088608
 30
0.0
 11
261.8844
 21
5.921332418813
 31
0.0
  0
LINE
  5
1A5C
330
1D
100
AcDbEntity
  8
0
100
AcDbLine
 10
261.8844
 20
6.565402428571
 30
0.0
 11
261.8844
 21
6.8031073903
 31
0.0
  0
LINE
  5
1A5D
330
1D
100
AcDbEntity
  8
0
100
AcDbLine
 10
261.8844
 20
6.8031073903
 30
0.0
 11
261.8844
 21
6.565402428571
 31
0.0
  0
LINE
  5
1A5E
330
1D
100
AcDbEntity
  8
0
100
AcDbLine
 10
261.8844
 20
6.8031073903
 30
0.0
 11
261.8844
 21
4.9675
 31
0.0
  0
LINE
  5
1A5F
330
1D
100
AcDbEntity
  8
0
100
AcDbLine
 10
261.9481
 20
5.675448550904
 30
0.0
 11
261.8844
 21
5.670983081496
 31
0.0
  0
LINE
  5
1A60
330
1D
100
AcDbEntity
  8
0
100
AcDbLine
 10
259.8844
 20
4.9675
 30
0.0
 11
258.4844
 21
4.9675
 31
0.0
  0
LINE
  5
1A61
330
1D
100
AcDbEntity
  8
0
100
AcDbLine
 10
259.8844
 20
4.9675
 30
0.0
 11
258.4844
 21
4.9675
 31
0.0
  0
LINE
  5
1A62
330
1D
100
AcDbEntity
  8
0
100
AcDbLine
 10
258.4844
 20
4.9675
 30
0.0
 11
257.8844
 21
4.9675
 31
0.0
  0
LINE
  5
1A63
330
1D
100
AcDbEntity
  8
0
100
AcDbLine
 10
257.8844
 20
4.9675
 30
0.0
 11
257.8844
 21
6.49312194617
 31
0.0
  0
LINE
  5
1A64
330
1D
100
AcDbEntity
  8
0
100
AcDbLine
 10
258.4844
 20
4.9675
 30
0.0
 11
257.8844
 21
4.9675
 31
0.0
  0
LINE
  5
1A65
330
1D
100
AcDbEntity
  8
0
100
AcDbLine
 10
258.4844
 20
4.9675
 30
0.0
 11
257.8844
 21
4.9675
 31
0.0
  0
LINE
  5
1A66
330
1D
100
AcDbEntity
  8
0
100
AcDbLine
 10
259.8844
 20
4.9675
 30
0.0
 11
258.4844
 21
4.9675
 31
0.0
  0
LINE
  5
1A67
330
1D
100
AcDbEntity
  8
0
100
AcDbLine
 10
257.8844
 20
6.49312194617
 30
0.0
 11
257.8844
 21
4.9675
 31
0.0
  0
LINE
  5
1A68
330
1D
100
AcDbEntity
  8
0
100
AcDbLine
 10
259.58
 20
6.6855
 30
0.0
 11
258.0
 21
6.5155
 31
0.0
  0
LINE
  5
1A69
330
1D
100
AcDbEntity
  8
0
100
AcDbLine
 10
253.2491
 20
2.9675
 30
0.0
 11
253.2491
 21
5.219246678024
 31
0.0
  0
LINE
  5
1A6A
330
1D
100
AcDbEntity
  8
0
100
AcDbLine
 10
254.129
 20
3.4075
 30
0.0
 11
254.129
 21
5.132865771812
 31
0.0
  0
LINE
  5
1A6B
330
1D
100
AcDbEntity
  8
0
100
AcDbLine
 10
254.129
 20
5.132865771812
 30
0.0
 11
254.129
 21
3.4075
 31
0.0
  0
LINE
  5
1A6C
330
1D
100
AcDbEntity
  8
0
100
AcDbLine
 10
253.2491
 20
5.219246678024
 30
0.0
 11
253.2491
 21
2.9675
 31
0.0
  0
LINE
  5
1A6D
330
1D
100
AcDbEntity
  8
0
100
AcDbLine
 10
253.2491
 20
2.9675
 30
0.0
 11
253.2491
 21
3.4075
 31
0.0
  0
LINE
  5
1A6E
330
1D
100
AcDbEntity
  8
0
100
AcDbLine
 10
253.2491
 20
3.4075
 30
0.0
 11
253.2491
 21
2.9675
 31
0.0
  0
LINE
  5
1A6F
330
1D
100
AcDbEntity
  8
0
100
AcDbLine
 10
253.529
 20
3.4075
 30
0.0
 11
253.2491
 21
3.4075
 31
0.0
  0
LINE
  5
1A70
330
1D
100
AcDbEntity
  8
0
100
AcDbLine
 10
254.129
 20
3.4075
 30
0.0
 11
253.529
 21
3.4075
 31
0.0
  0
LINE
  5
1A71
330
1D
100
AcDbEntity
  8
0
100
AcDbLine
 10
253.879
 20
5.1155
 30
0.0
 11
253.2491
 21
5.075613240132
 31
0.0
  0
LINE
  5
1A72
330
1D
100
AcDbEntity
  8
0
100
AcDbLine
 10
254.745
 20
5.1705
 30
0.0
 11
254.129
 21
5.131377598152
 31
0.0
  0
LINE
  5
1A73
330
1D
100
AcDbEntity
  8
0
100
AcDbLine
 10
254.745
 20
5.1705
 30
0.0
 11
253.879
 21
5.1155
 31
0.0
  0
LINE
  5
1A74
330
1D
100
AcDbEntity
  8
0
100
AcDbLine
 10
253.668
 20
5.1965
 30
0.0
 11
253.2491
 21
5.163127467301
 31
0.0
  0
LINE
  5
1A75
330
1D
100
AcDbEntity
  8
0
100
AcDbLine
 10
253.766
 20
5.2395
 30
0.0
 11
253.179
 21
5.2165
 31
0.0
  0
LINE
  5
1A76
330
1D
100
AcDbEntity
  8
0
100
AcDbLine
 10
253.973
 20
5.2355
 30
0.0
 11
253.668
 21
5.1965
 31
0.0
  0
LINE
  5
1A77
330
1D
100
AcDbEntity
  8
0
100
AcDbLine
 10
253.973
 20
5.2355
 30
0.0
 11
253.766
 21
5.2395
 31
0.0
  0
LINE
  5
1A78
330
1D
100
AcDbEntity
  8
0
100
AcDbLine
 10
253.3034
 20
5.4675
 30
0.0
 11
253.3034
 21
7.567751881188
 31
0.0
  0
LINE
  5
1A79
330
1D
100
AcDbEntity
  8
0
100
AcDbLine
 10
257.356
 20
6.2525
 30
0.0
 11
257.034
 21
6.3285
 31
0.0
  0
LINE
  5
1A7A
330
1D
100
AcDbEntity
  8
0
100
AcDbLine
 10
257.128662369278
 20
6.346824909995
 30
0.0
 11
257.084675991189
 21
6.316539207048
 31
0.0
  0
LINE
  5
1A7B
330
1D
100
AcDbEntity
  8
0
100
AcDbLine
 10
253.823
 20
7.4385
 30
0.0
 11
253.75
 21
7.5085
 31
0.0
  0
LINE
  5
1A7C
330
1D
100
AcDbEntity
  8
0
100
AcDbLine
 10
253.823
 20
7.4385
 30
0.0
 11
253.327
 21
7.2275
 31
0.0
  0
LINE
  5
1A7D
330
1D
100
AcDbEntity
  8
0
100
AcDbLine
 10
253.3034
 20
7.567751881188
 30
0.0
 11
253.3034
 21
5.4675
 31
0.0
  0
LINE
  5
1A7E
330
1D
100
AcDbEntity
  8
0
100
AcDbLine
 10
249.0141
 20
3.9675
 30
0.0
 11
247.6141
 21
3.9675
 31
0.0
  0
LINE
  5
1A7F
330
1D
100
AcDbEntity
  8
0
100
AcDbLine
 10
249.0141
 20
3.9675
 30
0.0
 11
247.6141
 21
3.9675
 31
0.0
  0
LINE
  5
1A80
330
1D
100
AcDbEntity
  8
0
100
AcDbLine
 10
249.0313
 20
5.5625
 30
0.0
 11
247.0634
 21
5.3885
 31
0.0
  0
LINE
  5
1A81
330
1D
100
AcDbEntity
  8
0
100
AcDbLine
 10
251.0141
 20
3.9675
 30
0.0
 11
251.0141
 21
5.4675
 31
0.0
  0
LINE
  5
1A82
330
1D
100
AcDbEntity
  8
0
100
AcDbLine
 10
251.0141
 20
5.4675
 30
0.0
 11
251.0141
 21
3.9675
 31
0.0
  0
LINE
  5
1A83
330
1D
100
AcDbEntity
  8
0
100
AcDbLine
 10
252.6491
 20
2.9675
 30
0.0
 11
251.2491
 21
2.9675
 31
0.0
  0
LINE
  5
1A84
330
1D
100
AcDbEntity
  8
0
100
AcDbLine
 10
252.6491
 20
2.9675
 30
0.0
 11
251.2491
 21
2.9675
 31
0.0
  0
LINE
  5
1A85
330
1D
100
AcDbEntity
  8
0
100
AcDbLine
 10
251.2491
 20
2.9675
 30
0.0
 11
249.8491
 21
2.9675
 31
0.0
  0
LINE
  5
1A86
330
1D
100
AcDbEntity
  8
0
100
AcDbLine
 10
249.8491
 20
2.9675
 30
0.0
 11
249.2491
 21
2.9675
 31
0.0
  0
LINE
  5
1A87
330
1D
100
AcDbEntity
  8
0
100
AcDbLine
 10
249.8491
 20
2.9675
 30
0.0
 11
249.2491
 21
2.9675
 31
0.0
  0
LINE
  5
1A88
330
1D
100
AcDbEntity
  8
0
100
AcDbLine
 10
251.2491
 20
2.9675
 30
0.0
 11
249.8491
 21
2.9675
 31
0.0
  0
LINE
  5
1A89
330
1D
100
AcDbEntity
  8
0
100
AcDbLine
 10
251.2491
 20
2.9675
 30
0.0
 11
249.8491
 21
2.9675
 31
0.0
  0
LINE
  5
1A8A
330
1D
100
AcDbEntity
  8
0
100
AcDbLine
 10
249.2491
 20
2.9675
 30
0.0
 11
249.2491
 21
3.9675
 31
0.0
  0
LINE
  5
1A8B
330
1D
100
AcDbEntity
  8
0
100
AcDbLine
 10
249.8491
 20
2.9675
 30
0.0
 11
249.2491
 21
2.9675
 31
0.0
  0
LINE
  5
1A8C
330
1D
100
AcDbEntity
  8
0
100
AcDbLine
 10
251.2491
 20
2.9675
 30
0.0
 11
249.8491
 21
2.9675
 31
0.0
  0
LINE
  5
1A8D
330
1D
100
AcDbEntity
  8
0
100
AcDbLine
 10
252.6491
 20
2.9675
 30
0.0
 11
251.2491
 21
2.9675
 31
0.0
  0
LINE
  5
1A8E
330
1D
100
AcDbEntity
  8
0
100
AcDbLine
 10
252.6491
 20
2.9675
 30
0.0
 11
251.2491
 21
2.9675
 31
0.0
  0
LINE
  5
1A8F
330
1D
100
AcDbEntity
  8
0
100
AcDbLine
 10
249.2491
 20
3.9675
 30
0.0
 11
249.0141
 21
3.9675
 31
0.0
  0
LINE
  5
1A90
330
1D
100
AcDbEntity
  8
0
100
AcDbLine
 10
250.4141
 20
3.9675
 30
0.0
 11
249.0141
 21
3.9675
 31
0.0
  0
LINE
  5
1A91
330
1D
100
AcDbEntity
  8
0
100
AcDbLine
 10
249.2491
 20
3.9675
 30
0.0
 11
249.2491
 21
2.9675
 31
0.0
  0
LINE
  5
1A92
330
1D
100
AcDbEntity
  8
0
100
AcDbLine
 10
251.0141
 20
3.9675
 30
0.0
 11
250.4141
 21
3.9675
 31
0.0
  0
LINE
  5
1A93
330
1D
100
AcDbEntity
  8
0
100
AcDbLine
 10
251.3034
 20
5.4675
 30
0.0
 11
249.9034
 21
5.4675
 31
0.0
  0
LINE
  5
1A94
330
1D
100
AcDbEntity
  8
0
100
AcDbLine
 10
250.948
 20
7.5845
 30
0.0
 11
249.7346
 21
7.4495
 31
0.0
  0
LINE
  5
1A95
330
1D
100
AcDbEntity
  8
0
100
AcDbLine
 10
252.133
 20
5.1615
 30
0.0
 11
251.0141
 21
5.094051857969
 31
0.0
  0
LINE
  5
1A96
330
1D
100
AcDbEntity
  8
0
100
AcDbLine
 10
252.7034
 20
5.4675
 30
0.0
 11
251.3034
 21
5.4675
 31
0.0
  0
LINE
  5
1A97
330
1D
100
AcDbEntity
  8
0
100
AcDbLine
 10
251.2280609375
 20
5.4675
 30
0.0
 11
251.0141
 21
5.447940651336
 31
0.0
  0
LINE
  5
1A98
330
1D
100
AcDbEntity
  8
0
100
AcDbLine
 10
251.111148817204
 20
5.4675
 30
0.0
 11
251.0141
 21
5.457813033959
 31
0.0
  0
LINE
  5
1A99
330
1D
100
AcDbEntity
  8
0
100
AcDbLine
 10
252.74
 20
7.6425
 30
0.0
 11
250.948
 21
7.5845
 31
0.0
  0
LINE
  5
1A9A
330
1D
100
AcDbEntity
  8
0
100
AcDbLine
 10
249.3034
 20
5.4675
 30
0.0
 11
249.3034
 21
7.356076560395
 31
0.0
  0
LINE
  5
1A9B
330
1D
100
AcDbEntity
  8
0
100
AcDbLine
 10
249.9034
 20
5.4675
 30
0.0
 11
249.3034
 21
5.4675
 31
0.0
  0
LINE
  5
1A9C
330
1D
100
AcDbEntity
  8
0
100
AcDbLine
 10
249.3034
 20
5.569932644846
 30
0.0
 11
249.0313
 21
5.5625
 31
0.0
  0
LINE
  5
1A9D
330
1D
100
AcDbEntity
  8
0
100
AcDbLine
 10
249.3034
 20
6.963891737892
 30
0.0
 11
248.8469
 21
7.0035
 31
0.0
  0
LINE
  5
1A9E
330
1D
100
AcDbEntity
  8
0
100
AcDbLine
 10
248.8469
 20
7.0035
 30
0.0
 11
248.6233
 21
7.1145
 31
0.0
  0
LINE
  5
1A9F
330
1D
100
AcDbEntity
  8
0
100
AcDbLine
 10
249.3034
 20
7.356076560395
 30
0.0
 11
249.3034
 21
5.4675
 31
0.0
  0
LINE
  5
1AA0
330
1D
100
AcDbEntity
  8
0
100
AcDbLine
 10
249.7346
 20
7.4495
 30
0.0
 11
248.8438
 21
7.2565
 31
0.0
  0
LINE
  5
1AA1
330
1D
100
AcDbEntity
  8
0
100
AcDbLine
 10
248.8438
 20
7.2565
 30
0.0
 11
248.6233
 21
7.1145
 31
0.0
  0
LINE
  5
1AA2
330
1D
100
AcDbEntity
  8
0
100
AcDbLine
 10
247.0141
 20
3.9675
 30
0.0
 11
247.0141
 21
5.380307320907
 31
0.0
  0
LINE
  5
1AA3
330
1D
100
AcDbEntity
  8
0
100
AcDbLine
 10
244.3795
 20
3.9675
 30
0.0
 11
244.3795
 21
6.329154082858
 31
0.0
  0
LINE
  5
1AA4
330
1D
100
AcDbEntity
  8
0
100
AcDbLine
 10
246.363
 20
4.6625
 30
0.0
 11
245.8468
 21
4.2195
 31
0.0
  0
LINE
  5
1AA5
330
1D
100
AcDbEntity
  8
0
100
AcDbLine
 10
247.0141
 20
5.380307320907
 30
0.0
 11
247.0141
 21
3.9675
 31
0.0
  0
LINE
  5
1AA6
330
1D
100
AcDbEntity
  8
0
100
AcDbLine
 10
244.3795
 20
6.329154082858
 30
0.0
 11
244.3795
 21
3.9675
 31
0.0
  0
LINE
  5
1AA7
330
1D
100
AcDbEntity
  8
0
100
AcDbLine
 10
247.6141
 20
3.9675
 30
0.0
 11
247.0141
 21
3.9675
 31
0.0
  0
LINE
  5
1AA8
330
1D
100
AcDbEntity
  8
0
100
AcDbLine
 10
247.6141
 20
3.9675
 30
0.0
 11
247.0141
 21
3.9675
 31
0.0
  0
LINE
  5
1AA9
330
1D
100
AcDbEntity
  8
0
100
AcDbLine
 10
244.3795
 20
3.9675
 30
0.0
 11
243.7795
 21
3.9675
 31
0.0
  0
LINE
  5
1AAA
330
1D
100
AcDbEntity
  8
0
100
AcDbLine
 10
244.3795
 20
3.9675
 30
0.0
 11
244.3795
 21
4.083079583927
 31
0.0
  0
LINE
  5
1AAB
330
1D
100
AcDbEntity
  8
0
100
AcDbLine
 10
244.3795
 20
3.9675
 30
0.0
 11
243.7795
 21
3.9675
 31
0.0
  0
LINE
  5
1AAC
330
1D
100
AcDbEntity
  8
0
100
AcDbLine
 10
244.3795
 20
4.083079583927
 30
0.0
 11
244.3795
 21
3.9675
 31
0.0
  0
LINE
  5
1AAD
330
1D
100
AcDbEntity
  8
0
100
AcDbLine
 10
245.295374742425
 20
4.132691515152
 30
0.0
 11
244.3795
 21
4.083079583927
 31
0.0
  0
LINE
  5
1AAE
330
1D
100
AcDbEntity
  8
0
100
AcDbLine
 10
245.295374742425
 20
4.132691515152
 30
0.0
 11
244.3795
 21
4.083079583927
 31
0.0
  0
LINE
  5
1AAF
330
1D
100
AcDbEntity
  8
0
100
AcDbLine
 10
245.3105
 20
4.1335
 30
0.0
 11
244.3795
 21
4.083735598292
 31
0.0
  0
LINE
  5
1AB0
330
1D
100
AcDbEntity
  8
0
100
AcDbLine
 10
245.8468
 20
4.2195
 30
0.0
 11
245.3105
 21
4.1335
 31
0.0
  0
LINE
  5
1AB1
330
1D
100
AcDbEntity
  8
0
100
AcDbLine
 10
246.3763
 20
5.2055
 30
0.0
 11
246.1728
 21
5.2405
 31
0.0
  0
LINE
  5
1AB2
330
1D
100
AcDbEntity
  8
0
100
AcDbLine
 10
247.0141
 20
5.202715252511
 30
0.0
 11
246.3763
 21
5.2055
 31
0.0
  0
LINE
  5
1AB3
330
1D
100
AcDbEntity
  8
0
100
AcDbLine
 10
247.0141
 20
4.700394819769
 30
0.0
 11
246.363
 21
4.6625
 31
0.0
  0
LINE
  5
1AB4
330
1D
100
AcDbEntity
  8
0
100
AcDbLine
 10
247.0634
 20
5.3885
 30
0.0
 11
246.1728
 21
5.2405
 31
0.0
  0
LINE
  5
1AB5
330
1D
100
AcDbEntity
  8
0
100
AcDbLine
 10
244.9727
 20
6.2045
 30
0.0
 11
244.8311
 21
6.2765
 31
0.0
  0
LINE
  5
1AB6
330
1D
100
AcDbEntity
  8
0
100
AcDbLine
 10
244.9727
 20
6.2045
 30
0.0
 11
244.4767
 21
6.0415
 31
0.0
  0
LINE
  5
1AB7
330
1D
100
AcDbEntity
  8
0
100
AcDbLine
 10
244.4767
 20
6.0415
 30
0.0
 11
244.3795
 21
6.030440109172
 31
0.0
  0
LINE
  5
1AB8
330
1D
100
AcDbEntity
  8
0
100
AcDbLine
 10
244.9727
 20
6.2045
 30
0.0
 11
244.8311
 21
6.2765
 31
0.0
  0
LINE
  5
1AB9
330
1D
100
AcDbEntity
  8
0
100
AcDbLine
 10
244.8311
 20
6.2765
 30
0.0
 11
244.421
 21
6.3285
 31
0.0
  0
LINE
  5
1ABA
330
1D
100
AcDbEntity
  8
0
100
AcDbLine
 10
244.8311
 20
6.2765
 30
0.0
 11
244.421
 21
6.3285
 31
0.0
  0
LINE
  5
1ABB
330
1D
100
AcDbEntity
  8
0
100
AcDbLine
 10
244.3795
 20
6.030440109172
 30
0.0
 11
244.3795
 21
6.329154082858
 31
0.0
  0
LINE
  5
1ABC
330
1D
100
AcDbEntity
  8
0
100
AcDbLine
 10
244.3795
 20
6.329154082858
 30
0.0
 11
244.3795
 21
6.030440109172
 31
0.0
  0
LINE
  5
1ABD
330
1D
100
AcDbEntity
  8
0
100
AcDbLine
 10
251.655
 20
10.4715
 30
0.0
 11
245.715
 21
10.3835
 31
0.0
  0
LINE
  5
1ABE
330
1D
100
AcDbEntity
  8
0
100
AcDbLine
 10
236.347
 20
3.704732603024
 30
0.0
 11
234.1364
 21
3.624143160942
 31
0.0
  0
LINE
  5
1ABF
330
1D
100
AcDbEntity
  8
0
100
AcDbLine
 10
236.347
 20
3.704732603024
 30
0.0
 11
234.1364
 21
3.624143160942
 31
0.0
  0
LINE
  5
1AC0
330
1D
100
AcDbEntity
  8
0
100
AcDbLine
 10
234.5893
 20
4.8735
 30
0.0
 11
234.1364
 21
4.814323671191
 31
0.0
  0
LINE
  5
1AC1
330
1D
100
AcDbEntity
  8
0
100
AcDbLine
 10
234.6796
 20
4.9675
 30
0.0
 11
234.1364
 21
4.9675
 31
0.0
  0
LINE
  5
1AC2
330
1D
100
AcDbEntity
  8
0
100
AcDbLine
 10
234.6796
 20
4.9675
 30
0.0
 11
234.0796
 21
4.9675
 31
0.0
  0
LINE
  5
1AC3
330
1D
100
AcDbEntity
  8
0
100
AcDbLine
 10
235.169
 20
7.0865
 30
0.0
 11
233.7999
 21
7.2405
 31
0.0
  0
LINE
  5
1AC4
330
1D
100
AcDbEntity
  8
0
100
AcDbLine
 10
239.5661
 20
1.9675
 30
0.0
 11
238.1661
 21
1.9675
 31
0.0
  0
LINE
  5
1AC5
330
1D
100
AcDbEntity
  8
0
100
AcDbLine
 10
239.5661
 20
1.9675
 30
0.0
 11
238.1661
 21
1.9675
 31
0.0
  0
LINE
  5
1AC6
330
1D
100
AcDbEntity
  8
0
100
AcDbLine
 10
239.5661
 20
1.9675
 30
0.0
 11
238.1661
 21
1.9675
 31
0.0
  0
LINE
  5
1AC7
330
1D
100
AcDbEntity
  8
0
100
AcDbLine
 10
239.747
 20
2.9675
 30
0.0
 11
238.347
 21
2.9675
 31
0.0
  0
LINE
  5
1AC8
330
1D
100
AcDbEntity
  8
0
100
AcDbLine
 10
239.747
 20
2.9675
 30
0.0
 11
238.347
 21
2.9675
 31
0.0
  0
LINE
  5
1AC9
330
1D
100
AcDbEntity
  8
0
100
AcDbLine
 10
239.8187
 20
4.4155
 30
0.0
 11
238.61
 21
4.3805
 31
0.0
  0
LINE
  5
1ACA
330
1D
100
AcDbEntity
  8
0
100
AcDbLine
 10
240.3795
 20
3.9675
 30
0.0
 11
240.3795
 21
6.125013468678
 31
0.0
  0
LINE
  5
1ACB
330
1D
100
AcDbEntity
  8
0
100
AcDbLine
 10
240.3795
 20
6.125013468678
 30
0.0
 11
240.3795
 21
3.9675
 31
0.0
  0
LINE
  5
1ACC
330
1D
100
AcDbEntity
  8
0
100
AcDbLine
 10
241.5661
 20
1.9675
 30
0.0
 11
240.9661
 21
1.9675
 31
0.0
  0
LINE
  5
1ACD
330
1D
100
AcDbEntity
  8
0
100
AcDbLine
 10
241.5661
 20
1.9675
 30
0.0
 11
240.9661
 21
1.9675
 31
0.0
  0
LINE
  5
1ACE
330
1D
100
AcDbEntity
  8
0
100
AcDbLine
 10
241.5661
 20
1.9675
 30
0.0
 11
240.9661
 21
1.9675
 31
0.0
  0
LINE
  5
1ACF
330
1D
100
AcDbEntity
  8
0
100
AcDbLine
 10
242.3795
 20
3.9675
 30
0.0
 11
240.9795
 21
3.9675
 31
0.0
  0
LINE
  5
1AD0
330
1D
100
AcDbEntity
  8
0
100
AcDbLine
 10
241.609794736842
 20
3.9675
 30
0.0
 11
240.7127
 21
3.9355
 31
0.0
  0
LINE
  5
1AD1
330
1D
100
AcDbEntity
  8
0
100
AcDbLine
 10
241.5661
 20
1.9675
 30
0.0
 11
241.5661
 21
3.936512037833
 31
0.0
  0
LINE
  5
1AD2
330
1D
100
AcDbEntity
  8
0
100
AcDbLine
 10
241.5661
 20
1.9675
 30
0.0
 11
241.5661
 21
3.965941378016
 31
0.0
  0
LINE
  5
1AD3
330
1D
100
AcDbEntity
  8
0
100
AcDbLine
 10
242.3795
 20
3.9675
 30
0.0
 11
242.245811206897
 21
3.9675
 31
0.0
  0
LINE
  5
1AD4
330
1D
100
AcDbEntity
  8
0
100
AcDbLine
 10
241.5661
 20
3.936512037833
 30
0.0
 11
241.5661
 21
1.9675
 31
0.0
  0
LINE
  5
1AD5
330
1D
100
AcDbEntity
  8
0
100
AcDbLine
 10
241.5661
 20
3.965941378016
 30
0.0
 11
241.5661
 21
1.9675
 31
0.0
  0
LINE
  5
1AD6
330
1D
100
AcDbEntity
  8
0
100
AcDbLine
 10
240.9661
 20
1.9675
 30
0.0
 11
239.5661
 21
1.9675
 31
0.0
  0
LINE
  5
1AD7
330
1D
100
AcDbEntity
  8
0
100
AcDbLine
 10
240.9661
 20
1.9675
 30
0.0
 11
239.5661
 21
1.9675
 31
0.0
  0
LINE
  5
1AD8
330
1D
100
AcDbEntity
  8
0
100
AcDbLine
 10
240.9661
 20
1.9675
 30
0.0
 11
239.5661
 21
1.9675
 31
0.0
  0
LINE
  5
1AD9
330
1D
100
AcDbEntity
  8
0
100
AcDbLine
 10
240.347
 20
2.9675
 30
0.0
 11
239.747
 21
2.9675
 31
0.0
  0
LINE
  5
1ADA
330
1D
100
AcDbEntity
  8
0
100
AcDbLine
 10
240.347
 20
2.9675
 30
0.0
 11
239.747
 21
2.9675
 31
0.0
  0
LINE
  5
1ADB
330
1D
100
AcDbEntity
  8
0
100
AcDbLine
 10
240.347
 20
2.9675
 30
0.0
 11
240.347
 21
4.412388326069
 31
0.0
  0
LINE
  5
1ADC
330
1D
100
AcDbEntity
  8
0
100
AcDbLine
 10
240.7127
 20
3.9355
 30
0.0
 11
240.347
 21
3.919407084931
 31
0.0
  0
LINE
  5
1ADD
330
1D
100
AcDbEntity
  8
0
100
AcDbLine
 10
240.9795
 20
3.9675
 30
0.0
 11
240.3795
 21
3.9675
 31
0.0
  0
LINE
  5
1ADE
330
1D
100
AcDbEntity
  8
0
100
AcDbLine
 10
240.347
 20
4.412388326069
 30
0.0
 11
240.347
 21
2.9675
 31
0.0
  0
LINE
  5
1ADF
330
1D
100
AcDbEntity
  8
0
100
AcDbLine
 10
240.3795
 20
4.412196901873
 30
0.0
 11
239.8187
 21
4.4155
 31
0.0
  0
LINE
  5
1AE0
330
1D
100
AcDbEntity
  8
0
100
AcDbLine
 10
243.0886
 20
6.3495
 30
0.0
 11
241.4831
 21
6.2645
 31
0.0
  0
LINE
  5
1AE1
330
1D
100
AcDbEntity
  8
0
100
AcDbLine
 10
240.347
 20
5.830411479945
 30
0.0
 11
240.347
 21
6.120905719251
 31
0.0
  0
LINE
  5
1AE2
330
1D
100
AcDbEntity
  8
0
100
AcDbLine
 10
240.347
 20
6.120905719251
 30
0.0
 11
240.347
 21
5.830411479945
 31
0.0
  0
LINE
  5
1AE3
330
1D
100
AcDbEntity
  8
0
100
AcDbLine
 10
240.2172
 20
6.1045
 30
0.0
 11
239.7731
 21
5.9455
 31
0.0
  0
LINE
  5
1AE4
330
1D
100
AcDbEntity
  8
0
100
AcDbLine
 10
240.2683
 20
5.8315
 30
0.0
 11
239.7731
 21
5.9455
 31
0.0
  0
LINE
  5
1AE5
330
1D
100
AcDbEntity
  8
0
100
AcDbLine
 10
240.3795
 20
5.829961964039
 30
0.0
 11
240.2683
 21
5.8315
 31
0.0
  0
LINE
  5
1AE6
330
1D
100
AcDbEntity
  8
0
100
AcDbLine
 10
241.4831
 20
6.2645
 30
0.0
 11
240.2172
 21
6.1045
 31
0.0
  0
LINE
  5
1AE7
330
1D
100
AcDbEntity
  8
0
100
AcDbLine
 10
236.947
 20
2.9675
 30
0.0
 11
236.347
 21
2.9675
 31
0.0
  0
LINE
  5
1AE8
330
1D
100
AcDbEntity
  8
0
100
AcDbLine
 10
236.947
 20
2.9675
 30
0.0
 11
236.347
 21
2.9675
 31
0.0
  0
LINE
  5
1AE9
330
1D
100
AcDbEntity
  8
0
100
AcDbLine
 10
236.947
 20
2.9675
 30
0.0
 11
236.347
 21
2.9675
 31
0.0
  0
LINE
  5
1AEA
330
1D
100
AcDbEntity
  8
0
100
AcDbLine
 10
237.3082
 20
4.3145
 30
0.0
 11
235.9081
 21
4.2045
 31
0.0
  0
LINE
  5
1AEB
330
1D
100
AcDbEntity
  8
0
100
AcDbLine
 10
238.1661
 20
1.9675
 30
0.0
 11
237.5661
 21
1.9675
 31
0.0
  0
LINE
  5
1AEC
330
1D
100
AcDbEntity
  8
0
100
AcDbLine
 10
238.1661
 20
1.9675
 30
0.0
 11
237.5661
 21
1.9675
 31
0.0
  0
LINE
  5
1AED
330
1D
100
AcDbEntity
  8
0
100
AcDbLine
 10
237.5661
 20
1.9675
 30
0.0
 11
237.5661
 21
2.9675
 31
0.0
  0
LINE
  5
1AEE
330
1D
100
AcDbEntity
  8
0
100
AcDbLine
 10
238.1661
 20
1.9675
 30
0.0
 11
237.5661
 21
1.9675
 31
0.0
  0
LINE
  5
1AEF
330
1D
100
AcDbEntity
  8
0
100
AcDbLine
 10
237.5661
 20
2.9675
 30
0.0
 11
236.947
 21
2.9675
 31
0.0
  0
LINE
  5
1AF0
330
1D
100
AcDbEntity
  8
0
100
AcDbLine
 10
238.347
 20
2.9675
 30
0.0
 11
236.947
 21
2.9675
 31
0.0
  0
LINE
  5
1AF1
330
1D
100
AcDbEntity
  8
0
100
AcDbLine
 10
237.5661
 20
2.9675
 30
0.0
 11
237.5661
 21
1.9675
 31
0.0
  0
LINE
  5
1AF2
330
1D
100
AcDbEntity
  8
0
100
AcDbLine
 10
238.347
 20
2.9675
 30
0.0
 11
236.947
 21
2.9675
 31
0.0
  0
LINE
  5
1AF3
330
1D
100
AcDbEntity
  8
0
100
AcDbLine
 10
238.61
 20
4.3805
 30
0.0
 11
237.3082
 21
4.3145
 31
0.0
  0
LINE
  5
1AF4
330
1D
100
AcDbEntity
  8
0
100
AcDbLine
 10
236.347
 20
2.9675
 30
0.0
 11
236.347
 21
4.238982536962
 31
0.0
  0
LINE
  5
1AF5
330
1D
100
AcDbEntity
  8
0
100
AcDbLine
 10
236.347
 20
4.066791562029
 30
0.0
 11
235.5764
 21
4.0755
 31
0.0
  0
LINE
  5
1AF6
330
1D
100
AcDbEntity
  8
0
100
AcDbLine
 10
235.9081
 20
4.2045
 30
0.0
 11
235.3732
 21
4.1105
 31
0.0
  0
LINE
  5
1AF7
330
1D
100
AcDbEntity
  8
0
100
AcDbLine
 10
235.5764
 20
4.0755
 30
0.0
 11
235.3732
 21
4.1105
 31
0.0
  0
LINE
  5
1AF8
330
1D
100
AcDbEntity
  8
0
100
AcDbLine
 10
236.347
 20
4.238982536962
 30
0.0
 11
236.347
 21
2.9675
 31
0.0
  0
LINE
  5
1AF9
330
1D
100
AcDbEntity
  8
0
100
AcDbLine
 10
236.347
 20
4.238982536962
 30
0.0
 11
235.9081
 21
4.2045
 31
0.0
  0
LINE
  5
1AFA
330
1D
100
AcDbEntity
  8
0
100
AcDbLine
 10
235.9081
 20
4.2045
 30
0.0
 11
235.3732
 21
4.1105
 31
0.0
  0
LINE
  5
1AFB
330
1D
100
AcDbEntity
  8
0
100
AcDbLine
 10
234.6796
 20
4.9675
 30
0.0
 11
234.6796
 21
5.042942564559
 31
0.0
  0
LINE
  5
1AFC
330
1D
100
AcDbEntity
  8
0
100
AcDbLine
 10
234.6796
 20
4.9675
 30
0.0
 11
234.6796
 21
7.141549010299
 31
0.0
  0
LINE
  5
1AFD
330
1D
100
AcDbEntity
  8
0
100
AcDbLine
 10
234.6796
 20
5.042942564559
 30
0.0
 11
234.6796
 21
4.9675
 31
0.0
  0
LINE
  5
1AFE
330
1D
100
AcDbEntity
  8
0
100
AcDbLine
 10
234.873
 20
4.9775
 30
0.0
 11
234.6796
 21
5.042942564559
 31
0.0
  0
LINE
  5
1AFF
330
1D
100
AcDbEntity
  8
0
100
AcDbLine
 10
234.873
 20
4.9775
 30
0.0
 11
234.6796
 21
5.042942564559
 31
0.0
  0
LINE
  5
1B00
330
1D
100
AcDbEntity
  8
0
100
AcDbLine
 10
234.873
 20
4.9775
 30
0.0
 11
234.5893
 21
4.8735
 31
0.0
  0
LINE
  5
1B01
330
1D
100
AcDbEntity
  8
0
100
AcDbLine
 10
235.4307
 20
6.8465
 30
0.0
 11
234.6796
 21
6.627903872241
 31
0.0
  0
LINE
  5
1B02
330
1D
100
AcDbEntity
  8
0
100
AcDbLine
 10
235.47321197671
 20
6.915196168454
 30
0.0
 11
235.4307
 21
6.8465
 31
0.0
  0
LINE
  5
1B03
330
1D
100
AcDbEntity
  8
0
100
AcDbLine
 10
235.478
 20
6.9125
 30
0.0
 11
235.169
 21
7.0865
 31
0.0
  0
LINE
  5
1B04
330
1D
100
AcDbEntity
  8
0
100
AcDbLine
 10
235.478
 20
6.9125
 30
0.0
 11
235.4307
 21
6.8465
 31
0.0
  0
LINE
  5
1B05
330
1D
100
AcDbEntity
  8
0
100
AcDbLine
 10
234.6796
 20
6.627903872241
 30
0.0
 11
234.6796
 21
7.141549010299
 31
0.0
  0
LINE
  5
1B06
330
1D
100
AcDbEntity
  8
0
100
AcDbLine
 10
234.6796
 20
7.141549010299
 30
0.0
 11
234.6796
 21
4.9675
 31
0.0
  0
LINE
  5
1B07
330
1D
100
AcDbEntity
  8
0
100
AcDbLine
 10
234.6796
 20
7.141549010299
 30
0.0
 11
234.6796
 21
6.627903872241
 31
0.0
  0
LINE
  5
1B08
330
1D
100
AcDbEntity
  8
0
100
AcDbLine
 10
230.1364
 20
3.478319507488
 30
0.0
 11
229.3733
 21
3.4505
 31
0.0
  0
LINE
  5
1B09
330
1D
100
AcDbEntity
  8
0
100
AcDbLine
 10
230.1364
 20
3.480709386925
 30
0.0
 11
229.3733
 21
3.4505
 31
0.0
  0
LINE
  5
1B0A
330
1D
100
AcDbEntity
  8
0
100
AcDbLine
 10
230.1364
 20
3.478319507488
 30
0.0
 11
229.3733
 21
3.4505
 31
0.0
  0
LINE
  5
1B0B
330
1D
100
AcDbEntity
  8
0
100
AcDbLine
 10
230.1364
 20
2.9675
 30
0.0
 11
230.1364
 21
4.931267172023
 31
0.0
  0
LINE
  5
1B0C
330
1D
100
AcDbEntity
  8
0
100
AcDbLine
 10
234.1364
 20
2.9675
 30
0.0
 11
234.1364
 21
4.9675
 31
0.0
  0
LINE
  5
1B0D
330
1D
100
AcDbEntity
  8
0
100
AcDbLine
 10
234.1364
 20
4.9675
 30
0.0
 11
234.1364
 21
2.9675
 31
0.0
  0
LINE
  5
1B0E
330
1D
100
AcDbEntity
  8
0
100
AcDbLine
 10
230.1364
 20
4.931267172023
 30
0.0
 11
230.1364
 21
2.9675
 31
0.0
  0
LINE
  5
1B0F
330
1D
100
AcDbEntity
  8
0
100
AcDbLine
 10
233.5364
 20
2.9675
 30
0.0
 11
232.1364
 21
2.9675
 31
0.0
  0
LINE
  5
1B10
330
1D
100
AcDbEntity
  8
0
100
AcDbLine
 10
233.5364
 20
2.9675
 30
0.0
 11
232.1364
 21
2.9675
 31
0.0
  0
LINE
  5
1B11
330
1D
100
AcDbEntity
  8
0
100
AcDbLine
 10
234.1364
 20
2.9675
 30
0.0
 11
233.5364
 21
2.9675
 31
0.0
  0
LINE
  5
1B12
330
1D
100
AcDbEntity
  8
0
100
AcDbLine
 10
234.1364
 20
2.9675
 30
0.0
 11
233.5364
 21
2.9675
 31
0.0
  0
LINE
  5
1B13
330
1D
100
AcDbEntity
  8
0
100
AcDbLine
 10
234.1364
 20
2.9675
 30
0.0
 11
234.1364
 21
3.624143160942
 31
0.0
  0
LINE
  5
1B14
330
1D
100
AcDbEntity
  8
0
100
AcDbLine
 10
230.7364
 20
2.9675
 30
0.0
 11
230.1364
 21
2.9675
 31
0.0
  0
LINE
  5
1B15
330
1D
100
AcDbEntity
  8
0
100
AcDbLine
 10
232.1364
 20
2.9675
 30
0.0
 11
230.7364
 21
2.9675
 31
0.0
  0
LINE
  5
1B16
330
1D
100
AcDbEntity
  8
0
100
AcDbLine
 10
230.7364
 20
2.9675
 30
0.0
 11
230.1364
 21
2.9675
 31
0.0
  0
LINE
  5
1B17
330
1D
100
AcDbEntity
  8
0
100
AcDbLine
 10
232.1364
 20
2.9675
 30
0.0
 11
230.7364
 21
2.9675
 31
0.0
  0
LINE
  5
1B18
330
1D
100
AcDbEntity
  8
0
100
AcDbLine
 10
230.7364
 20
2.9675
 30
0.0
 11
230.1364
 21
2.9675
 31
0.0
  0
LINE
  5
1B19
330
1D
100
AcDbEntity
  8
0
100
AcDbLine
 10
232.1364
 20
2.9675
 30
0.0
 11
230.7364
 21
2.9675
 31
0.0
  0
LINE
  5
1B1A
330
1D
100
AcDbEntity
  8
0
100
AcDbLine
 10
233.5364
 20
2.9675
 30
0.0
 11
232.1364
 21
2.9675
 31
0.0
  0
LINE
  5
1B1B
330
1D
100
AcDbEntity
  8
0
100
AcDbLine
 10
234.1364
 20
2.9675
 30
0.0
 11
233.5364
 21
2.9675
 31
0.0
  0
LINE
  5
1B1C
330
1D
100
AcDbEntity
  8
0
100
AcDbLine
 10
234.1364
 20
3.624143160942
 30
0.0
 11
234.1364
 21
2.9675
 31
0.0
  0
LINE
  5
1B1D
330
1D
100
AcDbEntity
  8
0
100
AcDbLine
 10
232.6796
 20
4.9675
 30
0.0
 11
231.2796
 21
4.9675
 31
0.0
  0
LINE
  5
1B1E
330
1D
100
AcDbEntity
  8
0
100
AcDbLine
 10
232.2785
 20
7.2045
 30
0.0
 11
230.3937
 21
6.9865
 31
0.0
  0
LINE
  5
1B1F
330
1D
100
AcDbEntity
  8
0
100
AcDbLine
 10
234.1364
 20
4.814323671191
 30
0.0
 11
234.1364
 21
4.9675
 31
0.0
  0
LINE
  5
1B20
330
1D
100
AcDbEntity
  8
0
100
AcDbLine
 10
234.1364
 20
4.9675
 30
0.0
 11
234.1364
 21
4.814323671191
 31
0.0
  0
LINE
  5
1B21
330
1D
100
AcDbEntity
  8
0
100
AcDbLine
 10
234.0796
 20
4.9675
 30
0.0
 11
232.6796
 21
4.9675
 31
0.0
  0
LINE
  5
1B22
330
1D
100
AcDbEntity
  8
0
100
AcDbLine
 10
233.7999
 20
7.2405
 30
0.0
 11
232.2785
 21
7.2045
 31
0.0
  0
LINE
  5
1B23
330
1D
100
AcDbEntity
  8
0
100
AcDbLine
 10
229.961830600148
 20
4.697126983514
 30
0.0
 11
229.6732
 21
4.7715
 31
0.0
  0
LINE
  5
1B24
330
1D
100
AcDbEntity
  8
0
100
AcDbLine
 10
230.1364
 20
4.684572960251
 30
0.0
 11
229.8454
 21
4.7055
 31
0.0
  0
LINE
  5
1B25
330
1D
100
AcDbEntity
  8
0
100
AcDbLine
 10
229.8454
 20
4.7055
 30
0.0
 11
229.6732
 21
4.7715
 31
0.0
  0
LINE
  5
1B26
330
1D
100
AcDbEntity
  8
0
100
AcDbLine
 10
230.1364
 20
4.901924614416
 30
0.0
 11
229.918470924767
 21
4.86865561804
 31
0.0
  0
LINE
  5
1B27
330
1D
100
AcDbEntity
  8
0
100
AcDbLine
 10
230.6796
 20
4.9675
 30
0.0
 11
230.6796
 21
7.019567805603
 31
0.0
  0
LINE
  5
1B28
330
1D
100
AcDbEntity
  8
0
100
AcDbLine
 10
231.2796
 20
4.9675
 30
0.0
 11
230.6796
 21
4.9675
 31
0.0
  0
LINE
  5
1B29
330
1D
100
AcDbEntity
  8
0
100
AcDbLine
 10
230.682875
 20
4.9675
 30
0.0
 11
230.0645
 21
4.9265
 31
0.0
  0
LINE
  5
1B2A
330
1D
100
AcDbEntity
  8
0
100
AcDbLine
 10
230.0645
 20
4.9265
 30
0.0
 11
229.6732
 21
4.7715
 31
0.0
  0
LINE
  5
1B2B
330
1D
100
AcDbEntity
  8
0
100
AcDbLine
 10
230.6796
 20
6.487931775867
 30
0.0
 11
230.4098
 21
6.4975
 31
0.0
  0
LINE
  5
1B2C
330
1D
100
AcDbEntity
  8
0
100
AcDbLine
 10
230.6796
 20
7.019567805603
 30
0.0
 11
230.6796
 21
4.9675
 31
0.0
  0
LINE
  5
1B2D
330
1D
100
AcDbEntity
  8
0
100
AcDbLine
 10
230.4098
 20
6.4975
 30
0.0
 11
229.8736
 21
6.7075
 31
0.0
  0
LINE
  5
1B2E
330
1D
100
AcDbEntity
  8
0
100
AcDbLine
 10
230.3937
 20
6.9865
 30
0.0
 11
229.8736
 21
6.7075
 31
0.0
  0
LINE
  5
1B2F
330
1D
100
AcDbEntity
  8
0
100
AcDbLine
 10
225.3677
 20
3.9675
 30
0.0
 11
225.3677
 21
5.842544575504
 31
0.0
  0
LINE
  5
1B30
330
1D
100
AcDbEntity
  8
0
100
AcDbLine
 10
225.3677
 20
5.842544575504
 30
0.0
 11
225.3677
 21
3.9675
 31
0.0
  0
LINE
  5
1B31
330
1D
100
AcDbEntity
  8
0
100
AcDbLine
 10
227.9623
 20
0.9675
 30
0.0
 11
226.5623
 21
0.9675
 31
0.0
  0
LINE
  5
1B32
330
1D
100
AcDbEntity
  8
0
100
AcDbLine
 10
227.9623
 20
0.9675
 30
0.0
 11
226.5623
 21
0.9675
 31
0.0
  0
LINE
  5
1B33
330
1D
100
AcDbEntity
  8
0
100
AcDbLine
 10
227.3528
 20
1.9675
 30
0.0
 11
225.9528
 21
1.9675
 31
0.0
  0
LINE
  5
1B34
330
1D
100
AcDbEntity
  8
0
100
AcDbLine
 10
227.9385
 20
3.6405
 30
0.0
 11
226.5384
 21
3.6335
 31
0.0
  0
LINE
  5
1B35
330
1D
100
AcDbEntity
  8
0
100
AcDbLine
 10
228.5623
 20
0.9675
 30
0.0
 11
227.9623
 21
0.9675
 31
0.0
  0
LINE
  5
1B36
330
1D
100
AcDbEntity
  8
0
100
AcDbLine
 10
228.5623
 20
0.9675
 30
0.0
 11
227.9623
 21
0.9675
 31
0.0
  0
LINE
  5
1B37
330
1D
100
AcDbEntity
  8
0
100
AcDbLine
 10
228.5623
 20
0.9675
 30
0.0
 11
228.5623
 21
3.444448327931
 31
0.0
  0
LINE
  5
1B38
330
1D
100
AcDbEntity
  8
0
100
AcDbLine
 10
228.5623
 20
3.444448327931
 30
0.0
 11
228.5623
 21
0.9675
 31
0.0
  0
LINE
  5
1B39
330
1D
100
AcDbEntity
  8
0
100
AcDbLine
 10
227.9528
 20
1.9675
 30
0.0
 11
227.3528
 21
1.9675
 31
0.0
  0
LINE
  5
1B3A
330
1D
100
AcDbEntity
  8
0
100
AcDbLine
 10
227.9528
 20
1.9675
 30
0.0
 11
227.9528
 21
3.63975046799
 31
0.0
  0
LINE
  5
1B3B
330
1D
100
AcDbEntity
  8
0
100
AcDbLine
 10
228.8221
 20
3.4385
 30
0.0
 11
227.9528
 21
3.418922640943
 31
0.0
  0
LINE
  5
1B3C
330
1D
100
AcDbEntity
  8
0
100
AcDbLine
 10
228.8221
 20
3.4385
 30
0.0
 11
228.5623
 21
3.432649087906
 31
0.0
  0
LINE
  5
1B3D
330
1D
100
AcDbEntity
  8
0
100
AcDbLine
 10
229.2314
 20
3.4475
 30
0.0
 11
228.8221
 21
3.4385
 31
0.0
  0
LINE
  5
1B3E
330
1D
100
AcDbEntity
  8
0
100
AcDbLine
 10
229.3733
 20
3.4505
 30
0.0
 11
229.2314
 21
3.4475
 31
0.0
  0
LINE
  5
1B3F
330
1D
100
AcDbEntity
  8
0
100
AcDbLine
 10
227.9623
 20
3.565571031862
 30
0.0
 11
227.9623
 21
3.639252527143
 31
0.0
  0
LINE
  5
1B40
330
1D
100
AcDbEntity
  8
0
100
AcDbLine
 10
228.2311
 20
3.5805
 30
0.0
 11
227.9528
 21
3.56504340836
 31
0.0
  0
LINE
  5
1B41
330
1D
100
AcDbEntity
  8
0
100
AcDbLine
 10
227.9623
 20
3.639252527143
 30
0.0
 11
227.9623
 21
3.565571031862
 31
0.0
  0
LINE
  5
1B42
330
1D
100
AcDbEntity
  8
0
100
AcDbLine
 10
227.9528
 20
3.63975046799
 30
0.0
 11
227.9528
 21
1.9675
 31
0.0
  0
LINE
  5
1B43
330
1D
100
AcDbEntity
  8
0
100
AcDbLine
 10
228.4727
 20
3.6125
 30
0.0
 11
228.2311
 21
3.5805
 31
0.0
  0
LINE
  5
1B44
330
1D
100
AcDbEntity
  8
0
100
AcDbLine
 10
228.4727
 20
3.6125
 30
0.0
 11
227.9385
 21
3.6405
 31
0.0
  0
LINE
  5
1B45
330
1D
100
AcDbEntity
  8
0
100
AcDbLine
 10
226.5623
 20
0.9675
 30
0.0
 11
225.1623
 21
0.9675
 31
0.0
  0
LINE
  5
1B46
330
1D
100
AcDbEntity
  8
0
100
AcDbLine
 10
226.5623
 20
0.9675
 30
0.0
 11
225.1623
 21
0.9675
 31
0.0
  0
LINE
  5
1B47
330
1D
100
AcDbEntity
  8
0
100
AcDbLine
 10
226.073
 20
5.6685
 30
0.0
 11
225.5381
 21
5.4715
 31
0.0
  0
LINE
  5
1B48
330
1D
100
AcDbEntity
  8
0
100
AcDbLine
 10
226.073
 20
5.6685
 30
0.0
 11
225.7329
 21
5.8175
 31
0.0
  0
LINE
  5
1B49
330
1D
100
AcDbEntity
  8
0
100
AcDbLine
 10
225.5381
 20
5.4715
 30
0.0
 11
225.3677
 21
5.45326369863
 31
0.0
  0
LINE
  5
1B4A
330
1D
100
AcDbEntity
  8
0
100
AcDbLine
 10
247.441
 20
41.0915
 30
0.0
 11
232.462
 21
42.1525
 31
0.0
  0
LINE
  5
1B4B
330
1D
100
AcDbEntity
  8
0
100
AcDbLine
 10
232.462
 20
42.1525
 30
0.0
 11
228.504
 21
42.3615
 31
0.0
  0
LINE
  5
1B4C
330
1D
100
AcDbEntity
  8
0
100
AcDbLine
 10
262.132
 20
39.7965
 30
0.0
 11
247.441
 21
41.0915
 31
0.0
  0
LINE
  5
1B4D
330
1D
100
AcDbEntity
  8
0
100
AcDbLine
 10
187.562
 20
-0.0325
 30
0.0
 11
186.162
 21
-0.0325
 31
0.0
  0
LINE
  5
1B4E
330
1D
100
AcDbEntity
  8
0
100
AcDbLine
 10
187.562
 20
-0.0325
 30
0.0
 11
186.162
 21
-0.0325
 31
0.0
  0
LINE
  5
1B4F
330
1D
100
AcDbEntity
  8
0
100
AcDbLine
 10
187.562
 20
-0.0325
 30
0.0
 11
186.162
 21
-0.0325
 31
0.0
  0
LINE
  5
1B50
330
1D
100
AcDbEntity
  8
0
100
AcDbLine
 10
187.562
 20
-0.0325
 30
0.0
 11
186.162
 21
-0.0325
 31
0.0
  0
LINE
  5
1B51
330
1D
100
AcDbEntity
  8
0
100
AcDbLine
 10
188.213
 20
2.1535
 30
0.0
 11
187.132
 21
2.1415
 31
0.0
  0
LINE
  5
1B52
330
1D
100
AcDbEntity
  8
0
100
AcDbLine
 10
188.141
 20
4.9675
 30
0.0
 11
186.741
 21
4.9675
 31
0.0
  0
LINE
  5
1B53
330
1D
100
AcDbEntity
  8
0
100
AcDbLine
 10
188.141
 20
4.9675
 30
0.0
 11
186.741
 21
4.9675
 31
0.0
  0
LINE
  5
1B54
330
1D
100
AcDbEntity
  8
0
100
AcDbLine
 10
188.255
 20
6.6915
 30
0.0
 11
187.252
 21
6.7505
 31
0.0
  0
LINE
  5
1B55
330
1D
100
AcDbEntity
  8
0
100
AcDbLine
 10
194.673
 20
9.9865
 30
0.0
 11
170.883
 21
9.9575
 31
0.0
  0
LINE
  5
1B56
330
1D
100
AcDbEntity
  8
0
100
AcDbLine
 10
196.003
 20
43.8075
 30
0.0
 11
179.756322998975
 21
44.196068704704
 31
0.0
  0
LINE
  5
1B57
330
1D
100
AcDbEntity
  8
0
100
AcDbLine
 10
213.583
 20
10.0615
 30
0.0
 11
194.673
 21
9.9865
 31
0.0
  0
LINE
  5
1B58
330
1D
100
AcDbEntity
  8
0
100
AcDbLine
 10
208.5087
 20
2.641393593908
 30
0.0
 11
202.2303
 21
2.5885
 31
0.0
  0
LINE
  5
1B59
330
1D
100
AcDbEntity
  8
0
100
AcDbLine
 10
215.6602
 20
0.9675
 30
0.0
 11
215.0602
 21
0.9675
 31
0.0
  0
LINE
  5
1B5A
330
1D
100
AcDbEntity
  8
0
100
AcDbLine
 10
215.6602
 20
0.9675
 30
0.0
 11
215.0602
 21
0.9675
 31
0.0
  0
LINE
  5
1B5B
330
1D
100
AcDbEntity
  8
0
100
AcDbLine
 10
215.6602
 20
0.9675
 30
0.0
 11
215.0602
 21
0.9675
 31
0.0
  0
LINE
  5
1B5C
330
1D
100
AcDbEntity
  8
0
100
AcDbLine
 10
215.6602
 20
0.9675
 30
0.0
 11
215.0602
 21
0.9675
 31
0.0
  0
LINE
  5
1B5D
330
1D
100
AcDbEntity
  8
0
100
AcDbLine
 10
216.0558
 20
2.9675
 30
0.0
 11
215.4558
 21
2.9675
 31
0.0
  0
LINE
  5
1B5E
330
1D
100
AcDbEntity
  8
0
100
AcDbLine
 10
216.0558
 20
2.9675
 30
0.0
 11
215.4558
 21
2.9675
 31
0.0
  0
LINE
  5
1B5F
330
1D
100
AcDbEntity
  8
0
100
AcDbLine
 10
215.9172
 20
4.9245
 30
0.0
 11
214.3673
 21
4.9825
 31
0.0
  0
LINE
  5
1B60
330
1D
100
AcDbEntity
  8
0
100
AcDbLine
 10
223.942
 20
10.1365
 30
0.0
 11
213.583
 21
10.0615
 31
0.0
  0
LINE
  5
1B61
330
1D
100
AcDbEntity
  8
0
100
AcDbLine
 10
215.6602
 20
2.7615
 30
0.0
 11
213.8334
 21
2.7495
 31
0.0
  0
LINE
  5
1B62
330
1D
100
AcDbEntity
  8
0
100
AcDbLine
 10
220.6485
 20
1.9675
 30
0.0
 11
220.0485
 21
1.9675
 31
0.0
  0
LINE
  5
1B63
330
1D
100
AcDbEntity
  8
0
100
AcDbLine
 10
220.6485
 20
1.9675
 30
0.0
 11
220.0485
 21
1.9675
 31
0.0
  0
LINE
  5
1B64
330
1D
100
AcDbEntity
  8
0
100
AcDbLine
 10
220.6485
 20
1.9675
 30
0.0
 11
220.0485
 21
1.9675
 31
0.0
  0
LINE
  5
1B65
330
1D
100
AcDbEntity
  8
0
100
AcDbLine
 10
220.6485
 20
1.9675
 30
0.0
 11
220.0485
 21
1.9675
 31
0.0
  0
LINE
  5
1B66
330
1D
100
AcDbEntity
  8
0
100
AcDbLine
 10
221.3677
 20
4.18729277865
 30
0.0
 11
219.907
 21
4.1185
 31
0.0
  0
LINE
  5
1B67
330
1D
100
AcDbEntity
  8
0
100
AcDbLine
 10
221.3677
 20
3.9675
 30
0.0
 11
221.3677
 21
5.751824808184
 31
0.0
  0
LINE
  5
1B68
330
1D
100
AcDbEntity
  8
0
100
AcDbLine
 10
221.3677
 20
5.751824808184
 30
0.0
 11
221.3677
 21
3.9675
 31
0.0
  0
LINE
  5
1B69
330
1D
100
AcDbEntity
  8
0
100
AcDbLine
 10
223.4485
 20
1.9675
 30
0.0
 11
222.0485
 21
1.9675
 31
0.0
  0
LINE
  5
1B6A
330
1D
100
AcDbEntity
  8
0
100
AcDbLine
 10
223.4485
 20
1.9675
 30
0.0
 11
222.0485
 21
1.9675
 31
0.0
  0
LINE
  5
1B6B
330
1D
100
AcDbEntity
  8
0
100
AcDbLine
 10
223.4485
 20
1.9675
 30
0.0
 11
222.0485
 21
1.9675
 31
0.0
  0
LINE
  5
1B6C
330
1D
100
AcDbEntity
  8
0
100
AcDbLine
 10
223.4485
 20
1.9675
 30
0.0
 11
222.0485
 21
1.9675
 31
0.0
  0
LINE
  5
1B6D
330
1D
100
AcDbEntity
  8
0
100
AcDbLine
 10
223.3677
 20
3.9675
 30
0.0
 11
221.9677
 21
3.9675
 31
0.0
  0
LINE
  5
1B6E
330
1D
100
AcDbEntity
  8
0
100
AcDbLine
 10
223.3677
 20
3.9675
 30
0.0
 11
221.9677
 21
3.9675
 31
0.0
  0
LINE
  5
1B6F
330
1D
100
AcDbEntity
  8
0
100
AcDbLine
 10
224.5623
 20
0.9675
 30
0.0
 11
224.5623
 21
1.9675
 31
0.0
  0
LINE
  5
1B70
330
1D
100
AcDbEntity
  8
0
100
AcDbLine
 10
224.5528
 20
1.9675
 30
0.0
 11
223.9528
 21
1.9675
 31
0.0
  0
LINE
  5
1B71
330
1D
100
AcDbEntity
  8
0
100
AcDbLine
 10
224.5528
 20
1.9675
 30
0.0
 11
223.9528
 21
1.9675
 31
0.0
  0
LINE
  5
1B72
330
1D
100
AcDbEntity
  8
0
100
AcDbLine
 10
224.0485
 20
1.9675
 30
0.0
 11
223.4485
 21
1.9675
 31
0.0
  0
LINE
  5
1B73
330
1D
100
AcDbEntity
  8
0
100
AcDbLine
 10
224.0485
 20
1.9675
 30
0.0
 11
223.4485
 21
1.9675
 31
0.0
  0
LINE
  5
1B74
330
1D
100
AcDbEntity
  8
0
100
AcDbLine
 10
224.5528
 20
1.9675
 30
0.0
 11
223.9528
 21
1.9675
 31
0.0
  0
LINE
  5
1B75
330
1D
100
AcDbEntity
  8
0
100
AcDbLine
 10
224.5528
 20
1.9675
 30
0.0
 11
224.5528
 21
3.58534043412
 31
0.0
  0
LINE
  5
1B76
330
1D
100
AcDbEntity
  8
0
100
AcDbLine
 10
224.5623
 20
1.9675
 30
0.0
 11
224.5623
 21
0.9675
 31
0.0
  0
LINE
  5
1B77
330
1D
100
AcDbEntity
  8
0
100
AcDbLine
 10
224.0485
 20
1.9675
 30
0.0
 11
223.4485
 21
1.9675
 31
0.0
  0
LINE
  5
1B78
330
1D
100
AcDbEntity
  8
0
100
AcDbLine
 10
224.0485
 20
1.9675
 30
0.0
 11
223.4485
 21
1.9675
 31
0.0
  0
LINE
  5
1B79
330
1D
100
AcDbEntity
  8
0
100
AcDbLine
 10
224.0485
 20
1.9675
 30
0.0
 11
224.0485
 21
3.9675
 31
0.0
  0
LINE
  5
1B7A
330
1D
100
AcDbEntity
  8
0
100
AcDbLine
 10
224.5528
 20
3.58534043412
 30
0.0
 11
224.5528
 21
1.9675
 31
0.0
  0
LINE
  5
1B7B
330
1D
100
AcDbEntity
  8
0
100
AcDbLine
 10
224.0485
 20
3.9675
 30
0.0
 11
224.0485
 21
1.9675
 31
0.0
  0
LINE
  5
1B7C
330
1D
100
AcDbEntity
  8
0
100
AcDbLine
 10
224.7677
 20
3.9675
 30
0.0
 11
223.3677
 21
3.9675
 31
0.0
  0
LINE
  5
1B7D
330
1D
100
AcDbEntity
  8
0
100
AcDbLine
 10
224.7677
 20
3.9675
 30
0.0
 11
223.3677
 21
3.9675
 31
0.0
  0
LINE
  5
1B7E
330
1D
100
AcDbEntity
  8
0
100
AcDbLine
 10
224.8081
 20
3.5945
 30
0.0
 11
224.0485
 21
3.567247331599
 31
0.0
  0
LINE
  5
1B7F
330
1D
100
AcDbEntity
  8
0
100
AcDbLine
 10
222.0485
 20
1.9675
 30
0.0
 11
220.6485
 21
1.9675
 31
0.0
  0
LINE
  5
1B80
330
1D
100
AcDbEntity
  8
0
100
AcDbLine
 10
222.0485
 20
1.9675
 30
0.0
 11
220.6485
 21
1.9675
 31
0.0
  0
LINE
  5
1B81
330
1D
100
AcDbEntity
  8
0
100
AcDbLine
 10
222.0485
 20
1.9675
 30
0.0
 11
220.6485
 21
1.9675
 31
0.0
  0
LINE
  5
1B82
330
1D
100
AcDbEntity
  8
0
100
AcDbLine
 10
222.0485
 20
1.9675
 30
0.0
 11
220.6485
 21
1.9675
 31
0.0
  0
LINE
  5
1B83
330
1D
100
AcDbEntity
  8
0
100
AcDbLine
 10
221.9677
 20
3.9675
 30
0.0
 11
221.3677
 21
3.9675
 31
0.0
  0
LINE
  5
1B84
330
1D
100
AcDbEntity
  8
0
100
AcDbLine
 10
221.9677
 20
3.9675
 30
0.0
 11
221.3677
 21
3.9675
 31
0.0
  0
LINE
  5
1B85
330
1D
100
AcDbEntity
  8
0
100
AcDbLine
 10
224.2747
 20
5.9175
 30
0.0
 11
223.1731
 21
5.9065
 31
0.0
  0
LINE
  5
1B86
330
1D
100
AcDbEntity
  8
0
100
AcDbLine
 10
221.5477
 20
5.7885
 30
0.0
 11
220.3747
 21
5.5495
 31
0.0
  0
LINE
  5
1B87
330
1D
100
AcDbEntity
  8
0
100
AcDbLine
 10
223.1731
 20
5.9065
 30
0.0
 11
221.5477
 21
5.7885
 31
0.0
  0
LINE
  5
1B88
330
1D
100
AcDbEntity
  8
0
100
AcDbLine
 10
220.8628
 20
5.3595
 30
0.0
 11
220.3747
 21
5.5495
 31
0.0
  0
LINE
  5
1B89
330
1D
100
AcDbEntity
  8
0
100
AcDbLine
 10
221.3677
 20
5.319345105094
 30
0.0
 11
220.8628
 21
5.3595
 31
0.0
  0
LINE
  5
1B8A
330
1D
100
AcDbEntity
  8
0
100
AcDbLine
 10
216.0558
 20
2.9675
 30
0.0
 11
216.0558
 21
4.90852116235
 31
0.0
  0
LINE
  5
1B8B
330
1D
100
AcDbEntity
  8
0
100
AcDbLine
 10
216.7727
 20
4.7565
 30
0.0
 11
216.2378
 21
4.6025
 31
0.0
  0
LINE
  5
1B8C
330
1D
100
AcDbEntity
  8
0
100
AcDbLine
 10
216.0558
 20
4.588078241005
 30
0.0
 11
216.0558
 21
4.90852116235
 31
0.0
  0
LINE
  5
1B8D
330
1D
100
AcDbEntity
  8
0
100
AcDbLine
 10
216.0558
 20
4.90852116235
 30
0.0
 11
216.0558
 21
4.588078241005
 31
0.0
  0
LINE
  5
1B8E
330
1D
100
AcDbEntity
  8
0
100
AcDbLine
 10
216.0558
 20
4.90852116235
 30
0.0
 11
216.0558
 21
2.9675
 31
0.0
  0
LINE
  5
1B8F
330
1D
100
AcDbEntity
  8
0
100
AcDbLine
 10
219.6562
 20
2.7945
 30
0.0
 11
215.6602
 21
2.72026929911
 31
0.0
  0
LINE
  5
1B90
330
1D
100
AcDbEntity
  8
0
100
AcDbLine
 10
220.0485
 20
1.9675
 30
0.0
 11
220.0485
 21
4.125164050235
 31
0.0
  0
LINE
  5
1B91
330
1D
100
AcDbEntity
  8
0
100
AcDbLine
 10
220.0485
 20
3.068106960227
 30
0.0
 11
219.6562
 21
2.7945
 31
0.0
  0
LINE
  5
1B92
330
1D
100
AcDbEntity
  8
0
100
AcDbLine
 10
220.0485
 20
3.937459157071
 30
0.0
 11
219.5455
 21
3.9615
 31
0.0
  0
LINE
  5
1B93
330
1D
100
AcDbEntity
  8
0
100
AcDbLine
 10
220.0485
 20
4.125164050235
 30
0.0
 11
220.0485
 21
1.9675
 31
0.0
  0
LINE
  5
1B94
330
1D
100
AcDbEntity
  8
0
100
AcDbLine
 10
219.907
 20
4.1185
 30
0.0
 11
219.3726
 21
4.0075
 31
0.0
  0
LINE
  5
1B95
330
1D
100
AcDbEntity
  8
0
100
AcDbLine
 10
219.5455
 20
3.9615
 30
0.0
 11
219.3726
 21
4.0075
 31
0.0
  0
LINE
  5
1B96
330
1D
100
AcDbEntity
  8
0
100
AcDbLine
 10
215.6602
 20
0.9675
 30
0.0
 11
215.6602
 21
2.71775513086
 31
0.0
  0
LINE
  5
1B97
330
1D
100
AcDbEntity
  8
0
100
AcDbLine
 10
215.6602
 20
2.71775513086
 30
0.0
 11
215.6602
 21
0.9675
 31
0.0
  0
LINE
  5
1B98
330
1D
100
AcDbEntity
  8
0
100
AcDbLine
 10
215.6602
 20
0.9675
 30
0.0
 11
215.6602
 21
2.760821459105
 31
0.0
  0
LINE
  5
1B99
330
1D
100
AcDbEntity
  8
0
100
AcDbLine
 10
215.6602
 20
2.760821459105
 30
0.0
 11
215.6602
 21
0.9675
 31
0.0
  0
LINE
  5
1B9A
330
1D
100
AcDbEntity
  8
0
100
AcDbLine
 10
216.2378
 20
4.6025
 30
0.0
 11
216.0558
 21
4.588078241005
 31
0.0
  0
LINE
  5
1B9B
330
1D
100
AcDbEntity
  8
0
100
AcDbLine
 10
216.7727
 20
4.7565
 30
0.0
 11
216.5504
 21
4.8515
 31
0.0
  0
LINE
  5
1B9C
330
1D
100
AcDbEntity
  8
0
100
AcDbLine
 10
216.5504
 20
4.8515
 30
0.0
 11
216.0558
 21
4.90852116235
 31
0.0
  0
LINE
  5
1B9D
330
1D
100
AcDbEntity
  8
0
100
AcDbLine
 10
216.7727
 20
4.7565
 30
0.0
 11
216.5504
 21
4.8515
 31
0.0
  0
LINE
  5
1B9E
330
1D
100
AcDbEntity
  8
0
100
AcDbLine
 10
216.5504
 20
4.8515
 30
0.0
 11
215.9172
 21
4.9245
 31
0.0
  0
LINE
  5
1B9F
330
1D
100
AcDbEntity
  8
0
100
AcDbLine
 10
211.9087
 20
1.9675
 30
0.0
 11
210.5087
 21
1.9675
 31
0.0
  0
LINE
  5
1BA0
330
1D
100
AcDbEntity
  8
0
100
AcDbLine
 10
211.6602
 20
1.9675
 30
0.0
 11
210.5087
 21
1.9675
 31
0.0
  0
LINE
  5
1BA1
330
1D
100
AcDbEntity
  8
0
100
AcDbLine
 10
211.6602
 20
1.9675
 30
0.0
 11
210.5087
 21
1.9675
 31
0.0
  0
LINE
  5
1BA2
330
1D
100
AcDbEntity
  8
0
100
AcDbLine
 10
211.9087
 20
1.9675
 30
0.0
 11
210.5087
 21
1.9675
 31
0.0
  0
LINE
  5
1BA3
330
1D
100
AcDbEntity
  8
0
100
AcDbLine
 10
210.943
 20
3.1715
 30
0.0
 11
209.3432
 21
3.1535
 31
0.0
  0
LINE
  5
1BA4
330
1D
100
AcDbEntity
  8
0
100
AcDbLine
 10
211.5726
 20
4.9675
 30
0.0
 11
210.1726
 21
4.9675
 31
0.0
  0
LINE
  5
1BA5
330
1D
100
AcDbEntity
  8
0
100
AcDbLine
 10
212.0238
 20
6.9445
 30
0.0
 11
210.5447
 21
6.8935
 31
0.0
  0
LINE
  5
1BA6
330
1D
100
AcDbEntity
  8
0
100
AcDbLine
 10
212.0558
 20
2.9675
 30
0.0
 11
212.0558
 21
4.834260314342
 31
0.0
  0
LINE
  5
1BA7
330
1D
100
AcDbEntity
  8
0
100
AcDbLine
 10
212.0558
 20
4.834260314342
 30
0.0
 11
212.0558
 21
2.9675
 31
0.0
  0
LINE
  5
1BA8
330
1D
100
AcDbEntity
  8
0
100
AcDbLine
 10
211.2811
 20
4.7125
 30
0.0
 11
211.1732
 21
4.6425
 31
0.0
  0
LINE
  5
1BA9
330
1D
100
AcDbEntity
  8
0
100
AcDbLine
 10
213.6602
 20
0.9675
 30
0.0
 11
212.2602
 21
0.9675
 31
0.0
  0
LINE
  5
1BAA
330
1D
100
AcDbEntity
  8
0
100
AcDbLine
 10
213.6602
 20
0.9675
 30
0.0
 11
212.2602
 21
0.9675
 31
0.0
  0
LINE
  5
1BAB
330
1D
100
AcDbEntity
  8
0
100
AcDbLine
 10
213.6602
 20
0.9675
 30
0.0
 11
212.2602
 21
0.9675
 31
0.0
  0
LINE
  5
1BAC
330
1D
100
AcDbEntity
  8
0
100
AcDbLine
 10
213.6602
 20
0.9675
 30
0.0
 11
212.2602
 21
0.9675
 31
0.0
  0
LINE
  5
1BAD
330
1D
100
AcDbEntity
  8
0
100
AcDbLine
 10
214.0558
 20
2.9675
 30
0.0
 11
212.6558
 21
2.9675
 31
0.0
  0
LINE
  5
1BAE
330
1D
100
AcDbEntity
  8
0
100
AcDbLine
 10
214.0558
 20
2.9675
 30
0.0
 11
212.6558
 21
2.9675
 31
0.0
  0
LINE
  5
1BAF
330
1D
100
AcDbEntity
  8
0
100
AcDbLine
 10
213.8334
 20
2.7495
 30
0.0
 11
212.5087
 21
2.729103103162
 31
0.0
  0
LINE
  5
1BB0
330
1D
100
AcDbEntity
  8
0
100
AcDbLine
 10
215.0602
 20
0.9675
 30
0.0
 11
213.6602
 21
0.9675
 31
0.0
  0
LINE
  5
1BB1
330
1D
100
AcDbEntity
  8
0
100
AcDbLine
 10
215.0602
 20
0.9675
 30
0.0
 11
213.6602
 21
0.9675
 31
0.0
  0
LINE
  5
1BB2
330
1D
100
AcDbEntity
  8
0
100
AcDbLine
 10
215.0602
 20
0.9675
 30
0.0
 11
213.6602
 21
0.9675
 31
0.0
  0
LINE
  5
1BB3
330
1D
100
AcDbEntity
  8
0
100
AcDbLine
 10
215.0602
 20
0.9675
 30
0.0
 11
213.6602
 21
0.9675
 31
0.0
  0
LINE
  5
1BB4
330
1D
100
AcDbEntity
  8
0
100
AcDbLine
 10
215.4558
 20
2.9675
 30
0.0
 11
214.0558
 21
2.9675
 31
0.0
  0
LINE
  5
1BB5
330
1D
100
AcDbEntity
  8
0
100
AcDbLine
 10
215.4558
 20
2.9675
 30
0.0
 11
214.0558
 21
2.9675
 31
0.0
  0
LINE
  5
1BB6
330
1D
100
AcDbEntity
  8
0
100
AcDbLine
 10
212.2602
 20
0.9675
 30
0.0
 11
211.6602
 21
0.9675
 31
0.0
  0
LINE
  5
1BB7
330
1D
100
AcDbEntity
  8
0
100
AcDbLine
 10
212.2602
 20
0.9675
 30
0.0
 11
211.6602
 21
0.9675
 31
0.0
  0
LINE
  5
1BB8
330
1D
100
AcDbEntity
  8
0
100
AcDbLine
 10
212.2602
 20
0.9675
 30
0.0
 11
211.6602
 21
0.9675
 31
0.0
  0
LINE
  5
1BB9
330
1D
100
AcDbEntity
  8
0
100
AcDbLine
 10
212.2602
 20
0.9675
 30
0.0
 11
211.6602
 21
0.9675
 31
0.0
  0
LINE
  5
1BBA
330
1D
100
AcDbEntity
  8
0
100
AcDbLine
 10
212.5087
 20
1.9675
 30
0.0
 11
211.9087
 21
1.9675
 31
0.0
  0
LINE
  5
1BBB
330
1D
100
AcDbEntity
  8
0
100
AcDbLine
 10
212.5087
 20
1.9675
 30
0.0
 11
211.9087
 21
1.9675
 31
0.0
  0
LINE
  5
1BBC
330
1D
100
AcDbEntity
  8
0
100
AcDbLine
 10
212.5087
 20
1.9675
 30
0.0
 11
212.5087
 21
2.9675
 31
0.0
  0
LINE
  5
1BBD
330
1D
100
AcDbEntity
  8
0
100
AcDbLine
 10
212.6558
 20
2.9675
 30
0.0
 11
212.0558
 21
2.9675
 31
0.0
  0
LINE
  5
1BBE
330
1D
100
AcDbEntity
  8
0
100
AcDbLine
 10
212.6558
 20
2.9675
 30
0.0
 11
212.0558
 21
2.9675
 31
0.0
  0
LINE
  5
1BBF
330
1D
100
AcDbEntity
  8
0
100
AcDbLine
 10
212.5087
 20
2.9675
 30
0.0
 11
212.5087
 21
1.9675
 31
0.0
  0
LINE
  5
1BC0
330
1D
100
AcDbEntity
  8
0
100
AcDbLine
 10
211.6602
 20
0.9675
 30
0.0
 11
211.6602
 21
1.9675
 31
0.0
  0
LINE
  5
1BC1
330
1D
100
AcDbEntity
  8
0
100
AcDbLine
 10
211.6602
 20
1.9675
 30
0.0
 11
211.6602
 21
0.9675
 31
0.0
  0
LINE
  5
1BC2
330
1D
100
AcDbEntity
  8
0
100
AcDbLine
 10
212.0558
 20
3.154594263185
 30
0.0
 11
210.943
 21
3.1715
 31
0.0
  0
LINE
  5
1BC3
330
1D
100
AcDbEntity
  8
0
100
AcDbLine
 10
211.4141
 20
4.5505
 30
0.0
 11
211.1732
 21
4.6425
 31
0.0
  0
LINE
  5
1BC4
330
1D
100
AcDbEntity
  8
0
100
AcDbLine
 10
212.0558
 20
4.490405179982
 30
0.0
 11
211.4141
 21
4.5505
 31
0.0
  0
LINE
  5
1BC5
330
1D
100
AcDbEntity
  8
0
100
AcDbLine
 10
212.9726
 20
4.9675
 30
0.0
 11
211.5726
 21
4.9675
 31
0.0
  0
LINE
  5
1BC6
330
1D
100
AcDbEntity
  8
0
100
AcDbLine
 10
213.5726
 20
4.9675
 30
0.0
 11
212.9726
 21
4.9675
 31
0.0
  0
LINE
  5
1BC7
330
1D
100
AcDbEntity
  8
0
100
AcDbLine
 10
213.5726
 20
4.9675
 30
0.0
 11
213.5726
 21
6.776641140761
 31
0.0
  0
LINE
  5
1BC8
330
1D
100
AcDbEntity
  8
0
100
AcDbLine
 10
214.3673
 20
4.9825
 30
0.0
 11
212.2482
 21
4.8645
 31
0.0
  0
LINE
  5
1BC9
330
1D
100
AcDbEntity
  8
0
100
AcDbLine
 10
212.2482
 20
4.8645
 30
0.0
 11
211.2811
 21
4.7125
 31
0.0
  0
LINE
  5
1BCA
330
1D
100
AcDbEntity
  8
0
100
AcDbLine
 10
213.9734
 20
6.5755
 30
0.0
 11
213.6897
 21
6.7565
 31
0.0
  0
LINE
  5
1BCB
330
1D
100
AcDbEntity
  8
0
100
AcDbLine
 10
213.9734
 20
6.5755
 30
0.0
 11
213.5726
 21
6.382265769385
 31
0.0
  0
LINE
  5
1BCC
330
1D
100
AcDbEntity
  8
0
100
AcDbLine
 10
213.5726
 20
6.776641140761
 30
0.0
 11
213.5726
 21
4.9675
 31
0.0
  0
LINE
  5
1BCD
330
1D
100
AcDbEntity
  8
0
100
AcDbLine
 10
212.899
 20
6.8925
 30
0.0
 11
212.0238
 21
6.9445
 31
0.0
  0
LINE
  5
1BCE
330
1D
100
AcDbEntity
  8
0
100
AcDbLine
 10
213.6897
 20
6.7565
 30
0.0
 11
212.899
 21
6.8925
 31
0.0
  0
LINE
  5
1BCF
330
1D
100
AcDbEntity
  8
0
100
AcDbLine
 10
209.1087
 20
1.9675
 30
0.0
 11
208.5087
 21
1.9675
 31
0.0
  0
LINE
  5
1BD0
330
1D
100
AcDbEntity
  8
0
100
AcDbLine
 10
209.1087
 20
1.9675
 30
0.0
 11
208.5087
 21
1.9675
 31
0.0
  0
LINE
  5
1BD1
330
1D
100
AcDbEntity
  8
0
100
AcDbLine
 10
209.1087
 20
1.9675
 30
0.0
 11
208.5087
 21
1.9675
 31
0.0
  0
LINE
  5
1BD2
330
1D
100
AcDbEntity
  8
0
100
AcDbLine
 10
209.3432
 20
3.1535
 30
0.0
 11
208.1369
 21
3.1025
 31
0.0
  0
LINE
  5
1BD3
330
1D
100
AcDbEntity
  8
0
100
AcDbLine
 10
210.5087
 20
1.9675
 30
0.0
 11
209.1087
 21
1.9675
 31
0.0
  0
LINE
  5
1BD4
330
1D
100
AcDbEntity
  8
0
100
AcDbLine
 10
210.5087
 20
1.9675
 30
0.0
 11
209.1087
 21
1.9675
 31
0.0
  0
LINE
  5
1BD5
330
1D
100
AcDbEntity
  8
0
100
AcDbLine
 10
210.5087
 20
1.9675
 30
0.0
 11
209.1087
 21
1.9675
 31
0.0
  0
LINE
  5
1BD6
330
1D
100
AcDbEntity
  8
0
100
AcDbLine
 10
210.5087
 20
1.9675
 30
0.0
 11
209.1087
 21
1.9675
 31
0.0
  0
LINE
  5
1BD7
330
1D
100
AcDbEntity
  8
0
100
AcDbLine
 10
208.5087
 20
1.9675
 30
0.0
 11
208.5087
 21
3.118218975379
 31
0.0
  0
LINE
  5
1BD8
330
1D
100
AcDbEntity
  8
0
100
AcDbLine
 10
208.5087
 20
3.118218975379
 30
0.0
 11
208.5087
 21
1.9675
 31
0.0
  0
LINE
  5
1BD9
330
1D
100
AcDbEntity
  8
0
100
AcDbLine
 10
208.5087
 20
3.118218975379
 30
0.0
 11
208.1369
 21
3.1025
 31
0.0
  0
LINE
  5
1BDA
330
1D
100
AcDbEntity
  8
0
100
AcDbLine
 10
208.5087
 20
2.989418660287
 30
0.0
 11
208.4409
 21
2.9905
 31
0.0
  0
LINE
  5
1BDB
330
1D
100
AcDbEntity
  8
0
100
AcDbLine
 10
208.1369
 20
3.1025
 30
0.0
 11
207.773
 21
3.0495
 31
0.0
  0
LINE
  5
1BDC
330
1D
100
AcDbEntity
  8
0
100
AcDbLine
 10
208.1369
 20
3.1025
 30
0.0
 11
207.773
 21
3.0495
 31
0.0
  0
LINE
  5
1BDD
330
1D
100
AcDbEntity
  8
0
100
AcDbLine
 10
207.9453
 20
3.0155
 30
0.0
 11
207.773
 21
3.0495
 31
0.0
  0
LINE
  5
1BDE
330
1D
100
AcDbEntity
  8
0
100
AcDbLine
 10
207.9453
 20
3.0155
 30
0.0
 11
207.773
 21
3.0495
 31
0.0
  0
LINE
  5
1BDF
330
1D
100
AcDbEntity
  8
0
100
AcDbLine
 10
208.4409
 20
2.9905
 30
0.0
 11
207.9453
 21
3.0155
 31
0.0
  0
LINE
  5
1BE0
330
1D
100
AcDbEntity
  8
0
100
AcDbLine
 10
209.5726
 20
4.9675
 30
0.0
 11
209.5726
 21
6.758973975552
 31
0.0
  0
LINE
  5
1BE1
330
1D
100
AcDbEntity
  8
0
100
AcDbLine
 10
210.1726
 20
4.9675
 30
0.0
 11
209.5726
 21
4.9675
 31
0.0
  0
LINE
  5
1BE2
330
1D
100
AcDbEntity
  8
0
100
AcDbLine
 10
209.244
 20
6.7135
 30
0.0
 11
208.7726
 21
6.4645
 31
0.0
  0
LINE
  5
1BE3
330
1D
100
AcDbEntity
  8
0
100
AcDbLine
 10
208.8759
 20
6.3565
 30
0.0
 11
208.7726
 21
6.4645
 31
0.0
  0
LINE
  5
1BE4
330
1D
100
AcDbEntity
  8
0
100
AcDbLine
 10
209.5726
 20
6.220483139212
 30
0.0
 11
208.8759
 21
6.3565
 31
0.0
  0
LINE
  5
1BE5
330
1D
100
AcDbEntity
  8
0
100
AcDbLine
 10
209.5726
 20
6.758973975552
 30
0.0
 11
209.5726
 21
4.9675
 31
0.0
  0
LINE
  5
1BE6
330
1D
100
AcDbEntity
  8
0
100
AcDbLine
 10
210.5447
 20
6.8935
 30
0.0
 11
209.244
 21
6.7135
 31
0.0
  0
LINE
  5
1BE7
330
1D
100
AcDbEntity
  8
0
100
AcDbLine
 10
197.742
 20
2.596037406076
 30
0.0
 11
195.412
 21
2.6105
 31
0.0
  0
LINE
  5
1BE8
330
1D
100
AcDbEntity
  8
0
100
AcDbLine
 10
201.7421
 20
0.9675
 30
0.0
 11
201.1421
 21
0.9675
 31
0.0
  0
LINE
  5
1BE9
330
1D
100
AcDbEntity
  8
0
100
AcDbLine
 10
201.7421
 20
0.9675
 30
0.0
 11
201.1421
 21
0.9675
 31
0.0
  0
LINE
  5
1BEA
330
1D
100
AcDbEntity
  8
0
100
AcDbLine
 10
202.4628
 20
0.9675
 30
0.0
 11
201.0628
 21
0.9675
 31
0.0
  0
LINE
  5
1BEB
330
1D
100
AcDbEntity
  8
0
100
AcDbLine
 10
202.4628
 20
0.9675
 30
0.0
 11
201.0628
 21
0.9675
 31
0.0
  0
LINE
  5
1BEC
330
1D
100
AcDbEntity
  8
0
100
AcDbLine
 10
201.7421
 20
0.9675
 30
0.0
 11
201.1421
 21
0.9675
 31
0.0
  0
LINE
  5
1BED
330
1D
100
AcDbEntity
  8
0
100
AcDbLine
 10
201.7421
 20
0.9675
 30
0.0
 11
201.1421
 21
0.9675
 31
0.0
  0
LINE
  5
1BEE
330
1D
100
AcDbEntity
  8
0
100
AcDbLine
 10
201.7134
 20
2.9675
 30
0.0
 11
201.1134
 21
2.9675
 31
0.0
  0
LINE
  5
1BEF
330
1D
100
AcDbEntity
  8
0
100
AcDbLine
 10
201.7134
 20
2.9675
 30
0.0
 11
201.1134
 21
2.9675
 31
0.0
  0
LINE
  5
1BF0
330
1D
100
AcDbEntity
  8
0
100
AcDbLine
 10
201.6167
 20
2.8645
 30
0.0
 11
200.0137
 21
2.8945
 31
0.0
  0
LINE
  5
1BF1
330
1D
100
AcDbEntity
  8
0
100
AcDbLine
 10
202.7263
 20
3.9675
 30
0.0
 11
201.3263
 21
3.9675
 31
0.0
  0
LINE
  5
1BF2
330
1D
100
AcDbEntity
  8
0
100
AcDbLine
 10
201.8864
 20
3.7635
 30
0.0
 11
200.4718
 21
3.6725
 31
0.0
  0
LINE
  5
1BF3
330
1D
100
AcDbEntity
  8
0
100
AcDbLine
 10
202.2138
 20
5.7775
 30
0.0
 11
201.3611
 21
5.7225
 31
0.0
  0
LINE
  5
1BF4
330
1D
100
AcDbEntity
  8
0
100
AcDbLine
 10
204.7263
 20
3.9675
 30
0.0
 11
204.7263
 21
5.692542206897
 31
0.0
  0
LINE
  5
1BF5
330
1D
100
AcDbEntity
  8
0
100
AcDbLine
 10
204.7263
 20
5.692542206897
 30
0.0
 11
204.7263
 21
3.9675
 31
0.0
  0
LINE
  5
1BF6
330
1D
100
AcDbEntity
  8
0
100
AcDbLine
 10
204.5134
 20
2.9675
 30
0.0
 11
203.1134
 21
2.9675
 31
0.0
  0
LINE
  5
1BF7
330
1D
100
AcDbEntity
  8
0
100
AcDbLine
 10
204.5134
 20
2.9675
 30
0.0
 11
203.1134
 21
2.9675
 31
0.0
  0
LINE
  5
1BF8
330
1D
100
AcDbEntity
  8
0
100
AcDbLine
 10
204.1263
 20
3.9675
 30
0.0
 11
202.7263
 21
3.9675
 31
0.0
  0
LINE
  5
1BF9
330
1D
100
AcDbEntity
  8
0
100
AcDbLine
 10
204.9218
 20
3.7505
 30
0.0
 11
203.5942
 21
3.7835
 31
0.0
  0
LINE
  5
1BFA
330
1D
100
AcDbEntity
  8
0
100
AcDbLine
 10
205.1134
 20
2.9675
 30
0.0
 11
204.5134
 21
2.9675
 31
0.0
  0
LINE
  5
1BFB
330
1D
100
AcDbEntity
  8
0
100
AcDbLine
 10
205.1134
 20
2.9675
 30
0.0
 11
204.5134
 21
2.9675
 31
0.0
  0
LINE
  5
1BFC
330
1D
100
AcDbEntity
  8
0
100
AcDbLine
 10
205.1134
 20
2.9675
 30
0.0
 11
205.1134
 21
3.736409947104
 31
0.0
  0
LINE
  5
1BFD
330
1D
100
AcDbEntity
  8
0
100
AcDbLine
 10
205.9728
 20
3.6215
 30
0.0
 11
205.6969
 21
3.6935
 31
0.0
  0
LINE
  5
1BFE
330
1D
100
AcDbEntity
  8
0
100
AcDbLine
 10
205.6969
 20
3.6935
 30
0.0
 11
205.1134
 21
3.736409947104
 31
0.0
  0
LINE
  5
1BFF
330
1D
100
AcDbEntity
  8
0
100
AcDbLine
 10
205.9728
 20
3.6215
 30
0.0
 11
205.6969
 21
3.6935
 31
0.0
  0
LINE
  5
1C00
330
1D
100
AcDbEntity
  8
0
100
AcDbLine
 10
205.9728
 20
3.6215
 30
0.0
 11
205.438
 21
3.5265
 31
0.0
  0
LINE
  5
1C01
330
1D
100
AcDbEntity
  8
0
100
AcDbLine
 10
205.1134
 20
3.512588571429
 30
0.0
 11
205.1134
 21
3.736409947104
 31
0.0
  0
LINE
  5
1C02
330
1D
100
AcDbEntity
  8
0
100
AcDbLine
 10
205.1134
 20
3.736409947104
 30
0.0
 11
205.1134
 21
2.9675
 31
0.0
  0
LINE
  5
1C03
330
1D
100
AcDbEntity
  8
0
100
AcDbLine
 10
205.1134
 20
3.736409947104
 30
0.0
 11
205.1134
 21
3.512588571429
 31
0.0
  0
LINE
  5
1C04
330
1D
100
AcDbEntity
  8
0
100
AcDbLine
 10
205.438
 20
3.5265
 30
0.0
 11
205.1134
 21
3.512588571429
 31
0.0
  0
LINE
  5
1C05
330
1D
100
AcDbEntity
  8
0
100
AcDbLine
 10
204.7263
 20
3.9675
 30
0.0
 11
204.1263
 21
3.9675
 31
0.0
  0
LINE
  5
1C06
330
1D
100
AcDbEntity
  8
0
100
AcDbLine
 10
205.6969
 20
3.6935
 30
0.0
 11
204.9218
 21
3.7505
 31
0.0
  0
LINE
  5
1C07
330
1D
100
AcDbEntity
  8
0
100
AcDbLine
 10
203.0628
 20
0.9675
 30
0.0
 11
202.4628
 21
0.9675
 31
0.0
  0
LINE
  5
1C08
330
1D
100
AcDbEntity
  8
0
100
AcDbLine
 10
203.0628
 20
0.9675
 30
0.0
 11
202.4628
 21
0.9675
 31
0.0
  0
LINE
  5
1C09
330
1D
100
AcDbEntity
  8
0
100
AcDbLine
 10
203.0628
 20
0.9675
 30
0.0
 11
203.0628
 21
2.587279236014
 31
0.0
  0
LINE
  5
1C0A
330
1D
100
AcDbEntity
  8
0
100
AcDbLine
 10
201.7421
 20
0.9675
 30
0.0
 11
201.7421
 21
2.852402652927
 31
0.0
  0
LINE
  5
1C0B
330
1D
100
AcDbEntity
  8
0
100
AcDbLine
 10
203.0628
 20
2.587279236014
 30
0.0
 11
203.0628
 21
0.9675
 31
0.0
  0
LINE
  5
1C0C
330
1D
100
AcDbEntity
  8
0
100
AcDbLine
 10
203.1134
 20
2.9675
 30
0.0
 11
201.7134
 21
2.9675
 31
0.0
  0
LINE
  5
1C0D
330
1D
100
AcDbEntity
  8
0
100
AcDbLine
 10
203.1134
 20
2.9675
 30
0.0
 11
201.7134
 21
2.9675
 31
0.0
  0
LINE
  5
1C0E
330
1D
100
AcDbEntity
  8
0
100
AcDbLine
 10
201.7421
 20
2.852402652927
 30
0.0
 11
201.7421
 21
0.9675
 31
0.0
  0
LINE
  5
1C0F
330
1D
100
AcDbEntity
  8
0
100
AcDbLine
 10
202.0728
 20
2.8205
 30
0.0
 11
201.6167
 21
2.8645
 31
0.0
  0
LINE
  5
1C10
330
1D
100
AcDbEntity
  8
0
100
AcDbLine
 10
202.0728
 20
2.8205
 30
0.0
 11
201.7421
 21
2.795179427765
 31
0.0
  0
LINE
  5
1C11
330
1D
100
AcDbEntity
  8
0
100
AcDbLine
 10
202.2303
 20
2.5885
 30
0.0
 11
201.7421
 21
2.589064654175
 31
0.0
  0
LINE
  5
1C12
330
1D
100
AcDbEntity
  8
0
100
AcDbLine
 10
203.5942
 20
3.7835
 30
0.0
 11
201.8864
 21
3.7635
 31
0.0
  0
LINE
  5
1C13
330
1D
100
AcDbEntity
  8
0
100
AcDbLine
 10
205.269453846154
 20
5.502730769231
 30
0.0
 11
205.2209
 21
5.4455
 31
0.0
  0
LINE
  5
1C14
330
1D
100
AcDbEntity
  8
0
100
AcDbLine
 10
205.1134
 20
5.412367170022
 30
0.0
 11
205.1134
 21
5.565366184448
 31
0.0
  0
LINE
  5
1C15
330
1D
100
AcDbEntity
  8
0
100
AcDbLine
 10
205.1134
 20
5.565366184448
 30
0.0
 11
205.1134
 21
5.412367170022
 31
0.0
  0
LINE
  5
1C16
330
1D
100
AcDbEntity
  8
0
100
AcDbLine
 10
205.2209
 20
5.4455
 30
0.0
 11
205.1134
 21
5.412622615039
 31
0.0
  0
LINE
  5
1C17
330
1D
100
AcDbEntity
  8
0
100
AcDbLine
 10
204.8645
 20
5.3365
 30
0.0
 11
204.7263
 21
5.317478742927
 31
0.0
  0
LINE
  5
1C18
330
1D
100
AcDbEntity
  8
0
100
AcDbLine
 10
205.2221
 20
5.4455
 30
0.0
 11
204.8645
 21
5.3365
 31
0.0
  0
LINE
  5
1C19
330
1D
100
AcDbEntity
  8
0
100
AcDbLine
 10
204.0507
 20
5.7615
 30
0.0
 11
203.121
 21
5.7925
 31
0.0
  0
LINE
  5
1C1A
330
1D
100
AcDbEntity
  8
0
100
AcDbLine
 10
203.121
 20
5.7925
 30
0.0
 11
202.2138
 21
5.7775
 31
0.0
  0
LINE
  5
1C1B
330
1D
100
AcDbEntity
  8
0
100
AcDbLine
 10
204.7757
 20
5.6875
 30
0.0
 11
204.0507
 21
5.7615
 31
0.0
  0
LINE
  5
1C1C
330
1D
100
AcDbEntity
  8
0
100
AcDbLine
 10
205.2734
 20
5.5075
 30
0.0
 11
205.2221
 21
5.4455
 31
0.0
  0
LINE
  5
1C1D
330
1D
100
AcDbEntity
  8
0
100
AcDbLine
 10
205.2734
 20
5.5075
 30
0.0
 11
204.7757
 21
5.6875
 31
0.0
  0
LINE
  5
1C1E
330
1D
100
AcDbEntity
  8
0
100
AcDbLine
 10
200.7263
 20
3.9675
 30
0.0
 11
200.7263
 21
5.630256045821
 31
0.0
  0
LINE
  5
1C1F
330
1D
100
AcDbEntity
  8
0
100
AcDbLine
 10
200.7263
 20
5.630256045821
 30
0.0
 11
200.7263
 21
3.9675
 31
0.0
  0
LINE
  5
1C20
330
1D
100
AcDbEntity
  8
0
100
AcDbLine
 10
199.742
 20
0.9675
 30
0.0
 11
198.342
 21
0.9675
 31
0.0
  0
LINE
  5
1C21
330
1D
100
AcDbEntity
  8
0
100
AcDbLine
 10
199.742
 20
0.9675
 30
0.0
 11
198.342
 21
0.9675
 31
0.0
  0
LINE
  5
1C22
330
1D
100
AcDbEntity
  8
0
100
AcDbLine
 10
199.663
 20
0.9675
 30
0.0
 11
199.063
 21
0.9675
 31
0.0
  0
LINE
  5
1C23
330
1D
100
AcDbEntity
  8
0
100
AcDbLine
 10
199.663
 20
0.9675
 30
0.0
 11
199.063
 21
0.9675
 31
0.0
  0
LINE
  5
1C24
330
1D
100
AcDbEntity
  8
0
100
AcDbLine
 10
199.742
 20
0.9675
 30
0.0
 11
198.342
 21
0.9675
 31
0.0
  0
LINE
  5
1C25
330
1D
100
AcDbEntity
  8
0
100
AcDbLine
 10
199.742
 20
0.9675
 30
0.0
 11
198.342
 21
0.9675
 31
0.0
  0
LINE
  5
1C26
330
1D
100
AcDbEntity
  8
0
100
AcDbLine
 10
200.0137
 20
2.8945
 30
0.0
 11
198.415
 21
2.8935
 31
0.0
  0
LINE
  5
1C27
330
1D
100
AcDbEntity
  8
0
100
AcDbLine
 10
201.1421
 20
0.9675
 30
0.0
 11
199.742
 21
0.9675
 31
0.0
  0
LINE
  5
1C28
330
1D
100
AcDbEntity
  8
0
100
AcDbLine
 10
201.1421
 20
0.9675
 30
0.0
 11
199.742
 21
0.9675
 31
0.0
  0
LINE
  5
1C29
330
1D
100
AcDbEntity
  8
0
100
AcDbLine
 10
201.1421
 20
0.9675
 30
0.0
 11
199.742
 21
0.9675
 31
0.0
  0
LINE
  5
1C2A
330
1D
100
AcDbEntity
  8
0
100
AcDbLine
 10
201.0628
 20
0.9675
 30
0.0
 11
199.663
 21
0.9675
 31
0.0
  0
LINE
  5
1C2B
330
1D
100
AcDbEntity
  8
0
100
AcDbLine
 10
201.0628
 20
0.9675
 30
0.0
 11
199.663
 21
0.9675
 31
0.0
  0
LINE
  5
1C2C
330
1D
100
AcDbEntity
  8
0
100
AcDbLine
 10
201.1421
 20
0.9675
 30
0.0
 11
199.742
 21
0.9675
 31
0.0
  0
LINE
  5
1C2D
330
1D
100
AcDbEntity
  8
0
100
AcDbLine
 10
201.1134
 20
2.9675
 30
0.0
 11
201.1134
 21
3.713773575569
 31
0.0
  0
LINE
  5
1C2E
330
1D
100
AcDbEntity
  8
0
100
AcDbLine
 10
201.1134
 20
3.713773575569
 30
0.0
 11
201.1134
 21
2.9675
 31
0.0
  0
LINE
  5
1C2F
330
1D
100
AcDbEntity
  8
0
100
AcDbLine
 10
201.3263
 20
3.9675
 30
0.0
 11
200.7263
 21
3.9675
 31
0.0
  0
LINE
  5
1C30
330
1D
100
AcDbEntity
  8
0
100
AcDbLine
 10
201.1128
 20
3.5045
 30
0.0
 11
200.4479
 21
3.5745
 31
0.0
  0
LINE
  5
1C31
330
1D
100
AcDbEntity
  8
0
100
AcDbLine
 10
200.4718
 20
3.6725
 30
0.0
 11
200.4479
 21
3.5745
 31
0.0
  0
LINE
  5
1C32
330
1D
100
AcDbEntity
  8
0
100
AcDbLine
 10
198.342
 20
0.9675
 30
0.0
 11
197.742
 21
0.9675
 31
0.0
  0
LINE
  5
1C33
330
1D
100
AcDbEntity
  8
0
100
AcDbLine
 10
198.342
 20
0.9675
 30
0.0
 11
197.742
 21
0.9675
 31
0.0
  0
LINE
  5
1C34
330
1D
100
AcDbEntity
  8
0
100
AcDbLine
 10
198.342
 20
0.9675
 30
0.0
 11
197.742
 21
0.9675
 31
0.0
  0
LINE
  5
1C35
330
1D
100
AcDbEntity
  8
0
100
AcDbLine
 10
197.742
 20
0.9675
 30
0.0
 11
197.742
 21
2.878832774518
 31
0.0
  0
LINE
  5
1C36
330
1D
100
AcDbEntity
  8
0
100
AcDbLine
 10
198.342
 20
0.9675
 30
0.0
 11
197.742
 21
0.9675
 31
0.0
  0
LINE
  5
1C37
330
1D
100
AcDbEntity
  8
0
100
AcDbLine
 10
197.742
 20
2.878832774518
 30
0.0
 11
197.742
 21
0.9675
 31
0.0
  0
LINE
  5
1C38
330
1D
100
AcDbEntity
  8
0
100
AcDbLine
 10
197.742
 20
2.878832774518
 30
0.0
 11
197.222
 21
2.8675
 31
0.0
  0
LINE
  5
1C39
330
1D
100
AcDbEntity
  8
0
100
AcDbLine
 10
197.222
 20
2.8675
 30
0.0
 11
196.873
 21
2.8345
 31
0.0
  0
LINE
  5
1C3A
330
1D
100
AcDbEntity
  8
0
100
AcDbLine
 10
197.37
 20
2.7955
 30
0.0
 11
196.873
 21
2.8345
 31
0.0
  0
LINE
  5
1C3B
330
1D
100
AcDbEntity
  8
0
100
AcDbLine
 10
197.742
 20
2.787487692308
 30
0.0
 11
197.37
 21
2.7955
 31
0.0
  0
LINE
  5
1C3C
330
1D
100
AcDbEntity
  8
0
100
AcDbLine
 10
197.222
 20
2.8675
 30
0.0
 11
196.873
 21
2.8345
 31
0.0
  0
LINE
  5
1C3D
330
1D
100
AcDbEntity
  8
0
100
AcDbLine
 10
198.415
 20
2.8935
 30
0.0
 11
197.222
 21
2.8675
 31
0.0
  0
LINE
  5
1C3E
330
1D
100
AcDbEntity
  8
0
100
AcDbLine
 10
200.7263
 20
5.23937515996
 30
0.0
 11
200.0868
 21
5.3985
 31
0.0
  0
LINE
  5
1C3F
330
1D
100
AcDbEntity
  8
0
100
AcDbLine
 10
201.3611
 20
5.7225
 30
0.0
 11
200.4183
 21
5.5855
 31
0.0
  0
LINE
  5
1C40
330
1D
100
AcDbEntity
  8
0
100
AcDbLine
 10
200.4183
 20
5.5855
 30
0.0
 11
200.0868
 21
5.3985
 31
0.0
  0
LINE
  5
1C41
330
1D
100
AcDbEntity
  8
0
100
AcDbLine
 10
193.326
 20
1.9675
 30
0.0
 11
191.926
 21
1.9675
 31
0.0
  0
LINE
  5
1C42
330
1D
100
AcDbEntity
  8
0
100
AcDbLine
 10
192.483
 20
1.9675
 30
0.0
 11
191.083
 21
1.9675
 31
0.0
  0
LINE
  5
1C43
330
1D
100
AcDbEntity
  8
0
100
AcDbLine
 10
193.326
 20
1.9675
 30
0.0
 11
191.926
 21
1.9675
 31
0.0
  0
LINE
  5
1C44
330
1D
100
AcDbEntity
  8
0
100
AcDbLine
 10
193.326
 20
1.9675
 30
0.0
 11
191.926
 21
1.9675
 31
0.0
  0
LINE
  5
1C45
330
1D
100
AcDbEntity
  8
0
100
AcDbLine
 10
192.483
 20
1.9675
 30
0.0
 11
191.083
 21
1.9675
 31
0.0
  0
LINE
  5
1C46
330
1D
100
AcDbEntity
  8
0
100
AcDbLine
 10
192.483
 20
1.9675
 30
0.0
 11
191.083
 21
1.9675
 31
0.0
  0
LINE
  5
1C47
330
1D
100
AcDbEntity
  8
0
100
AcDbLine
 10
192.541
 20
4.4675
 30
0.0
 11
191.57
 21
4.4605
 31
0.0
  0
LINE
  5
1C48
330
1D
100
AcDbEntity
  8
0
100
AcDbLine
 10
194.726
 20
1.9675
 30
0.0
 11
193.326
 21
1.9675
 31
0.0
  0
LINE
  5
1C49
330
1D
100
AcDbEntity
  8
0
100
AcDbLine
 10
194.726
 20
1.9675
 30
0.0
 11
193.326
 21
1.9675
 31
0.0
  0
LINE
  5
1C4A
330
1D
100
AcDbEntity
  8
0
100
AcDbLine
 10
194.726
 20
1.9675
 30
0.0
 11
193.326
 21
1.9675
 31
0.0
  0
LINE
  5
1C4B
330
1D
100
AcDbEntity
  8
0
100
AcDbLine
 10
195.019
 20
3.3625
 30
0.0
 11
194.483
 21
3.37987037037
 31
0.0
  0
LINE
  5
1C4C
330
1D
100
AcDbEntity
  8
0
100
AcDbLine
 10
194.669
 20
4.3555
 30
0.0
 11
193.487
 21
4.4465
 31
0.0
  0
LINE
  5
1C4D
330
1D
100
AcDbEntity
  8
0
100
AcDbLine
 10
194.748
 20
4.1835
 30
0.0
 11
194.483
 21
4.162773743017
 31
0.0
  0
LINE
  5
1C4E
330
1D
100
AcDbEntity
  8
0
100
AcDbLine
 10
195.326
 20
1.9675
 30
0.0
 11
195.326
 21
2.582713592233
 31
0.0
  0
LINE
  5
1C4F
330
1D
100
AcDbEntity
  8
0
100
AcDbLine
 10
195.326
 20
1.9675
 30
0.0
 11
195.326
 21
3.338781341108
 31
0.0
  0
LINE
  5
1C50
330
1D
100
AcDbEntity
  8
0
100
AcDbLine
 10
195.326
 20
2.582713592233
 30
0.0
 11
195.326
 21
1.9675
 31
0.0
  0
LINE
  5
1C51
330
1D
100
AcDbEntity
  8
0
100
AcDbLine
 10
195.326
 20
3.338781341108
 30
0.0
 11
195.326
 21
1.9675
 31
0.0
  0
LINE
  5
1C52
330
1D
100
AcDbEntity
  8
0
100
AcDbLine
 10
195.326
 20
1.9675
 30
0.0
 11
194.726
 21
1.9675
 31
0.0
  0
LINE
  5
1C53
330
1D
100
AcDbEntity
  8
0
100
AcDbLine
 10
195.326
 20
1.9675
 30
0.0
 11
194.726
 21
1.9675
 31
0.0
  0
LINE
  5
1C54
330
1D
100
AcDbEntity
  8
0
100
AcDbLine
 10
195.326
 20
1.9675
 30
0.0
 11
194.726
 21
1.9675
 31
0.0
  0
LINE
  5
1C55
330
1D
100
AcDbEntity
  8
0
100
AcDbLine
 10
195.326
 20
3.198018072289
 30
0.0
 11
195.326
 21
3.338781341108
 31
0.0
  0
LINE
  5
1C56
330
1D
100
AcDbEntity
  8
0
100
AcDbLine
 10
195.705
 20
3.3095
 30
0.0
 11
195.326
 21
3.338781341108
 31
0.0
  0
LINE
  5
1C57
330
1D
100
AcDbEntity
  8
0
100
AcDbLine
 10
195.873
 20
3.2645
 30
0.0
 11
195.705
 21
3.3095
 31
0.0
  0
LINE
  5
1C58
330
1D
100
AcDbEntity
  8
0
100
AcDbLine
 10
195.546
 20
3.2065
 30
0.0
 11
195.326
 21
3.198018072289
 31
0.0
  0
LINE
  5
1C59
330
1D
100
AcDbEntity
  8
0
100
AcDbLine
 10
195.873
 20
3.2645
 30
0.0
 11
195.705
 21
3.3095
 31
0.0
  0
LINE
  5
1C5A
330
1D
100
AcDbEntity
  8
0
100
AcDbLine
 10
195.873
 20
3.2645
 30
0.0
 11
195.546
 21
3.2065
 31
0.0
  0
LINE
  5
1C5B
330
1D
100
AcDbEntity
  8
0
100
AcDbLine
 10
195.326
 20
3.338781341108
 30
0.0
 11
195.326
 21
3.198018072289
 31
0.0
  0
LINE
  5
1C5C
330
1D
100
AcDbEntity
  8
0
100
AcDbLine
 10
195.705
 20
3.3095
 30
0.0
 11
195.019
 21
3.3625
 31
0.0
  0
LINE
  5
1C5D
330
1D
100
AcDbEntity
  8
0
100
AcDbLine
 10
194.973
 20
4.2625
 30
0.0
 11
194.748
 21
4.1835
 31
0.0
  0
LINE
  5
1C5E
330
1D
100
AcDbEntity
  8
0
100
AcDbLine
 10
194.973
 20
4.2625
 30
0.0
 11
194.669
 21
4.3555
 31
0.0
  0
LINE
  5
1C5F
330
1D
100
AcDbEntity
  8
0
100
AcDbLine
 10
194.483
 20
1.9675
 30
0.0
 11
193.883
 21
1.9675
 31
0.0
  0
LINE
  5
1C60
330
1D
100
AcDbEntity
  8
0
100
AcDbLine
 10
193.883
 20
1.9675
 30
0.0
 11
192.483
 21
1.9675
 31
0.0
  0
LINE
  5
1C61
330
1D
100
AcDbEntity
  8
0
100
AcDbLine
 10
193.883
 20
1.9675
 30
0.0
 11
192.483
 21
1.9675
 31
0.0
  0
LINE
  5
1C62
330
1D
100
AcDbEntity
  8
0
100
AcDbLine
 10
193.883
 20
1.9675
 30
0.0
 11
192.483
 21
1.9675
 31
0.0
  0
LINE
  5
1C63
330
1D
100
AcDbEntity
  8
0
100
AcDbLine
 10
194.483
 20
1.9675
 30
0.0
 11
193.883
 21
1.9675
 31
0.0
  0
LINE
  5
1C64
330
1D
100
AcDbEntity
  8
0
100
AcDbLine
 10
194.483
 20
1.9675
 30
0.0
 11
193.883
 21
1.9675
 31
0.0
  0
LINE
  5
1C65
330
1D
100
AcDbEntity
  8
0
100
AcDbLine
 10
194.483
 20
1.9675
 30
0.0
 11
194.483
 21
4.369819796954
 31
0.0
  0
LINE
  5
1C66
330
1D
100
AcDbEntity
  8
0
100
AcDbLine
 10
194.483
 20
4.369819796954
 30
0.0
 11
194.483
 21
1.9675
 31
0.0
  0
LINE
  5
1C67
330
1D
100
AcDbEntity
  8
0
100
AcDbLine
 10
193.487
 20
4.4465
 30
0.0
 11
192.541
 21
4.4675
 31
0.0
  0
LINE
  5
1C68
330
1D
100
AcDbEntity
  8
0
100
AcDbLine
 10
190.483
 20
2.050915389066
 30
0.0
 11
189.562
 21
2.036129302864
 31
0.0
  0
LINE
  5
1C69
330
1D
100
AcDbEntity
  8
0
100
AcDbLine
 10
190.273
 20
2.1295
 30
0.0
 11
189.635
 21
2.1545
 31
0.0
  0
LINE
  5
1C6A
330
1D
100
AcDbEntity
  8
0
100
AcDbLine
 10
190.273
 20
2.1295
 30
0.0
 11
189.776
 21
2.1005
 31
0.0
  0
LINE
  5
1C6B
330
1D
100
AcDbEntity
  8
0
100
AcDbLine
 10
190.273
 20
2.1295
 30
0.0
 11
189.635
 21
2.1545
 31
0.0
  0
LINE
  5
1C6C
330
1D
100
AcDbEntity
  8
0
100
AcDbLine
 10
190.269
 20
4.3885
 30
0.0
 11
189.773
 21
4.2725
 31
0.0
  0
LINE
  5
1C6D
330
1D
100
AcDbEntity
  8
0
100
AcDbLine
 10
190.27
 20
4.1585
 30
0.0
 11
189.773
 21
4.2725
 31
0.0
  0
LINE
  5
1C6E
330
1D
100
AcDbEntity
  8
0
100
AcDbLine
 10
190.269
 20
4.3885
 30
0.0
 11
189.773
 21
4.2725
 31
0.0
  0
LINE
  5
1C6F
330
1D
100
AcDbEntity
  8
0
100
AcDbLine
 10
191.926
 20
1.9675
 30
0.0
 11
191.326
 21
1.9675
 31
0.0
  0
LINE
  5
1C70
330
1D
100
AcDbEntity
  8
0
100
AcDbLine
 10
191.083
 20
1.9675
 30
0.0
 11
190.483
 21
1.9675
 31
0.0
  0
LINE
  5
1C71
330
1D
100
AcDbEntity
  8
0
100
AcDbLine
 10
191.926
 20
1.9675
 30
0.0
 11
191.326
 21
1.9675
 31
0.0
  0
LINE
  5
1C72
330
1D
100
AcDbEntity
  8
0
100
AcDbLine
 10
191.926
 20
1.9675
 30
0.0
 11
191.326
 21
1.9675
 31
0.0
  0
LINE
  5
1C73
330
1D
100
AcDbEntity
  8
0
100
AcDbLine
 10
190.483
 20
1.9675
 30
0.0
 11
190.483
 21
4.40034319754
 31
0.0
  0
LINE
  5
1C74
330
1D
100
AcDbEntity
  8
0
100
AcDbLine
 10
191.083
 20
1.9675
 30
0.0
 11
190.483
 21
1.9675
 31
0.0
  0
LINE
  5
1C75
330
1D
100
AcDbEntity
  8
0
100
AcDbLine
 10
191.083
 20
1.9675
 30
0.0
 11
190.483
 21
1.9675
 31
0.0
  0
LINE
  5
1C76
330
1D
100
AcDbEntity
  8
0
100
AcDbLine
 10
190.483
 20
4.40034319754
 30
0.0
 11
190.483
 21
1.9675
 31
0.0
  0
LINE
  5
1C77
330
1D
100
AcDbEntity
  8
0
100
AcDbLine
 10
190.483
 20
4.40034319754
 30
0.0
 11
190.269
 21
4.3885
 31
0.0
  0
LINE
  5
1C78
330
1D
100
AcDbEntity
  8
0
100
AcDbLine
 10
191.57
 20
4.4605
 30
0.0
 11
190.269
 21
4.3885
 31
0.0
  0
LINE
  5
1C79
330
1D
100
AcDbEntity
  8
0
100
AcDbLine
 10
190.483
 20
4.144176214197
 30
0.0
 11
190.27
 21
4.1585
 31
0.0
  0
LINE
  5
1C7A
330
1D
100
AcDbEntity
  8
0
100
AcDbLine
 10
188.962
 20
-0.0325
 30
0.0
 11
187.562
 21
-0.0325
 31
0.0
  0
LINE
  5
1C7B
330
1D
100
AcDbEntity
  8
0
100
AcDbLine
 10
188.962
 20
-0.0325
 30
0.0
 11
187.562
 21
-0.0325
 31
0.0
  0
LINE
  5
1C7C
330
1D
100
AcDbEntity
  8
0
100
AcDbLine
 10
188.962
 20
-0.0325
 30
0.0
 11
187.562
 21
-0.0325
 31
0.0
  0
LINE
  5
1C7D
330
1D
100
AcDbEntity
  8
0
100
AcDbLine
 10
188.962
 20
-0.0325
 30
0.0
 11
187.562
 21
-0.0325
 31
0.0
  0
LINE
  5
1C7E
330
1D
100
AcDbEntity
  8
0
100
AcDbLine
 10
189.635
 20
2.1545
 30
0.0
 11
188.213
 21
2.1535
 31
0.0
  0
LINE
  5
1C7F
330
1D
100
AcDbEntity
  8
0
100
AcDbLine
 10
189.562
 20
-0.0325
 30
0.0
 11
188.962
 21
-0.0325
 31
0.0
  0
LINE
  5
1C80
330
1D
100
AcDbEntity
  8
0
100
AcDbLine
 10
189.562
 20
-0.0325
 30
0.0
 11
188.962
 21
-0.0325
 31
0.0
  0
LINE
  5
1C81
330
1D
100
AcDbEntity
  8
0
100
AcDbLine
 10
189.562
 20
-0.0325
 30
0.0
 11
189.562
 21
2.036129302864
 31
0.0
  0
LINE
  5
1C82
330
1D
100
AcDbEntity
  8
0
100
AcDbLine
 10
189.562
 20
-0.0325
 30
0.0
 11
188.962
 21
-0.0325
 31
0.0
  0
LINE
  5
1C83
330
1D
100
AcDbEntity
  8
0
100
AcDbLine
 10
189.562
 20
-0.0325
 30
0.0
 11
188.962
 21
-0.0325
 31
0.0
  0
LINE
  5
1C84
330
1D
100
AcDbEntity
  8
0
100
AcDbLine
 10
189.562
 20
-0.0325
 30
0.0
 11
189.562
 21
2.154448663854
 31
0.0
  0
LINE
  5
1C85
330
1D
100
AcDbEntity
  8
0
100
AcDbLine
 10
189.562
 20
2.036129302864
 30
0.0
 11
189.562
 21
-0.0325
 31
0.0
  0
LINE
  5
1C86
330
1D
100
AcDbEntity
  8
0
100
AcDbLine
 10
189.562
 20
2.096528037383
 30
0.0
 11
189.562
 21
2.154448663854
 31
0.0
  0
LINE
  5
1C87
330
1D
100
AcDbEntity
  8
0
100
AcDbLine
 10
189.776
 20
2.1005
 30
0.0
 11
189.562
 21
2.096093080725
 31
0.0
  0
LINE
  5
1C88
330
1D
100
AcDbEntity
  8
0
100
AcDbLine
 10
189.562
 20
2.154448663854
 30
0.0
 11
189.562
 21
2.096528037383
 31
0.0
  0
LINE
  5
1C89
330
1D
100
AcDbEntity
  8
0
100
AcDbLine
 10
189.562
 20
2.154448663854
 30
0.0
 11
189.562
 21
-0.0325
 31
0.0
  0
LINE
  5
1C8A
330
1D
100
AcDbEntity
  8
0
100
AcDbLine
 10
189.635
 20
2.1545
 30
0.0
 11
189.562
 21
2.154239551478
 31
0.0
  0
LINE
  5
1C8B
330
1D
100
AcDbEntity
  8
0
100
AcDbLine
 10
188.741
 20
4.9675
 30
0.0
 11
188.141
 21
4.9675
 31
0.0
  0
LINE
  5
1C8C
330
1D
100
AcDbEntity
  8
0
100
AcDbLine
 10
188.741
 20
4.9675
 30
0.0
 11
188.741
 21
6.616396551724
 31
0.0
  0
LINE
  5
1C8D
330
1D
100
AcDbEntity
  8
0
100
AcDbLine
 10
188.741
 20
6.007227013542
 30
0.0
 11
188.741
 21
6.616396551724
 31
0.0
  0
LINE
  5
1C8E
330
1D
100
AcDbEntity
  8
0
100
AcDbLine
 10
189.036
 20
6.0415
 30
0.0
 11
188.741
 21
6.007227013542
 31
0.0
  0
LINE
  5
1C8F
330
1D
100
AcDbEntity
  8
0
100
AcDbLine
 10
189.573
 20
6.3025
 30
0.0
 11
189.038
 21
6.5705
 31
0.0
  0
LINE
  5
1C90
330
1D
100
AcDbEntity
  8
0
100
AcDbLine
 10
189.573
 20
6.3025
 30
0.0
 11
189.036
 21
6.0415
 31
0.0
  0
LINE
  5
1C91
330
1D
100
AcDbEntity
  8
0
100
AcDbLine
 10
188.741
 20
6.616396551724
 30
0.0
 11
188.741
 21
6.007227013542
 31
0.0
  0
LINE
  5
1C92
330
1D
100
AcDbEntity
  8
0
100
AcDbLine
 10
188.741
 20
6.616396551724
 30
0.0
 11
188.741
 21
4.9675
 31
0.0
  0
LINE
  5
1C93
330
1D
100
AcDbEntity
  8
0
100
AcDbLine
 10
189.038
 20
6.5705
 30
0.0
 11
188.255
 21
6.6915
 31
0.0
  0
LINE
  5
1C94
330
1D
100
AcDbEntity
  8
0
100
AcDbLine
 10
212.632
 20
43.1845
 30
0.0
 11
205.96
 21
43.4775
 31
0.0
  0
LINE
  5
1C95
330
1D
100
AcDbEntity
  8
0
100
AcDbLine
 10
212.633
 20
43.1845
 30
0.0
 11
205.96
 21
43.4775
 31
0.0
  0
LINE
  5
1C96
330
1D
100
AcDbEntity
  8
0
100
AcDbLine
 10
205.96
 20
43.4775
 30
0.0
 11
196.003
 21
43.8075
 31
0.0
  0
LINE
  5
1C97
330
1D
100
AcDbEntity
  8
0
100
AcDbLine
 10
168.896
 20
2.01132916053
 30
0.0
 11
166.928
 21
2.0635
 31
0.0
  0
LINE
  5
1C98
330
1D
100
AcDbEntity
  8
0
100
AcDbLine
 10
168.754
 20
2.6985
 30
0.0
 11
168.323
 21
2.7395
 31
0.0
  0
LINE
  5
1C99
330
1D
100
AcDbEntity
  8
0
100
AcDbLine
 10
169.708
 20
2.9445
 30
0.0
 11
168.55
 21
2.8785
 31
0.0
  0
LINE
  5
1C9A
330
1D
100
AcDbEntity
  8
0
100
AcDbLine
 10
168.896
 20
2.01132916053
 30
0.0
 11
166.928
 21
2.0635
 31
0.0
  0
LINE
  5
1C9B
330
1D
100
AcDbEntity
  8
0
100
AcDbLine
 10
180.69
 20
1.965468721372
 30
0.0
 11
172.896
 21
1.923647755529
 31
0.0
  0
LINE
  5
1C9C
330
1D
100
AcDbEntity
  8
0
100
AcDbLine
 10
179.216
 20
2.16433180778
 30
0.0
 11
176.519
 21
2.0625
 31
0.0
  0
LINE
  5
1C9D
330
1D
100
AcDbEntity
  8
0
100
AcDbLine
 10
178.917
 20
3.8895
 30
0.0
 11
176.542
 21
3.3645
 31
0.0
  0
LINE
  5
1C9E
330
1D
100
AcDbEntity
  8
0
100
AcDbLine
 10
179.216
 20
2.164812600074
 30
0.0
 11
176.519
 21
2.0625
 31
0.0
  0
LINE
  5
1C9F
330
1D
100
AcDbEntity
  8
0
100
AcDbLine
 10
184.09
 20
0.9675
 30
0.0
 11
182.69
 21
0.9675
 31
0.0
  0
LINE
  5
1CA0
330
1D
100
AcDbEntity
  8
0
100
AcDbLine
 10
184.09
 20
0.9675
 30
0.0
 11
182.69
 21
0.9675
 31
0.0
  0
LINE
  5
1CA1
330
1D
100
AcDbEntity
  8
0
100
AcDbLine
 10
184.09
 20
0.9675
 30
0.0
 11
182.69
 21
0.9675
 31
0.0
  0
LINE
  5
1CA2
330
1D
100
AcDbEntity
  8
0
100
AcDbLine
 10
184.09
 20
0.9675
 30
0.0
 11
182.69
 21
0.9675
 31
0.0
  0
LINE
  5
1CA3
330
1D
100
AcDbEntity
  8
0
100
AcDbLine
 10
183.216
 20
1.9675
 30
0.0
 11
182.616
 21
1.9675
 31
0.0
  0
LINE
  5
1CA4
330
1D
100
AcDbEntity
  8
0
100
AcDbLine
 10
183.176
 20
3.8685
 30
0.0
 11
181.987
 21
3.9485
 31
0.0
  0
LINE
  5
1CA5
330
1D
100
AcDbEntity
  8
0
100
AcDbLine
 10
185.562
 20
1.991610849365
 30
0.0
 11
184.69
 21
1.986931880644
 31
0.0
  0
LINE
  5
1CA6
330
1D
100
AcDbEntity
  8
0
100
AcDbLine
 10
185.378
 20
2.0595
 30
0.0
 11
185.073
 21
2.0745
 31
0.0
  0
LINE
  5
1CA7
330
1D
100
AcDbEntity
  8
0
100
AcDbLine
 10
185.173
 20
2.0875
 30
0.0
 11
185.073
 21
2.0745
 31
0.0
  0
LINE
  5
1CA8
330
1D
100
AcDbEntity
  8
0
100
AcDbLine
 10
185.173
 20
2.4395
 30
0.0
 11
184.69
 21
2.497279439252
 31
0.0
  0
LINE
  5
1CA9
330
1D
100
AcDbEntity
  8
0
100
AcDbLine
 10
185.173
 20
2.4395
 30
0.0
 11
184.638
 21
2.5035
 31
0.0
  0
LINE
  5
1CAA
330
1D
100
AcDbEntity
  8
0
100
AcDbLine
 10
185.173
 20
2.4395
 30
0.0
 11
184.69
 21
2.377206542056
 31
0.0
  0
LINE
  5
1CAB
330
1D
100
AcDbEntity
  8
0
100
AcDbLine
 10
186.162
 20
-0.0325
 30
0.0
 11
185.562
 21
-0.0325
 31
0.0
  0
LINE
  5
1CAC
330
1D
100
AcDbEntity
  8
0
100
AcDbLine
 10
186.162
 20
-0.0325
 30
0.0
 11
185.562
 21
-0.0325
 31
0.0
  0
LINE
  5
1CAD
330
1D
100
AcDbEntity
  8
0
100
AcDbLine
 10
186.162
 20
-0.0325
 30
0.0
 11
185.562
 21
-0.0325
 31
0.0
  0
LINE
  5
1CAE
330
1D
100
AcDbEntity
  8
0
100
AcDbLine
 10
185.562
 20
-0.0325
 30
0.0
 11
185.562
 21
2.103217171717
 31
0.0
  0
LINE
  5
1CAF
330
1D
100
AcDbEntity
  8
0
100
AcDbLine
 10
186.162
 20
-0.0325
 30
0.0
 11
185.562
 21
-0.0325
 31
0.0
  0
LINE
  5
1CB0
330
1D
100
AcDbEntity
  8
0
100
AcDbLine
 10
185.562
 20
2.058862770563
 30
0.0
 11
185.378
 21
2.0595
 31
0.0
  0
LINE
  5
1CB1
330
1D
100
AcDbEntity
  8
0
100
AcDbLine
 10
185.562
 20
2.103217171717
 30
0.0
 11
185.562
 21
-0.0325
 31
0.0
  0
LINE
  5
1CB2
330
1D
100
AcDbEntity
  8
0
100
AcDbLine
 10
185.866
 20
2.1155
 30
0.0
 11
185.173
 21
2.0875
 31
0.0
  0
LINE
  5
1CB3
330
1D
100
AcDbEntity
  8
0
100
AcDbLine
 10
187.132
 20
2.1415
 30
0.0
 11
185.866
 21
2.1155
 31
0.0
  0
LINE
  5
1CB4
330
1D
100
AcDbEntity
  8
0
100
AcDbLine
 10
184.69
 20
1.986931880644
 30
0.0
 11
184.69
 21
0.9675
 31
0.0
  0
LINE
  5
1CB5
330
1D
100
AcDbEntity
  8
0
100
AcDbLine
 10
184.69
 20
0.9675
 30
0.0
 11
184.09
 21
0.9675
 31
0.0
  0
LINE
  5
1CB6
330
1D
100
AcDbEntity
  8
0
100
AcDbLine
 10
184.69
 20
0.9675
 30
0.0
 11
184.09
 21
0.9675
 31
0.0
  0
LINE
  5
1CB7
330
1D
100
AcDbEntity
  8
0
100
AcDbLine
 10
184.69
 20
0.9675
 30
0.0
 11
184.69
 21
1.986931880644
 31
0.0
  0
LINE
  5
1CB8
330
1D
100
AcDbEntity
  8
0
100
AcDbLine
 10
184.69
 20
0.9675
 30
0.0
 11
184.09
 21
0.9675
 31
0.0
  0
LINE
  5
1CB9
330
1D
100
AcDbEntity
  8
0
100
AcDbLine
 10
184.69
 20
0.9675
 30
0.0
 11
184.09
 21
0.9675
 31
0.0
  0
LINE
  5
1CBA
330
1D
100
AcDbEntity
  8
0
100
AcDbLine
 10
184.69
 20
0.9675
 30
0.0
 11
184.69
 21
2.497279439252
 31
0.0
  0
LINE
  5
1CBB
330
1D
100
AcDbEntity
  8
0
100
AcDbLine
 10
184.69
 20
2.377206542056
 30
0.0
 11
184.69
 21
2.497279439252
 31
0.0
  0
LINE
  5
1CBC
330
1D
100
AcDbEntity
  8
0
100
AcDbLine
 10
184.69
 20
2.497279439252
 30
0.0
 11
184.69
 21
2.377206542056
 31
0.0
  0
LINE
  5
1CBD
330
1D
100
AcDbEntity
  8
0
100
AcDbLine
 10
184.69
 20
2.497279439252
 30
0.0
 11
184.69
 21
0.9675
 31
0.0
  0
LINE
  5
1CBE
330
1D
100
AcDbEntity
  8
0
100
AcDbLine
 10
184.638
 20
2.5035
 30
0.0
 11
183.238
 21
2.5355
 31
0.0
  0
LINE
  5
1CBF
330
1D
100
AcDbEntity
  8
0
100
AcDbLine
 10
183.216
 20
1.9675
 30
0.0
 11
183.216
 21
3.862141851107
 31
0.0
  0
LINE
  5
1CC0
330
1D
100
AcDbEntity
  8
0
100
AcDbLine
 10
183.216
 20
3.862141851107
 30
0.0
 11
183.216
 21
1.9675
 31
0.0
  0
LINE
  5
1CC1
330
1D
100
AcDbEntity
  8
0
100
AcDbLine
 10
183.673
 20
3.7895
 30
0.0
 11
183.176
 21
3.8685
 31
0.0
  0
LINE
  5
1CC2
330
1D
100
AcDbEntity
  8
0
100
AcDbLine
 10
183.673
 20
3.7895
 30
0.0
 11
183.216
 21
3.703065392354
 31
0.0
  0
LINE
  5
1CC3
330
1D
100
AcDbEntity
  8
0
100
AcDbLine
 10
184.741
 20
4.9675
 30
0.0
 11
184.741
 21
6.548275806452
 31
0.0
  0
LINE
  5
1CC4
330
1D
100
AcDbEntity
  8
0
100
AcDbLine
 10
186.741
 20
4.9675
 30
0.0
 11
185.341
 21
4.9675
 31
0.0
  0
LINE
  5
1CC5
330
1D
100
AcDbEntity
  8
0
100
AcDbLine
 10
185.341
 20
4.9675
 30
0.0
 11
184.741
 21
4.9675
 31
0.0
  0
LINE
  5
1CC6
330
1D
100
AcDbEntity
  8
0
100
AcDbLine
 10
186.741
 20
4.9675
 30
0.0
 11
185.341
 21
4.9675
 31
0.0
  0
LINE
  5
1CC7
330
1D
100
AcDbEntity
  8
0
100
AcDbLine
 10
184.363
 20
6.0315
 30
0.0
 11
183.973
 21
6.2505
 31
0.0
  0
LINE
  5
1CC8
330
1D
100
AcDbEntity
  8
0
100
AcDbLine
 10
184.741
 20
5.986246478873
 30
0.0
 11
184.363
 21
6.0315
 31
0.0
  0
LINE
  5
1CC9
330
1D
100
AcDbEntity
  8
0
100
AcDbLine
 10
184.741
 20
6.548275806452
 30
0.0
 11
184.741
 21
4.9675
 31
0.0
  0
LINE
  5
1CCA
330
1D
100
AcDbEntity
  8
0
100
AcDbLine
 10
184.299
 20
6.4695
 30
0.0
 11
183.973
 21
6.2505
 31
0.0
  0
LINE
  5
1CCB
330
1D
100
AcDbEntity
  8
0
100
AcDbLine
 10
184.741
 20
6.548275806452
 30
0.0
 11
184.299
 21
6.4695
 31
0.0
  0
LINE
  5
1CCC
330
1D
100
AcDbEntity
  8
0
100
AcDbLine
 10
185.539
 20
6.6905
 30
0.0
 11
184.299
 21
6.4695
 31
0.0
  0
LINE
  5
1CCD
330
1D
100
AcDbEntity
  8
0
100
AcDbLine
 10
187.252
 20
6.7505
 30
0.0
 11
185.539
 21
6.6905
 31
0.0
  0
LINE
  5
1CCE
330
1D
100
AcDbEntity
  8
0
100
AcDbLine
 10
184.299
 20
6.4695
 30
0.0
 11
183.973
 21
6.2505
 31
0.0
  0
LINE
  5
1CCF
330
1D
100
AcDbEntity
  8
0
100
AcDbLine
 10
181.216
 20
1.9675
 30
0.0
 11
179.816
 21
1.9675
 31
0.0
  0
LINE
  5
1CD0
330
1D
100
AcDbEntity
  8
0
100
AcDbLine
 10
181.987
 20
3.9485
 30
0.0
 11
180.183
 21
3.9545
 31
0.0
  0
LINE
  5
1CD1
330
1D
100
AcDbEntity
  8
0
100
AcDbLine
 10
182.69
 20
0.9675
 30
0.0
 11
181.29
 21
0.9675
 31
0.0
  0
LINE
  5
1CD2
330
1D
100
AcDbEntity
  8
0
100
AcDbLine
 10
182.69
 20
0.9675
 30
0.0
 11
181.29
 21
0.9675
 31
0.0
  0
LINE
  5
1CD3
330
1D
100
AcDbEntity
  8
0
100
AcDbLine
 10
181.29
 20
0.9675
 30
0.0
 11
180.69
 21
0.9675
 31
0.0
  0
LINE
  5
1CD4
330
1D
100
AcDbEntity
  8
0
100
AcDbLine
 10
181.29
 20
0.9675
 30
0.0
 11
180.69
 21
0.9675
 31
0.0
  0
LINE
  5
1CD5
330
1D
100
AcDbEntity
  8
0
100
AcDbLine
 10
182.69
 20
0.9675
 30
0.0
 11
181.29
 21
0.9675
 31
0.0
  0
LINE
  5
1CD6
330
1D
100
AcDbEntity
  8
0
100
AcDbLine
 10
181.29
 20
0.9675
 30
0.0
 11
180.69
 21
0.9675
 31
0.0
  0
LINE
  5
1CD7
330
1D
100
AcDbEntity
  8
0
100
AcDbLine
 10
180.69
 20
0.9675
 30
0.0
 11
180.69
 21
1.9675
 31
0.0
  0
LINE
  5
1CD8
330
1D
100
AcDbEntity
  8
0
100
AcDbLine
 10
181.29
 20
0.9675
 30
0.0
 11
180.69
 21
0.9675
 31
0.0
  0
LINE
  5
1CD9
330
1D
100
AcDbEntity
  8
0
100
AcDbLine
 10
182.69
 20
0.9675
 30
0.0
 11
181.29
 21
0.9675
 31
0.0
  0
LINE
  5
1CDA
330
1D
100
AcDbEntity
  8
0
100
AcDbLine
 10
180.69
 20
1.9675
 30
0.0
 11
180.69
 21
0.9675
 31
0.0
  0
LINE
  5
1CDB
330
1D
100
AcDbEntity
  8
0
100
AcDbLine
 10
182.616
 20
1.9675
 30
0.0
 11
181.216
 21
1.9675
 31
0.0
  0
LINE
  5
1CDC
330
1D
100
AcDbEntity
  8
0
100
AcDbLine
 10
179.216
 20
1.9675
 30
0.0
 11
179.216
 21
3.90485150079
 31
0.0
  0
LINE
  5
1CDD
330
1D
100
AcDbEntity
  8
0
100
AcDbLine
 10
179.816
 20
1.9675
 30
0.0
 11
179.216
 21
1.9675
 31
0.0
  0
LINE
  5
1CDE
330
1D
100
AcDbEntity
  8
0
100
AcDbLine
 10
179.216
 20
3.684694805195
 30
0.0
 11
178.573
 21
3.7515
 31
0.0
  0
LINE
  5
1CDF
330
1D
100
AcDbEntity
  8
0
100
AcDbLine
 10
179.216
 20
3.90485150079
 30
0.0
 11
179.216
 21
1.9675
 31
0.0
  0
LINE
  5
1CE0
330
1D
100
AcDbEntity
  8
0
100
AcDbLine
 10
179.216
 20
3.90485150079
 30
0.0
 11
178.917
 21
3.8895
 31
0.0
  0
LINE
  5
1CE1
330
1D
100
AcDbEntity
  8
0
100
AcDbLine
 10
178.573
 20
3.7515
 30
0.0
 11
178.480670588235
 21
3.793048235294
 31
0.0
  0
LINE
  5
1CE2
330
1D
100
AcDbEntity
  8
0
100
AcDbLine
 10
178.573
 20
3.7505
 30
0.0
 11
178.480557959815
 21
3.793023338485
 31
0.0
  0
LINE
  5
1CE3
330
1D
100
AcDbEntity
  8
0
100
AcDbLine
 10
179.216
 20
3.684622655123
 30
0.0
 11
178.573
 21
3.7505
 31
0.0
  0
LINE
  5
1CE4
330
1D
100
AcDbEntity
  8
0
100
AcDbLine
 10
180.183
 20
3.9545
 30
0.0
 11
178.917
 21
3.8895
 31
0.0
  0
LINE
  5
1CE5
330
1D
100
AcDbEntity
  8
0
100
AcDbLine
 10
174.371
 20
2.9675
 30
0.0
 11
172.971
 21
2.9675
 31
0.0
  0
LINE
  5
1CE6
330
1D
100
AcDbEntity
  8
0
100
AcDbLine
 10
174.371
 20
2.9675
 30
0.0
 11
172.971
 21
2.9675
 31
0.0
  0
LINE
  5
1CE7
330
1D
100
AcDbEntity
  8
0
100
AcDbLine
 10
175.665
 20
5.0075
 30
0.0
 11
173.113
 21
5.0265
 31
0.0
  0
LINE
  5
1CE8
330
1D
100
AcDbEntity
  8
0
100
AcDbLine
 10
175.771
 20
2.9675
 30
0.0
 11
174.371
 21
2.9675
 31
0.0
  0
LINE
  5
1CE9
330
1D
100
AcDbEntity
  8
0
100
AcDbLine
 10
175.771
 20
2.9675
 30
0.0
 11
174.371
 21
2.9675
 31
0.0
  0
LINE
  5
1CEA
330
1D
100
AcDbEntity
  8
0
100
AcDbLine
 10
176.371
 20
2.9675
 30
0.0
 11
175.771
 21
2.9675
 31
0.0
  0
LINE
  5
1CEB
330
1D
100
AcDbEntity
  8
0
100
AcDbLine
 10
176.371
 20
2.9675
 30
0.0
 11
175.771
 21
2.9675
 31
0.0
  0
LINE
  5
1CEC
330
1D
100
AcDbEntity
  8
0
100
AcDbLine
 10
176.371
 20
2.9675
 30
0.0
 11
176.371
 21
4.947451397327
 31
0.0
  0
LINE
  5
1CED
330
1D
100
AcDbEntity
  8
0
100
AcDbLine
 10
177.023
 20
4.7905
 30
0.0
 11
176.73
 21
4.871006542056
 31
0.0
  0
LINE
  5
1CEE
330
1D
100
AcDbEntity
  8
0
100
AcDbLine
 10
176.488
 20
4.6505
 30
0.0
 11
176.371
 21
4.643490014265
 31
0.0
  0
LINE
  5
1CEF
330
1D
100
AcDbEntity
  8
0
100
AcDbLine
 10
176.371
 20
4.947451397327
 30
0.0
 11
176.371
 21
2.9675
 31
0.0
  0
LINE
  5
1CF0
330
1D
100
AcDbEntity
  8
0
100
AcDbLine
 10
176.488
 20
4.9375
 30
0.0
 11
175.665
 21
5.0075
 31
0.0
  0
LINE
  5
1CF1
330
1D
100
AcDbEntity
  8
0
100
AcDbLine
 10
177.023
 20
4.7905
 30
0.0
 11
176.488
 21
4.9375
 31
0.0
  0
LINE
  5
1CF2
330
1D
100
AcDbEntity
  8
0
100
AcDbLine
 10
177.023
 20
4.7905
 30
0.0
 11
176.488
 21
4.6505
 31
0.0
  0
LINE
  5
1CF3
330
1D
100
AcDbEntity
  8
0
100
AcDbLine
 10
172.371
 20
2.9675
 30
0.0
 11
172.371
 21
4.96709430331
 31
0.0
  0
LINE
  5
1CF4
330
1D
100
AcDbEntity
  8
0
100
AcDbLine
 10
172.371
 20
4.628655279503
 30
0.0
 11
171.638
 21
4.7015
 31
0.0
  0
LINE
  5
1CF5
330
1D
100
AcDbEntity
  8
0
100
AcDbLine
 10
172.371
 20
4.96709430331
 30
0.0
 11
172.371
 21
2.9675
 31
0.0
  0
LINE
  5
1CF6
330
1D
100
AcDbEntity
  8
0
100
AcDbLine
 10
172.296
 20
0.9675
 30
0.0
 11
170.896
 21
0.9675
 31
0.0
  0
LINE
  5
1CF7
330
1D
100
AcDbEntity
  8
0
100
AcDbLine
 10
172.296
 20
0.9675
 30
0.0
 11
170.896
 21
0.9675
 31
0.0
  0
LINE
  5
1CF8
330
1D
100
AcDbEntity
  8
0
100
AcDbLine
 10
172.296
 20
0.9675
 30
0.0
 11
170.896
 21
0.9675
 31
0.0
  0
LINE
  5
1CF9
330
1D
100
AcDbEntity
  8
0
100
AcDbLine
 10
172.296
 20
0.9675
 30
0.0
 11
170.896
 21
0.9675
 31
0.0
  0
LINE
  5
1CFA
330
1D
100
AcDbEntity
  8
0
100
AcDbLine
 10
172.232
 20
2.9435
 30
0.0
 11
170.901
 21
2.9655
 31
0.0
  0
LINE
  5
1CFB
330
1D
100
AcDbEntity
  8
0
100
AcDbLine
 10
172.896
 20
0.9675
 30
0.0
 11
172.296
 21
0.9675
 31
0.0
  0
LINE
  5
1CFC
330
1D
100
AcDbEntity
  8
0
100
AcDbLine
 10
172.896
 20
0.9675
 30
0.0
 11
172.296
 21
0.9675
 31
0.0
  0
LINE
  5
1CFD
330
1D
100
AcDbEntity
  8
0
100
AcDbLine
 10
172.896
 20
0.9675
 30
0.0
 11
172.896
 21
1.923647755529
 31
0.0
  0
LINE
  5
1CFE
330
1D
100
AcDbEntity
  8
0
100
AcDbLine
 10
172.896
 20
1.923647755529
 30
0.0
 11
172.896
 21
0.9675
 31
0.0
  0
LINE
  5
1CFF
330
1D
100
AcDbEntity
  8
0
100
AcDbLine
 10
172.896
 20
0.9675
 30
0.0
 11
172.296
 21
0.9675
 31
0.0
  0
LINE
  5
1D00
330
1D
100
AcDbEntity
  8
0
100
AcDbLine
 10
172.896
 20
0.9675
 30
0.0
 11
172.296
 21
0.9675
 31
0.0
  0
LINE
  5
1D01
330
1D
100
AcDbEntity
  8
0
100
AcDbLine
 10
172.896
 20
0.9675
 30
0.0
 11
172.896
 21
2.8936663286
 31
0.0
  0
LINE
  5
1D02
330
1D
100
AcDbEntity
  8
0
100
AcDbLine
 10
173.373
 20
2.8165
 30
0.0
 11
173.218
 21
2.8695
 31
0.0
  0
LINE
  5
1D03
330
1D
100
AcDbEntity
  8
0
100
AcDbLine
 10
172.896
 20
2.738990316004
 30
0.0
 11
172.896
 21
2.8936663286
 31
0.0
  0
LINE
  5
1D04
330
1D
100
AcDbEntity
  8
0
100
AcDbLine
 10
173.221
 20
2.7645
 30
0.0
 11
172.896
 21
2.738990316004
 31
0.0
  0
LINE
  5
1D05
330
1D
100
AcDbEntity
  8
0
100
AcDbLine
 10
173.218
 20
2.8695
 30
0.0
 11
172.896
 21
2.8936663286
 31
0.0
  0
LINE
  5
1D06
330
1D
100
AcDbEntity
  8
0
100
AcDbLine
 10
172.896
 20
2.8936663286
 30
0.0
 11
172.896
 21
2.738990316004
 31
0.0
  0
LINE
  5
1D07
330
1D
100
AcDbEntity
  8
0
100
AcDbLine
 10
172.896
 20
2.8936663286
 30
0.0
 11
172.896
 21
0.9675
 31
0.0
  0
LINE
  5
1D08
330
1D
100
AcDbEntity
  8
0
100
AcDbLine
 10
172.971
 20
2.9675
 30
0.0
 11
172.371
 21
2.9675
 31
0.0
  0
LINE
  5
1D09
330
1D
100
AcDbEntity
  8
0
100
AcDbLine
 10
172.971
 20
2.9675
 30
0.0
 11
172.371
 21
2.9675
 31
0.0
  0
LINE
  5
1D0A
330
1D
100
AcDbEntity
  8
0
100
AcDbLine
 10
173.218
 20
2.8695
 30
0.0
 11
172.232
 21
2.9435
 31
0.0
  0
LINE
  5
1D0B
330
1D
100
AcDbEntity
  8
0
100
AcDbLine
 10
173.373
 20
2.8165
 30
0.0
 11
173.221
 21
2.7645
 31
0.0
  0
LINE
  5
1D0C
330
1D
100
AcDbEntity
  8
0
100
AcDbLine
 10
173.373
 20
2.8165
 30
0.0
 11
173.218
 21
2.8695
 31
0.0
  0
LINE
  5
1D0D
330
1D
100
AcDbEntity
  8
0
100
AcDbLine
 10
169.496
 20
0.9675
 30
0.0
 11
168.896
 21
0.9675
 31
0.0
  0
LINE
  5
1D0E
330
1D
100
AcDbEntity
  8
0
100
AcDbLine
 10
170.896
 20
0.9675
 30
0.0
 11
169.496
 21
0.9675
 31
0.0
  0
LINE
  5
1D0F
330
1D
100
AcDbEntity
  8
0
100
AcDbLine
 10
169.496
 20
0.9675
 30
0.0
 11
168.896
 21
0.9675
 31
0.0
  0
LINE
  5
1D10
330
1D
100
AcDbEntity
  8
0
100
AcDbLine
 10
170.896
 20
0.9675
 30
0.0
 11
169.496
 21
0.9675
 31
0.0
  0
LINE
  5
1D11
330
1D
100
AcDbEntity
  8
0
100
AcDbLine
 10
170.896
 20
0.9675
 30
0.0
 11
169.496
 21
0.9675
 31
0.0
  0
LINE
  5
1D12
330
1D
100
AcDbEntity
  8
0
100
AcDbLine
 10
168.896
 20
0.9675
 30
0.0
 11
168.896
 21
2.898220207254
 31
0.0
  0
LINE
  5
1D13
330
1D
100
AcDbEntity
  8
0
100
AcDbLine
 10
169.496
 20
0.9675
 30
0.0
 11
168.896
 21
0.9675
 31
0.0
  0
LINE
  5
1D14
330
1D
100
AcDbEntity
  8
0
100
AcDbLine
 10
169.496
 20
0.9675
 30
0.0
 11
168.896
 21
0.9675
 31
0.0
  0
LINE
  5
1D15
330
1D
100
AcDbEntity
  8
0
100
AcDbLine
 10
170.896
 20
0.9675
 30
0.0
 11
169.496
 21
0.9675
 31
0.0
  0
LINE
  5
1D16
330
1D
100
AcDbEntity
  8
0
100
AcDbLine
 10
168.896
 20
2.693044132918
 30
0.0
 11
168.754
 21
2.6985
 31
0.0
  0
LINE
  5
1D17
330
1D
100
AcDbEntity
  8
0
100
AcDbLine
 10
170.901
 20
2.9655
 30
0.0
 11
169.708
 21
2.9445
 31
0.0
  0
LINE
  5
1D18
330
1D
100
AcDbEntity
  8
0
100
AcDbLine
 10
168.896
 20
2.898220207254
 30
0.0
 11
168.896
 21
0.9675
 31
0.0
  0
LINE
  5
1D19
330
1D
100
AcDbEntity
  8
0
100
AcDbLine
 10
171.814
 20
4.9225
 30
0.0
 11
171.423
 21
4.7955
 31
0.0
  0
LINE
  5
1D1A
330
1D
100
AcDbEntity
  8
0
100
AcDbLine
 10
171.638
 20
4.7015
 30
0.0
 11
171.423
 21
4.7955
 31
0.0
  0
LINE
  5
1D1B
330
1D
100
AcDbEntity
  8
0
100
AcDbLine
 10
173.113
 20
5.0265
 30
0.0
 11
171.814
 21
4.9225
 31
0.0
  0
LINE
  5
1D1C
330
1D
100
AcDbEntity
  8
0
100
AcDbLine
 10
170.912
 20
44.3405
 30
0.0
 11
166.806
 21
44.3855
 31
0.0
  0
LINE
  5
1D1D
330
1D
100
AcDbEntity
  8
0
100
AcDbLine
 10
178.693
 20
44.2215
 30
0.0
 11
170.912
 21
44.3405
 31
0.0
  0
LINE
  5
1D1E
330
1D
100
AcDbEntity
  8
0
100
AcDbLine
 10
179.756322998975
 20
44.196068704704
 30
0.0
 11
178.756
 21
44.2235
 31
0.0
  0
LINE
  5
1D1F
330
1D
100
AcDbEntity
  8
0
100
AcDbLine
 10
178.756
 20
44.2235
 30
0.0
 11
178.693
 21
44.2215
 31
0.0
  0
LINE
  5
1D20
330
1D
100
AcDbEntity
  8
0
100
AcDbLine
 10
152.845
 20
1.63001
 30
0.0
 11
149.569
 21
1.63001
 31
0.0
  0
LINE
  5
1D21
330
1D
100
AcDbEntity
  8
0
100
AcDbLine
 10
152.845
 20
1.63001
 30
0.0
 11
149.569
 21
1.63001
 31
0.0
  0
LINE
  5
1D22
330
1D
100
AcDbEntity
  8
0
100
AcDbLine
 10
152.897
 20
1.93001
 30
0.0
 11
149.569
 21
1.93001
 31
0.0
  0
LINE
  5
1D23
330
1D
100
AcDbEntity
  8
0
100
AcDbLine
 10
151.236
 20
1.9675
 30
0.0
 11
149.836
 21
1.9675
 31
0.0
  0
LINE
  5
1D24
330
1D
100
AcDbEntity
  8
0
100
AcDbLine
 10
151.236
 20
1.9675
 30
0.0
 11
149.836
 21
1.9675
 31
0.0
  0
LINE
  5
1D25
330
1D
100
AcDbEntity
  8
0
100
AcDbLine
 10
150.047
 20
2.9675
 30
0.0
 11
148.647
 21
2.9675
 31
0.0
  0
LINE
  5
1D26
330
1D
100
AcDbEntity
  8
0
100
AcDbLine
 10
150.047
 20
2.9675
 30
0.0
 11
148.647
 21
2.9675
 31
0.0
  0
LINE
  5
1D27
330
1D
100
AcDbEntity
  8
0
100
AcDbLine
 10
149.973
 20
5.2165
 30
0.0
 11
148.444
 21
5.1665
 31
0.0
  0
LINE
  5
1D28
330
1D
100
AcDbEntity
  8
0
100
AcDbLine
 10
151.501
 20
5.1665
 30
0.0
 11
149.973
 21
5.2165
 31
0.0
  0
LINE
  5
1D29
330
1D
100
AcDbEntity
  8
0
100
AcDbLine
 10
160.541
 20
1.63001
 30
0.0
 11
158.513
 21
1.63001
 31
0.0
  0
LINE
  5
1D2A
330
1D
100
AcDbEntity
  8
0
100
AcDbLine
 10
160.541
 20
1.63001
 30
0.0
 11
158.513
 21
1.63001
 31
0.0
  0
LINE
  5
1D2B
330
1D
100
AcDbEntity
  8
0
100
AcDbLine
 10
160.853
 20
1.93001
 30
0.0
 11
158.773
 21
1.93001
 31
0.0
  0
LINE
  5
1D2C
330
1D
100
AcDbEntity
  8
0
100
AcDbLine
 10
159.704
 20
2.2065
 30
0.0
 11
153.841
 21
2.2735
 31
0.0
  0
LINE
  5
1D2D
330
1D
100
AcDbEntity
  8
0
100
AcDbLine
 10
166.928
 20
2.0635
 30
0.0
 11
163.411
 21
2.1425
 31
0.0
  0
LINE
  5
1D2E
330
1D
100
AcDbEntity
  8
0
100
AcDbLine
 10
164.82
 20
2.9675
 30
0.0
 11
163.42
 21
2.9675
 31
0.0
  0
LINE
  5
1D2F
330
1D
100
AcDbEntity
  8
0
100
AcDbLine
 10
165.738
 20
4.3455
 30
0.0
 11
163.634
 21
4.4395
 31
0.0
  0
LINE
  5
1D30
330
1D
100
AcDbEntity
  8
0
100
AcDbLine
 10
166.928
 20
2.0635
 30
0.0
 11
163.411
 21
2.1425
 31
0.0
  0
LINE
  5
1D31
330
1D
100
AcDbEntity
  8
0
100
AcDbLine
 10
164.609
 20
4.9675
 30
0.0
 11
163.209
 21
4.9675
 31
0.0
  0
LINE
  5
1D32
330
1D
100
AcDbEntity
  8
0
100
AcDbLine
 10
164.609
 20
4.9675
 30
0.0
 11
163.209
 21
4.9675
 31
0.0
  0
LINE
  5
1D33
330
1D
100
AcDbEntity
  8
0
100
AcDbLine
 10
164.171
 20
6.9965
 30
0.0
 11
162.562
 21
6.9905
 31
0.0
  0
LINE
  5
1D34
330
1D
100
AcDbEntity
  8
0
100
AcDbLine
 10
168.323
 20
2.7395
 30
0.0
 11
168.173
 21
2.7905
 31
0.0
  0
LINE
  5
1D35
330
1D
100
AcDbEntity
  8
0
100
AcDbLine
 10
168.323
 20
2.7395
 30
0.0
 11
168.173
 21
2.7905
 31
0.0
  0
LINE
  5
1D36
330
1D
100
AcDbEntity
  8
0
100
AcDbLine
 10
168.699230140432
 20
2.887005344791
 30
0.0
 11
168.476860215619
 21
2.861427583487
 31
0.0
  0
LINE
  5
1D37
330
1D
100
AcDbEntity
  8
0
100
AcDbLine
 10
168.55
 20
2.8785
 30
0.0
 11
168.173
 21
2.7905
 31
0.0
  0
LINE
  5
1D38
330
1D
100
AcDbEntity
  8
0
100
AcDbLine
 10
165.42
 20
2.9675
 30
0.0
 11
164.82
 21
2.9675
 31
0.0
  0
LINE
  5
1D39
330
1D
100
AcDbEntity
  8
0
100
AcDbLine
 10
165.42
 20
2.9675
 30
0.0
 11
165.42
 21
4.359707224335
 31
0.0
  0
LINE
  5
1D3A
330
1D
100
AcDbEntity
  8
0
100
AcDbLine
 10
165.42
 20
4.359707224335
 30
0.0
 11
165.42
 21
2.9675
 31
0.0
  0
LINE
  5
1D3B
330
1D
100
AcDbEntity
  8
0
100
AcDbLine
 10
166.273
 20
4.2215
 30
0.0
 11
165.738
 21
4.1005
 31
0.0
  0
LINE
  5
1D3C
330
1D
100
AcDbEntity
  8
0
100
AcDbLine
 10
166.273
 20
4.2215
 30
0.0
 11
165.738
 21
4.3455
 31
0.0
  0
LINE
  5
1D3D
330
1D
100
AcDbEntity
  8
0
100
AcDbLine
 10
165.738
 20
4.1005
 30
0.0
 11
165.42
 21
4.081304828974
 31
0.0
  0
LINE
  5
1D3E
330
1D
100
AcDbEntity
  8
0
100
AcDbLine
 10
165.973
 20
6.5345
 30
0.0
 11
165.476
 21
6.8155
 31
0.0
  0
LINE
  5
1D3F
330
1D
100
AcDbEntity
  8
0
100
AcDbLine
 10
165.973
 20
6.5345
 30
0.0
 11
165.475
 21
6.2685
 31
0.0
  0
LINE
  5
1D40
330
1D
100
AcDbEntity
  8
0
100
AcDbLine
 10
165.209
 20
4.9675
 30
0.0
 11
164.609
 21
4.9675
 31
0.0
  0
LINE
  5
1D41
330
1D
100
AcDbEntity
  8
0
100
AcDbLine
 10
165.209
 20
4.9675
 30
0.0
 11
164.609
 21
4.9675
 31
0.0
  0
LINE
  5
1D42
330
1D
100
AcDbEntity
  8
0
100
AcDbLine
 10
165.209
 20
4.9675
 30
0.0
 11
165.209
 21
6.852532183908
 31
0.0
  0
LINE
  5
1D43
330
1D
100
AcDbEntity
  8
0
100
AcDbLine
 10
165.209
 20
6.852532183908
 30
0.0
 11
165.209
 21
4.9675
 31
0.0
  0
LINE
  5
1D44
330
1D
100
AcDbEntity
  8
0
100
AcDbLine
 10
165.475
 20
6.2685
 30
0.0
 11
165.209
 21
6.23606595092
 31
0.0
  0
LINE
  5
1D45
330
1D
100
AcDbEntity
  8
0
100
AcDbLine
 10
165.476
 20
6.8155
 30
0.0
 11
164.171
 21
6.9965
 31
0.0
  0
LINE
  5
1D46
330
1D
100
AcDbEntity
  8
0
100
AcDbLine
 10
161.789
 20
1.63001
 30
0.0
 11
160.541
 21
1.63001
 31
0.0
  0
LINE
  5
1D47
330
1D
100
AcDbEntity
  8
0
100
AcDbLine
 10
161.789
 20
1.63001
 30
0.0
 11
160.541
 21
1.63001
 31
0.0
  0
LINE
  5
1D48
330
1D
100
AcDbEntity
  8
0
100
AcDbLine
 10
162.101
 20
1.93001
 30
0.0
 11
160.853
 21
1.93001
 31
0.0
  0
LINE
  5
1D49
330
1D
100
AcDbEntity
  8
0
100
AcDbLine
 10
162.02
 20
2.9675
 30
0.0
 11
161.42
 21
2.9675
 31
0.0
  0
LINE
  5
1D4A
330
1D
100
AcDbEntity
  8
0
100
AcDbLine
 10
163.411
 20
2.1425
 30
0.0
 11
159.704
 21
2.2065
 31
0.0
  0
LINE
  5
1D4B
330
1D
100
AcDbEntity
  8
0
100
AcDbLine
 10
161.825
 20
4.3895
 30
0.0
 11
160.978
 21
4.3105
 31
0.0
  0
LINE
  5
1D4C
330
1D
100
AcDbEntity
  8
0
100
AcDbLine
 10
162.257
 20
1.63001
 30
0.0
 11
161.789
 21
1.63001
 31
0.0
  0
LINE
  5
1D4D
330
1D
100
AcDbEntity
  8
0
100
AcDbLine
 10
162.257
 20
1.63001
 30
0.0
 11
161.789
 21
1.63001
 31
0.0
  0
LINE
  5
1D4E
330
1D
100
AcDbEntity
  8
0
100
AcDbLine
 10
162.569
 20
1.93001
 30
0.0
 11
162.101
 21
1.93001
 31
0.0
  0
LINE
  5
1D4F
330
1D
100
AcDbEntity
  8
0
100
AcDbLine
 10
162.569
 20
1.93001
 30
0.0
 11
162.257
 21
1.63001
 31
0.0
  0
LINE
  5
1D50
330
1D
100
AcDbEntity
  8
0
100
AcDbLine
 10
162.569
 20
1.93001
 30
0.0
 11
162.569
 21
2.157036822228
 31
0.0
  0
LINE
  5
1D51
330
1D
100
AcDbEntity
  8
0
100
AcDbLine
 10
163.411
 20
2.1425
 30
0.0
 11
162.569
 21
2.157036822228
 31
0.0
  0
LINE
  5
1D52
330
1D
100
AcDbEntity
  8
0
100
AcDbLine
 10
163.42
 20
2.9675
 30
0.0
 11
162.02
 21
2.9675
 31
0.0
  0
LINE
  5
1D53
330
1D
100
AcDbEntity
  8
0
100
AcDbLine
 10
162.569
 20
2.157036822228
 30
0.0
 11
162.569
 21
1.93001
 31
0.0
  0
LINE
  5
1D54
330
1D
100
AcDbEntity
  8
0
100
AcDbLine
 10
163.634
 20
4.4395
 30
0.0
 11
161.825
 21
4.3895
 31
0.0
  0
LINE
  5
1D55
330
1D
100
AcDbEntity
  8
0
100
AcDbLine
 10
161.42
 20
2.9675
 30
0.0
 11
161.42
 21
4.351725501771
 31
0.0
  0
LINE
  5
1D56
330
1D
100
AcDbEntity
  8
0
100
AcDbLine
 10
161.42
 20
4.083675438596
 30
0.0
 11
160.914
 21
4.1325
 31
0.0
  0
LINE
  5
1D57
330
1D
100
AcDbEntity
  8
0
100
AcDbLine
 10
161.42
 20
4.351725501771
 30
0.0
 11
161.42
 21
2.9675
 31
0.0
  0
LINE
  5
1D58
330
1D
100
AcDbEntity
  8
0
100
AcDbLine
 10
160.914
 20
4.1325
 30
0.0
 11
160.673
 21
4.2145
 31
0.0
  0
LINE
  5
1D59
330
1D
100
AcDbEntity
  8
0
100
AcDbLine
 10
160.978
 20
4.3105
 30
0.0
 11
160.673
 21
4.2145
 31
0.0
  0
LINE
  5
1D5A
330
1D
100
AcDbEntity
  8
0
100
AcDbLine
 10
163.209
 20
4.9675
 30
0.0
 11
161.809
 21
4.9675
 31
0.0
  0
LINE
  5
1D5B
330
1D
100
AcDbEntity
  8
0
100
AcDbLine
 10
161.809
 20
4.9675
 30
0.0
 11
161.209
 21
4.9675
 31
0.0
  0
LINE
  5
1D5C
330
1D
100
AcDbEntity
  8
0
100
AcDbLine
 10
161.809
 20
4.9675
 30
0.0
 11
161.209
 21
4.9675
 31
0.0
  0
LINE
  5
1D5D
330
1D
100
AcDbEntity
  8
0
100
AcDbLine
 10
163.209
 20
4.9675
 30
0.0
 11
161.809
 21
4.9675
 31
0.0
  0
LINE
  5
1D5E
330
1D
100
AcDbEntity
  8
0
100
AcDbLine
 10
161.209
 20
4.9675
 30
0.0
 11
161.209
 21
6.767779918864
 31
0.0
  0
LINE
  5
1D5F
330
1D
100
AcDbEntity
  8
0
100
AcDbLine
 10
161.209
 20
6.767779918864
 30
0.0
 11
161.209
 21
4.9675
 31
0.0
  0
LINE
  5
1D60
330
1D
100
AcDbEntity
  8
0
100
AcDbLine
 10
161.209
 20
6.286676470588
 30
0.0
 11
160.773
 21
6.5175
 31
0.0
  0
LINE
  5
1D61
330
1D
100
AcDbEntity
  8
0
100
AcDbLine
 10
161.266
 20
6.8005
 30
0.0
 11
160.773
 21
6.5175
 31
0.0
  0
LINE
  5
1D62
330
1D
100
AcDbEntity
  8
0
100
AcDbLine
 10
162.562
 20
6.9905
 30
0.0
 11
161.266
 21
6.8005
 31
0.0
  0
LINE
  5
1D63
330
1D
100
AcDbEntity
  8
0
100
AcDbLine
 10
155.861
 20
1.63001
 30
0.0
 11
152.845
 21
1.63001
 31
0.0
  0
LINE
  5
1D64
330
1D
100
AcDbEntity
  8
0
100
AcDbLine
 10
155.861
 20
1.63001
 30
0.0
 11
152.845
 21
1.63001
 31
0.0
  0
LINE
  5
1D65
330
1D
100
AcDbEntity
  8
0
100
AcDbLine
 10
156.017
 20
1.93001
 30
0.0
 11
152.897
 21
1.93001
 31
0.0
  0
LINE
  5
1D66
330
1D
100
AcDbEntity
  8
0
100
AcDbLine
 10
158.513
 20
1.63001
 30
0.0
 11
155.861
 21
1.63001
 31
0.0
  0
LINE
  5
1D67
330
1D
100
AcDbEntity
  8
0
100
AcDbLine
 10
158.513
 20
1.63001
 30
0.0
 11
155.861
 21
1.63001
 31
0.0
  0
LINE
  5
1D68
330
1D
100
AcDbEntity
  8
0
100
AcDbLine
 10
158.773
 20
1.93001
 30
0.0
 11
156.017
 21
1.93001
 31
0.0
  0
LINE
  5
1D69
330
1D
100
AcDbEntity
  8
0
100
AcDbLine
 10
152.047
 20
2.9675
 30
0.0
 11
152.047
 21
5.108650943396
 31
0.0
  0
LINE
  5
1D6A
330
1D
100
AcDbEntity
  8
0
100
AcDbLine
 10
152.047
 20
5.108650943396
 30
0.0
 11
152.047
 21
2.9675
 31
0.0
  0
LINE
  5
1D6B
330
1D
100
AcDbEntity
  8
0
100
AcDbLine
 10
151.836
 20
1.9675
 30
0.0
 11
151.236
 21
1.9675
 31
0.0
  0
LINE
  5
1D6C
330
1D
100
AcDbEntity
  8
0
100
AcDbLine
 10
151.836
 20
1.9675
 30
0.0
 11
151.236
 21
1.9675
 31
0.0
  0
LINE
  5
1D6D
330
1D
100
AcDbEntity
  8
0
100
AcDbLine
 10
151.836
 20
1.9675
 30
0.0
 11
151.836
 21
2.9675
 31
0.0
  0
LINE
  5
1D6E
330
1D
100
AcDbEntity
  8
0
100
AcDbLine
 10
153.841
 20
2.2735
 30
0.0
 11
151.836
 21
2.274640933232
 31
0.0
  0
LINE
  5
1D6F
330
1D
100
AcDbEntity
  8
0
100
AcDbLine
 10
151.836
 20
2.9675
 30
0.0
 11
151.836
 21
1.9675
 31
0.0
  0
LINE
  5
1D70
330
1D
100
AcDbEntity
  8
0
100
AcDbLine
 10
151.447
 20
2.9675
 30
0.0
 11
150.047
 21
2.9675
 31
0.0
  0
LINE
  5
1D71
330
1D
100
AcDbEntity
  8
0
100
AcDbLine
 10
151.447
 20
2.9675
 30
0.0
 11
150.047
 21
2.9675
 31
0.0
  0
LINE
  5
1D72
330
1D
100
AcDbEntity
  8
0
100
AcDbLine
 10
152.047
 20
2.9675
 30
0.0
 11
151.447
 21
2.9675
 31
0.0
  0
LINE
  5
1D73
330
1D
100
AcDbEntity
  8
0
100
AcDbLine
 10
152.047
 20
2.9675
 30
0.0
 11
151.447
 21
2.9675
 31
0.0
  0
LINE
  5
1D74
330
1D
100
AcDbEntity
  8
0
100
AcDbLine
 10
152.238
 20
3.1225
 30
0.0
 11
152.047
 21
3.129583443709
 31
0.0
  0
LINE
  5
1D75
330
1D
100
AcDbEntity
  8
0
100
AcDbLine
 10
152.773
 20
3.0065
 30
0.0
 11
152.238
 21
3.1225
 31
0.0
  0
LINE
  5
1D76
330
1D
100
AcDbEntity
  8
0
100
AcDbLine
 10
152.773
 20
3.0065
 30
0.0
 11
152.238
 21
2.8975
 31
0.0
  0
LINE
  5
1D77
330
1D
100
AcDbEntity
  8
0
100
AcDbLine
 10
152.238
 20
2.8975
 30
0.0
 11
151.836
 21
2.875256539235
 31
0.0
  0
LINE
  5
1D78
330
1D
100
AcDbEntity
  8
0
100
AcDbLine
 10
152.19
 20
5.0935
 30
0.0
 11
151.501
 21
5.1665
 31
0.0
  0
LINE
  5
1D79
330
1D
100
AcDbEntity
  8
0
100
AcDbLine
 10
152.573
 20
4.9625
 30
0.0
 11
152.076
 21
4.8205
 31
0.0
  0
LINE
  5
1D7A
330
1D
100
AcDbEntity
  8
0
100
AcDbLine
 10
152.573
 20
4.9625
 30
0.0
 11
152.19
 21
5.0935
 31
0.0
  0
LINE
  5
1D7B
330
1D
100
AcDbEntity
  8
0
100
AcDbLine
 10
148.047
 20
2.9675
 30
0.0
 11
148.047
 21
5.124437590711
 31
0.0
  0
LINE
  5
1D7C
330
1D
100
AcDbEntity
  8
0
100
AcDbLine
 10
148.047
 20
5.124437590711
 30
0.0
 11
148.047
 21
2.9675
 31
0.0
  0
LINE
  5
1D7D
330
1D
100
AcDbEntity
  8
0
100
AcDbLine
 10
149.836
 20
1.9675
 30
0.0
 11
148.436
 21
1.9675
 31
0.0
  0
LINE
  5
1D7E
330
1D
100
AcDbEntity
  8
0
100
AcDbLine
 10
147.836
 20
1.9675
 30
0.0
 11
147.836
 21
3.130483903421
 31
0.0
  0
LINE
  5
1D7F
330
1D
100
AcDbEntity
  8
0
100
AcDbLine
 10
148.436
 20
1.9675
 30
0.0
 11
147.836
 21
1.9675
 31
0.0
  0
LINE
  5
1D80
330
1D
100
AcDbEntity
  8
0
100
AcDbLine
 10
148.436
 20
1.9675
 30
0.0
 11
147.836
 21
1.9675
 31
0.0
  0
LINE
  5
1D81
330
1D
100
AcDbEntity
  8
0
100
AcDbLine
 10
149.836
 20
1.9675
 30
0.0
 11
148.436
 21
1.9675
 31
0.0
  0
LINE
  5
1D82
330
1D
100
AcDbEntity
  8
0
100
AcDbLine
 10
147.708
 20
2.8975
 30
0.0
 11
147.173
 21
3.0065
 31
0.0
  0
LINE
  5
1D83
330
1D
100
AcDbEntity
  8
0
100
AcDbLine
 10
147.836
 20
2.89041750503
 30
0.0
 11
147.708
 21
2.8975
 31
0.0
  0
LINE
  5
1D84
330
1D
100
AcDbEntity
  8
0
100
AcDbLine
 10
148.647
 20
2.9675
 30
0.0
 11
148.047
 21
2.9675
 31
0.0
  0
LINE
  5
1D85
330
1D
100
AcDbEntity
  8
0
100
AcDbLine
 10
148.647
 20
2.9675
 30
0.0
 11
148.047
 21
2.9675
 31
0.0
  0
LINE
  5
1D86
330
1D
100
AcDbEntity
  8
0
100
AcDbLine
 10
147.708
 20
3.1225
 30
0.0
 11
147.173
 21
3.0065
 31
0.0
  0
LINE
  5
1D87
330
1D
100
AcDbEntity
  8
0
100
AcDbLine
 10
147.836
 20
3.130483903421
 30
0.0
 11
147.836
 21
1.9675
 31
0.0
  0
LINE
  5
1D88
330
1D
100
AcDbEntity
  8
0
100
AcDbLine
 10
148.047
 20
3.143644869215
 30
0.0
 11
147.708
 21
3.1225
 31
0.0
  0
LINE
  5
1D89
330
1D
100
AcDbEntity
  8
0
100
AcDbLine
 10
148.047
 20
4.806807692308
 30
0.0
 11
147.869
 21
4.8205
 31
0.0
  0
LINE
  5
1D8A
330
1D
100
AcDbEntity
  8
0
100
AcDbLine
 10
147.869
 20
4.8205
 30
0.0
 11
147.373
 21
4.9625
 31
0.0
  0
LINE
  5
1D8B
330
1D
100
AcDbEntity
  8
0
100
AcDbLine
 10
148.444
 20
5.1665
 30
0.0
 11
147.755
 21
5.0935
 31
0.0
  0
LINE
  5
1D8C
330
1D
100
AcDbEntity
  8
0
100
AcDbLine
 10
147.755
 20
5.0935
 30
0.0
 11
147.373
 21
4.9625
 31
0.0
  0
ENDSEC
  0
SECTION
  2
OBJECTS
  0
DICTIONARY
  5
C
330
0
100
AcDbDictionary
281
     1
  3
ACAD_GROUP
350
D
  3
ACAD_LAYOUT
350
1A
  3
ACAD_MLEADERSTYLE
350
1D8F
  3
ACAD_MLINESTYLE
350
17
  3
ACAD_PLOTSETTINGS
350
19
  3
ACAD_PLOTSTYLENAME
350
E
  3
ACAD_SCALELIST
350
C5C
  3
AcDbVariableDictionary
350
1D8D
  3
DWGPROPS
350
1D92
  0
DICTIONARY
  5
D
102
{ACAD_REACTORS
330
C
102
}
330
C
100
AcDbDictionary
281
     1
  0
DICTIONARY
  5
1A
102
{ACAD_REACTORS
330
C
102
}
330
C
100
AcDbDictionary
281
     1
  3
Layout1
350
1C
  3
Model
350
1E
  0
DICTIONARY
  5
1D8F
102
{ACAD_REACTORS
330
C
102
}
330
C
100
AcDbDictionary
281
     1
  0
DICTIONARY
  5
17
102
{ACAD_REACTORS
330
C
102
}
330
C
100
AcDbDictionary
281
     1
  3
Standard
350
18
  0
DICTIONARY
  5
19
102
{ACAD_REACTORS
330
C
102
}
330
C
100
AcDbDictionary
281
     1
  0
ACDBDICTIONARYWDFLT
  5
E
102
{ACAD_REACTORS
330
C
102
}
330
C
100
AcDbDictionary
281
     1
  3
Normal
350
F
100
AcDbDictionaryWithDefault
340
F
  0
DICTIONARY
  5
C5C
102
{ACAD_REACTORS
330
C
102
}
330
C
100
AcDbDictionary
281
     1
  3
A0
350
C5D
  3
A1
350
C5E
  3
A2
350
C5F
  3
A3
350
C60
  3
A4
350
C61
  3
A5
350
C62
  3
A6
350
C63
  3
A7
350
C64
  3
A8
350
C65
  3
A9
350
C66
  3
B0
350
C67
  3
B1
350
C68
  3
B2
350
C69
  3
B3
350
C6A
  3
B4
350
C6B
  3
B5
350
C6C
  3
B6
350
C6D
  3
B7
350
C6E
  3
B8
350
C6F
  3
B9
350
C70
  3
C0
350
C71
  3
C1
350
C72
  3
C2
350
C73
  3
C3
350
C74
  3
C4
350
C75
  3
C5
350
C76
  3
C6
350
C77
  3
C7
350
C78
  3
C8
350
C79
  3
C9
350
C7A
  3
D0
350
C7B
  3
D1
350
C7C
  3
D2
350
C7D
  0
DICTIONARY
  5
1D8D
102
{ACAD_REACTORS
330
C
102
}
330
C
100
AcDbDictionary
281
     1
  3
CANNOSCALE
350
1D90
  0
XRECORD
  5
1D92
102
{ACAD_REACTORS
330
C
102
}
330
C
100
AcDbXrecord
280
     1
  1
DWGPROPS COOKIE
  2

  3

  4

  6

  7

  8
MARTIN
  9

300
=
301
=
302
=
303
=
304
=
305
=
306
=
307
=
308
=
309
=
 40
0.0
 41
2456213.865710718
 42
2456213.867093993
  1

 90
        0
  0
LAYOUT
  5
1C
102
{ACAD_REACTORS
330
1A
102
}
330
1A
100
AcDbPlotSettings
  1

  2
none_device
  4

  6

 40
0.0
 41
0.0
 42
0.0
 43
0.0
 44
0.0
 45
0.0
 46
0.0
 47
0.0
 48
0.0
 49
0.0
140
0.0
141
0.0
142
1.0
143
1.0
 70
   688
 72
     0
 73
     0
 74
     5
  7

 75
    16
147
1.0
148
0.0
149
0.0
100
AcDbLayout
  1
Layout1
 70
     1
 71
     1
 10
0.0
 20
0.0
 11
12.0
 21
9.0
 12
0.0
 22
0.0
 32
0.0
 14
1.000000000000E+20
 24
1.000000000000E+20
 34
1.000000000000E+20
 15
-1.000000000000E+20
 25
-1.000000000000E+20
 35
-1.000000000000E+20
146
0.0
 13
0.0
 23
0.0
 33
0.0
 16
1.0
 26
0.0
 36
0.0
 17
0.0
 27
1.0
 37
0.0
 76
     0
330
1B
  0
LAYOUT
  5
1E
102
{ACAD_REACTORS
330
1A
102
}
330
1A
100
AcDbPlotSettings
  1

  2
none_device
  4

  6

 40
0.0
 41
0.0
 42
0.0
 43
0.0
 44
0.0
 45
0.0
 46
0.0
 47
0.0
 48
0.0
 49
0.0
140
0.0
141
0.0
142
1.0
143
1.0
 70
  1712
 72
     0
 73
     0
 74
     0
  7

 75
     0
147
1.0
148
0.0
149
0.0
100
AcDbLayout
  1
Model
 70
     1
 71
     0
 10
0.0
 20
0.0
 11
12.0
 21
9.0
 12
0.0
 22
0.0
 32
0.0
 14
-0.026
 24
-0.0325
 34
0.0
 15
299.972
 25
168.0325
 35
0.0
146
0.0
 13
0.0
 23
0.0
 33
0.0
 16
1.0
 26
0.0
 36
0.0
 17
0.0
 27
1.0
 37
0.0
 76
     0
330
1D
331
C57
  0
MLINESTYLE
  5
18
102
{ACAD_REACTORS
330
17
102
}
330
17
100
AcDbMlineStyle
  2
Standard
 70
     0
  3

 62
   256
 51
90.0
 52
90.0
 71
     2
 49
0.5
 62
   256
  6
BYLAYER
 49
-0.5
 62
   256
  6
BYLAYER
  0
ACDBPLACEHOLDER
  5
F
102
{ACAD_REACTORS
330
E
102
}
330
E
  0
SCALE
  5
C5D
102
{ACAD_REACTORS
330
C5C
102
}
330
C5C
100
AcDbScale
 70
     0
300
1:1
140
1.0
141
1.0
290
     1
  0
SCALE
  5
C5E
102
{ACAD_REACTORS
330
C5C
102
}
330
C5C
100
AcDbScale
 70
     0
300
1:2
140
1.0
141
2.0
290
     0
  0
SCALE
  5
C5F
102
{ACAD_REACTORS
330
C5C
102
}
330
C5C
100
AcDbScale
 70
     0
300
1:4
140
1.0
141
4.0
290
     0
  0
SCALE
  5
C60
102
{ACAD_REACTORS
330
C5C
102
}
330
C5C
100
AcDbScale
 70
     0
300
1:5
140
1.0
141
5.0
290
     0
  0
SCALE
  5
C61
102
{ACAD_REACTORS
330
C5C
102
}
330
C5C
100
AcDbScale
 70
     0
300
1:8
140
1.0
141
8.0
290
     0
  0
SCALE
  5
C62
102
{ACAD_REACTORS
330
C5C
102
}
330
C5C
100
AcDbScale
 70
     0
300
1:10
140
1.0
141
10.0
290
     0
  0
SCALE
  5
C63
102
{ACAD_REACTORS
330
C5C
102
}
330
C5C
100
AcDbScale
 70
     0
300
1:16
140
1.0
141
16.0
290
     0
  0
SCALE
  5
C64
102
{ACAD_REACTORS
330
C5C
102
}
330
C5C
100
AcDbScale
 70
     0
300
1:20
140
1.0
141
20.0
290
     0
  0
SCALE
  5
C65
102
{ACAD_REACTORS
330
C5C
102
}
330
C5C
100
AcDbScale
 70
     0
300
1:30
140
1.0
141
30.0
290
     0
  0
SCALE
  5
C66
102
{ACAD_REACTORS
330
C5C
102
}
330
C5C
100
AcDbScale
 70
     0
300
1:40
140
1.0
141
40.0
290
     0
  0
SCALE
  5
C67
102
{ACAD_REACTORS
330
C5C
102
}
330
C5C
100
AcDbScale
 70
     0
300
1:50
140
1.0
141
50.0
290
     0
  0
SCALE
  5
C68
102
{ACAD_REACTORS
330
C5C
102
}
330
C5C
100
AcDbScale
 70
     0
300
1:100
140
1.0
141
100.0
290
     0
  0
SCALE
  5
C69
102
{ACAD_REACTORS
330
C5C
102
}
330
C5C
100
AcDbScale
 70
     0
300
2:1
140
2.0
141
1.0
290
     0
  0
SCALE
  5
C6A
102
{ACAD_REACTORS
330
C5C
102
}
330
C5C
100
AcDbScale
 70
     0
300
4:1
140
4.0
141
1.0
290
     0
  0
SCALE
  5
C6B
102
{ACAD_REACTORS
330
C5C
102
}
330
C5C
100
AcDbScale
 70
     0
300
8:1
140
8.0
141
1.0
290
     0
  0
SCALE
  5
C6C
102
{ACAD_REACTORS
330
C5C
102
}
330
C5C
100
AcDbScale
 70
     0
300
10:1
140
10.0
141
1.0
290
     0
  0
SCALE
  5
C6D
102
{ACAD_REACTORS
330
C5C
102
}
330
C5C
100
AcDbScale
 70
     0
300
100:1
140
100.0
141
1.0
290
     0
  0
SCALE
  5
C6E
102
{ACAD_REACTORS
330
C5C
102
}
330
C5C
100
AcDbScale
 70
     0
300
1/128" = 1'-0"
140
0.0078125
141
12.0
290
     0
  0
SCALE
  5
C6F
102
{ACAD_REACTORS
330
C5C
102
}
330
C5C
100
AcDbScale
 70
     0
300
1/64" = 1'-0"
140
0.015625
141
12.0
290
     0
  0
SCALE
  5
C70
102
{ACAD_REACTORS
330
C5C
102
}
330
C5C
100
AcDbScale
 70
     0
300
1/32" = 1'-0"
140
0.03125
141
12.0
290
     0
  0
SCALE
  5
C71
102
{ACAD_REACTORS
330
C5C
102
}
330
C5C
100
AcDbScale
 70
     0
300
1/16" = 1'-0"
140
0.0625
141
12.0
290
     0
  0
SCALE
  5
C72
102
{ACAD_REACTORS
330
C5C
102
}
330
C5C
100
AcDbScale
 70
     0
300
3/32" = 1'-0"
140
0.09375
141
12.0
290
     0
  0
SCALE
  5
C73
102
{ACAD_REACTORS
330
C5C
102
}
330
C5C
100
AcDbScale
 70
     0
300
1/8" = 1'-0"
140
0.125
141
12.0
290
     0
  0
SCALE
  5
C74
102
{ACAD_REACTORS
330
C5C
102
}
330
C5C
100
AcDbScale
 70
     0
300
3/16" = 1'-0"
140
0.1875
141
12.0
290
     0
  0
SCALE
  5
C75
102
{ACAD_REACTORS
330
C5C
102
}
330
C5C
100
AcDbScale
 70
     0
300
1/4" = 1'-0"
140
0.25
141
12.0
290
     0
  0
SCALE
  5
C76
102
{ACAD_REACTORS
330
C5C
102
}
330
C5C
100
AcDbScale
 70
     0
300
3/8" = 1'-0"
140
0.375
141
12.0
290
     0
  0
SCALE
  5
C77
102
{ACAD_REACTORS
330
C5C
102
}
330
C5C
100
AcDbScale
 70
     0
300
1/2" = 1'-0"
140
0.5
141
12.0
290
     0
  0
SCALE
  5
C78
102
{ACAD_REACTORS
330
C5C
102
}
330
C5C
100
AcDbScale
 70
     0
300
3/4" = 1'-0"
140
0.75
141
12.0
290
     0
  0
SCALE
  5
C79
102
{ACAD_REACTORS
330
C5C
102
}
330
C5C
100
AcDbScale
 70
     0
300
1" = 1'-0"
140
1.0
141
12.0
290
     0
  0
SCALE
  5
C7A
102
{ACAD_REACTORS
330
C5C
102
}
330
C5C
100
AcDbScale
 70
     0
300
1-1/2" = 1'-0"
140
1.5
141
12.0
290
     0
  0
SCALE
  5
C7B
102
{ACAD_REACTORS
330
C5C
102
}
330
C5C
100
AcDbScale
 70
     0
300
3" = 1'-0"
140
3.0
141
12.0
290
     0
  0
SCALE
  5
C7C
102
{ACAD_REACTORS
330
C5C
102
}
330
C5C
100
AcDbScale
 70
     0
300
6" = 1'-0"
140
6.0
141
12.0
290
     0
  0
SCALE
  5
C7D
102
{ACAD_REACTORS
330
C5C
102
}
330
C5C
100
AcDbScale
 70
     0
300
1'-0" = 1'-0"
140
12.0
141
12.0
290
     0
  0
DICTIONARYVAR
  5
1D90
102
{ACAD_REACTORS
330
1D8D
102
}
330
1D8D
100
DictionaryVariables
280
     0
  1
1:1
  0
ENDSEC
  0
SECTION
  2
THUMBNAILIMAGE
 90
    16364
310
28000000B40000005500000001000800000000000000000000000000000000000000000000000000FFFFFF000000FF0000FFFF0000FF0000FFFF0000FF000000FF00FF000000000080808000C0C0C0000000FF007F7FFF000000A5005252A50000007F003F3F7F0000004C0026264C000000260013132600003FFF007F9FFF
310
000029A5005267A500001F7F003F4F7F0000134C00262F4C000009260013172600007FFF007FBFFF000052A500527CA500003F7F003F5F7F0000264C0026394C0000132600131C260000BFFF007FDFFF00007CA5005291A500005F7F003F6F7F0000394C0026424C00001C26001321260000FFFF007FFFFF0000A5A50052A5
310
A500007F7F003F7F7F00004C4C00264C4C00002626001326260000FFBF007FFFDF0000A57C0052A59100007F5F003F7F6F00004C3900264C420000261C001326210000FF7F007FFFBF0000A5520052A57C00007F3F003F7F5F00004C2600264C39000026130013261C0000FF3F007FFF9F0000A5290052A56700007F1F003F
310
7F4F00004C1300264C2F00002609001326170000FF00007FFF7F0000A5000052A55200007F00003F7F3F00004C0000264C260000260000132613003FFF00009FFF7F0029A5000067A552001F7F00004F7F3F00134C00002F4C260009260000172613007FFF0000BFFF7F0052A500007CA552003F7F00005F7F3F00264C0000
310
394C2600132600001C261300BFFF0000DFFF7F007CA5000091A552005F7F00006F7F3F00394C0000424C26001C26000021261300FFFF0000FFFF7F00A5A50000A5A552007F7F00007F7F3F004C4C00004C4C26002626000026261300FFBF0000FFDF7F00A57C0000A59152007F5F00007F6F3F004C3900004C422600261C00
310
0026211300FF7F0000FFBF7F00A5520000A57C52007F3F00007F5F3F004C2600004C39260026130000261C1300FF3F0000FF9F7F00A5290000A56752007F1F00007F4F3F004C1300004C2F26002609000026171300FF000000FF7F7F00A5000000A55252007F0000007F3F3F004C0000004C2626002600000026131300FF00
310
3F00FF7F9F00A5002900A55267007F001F007F3F4F004C0013004C262F002600090026131700FF007F00FF7FBF00A5005200A5527C007F003F007F3F5F004C0026004C2639002600130026131C00FF00BF00FF7FDF00A5007C00A55291007F005F007F3F6F004C0039004C26420026001C0026132100FF00FF00FF7FFF00A5
310
00A500A552A5007F007F007F3F7F004C004C004C264C002600260026132600BF00FF00DF7FFF007C00A5009152A5005F007F006F3F7F0039004C0042264C001C002600211326007F00FF00BF7FFF005200A5007C52A5003F007F005F3F7F0026004C0039264C00130026001C1326003F00FF009F7FFF002900A5006752A500
310
1F007F004F3F7F0013004C002F264C000900260017132600000000002D2D2D005B5B5B0089898900B7B7B700B3B3B30000000000000000000000000000000000000000000000000000000000000000000000000000000000000000000000000000000007070700000007070700000000070707000000070707070707000000
310
07070700000000000000000000000000000000000707070000000707070707070000000707070000000007070700000007070700000000000000000000000000000000000000000000000000000000000000000000000000000000000000000000000000000000000000000000000000000000000000000000000000000000
310
00000000000000000000000000070707000000070707070707070707070707070707070707070707070707070707070707070707070707070707070707070707070707070707070707070707070707070707070707070707070707070707070707070707070707070707070707070000000707070000000000000000000000
310
00000000000000000000000000000000000000000000000000000000000000000000000000000000000000000000000000000000000000000000000707070707000707070707070707070707070707070707070707070707000707070700000707070707070707070707070000070707070000000707070000000707070700
310
00070707070707070707070707000007070707000707070707070707070707070707070707070707070707000707070707000000000000000000000000000000000000000000000000000000000000000000000000000000000000000000000000000000000000000707070707070707070707070707000707070707070700
310
00070707000707070700000707070700070707000000000707070700000000000000000707070000000000000000000000070707000000000000000007070707000000000707070007070707000007070707000707070000070707070707070007070707070707070707070707070000000000000000000000000000000000
310
00000000000000000000000000000000000000000000000000000007070707070707070707070000000000000007070700000000000000000000000000000000000000000000000000000000000000000000000000000000000000000000000000000000000000000000000000000000000000000000000000000000000000
310
00000000000000000000000000000000000007070700000000000000070707070707070707070700000000000000000000000000000000000000000000000000000000000000000000000000070707070707070707070707070707070707070707070707070707070707070707070707070707070707070707070707070707
310
07070707070707070707070707070707070707070707000707070707070707070707070707070707070707070707070707070707070707070707070707070707070707070707070707070707070707070707070707070707070707070707070700000000000000000000000000000000000000000000000000000000000000
310
00070700000000000000000000000000000000000000000000000000000000000000000000000000000000000000000000000000000000000000000000000000000000000000000000000000000000000000000000000000000000000000000000000000000000000000000000000000000000000000000000000000000000
310
00000000000000000000000000000000000000000007070000000000000000000000000000000000000000000000000000000000000007000000000000000000000000000000000000000000000000000000000000000000000000000000000000000000000000000000000000000000000000000000000000000000000000
310
00000000000000000000000000000000000000000000000000000000000000000000000000000000000000000000000000000000000000000000000000000000000000000000000000000007000000000000000000000000000000000000000000000000000000000000000700000000000000000000000000000000000000
310
00000000000000000000000000000000000000000000000000000000000000000000000000000000000000000000000000000000000000000000000000000000000000000000000000000000000000000000000000000000000000000000000000000000000000000000000000000000000000000000000000000000000000
310
00070000000000000000000000000000000000000000000000000000000000000007000000000000000000000000000000000000000000000000000000000000000000000000000000000000000000000000000000000000000000000000000000000000000000000000000000000000000000000000000000000000000000
310
00000000000000000000000000000000000000000000000000000000000000000000000000000000000000000000000000000000000007000000000000000000000000000000000000000000000000000000000000000700000000000000000000000000000000000000000000000000000000000000000000000000000000
310
00000000000000000000000000000000000000000000000000000000000000000000000000000000000000000000000000000000000000000000000000000000000000000000000000000000000000000000000000000000000000000000000000000000000000000000000700000000000000000000000000000000000000
310
00000000000000000000000007000000000000000000000000000000000000000000000000000000000000000000000000000000000000000000000000000000000000000000000000000000000000000000000000000000000000000000000000000000000000000000000000000000000000000000000000000000000000
310
00000000000000000000000000000000000000000000000000000000000000000007000000000000000000000000000000000000000000000000000000000000000700000000000000000000000000000000000000000000000000000000000000000000000000000000000000000000000000000000000000000000000000
310
00000000000000000000000000000000000000000000000000000000000000000000000000000000000000000000000000000000000000000000000000000000000000000000000000000000000000000000000000000700000000000000000000000000000000000000000000000000000000000000070000000000000000
310
00000000000000000000000000000000000000000000000000000000000000000000000000000000000000000000000000000000000000000000000000000000000000000000000000000000000000000000000000000000000000000000000000000000000000000000000000000000000000000000000000000000000000
310
00000000000000000000000007000000000000000000000000000000000000000000000000000000000000000700000000000000000000000000000000000000000000000000000000000000000000000000000000000000000000000000000000000000000000000000000000000000000000000000000000000000000000
310
00000000000000000000000000000000000000000000000000000000000000000000000000000000000000000000000000000000000000000000000000000000000700000000000000000000000000000000000000000000000000000000000000070000000000000000000000000000000000000000000000000000000000
310
00000000000000000000000000000000000000000000000000000000000000000000000000000000000000000000000000000000000000000000000000000000000000000000000000000000000000000000000000000000000000000000000000000000000000000000000000000000000000000000070000000000000000
310
00000000000000000000000000000000000000000000000700000000000000000000000000000000000000000000000000000000000000000000000000000000000000000000000000000000000000000000000000000000000000000000000000000000000000000000000000000000000000000000000000000000000000
310
00000000000000000000000000000000000000000000000000000000000000000000000000000000000000000700000000000000000000000000000000000000000000000000000000000000070707070700000000000000000000000000000000000000000000000000000000000000000000000000000000000000000000
310
00000000000000000000000000000000000000000000000000000000000000000000000000000000000000000000000000000000000000000000000000000000000000000000000000000000000000000000000000000000000000000007070707070000000000000000000000000000000000000000000000000000000000
310
00000000000000070707070700000000000000000000000000000000000000000000000000000000000000000000000000000000000000000000000000000000000000000000000000000000000000000000000000000000000000000000000000000000000000000000000000000000000000000000000000000000000000
310
00000000000000000000000000000707070707000000000000000000000000000000000000000000000000000000000000000000000000000000000000000000000707070707000000000000000000000000000000000000000000000000000000000000000000000000000000000000000000000000000000000000000000
310
00000000000000000000000000000000000000000000000000000000000000000000000000000000000000000000000000000000000000000000000000000707070707000000000000000000000000000000000000000000000000000000000000000000000000000000000000000000000000000000000000000007070707
310
07070707070707070707070000000000000000000000000000000000000000000000000000000000000000000000000000000000000000000000000000000000000000000000000000000000000000000000000000000000000000000000000000000000070707070707070707070707070707000000000000000000000000
310
00000000000000000000000000000000000000000000000000000000000000000000000000000000000000000000000000000000000000000000000000000000070707070707070707070707070707070707070000000000000000000000000000000000000000000000000000000000000000000000000000000000000000
310
00000000000000070707070707070707070707070707070707070000000000000000000000000000000000000000000000000000000000000000000000000000000000000000000000000000000000000000000000000000000000000000000000000000000000000000000000000000000000000000000000000000000000
310
00000000000000000007070707070707070707070707070707070707070707070707070707070707070707070707070707070707070707070707070700000000000000000000000000000000000000000000000000000000000000000000000000000000000000000000000000000000000000000000000000000000000000
310
00000000000000000000000000000000000000000000000000000000000000000000000000000000000000000000000000000000000000000000000000000000000000000000000000000000000000070000000000000000000000000000000700000000000000000000000000000000000000000000000000000000000000
310
00000000000000000000000000000000000000000000000000000000000000000000000000000000000000000000000000000000000000000000000000000000000000000000000000000000000000000000000000000000000000000000000000000000000000000000000000000000000000000000000000000000000000
310
00000000000700000000000000000000000000000007000000000000000000000000000000000000000000000000000000000000000000000000000000000000000000000000000000000000000000000000000000000000000000000000000000000000000000000000000000000000000000000000000000000000000000
310
00000000000000000000000000000000000000000000000000000000000000000000000000000000000000000000000000000000000000000000070000000000000000000000000000000700000000000000000000000000000000000000000000000000000000000000000000000000000000000000000000000000000000
310
00000000000000000000000000000000000000000000000000000000000000000000000000000000000000000000000000000000000000000000000000000000000000000000000000000000000000000000000000000000000000000000000000000000000000000000000000000007000000000000000000000000000000
310
07000000000000000000000000000000000000000000000000000000000000000000000000000000000000000000000000000000000000000000000000000000000000000000000000000000000000000000000000000000000000000000000000000000000000000000000000000000000000000000000000000000000000
310
00000000000000000000000000000000000000000000000000000000000000000000000000070000000000000000000000000000000700000000000000000000000000000000000000000000000000000000000000000000000000000000000000000000000000000000000000000000000000000000000000000000000000
310
00000000000000000000000000000000000000000000000000000000000000000000000000000000000000000000000000000000000000000000000000000000000000000000000000000000000000000000000000000000000007000000000000000000000000000000070000000000000000000000000000000000000000
310
00000000000000000000000000000000000000000000000000000000000000000000000000000000000000000000000000000000000000000000000000000000000000000000000000000000000000000000000000000000000000000000000000000000000000000000000000000000000000000000000000000000000000
310
00000000000000000000000000000000070000000000000000000000000000000700000000000000000000000000000000000000000000000000000000000000000000000000000000000000000000000000000000000000000000000000000000000000000000000000000000000000000000000000000000000000000000
310
00000000000000000000000000000000000000000000000000000000000000000000000000000000000000000000000000000000000000000000000000000000000000000007000000000000000000000000000000070000000000000000000000000000000000000000000000000000000000000000000000000000000000
310
00000000000000000000000000000000000000000000000000000000000000000000000000000000000000000000000000000000000000000000000000000000000000000000000000000000000000000000000000000000000000000000000000000000000000000000000000000000000000000000000000000700000000
310
00000000000000000000070000000000000000000000000000000000000000000000000000000000000000000000000000000000000000000000000000000000000000000000000000000000000000000000000000000000000000000000000000000000000000000000000000000000000000000000000000000000000000
310
00000000000000000000000000000000000000000000000000000000000000000000000000000000000000000000000000070707070707070707070707070707000000000000000000000000000000000000000000000000000000000000000000000000000000000000000000000000000000000000000000000000000000
310
00000000000000000000000000000000000000000000000000000000000000000000000000000000000000000000000000000000000000000000000000000000000000000000000000000000000000000000000000000000000000000000000000000000000000000007000000000000000700000000000000000000000000
310
00000000000000000000000000000000000000000000000000000000000000000000000000000000000000000000000000000000000000000000000000000000000000000000000000000000000000000000000000000000000000000000000000000000000000000000000000000000000000000000000000000000000000
310
00000000000000000000000000000000000000000000000000000000000000070000000000000007000000000000000000000000000000000000000000000000000000000000000000000000000000000000000000000000000000000000000000000000000000000000000000000000000000000000000000000000000000
310
00000000000000000000000000000000000000000000000000000000000000000000000000000000000000000000000000000000000000000000000000000000000000000000000000000000000000000000070700000000000000000007070000000000000000000000000000000000000000000000000000000000000000
310
00000000000000000000000000000000000000000000000000000000000000000000000000000000000000000000000000000000000000000000000000000000000000000000000000000000000000000000000000000000000000000000000000000000000000000000000000000000000000000000000000000000000000
310
00000000000000000700000000000000000000000000000000000000000000000000000000000000000000000000000000000000000000000000000000000000000000000000000000000000000000000000000000000000000000000000000000000000000000000000000000000000000000000000000000000000000000
310
00000000000000000000000000000000000000000000000000000000000000000000000000000000000000000000000000000000000000000000000000070000000000000000000000070000000000000000000000000000000000000000000000000000000000000000000000000000000000000000000000000000000000
310
00000000000000000000000000000000000000000000000000000000000000000000000000000000000000000000000000000000000000000000000000000000000000000000000000000000000000000000000000000000000000000000000000000000000000000000000000000000000007000000000000000000000007
310
00000000000000000000000000000000000000000000000000000000000000000000000000000000000000000000000000000000000000000000000000000000000000000000000000000000000000000000000000000000000000000000000000000000000000000000000000000000000000000000000000000000000000
310
00000000000000000000000000000000000000000000000000000000000000000000000000000000070000000000000000000000070000000000000000000000000000000000000000000000000000000000000000000000000000000000000000000000000000000000000000000000000000000000000000000000000000
310
00000000000000000000000000000000000000000000000000000000000000000000000000000000000000000000000000000000000000000000000000000000000000000000000000000000000000000000000000000000000000000007000000000000000000000007000000000000000000000000000000000000000000
310
00000000000000000000000000000000000000000000000000000000000000000000000000000000000000000000000000000000000000000000000000000000000000000000000000000000000000000000000000000000000000000000000000000000000000000000000000000000000000000000000000000000000000
310
00000000000000000000000000000000000000070000000000000000000000070000000000000000000000000000000000000000000000000000000000000000000000000000000000000000000000000000000000000000000000000000000000000000000000000000000000000000000000000000000000000000000000
310
00000000000000000000000000000000000000000000000000000000000000000000000000000000000000000000000000000000000000000000000000000000000000000000000007070707070707070707070707000000000000000000000000000000000000000000000000000000000000000000000000000000000000
310
00000000000000000000000000000000000000000000000000000000000000000000000000000000000000000000000000000000000000000000000000000000000000000000000000000000000000000000000000000000000000000000000000000000000000000000000000000000000000000000000007070707070700
310
00000000000000000000070707070707000000000000000000000000000000000000000000000000000000000000000000000000000000000000000000000000000000000000000000000000000000000000000000000000000000000000000000000000000000000000000000000000000000000000000000000000000000
310
00000000000000000000000000000000000000000000000000000000000000000000000000000007070707070707000000000007000000000000000000000007000000000007070707070707000000000000000000000000000000000000000000000000000000000000000000000000000000000000000000000000000000
310
00000000000000000000000000000000000000000000000000000000000000000000000000000000000000000000000000000000000000000000000000000000000000000000000000000000000000000000000000000000000000070700000000000000000000000700000000000000000000000700000000000000000000
310
00070700000000000000000000000000000000000000000000000000000000000000000000000000000000000000000000000000000000000000000000000000000000000000000000000000000000000000000000000000000000000000000000000000000000000000000000000000000000000000000000000000000000
310
00000000000000000000000000000000000700000000000000000000000007000000000000000000000007000000000000000000000000070000000000000000000000000000000000000000000000000000000000000000000000000000000000000000000000000000000000000000000000000000000000000000000000
310
00000000000000000000000000000000000000000000000000000000000000000000000000000000000000000000000000000000000000000000000000000000000000000000070000000000000000000000000700000000000000000000000700000000000000000000000007000000000000000000000000000000000000
310
00000000000000000000000000000000000000000000000000000000000000000000000000000000000000000000000000000000000000000000000000000000000000000000000000000000000000000000000000000000000000000000000000000000000000000000000000000000000000000000000000000700000000
310
00000000000000000007000000000000000000000007000000000000000000000000000700000000000000000000000000000000000000000000000000000000000000000000000000000000000000000000000000000000000000000000000000000000000000000000000000000000000000000000000000000000000000
310
00000000000000000000000000000000000000000000000000000000000000000000000000000000000000000000000007000000000000000000000000000700000000000000000000000700000000000000000000000000070000000000000000000000000000000000000000000000000000000000000000000000000000
310
00000000000000000000000000000000000000000000000000000000000000000000000000000000000000000000000000000000000000000000000000000000000000000000000000000000000000000000000000000000000000000000000000000000000700000000000000000000000000070000000000000000000000
310
07000000000000000000000000000700000000000000000000000000000000000000000000000000000000000000000000000000000000000000000000000000000000000000000000000000000000000000000000000000000000000000000000000000000000000000000000000000000000000000000000000000000000
310
00000000000000000000000000000000000000000000000000000007000000000000000000000000000700000000000000000000000700000000000000000000000000070000000000000000000000000000000000000000000000000000000000000000000000000000000000000000000000000000000000000000000000
310
00000000000000000000000000000000000000000000000000000000000000000000000000000000000000000000000000000000000000000000000000000000000000000000000000000000000000000700000000000000000000000000070000000000000000000000070000000000000000000000000007000000000000
310
00000000000000000000000000000000000000000000000000000000000000000000000000000000000000000000000000000000000000000000000000000000000000000000000000000000000000000000000000000000000000000000000000000000000000000000000000000000000000000000000000000000000000
310
00000000000007000000000000000000000000000700000000000000000000000700000000000000000000000000070000000000000000000000000000000000000000000000000000000000000000000000000000000000000000000000000000000000000000000000000000000000000000000000000000000000000000
310
00000000000000000000000000000000000000000000000000000000000000000000000000000000000000000000000000000000000000000000000700000000000000000000000000070000000000000000000000070000000000000000000000000007000000000000000000000000000000000000000000000000000000
310
00000000000000000000000000000000000000000000000000000000000000000000000000000000000000000000000000000000000000000000000000000000000000000000000000000000000000000000000000000000000000000000000000000000000000000000000000000000070000000000000000000000000007
310
00000000000000000000000700000000000000000000000000070000000000000000000000000000000000000000000000000000000000000000000000000000000000000000000000000000000000000000000000000000000000000000000000000000000000000000000000000000000000000000000000000000000000
310
00000000000000000000000000000000000000000000000000000000000000000000000000000700000000000000000000000000070000000000000000000000070000000000000000000000000007000000000000000000000000000000000000000000000000000000000000000000000000000000000000000000000000
310
00000000000000000000000000000000000000000000000000000000000000000000000000000000000000000000000000000000000000000000000000000000000000000000000000000000000000000000000000000000000000070000000000000000000000000007000000000000000000000007000000000000000000
310
00000000070000000000000000000000000000000000000000000000000000000000000000000000000000000000000000000000000000000000000000000000000000000000000000000000000000000000000000000000000000000000000000000000000000000000000000000000000000000000000000000000000000
310
00000000000000000000000000000000000700000000000000000000000000070000000000000000000000070000000000000000000000000007000000000000000000000000000000000000000000000000000000000000000000000000000000000000000000000000000000000000000000000000000000000000000000
310
00000000000000000000000000000000000000000000000000000000000000000000000000000000000000000000000000000000000000000000000000000000000000000000070000000000000000000000000007000000000000000000000007000000000000000000000000000700000000000000000000000000000000
310
00000000000000000000000000000000000000000000000000000000000000000000000000000000000000000000000000000000000000000000000000000000000000000000000000000000000000000000000000000000000000000000000000000000000000000000000000000000000000000000000000000007000000
310
00000000000000000000070000000000000000000000070000000000000000000000000007000000000000000000000000000000000000000000000000000000000000000000000000000000000000000000000000000000000000000000000000000000000000000000000000000000000000000000000000000000000000
310
00000000000000000000000000000000000000000000000000000000000000000000000000000000000000000000000000070000000000000000000000000007000000000000000000000007000000000000000000000000000700000000000000000000000000000000000000000000000000000000000000000000000000
310
00000000000000000000000000000000000000000000000000000000000000000000000000000000000000000000000000000000000000000000000000000000000000000000000000000000000000000000000000000000000000000000000000000000000007000000000000000000000000000700000000000000000000
310
00070000000000000000000000000007000000000000000000000000000000000000000000000000000000000000000000000000000000000000000000000000000000000000000000000000000000000000000000000000000000000000000000000000000000000000000000000000000000000000000000000000000000
310
00000000000000000000000000000000000000000000000000000000070000000000000000000000000007000000000000000000000007000000000000000000000000000000000000000000000000000000000000000000000000000000000000000000000000000000000000000000000000000000000000000000000000
310
00000000000000000000000000000000000000000000000000000000000000000000000000000000000000000000000000000000000000000000000000000000000000000000000000000000000000000007000000000000000000000000000700000000000000000000000700000000000000000000000000070000000000
310
00000000000000000000000000000000000000000000000000000000000000000000000000000000000000000000000000000000000000000000000000000000000000000000000000000000000000000000000000000000000000000000000000000000000000000000000000000000000000000000000000000000000000
310
00000000000000070000000000000000000000000007000000000000000000000007000000000000000000000000000700000000000000000000000000000000000000000000000000000000000000000000000000000000000000000000000000000000000000000000000000000000000000000000000000000000000000
310
00000000000000000000000000000000000000000000000000000000000000000000000000000000000000000000000000000000000000000000000007000000000000000000000000000007000000000000000000070000000000000000000000000000070000000000000000000000000000000000000000000000000000
310
00000000000000000000000000000000000000000000000000000000000000000000000000000000000000000000000000000000000000000000000000000000000000000000000000000000000000000000000000000000000000000000000000000000000000000000000000000000000700000000000000000000000000
310
00000700000000000000070000000000000000000000000000000700000000000000000000000000000000000000000000000000000000000000000000000000000000000000000000000000000000000000000000000000000000000000000000000000000000000000000000000000000000000000000000000000000000
310
00000000000000000000000000000000000000000000000000000000000000000000000000000007000000000000000000000000000000070700000000000707000000000000000000000000000000070000000000000000000000000000000000000000000000000000000000000000000000000000000000000000000000
310
00000000000000000000000000000000000000000000000000000000000000000000000000000000000000000000000000000000000000000000000000000000000000000000000000000000000000000000000000000000000000000700000000000000000000000000000000000707070707000000000000000000000000
310
00000000000700000000000000000000000000000000000000000000000000000000000000000000000000000000000000000000000000000000000000000000000000000000000000000000000000000000000000000000000000000000000000000000000000000000000000000000000000000000000000000000000000
310
00000000000000000000000000000000000007000000000000000000000000000000000000000000000000000000000000000000000000000000070000000000000000000000000000000000000000000000000000000000000000000000000000000000000000000000000000000000000000000000000000000000000000
310
00000000000000000000000000000000000000000000000000000000000000000000000000000000000000000000000000000000000000000000000000000000000000000000000700000000000000000000000000000000000000000000000000000000000000000000000000000007000000000000000000000000000000
310
00000000000000000000000000000000000000000000000000000000000000000000000000000000000000000000000000000000000000000000000000000000000000000000000000000000000000000000000000000000000000000000000000000000000000000000000000000000000000000000000000000000070000
310
00000000000000000000000000000000000000000000000000000000000000000000000000070000000000000000000000000000000000000000000000000000000000000000000000000000000000000000000000000000000000000000000000000000000000000000000000000000000000000000000000000000000000
310
00000000000000000000000000000000000000000000000000000000000000000000000000000000000000000000000000000700000000000000000000000000000000000000000000000000000000000000000000000000000007000000000000000000000000000000000000000000000000000000000000000000000000
310
00000000000000000000000000000000000000000000000000000000000000000000000000000000000000000000000000000000000000000000000000000000000000000000000000000000000000000000000000000000000000000000000000000000000000070000000000000000000000000000000000000000000000
310
00000000000000000000000000000000070000000000000000000000000000000000000000000000000000000000000000000000000000000000000000000000000000000000000000000000000000000000000000000000000000000000000000000000000000000000000000000000000000000000000000000000000000
310
00000000000000000000000000000000000000000000000000000000000700000000000000000000000000000000000000000000000000000000000000000000000000000007000000000000000000000000000000000000000000000000000000000000000000000000000000000000000000000000000000000000000000
310
00000000000000000000000000000000000000000000000000000000000000000000000000000000000000000000000000000000000000000000000000000000000000000000000000000000000000000000070000000000000000000000000000000000000000000000000000000000000000000000000000000700000000
310
00000000000000000000000000000000000000000000000000000000000000000000000000000000000000000000000000000000000000000000000000000000000000000000000000000000000000000000000000000000000000000000000000000000000000000000000000000000000000000000000000000000000000
310
00000000000000000700000000000000000000000000000000000000000000000000000000000000000000000000000007000000000000000000000000000000000000000000000000000000000000000000000000000000000000000000000000000000000000000000000000000000000000000000000000000000000000
310
00000000000000000000000000000000000000000000000000000000000000000000000000000000000000000000000000000000000000000000000000070000000000000000000000000000000000000000000000000000000000000000000000000000000700000000000000000000000000000000000000000000000000
310
00000000000000000000000000000000000000000000000000000000000000000000000000000000000000000000000000000000000000000000000000000000000000000000000000000000000000000000000000000000000000000000000000000000000000000000000000000000000000070000000000000000000000
310
00000000000000000000000000000000000000000000000000000707000000000000000000000000000000000000000000000000000000000000000000000000000000000000000000000000000000000000000000000000000000000000000000000000000000000000000000000000000000000000000000000000000000
310
00000000000000000000000000000000000000000000000000000000000000000000000000000000000700000000000000000000000000000000000000000000000000000000000000000000000000070000000000000000000000000000000000000000000000000000000000000000000000000000000000000000000000
310
00000000000000000000000000000000000000000000000000000000000000000000000000000000000000000000000000000000000000000000000000000000000000000000000000000000000000000000000000000000000000000000070000000000000000000000000000000000000000000000000000000000000000
310
00000000000700000000000000000000000000000000000000000000000000000000000000000000000000000000000000000000000000000000000000000000000000000000000000000000000000000000000000000000000000000000000000000000000000000000000000000000000000000000000000000000000000
310
00000000000000000000000000000000000000000707070000000000000000000000000000000000000000000000000000000000000000000707000000000000000000000000000000000000000000000000000000000000000000000000000000000000000000000000000000000000000000000000000000000000000000
310
00000000000000000000000000000000000000000000000000000000000000000000000000000000000000000000000000000000000000000000000000000000000000000000000000000007070707070707070707070707070707070707070707070707070707070707070707000000000000000000000000000000000000
310
00000000000000000000000000000000000000000000000000000000000000000000000000000000000000000000000000000000000000000000000000000000000000000000000000000000000000000000000000000000000000000000000000000000000000000000000000000000000000000000000000000000000000
310
000000000000000000000000000000000000000000000000000000000000000000000000000000000000000000000000000000000000000000000000000000000000000000000000000000000000000000000000000000000000000000000000000000000000000000000000
  0
ENDSEC
  0
EOF
