  0
SECTION
  2
HEADER
  9
$ACADVER
  1
AC1015
  9
$ACADMAINTVER
 70
     6
  9
$DWGCODEPAGE
  3
ANSI_1252
  9
$INSBASE
 10
0.0
 20
0.0
 30
0.0
  9
$EXTMIN
 10
0.236
 20
0.0
 30
0.0
  9
$EXTMAX
 10
159.764
 20
201.0
 30
0.0
  9
$LIMMIN
 10
0.0
 20
0.0
  9
$LIMMAX
 10
12.0
 20
9.0
  9
$ORTHOMODE
 70
     0
  9
$REGENMODE
 70
     1
  9
$FILLMODE
 70
     1
  9
$QTEXTMODE
 70
     0
  9
$MIRRTEXT
 70
     1
  9
$LTSCALE
 40
1.0
  9
$ATTMODE
 70
     1
  9
$TEXTSIZE
 40
0.2
  9
$TRACEWID
 40
0.05
  9
$TEXTSTYLE
  7
Standard
  9
$CLAYER
  8
0
  9
$CELTYPE
  6
ByBlock
  9
$CECOLOR
 62
   256
  9
$CELTSCALE
 40
1.0
  9
$DISPSILH
 70
     0
  9
$DIMSCALE
 40
1.0
  9
$DIMASZ
 40
0.18
  9
$DIMEXO
 40
0.0625
  9
$DIMDLI
 40
0.38
  9
$DIMRND
 40
0.0
  9
$DIMDLE
 40
0.0
  9
$DIMEXE
 40
0.18
  9
$DIMTP
 40
0.0
  9
$DIMTM
 40
0.0
  9
$DIMTXT
 40
0.18
  9
$DIMCEN
 40
0.09
  9
$DIMTSZ
 40
0.0
  9
$DIMTOL
 70
     0
  9
$DIMLIM
 70
     0
  9
$DIMTIH
 70
     1
  9
$DIMTOH
 70
     1
  9
$DIMSE1
 70
     0
  9
$DIMSE2
 70
     0
  9
$DIMTAD
 70
     0
  9
$DIMZIN
 70
     0
  9
$DIMBLK
  1

  9
$DIMASO
 70
     1
  9
$DIMSHO
 70
     1
  9
$DIMPOST
  1

  9
$DIMAPOST
  1

  9
$DIMALT
 70
     0
  9
$DIMALTD
 70
     2
  9
$DIMALTF
 40
25.4
  9
$DIMLFAC
 40
1.0
  9
$DIMTOFL
 70
     0
  9
$DIMTVP
 40
0.0
  9
$DIMTIX
 70
     0
  9
$DIMSOXD
 70
     0
  9
$DIMSAH
 70
     0
  9
$DIMBLK1
  1

  9
$DIMBLK2
  1

  9
$DIMSTYLE
  2
Standard
  9
$DIMCLRD
 70
     0
  9
$DIMCLRE
 70
     0
  9
$DIMCLRT
 70
     0
  9
$DIMTFAC
 40
1.0
  9
$DIMGAP
 40
0.09
  9
$DIMJUST
 70
     0
  9
$DIMSD1
 70
     0
  9
$DIMSD2
 70
     0
  9
$DIMTOLJ
 70
     1
  9
$DIMTZIN
 70
     0
  9
$DIMALTZ
 70
     0
  9
$DIMALTTZ
 70
     0
  9
$DIMUPT
 70
     0
  9
$DIMDEC
 70
     4
  9
$DIMTDEC
 70
     4
  9
$DIMALTU
 70
     2
  9
$DIMALTTD
 70
     2
  9
$DIMTXSTY
  7
Standard
  9
$DIMAUNIT
 70
     0
  9
$DIMADEC
 70
     0
  9
$DIMALTRND
 40
0.0
  9
$DIMAZIN
 70
     0
  9
$DIMDSEP
 70
    46
  9
$DIMATFIT
 70
     3
  9
$DIMFRAC
 70
     0
  9
$DIMLDRBLK
  1

  9
$DIMLUNIT
 70
     2
  9
$DIMLWD
 70
    -2
  9
$DIMLWE
 70
    -2
  9
$DIMTMOVE
 70
     2
  9
$LUNITS
 70
     2
  9
$LUPREC
 70
     4
  9
$SKETCHINC
 40
0.1
  9
$FILLETRAD
 40
0.5
  9
$AUNITS
 70
     0
  9
$AUPREC
 70
     0
  9
$MENU
  1
.
  9
$ELEVATION
 40
0.0
  9
$PELEVATION
 40
0.0
  9
$THICKNESS
 40
0.0
  9
$LIMCHECK
 70
     0
  9
$CHAMFERA
 40
0.5
  9
$CHAMFERB
 40
0.5
  9
$CHAMFERC
 40
1.0
  9
$CHAMFERD
 40
0.0
  9
$SKPOLY
 70
     0
  9
$TDCREATE
 40
2456213.943070741
  9
$TDUCREATE
 40
2456213.859737407
  9
$TDUPDATE
 40
2456213.947153495
  9
$TDUUPDATE
 40
2456213.863820162
  9
$TDINDWG
 40
0.0040824074
  9
$TDUSRTIMER
 40
0.0040824074
  9
$USRTIMER
 70
     1
  9
$ANGBASE
 50
0.0
  9
$ANGDIR
 70
     0
  9
$PDMODE
 70
     0
  9
$PDSIZE
 40
0.0
  9
$PLINEWID
 40
0.0
  9
$SPLFRAME
 70
     0
  9
$SPLINETYPE
 70
     6
  9
$SPLINESEGS
 70
     8
  9
$HANDSEED
  5
B13
  9
$SURFTAB1
 70
     6
  9
$SURFTAB2
 70
     6
  9
$SURFTYPE
 70
     6
  9
$SURFU
 70
     6
  9
$SURFV
 70
     6
  9
$UCSBASE
  2

  9
$UCSNAME
  2

  9
$UCSORG
 10
0.0
 20
0.0
 30
0.0
  9
$UCSXDIR
 10
1.0
 20
0.0
 30
0.0
  9
$UCSYDIR
 10
0.0
 20
1.0
 30
0.0
  9
$UCSORTHOREF
  2

  9
$UCSORTHOVIEW
 70
     0
  9
$UCSORGTOP
 10
0.0
 20
0.0
 30
0.0
  9
$UCSORGBOTTOM
 10
0.0
 20
0.0
 30
0.0
  9
$UCSORGLEFT
 10
0.0
 20
0.0
 30
0.0
  9
$UCSORGRIGHT
 10
0.0
 20
0.0
 30
0.0
  9
$UCSORGFRONT
 10
0.0
 20
0.0
 30
0.0
  9
$UCSORGBACK
 10
0.0
 20
0.0
 30
0.0
  9
$PUCSBASE
  2

  9
$PUCSNAME
  2

  9
$PUCSORG
 10
0.0
 20
0.0
 30
0.0
  9
$PUCSXDIR
 10
1.0
 20
0.0
 30
0.0
  9
$PUCSYDIR
 10
0.0
 20
1.0
 30
0.0
  9
$PUCSORTHOREF
  2

  9
$PUCSORTHOVIEW
 70
     0
  9
$PUCSORGTOP
 10
0.0
 20
0.0
 30
0.0
  9
$PUCSORGBOTTOM
 10
0.0
 20
0.0
 30
0.0
  9
$PUCSORGLEFT
 10
0.0
 20
0.0
 30
0.0
  9
$PUCSORGRIGHT
 10
0.0
 20
0.0
 30
0.0
  9
$PUCSORGFRONT
 10
0.0
 20
0.0
 30
0.0
  9
$PUCSORGBACK
 10
0.0
 20
0.0
 30
0.0
  9
$USERI1
 70
     0
  9
$USERI2
 70
     0
  9
$USERI3
 70
     0
  9
$USERI4
 70
     0
  9
$USERI5
 70
     0
  9
$USERR1
 40
0.0
  9
$USERR2
 40
0.0
  9
$USERR3
 40
0.0
  9
$USERR4
 40
0.0
  9
$USERR5
 40
0.0
  9
$WORLDVIEW
 70
     1
  9
$SHADEDGE
 70
     3
  9
$SHADEDIF
 70
    70
  9
$TILEMODE
 70
     1
  9
$MAXACTVP
 70
    64
  9
$PINSBASE
 10
0.0
 20
0.0
 30
0.0
  9
$PLIMCHECK
 70
     0
  9
$PEXTMIN
 10
1.000000000000E+20
 20
1.000000000000E+20
 30
1.000000000000E+20
  9
$PEXTMAX
 10
-1.000000000000E+20
 20
-1.000000000000E+20
 30
-1.000000000000E+20
  9
$PLIMMIN
 10
0.0
 20
0.0
  9
$PLIMMAX
 10
12.0
 20
9.0
  9
$UNITMODE
 70
     0
  9
$VISRETAIN
 70
     1
  9
$PLINEGEN
 70
     0
  9
$PSLTSCALE
 70
     1
  9
$TREEDEPTH
 70
  3020
  9
$CMLSTYLE
  2
Standard
  9
$CMLJUST
 70
     0
  9
$CMLSCALE
 40
1.0
  9
$PROXYGRAPHICS
 70
     1
  9
$MEASUREMENT
 70
     0
  9
$CELWEIGHT
370
    -1
  9
$ENDCAPS
280
     0
  9
$JOINSTYLE
280
     0
  9
$LWDISPLAY
290
     0
  9
$INSUNITS
 70
     0
  9
$HYPERLINKBASE
  1

  9
$STYLESHEET
  1

  9
$XEDIT
290
     1
  9
$CEPSNTYPE
380
     0
  9
$PSTYLEMODE
290
     1
  9
$FINGERPRINTGUID
  2
{211B8F1E-DA5B-4FB7-8603-04918B8B1164}
  9
$VERSIONGUID
  2
{FAEB1C32-E019-11D5-929B-00C0DF256EC4}
  9
$EXTNAMES
290
     1
  9
$PSVPSCALE
 40
0.0
  9
$OLESTARTUP
290
     0
  0
ENDSEC
  0
SECTION
  2
CLASSES
  0
CLASS
  1
ACDBDICTIONARYWDFLT
  2
AcDbDictionaryWithDefault
  3
ObjectDBX Classes
 90
        0
280
     0
281
     0
  0
CLASS
  1
SCALE
  2
AcDbScale
  3
ObjectDBX Classes
 90
     1153
280
     0
281
     0
  0
CLASS
  1
DICTIONARYVAR
  2
AcDbDictionaryVar
  3
ObjectDBX Classes
 90
        0
280
     0
281
     0
  0
CLASS
  1
ACDBPLACEHOLDER
  2
AcDbPlaceHolder
  3
ObjectDBX Classes
 90
        0
280
     0
281
     0
  0
CLASS
  1
LAYOUT
  2
AcDbLayout
  3
ObjectDBX Classes
 90
        0
280
     0
281
     0
  0
ENDSEC
  0
SECTION
  2
TABLES
  0
TABLE
  2
VPORT
  5
8
330
0
100
AcDbSymbolTable
 70
     1
  0
VPORT
  5
8AC
330
8
100
AcDbSymbolTableRecord
100
AcDbViewportTableRecord
  2
*Active
 70
     0
 10
0.0
 20
0.0
 11
1.0
 21
1.0
 12
79.882
 22
100.5
 13
0.0
 23
0.0
 14
0.5
 24
0.5
 15
0.5
 25
0.5
 16
0.0
 26
0.0
 36
1.0
 17
0.0
 27
0.0
 37
0.0
 40
205.02
 41
1.863448275862
 42
50.0
 43
0.0
 44
0.0
 50
0.0
 51
0.0
 71
    16
 72
   100
 73
     1
 74
     3
 75
     0
 76
     0
 77
     0
 78
     0
281
     0
 65
     1
110
0.0
120
0.0
130
0.0
111
1.0
121
0.0
131
0.0
112
0.0
122
1.0
132
0.0
 79
     0
146
0.0
  0
ENDTAB
  0
TABLE
  2
LTYPE
  5
5
330
0
100
AcDbSymbolTable
 70
     1
  0
LTYPE
  5
14
330
5
100
AcDbSymbolTableRecord
100
AcDbLinetypeTableRecord
  2
ByBlock
 70
     0
  3

 72
    65
 73
     0
 40
0.0
  0
LTYPE
  5
15
330
5
100
AcDbSymbolTableRecord
100
AcDbLinetypeTableRecord
  2
ByLayer
 70
     0
  3

 72
    65
 73
     0
 40
0.0
  0
LTYPE
  5
16
330
5
100
AcDbSymbolTableRecord
100
AcDbLinetypeTableRecord
  2
Continuous
 70
     0
  3
Solid line
 72
    65
 73
     0
 40
0.0
  0
ENDTAB
  0
TABLE
  2
LAYER
  5
2
330
0
100
AcDbSymbolTable
 70
     1
  0
LAYER
  5
10
330
2
100
AcDbSymbolTableRecord
100
AcDbLayerTableRecord
  2
0
 70
     0
 62
     7
  6
Continuous
370
    -3
390
F
  0
ENDTAB
  0
TABLE
  2
STYLE
  5
3
330
0
100
AcDbSymbolTable
 70
     1
  0
STYLE
  5
11
330
3
100
AcDbSymbolTableRecord
100
AcDbTextStyleTableRecord
  2
Standard
 70
     0
 40
0.0
 41
1.0
 50
0.0
 71
     0
 42
0.2
  3
txt
  4

  0
ENDTAB
  0
TABLE
  2
VIEW
  5
6
330
0
100
AcDbSymbolTable
 70
     0
  0
ENDTAB
  0
TABLE
  2
UCS
  5
7
330
0
100
AcDbSymbolTable
 70
     0
  0
ENDTAB
  0
TABLE
  2
APPID
  5
9
330
0
100
AcDbSymbolTable
 70
     1
  0
APPID
  5
12
330
9
100
AcDbSymbolTableRecord
100
AcDbRegAppTableRecord
  2
ACAD
 70
     0
  0
ENDTAB
  0
TABLE
  2
DIMSTYLE
  5
A
330
0
100
AcDbSymbolTable
 70
     1
100
AcDbDimStyleTable
  0
DIMSTYLE
105
20
330
A
100
AcDbSymbolTableRecord
100
AcDbDimStyleTableRecord
  2
Standard
 70
     0
340
11
  0
ENDTAB
  0
TABLE
  2
BLOCK_RECORD
  5
1
330
0
100
AcDbSymbolTable
 70
     0
  0
BLOCK_RECORD
  5
1D
330
1
100
AcDbSymbolTableRecord
100
AcDbBlockTableRecord
  2
*Model_Space
340
1E
  0
BLOCK_RECORD
  5
1B
330
1
100
AcDbSymbolTableRecord
100
AcDbBlockTableRecord
  2
*Paper_Space
340
1C
  0
ENDTAB
  0
ENDSEC
  0
SECTION
  2
BLOCKS
  0
BLOCK
  5
8AF
330
1D
100
AcDbEntity
  8
0
100
AcDbBlockBegin
  2
*Model_Space
 70
     0
 10
0.0
 20
0.0
 30
0.0
  3
*Model_Space
  1
*Model_Space
  0
ENDBLK
  5
8B0
330
1D
100
AcDbEntity
  8
0
100
AcDbBlockEnd
  0
BLOCK
  5
8AD
330
1B
100
AcDbEntity
 67
     1
  8
0
100
AcDbBlockBegin
  2
*Paper_Space
 70
     0
 10
0.0
 20
0.0
 30
0.0
  3
*Paper_Space
  1
*Paper_Space
  0
ENDBLK
  5
8AE
330
1B
100
AcDbEntity
 67
     1
  8
0
100
AcDbBlockEnd
  0
ENDSEC
  0
SECTION
  2
ENTITIES
  0
LINE
  5
21
330
1D
100
AcDbEntity
  8
0
100
AcDbLine
 10
4.719
 20
9.982
 30
0.0
 11
4.843
 21
9.99
 31
0.0
  0
LINE
  5
22
330
1D
100
AcDbEntity
  8
0
100
AcDbLine
 10
23.4691
 20
3.0
 30
0.0
 11
24.0691
 21
3.0
 31
0.0
  0
LINE
  5
23
330
1D
100
AcDbEntity
  8
0
100
AcDbLine
 10
23.4691
 20
3.0
 30
0.0
 11
23.4691
 21
5.0
 31
0.0
  0
LINE
  5
24
330
1D
100
AcDbEntity
  8
0
100
AcDbLine
 10
20.8483
 20
5.0
 30
0.0
 11
21.4483
 21
5.0
 31
0.0
  0
LINE
  5
25
330
1D
100
AcDbEntity
  8
0
100
AcDbLine
 10
20.8483
 20
5.0
 30
0.0
 11
20.8483
 21
7.223235305918
 31
0.0
  0
LINE
  5
26
330
1D
100
AcDbEntity
  8
0
100
AcDbLine
 10
21.4483
 20
5.0
 30
0.0
 11
22.8483
 21
5.0
 31
0.0
  0
LINE
  5
28
330
1D
100
AcDbEntity
  8
0
100
AcDbLine
 10
20.6771
 20
5.0
 30
0.0
 11
22.0771
 21
5.0
 31
0.0
  0
LINE
  5
2A
330
1D
100
AcDbEntity
  8
0
100
AcDbLine
 10
18.6771
 20
5.0
 30
0.0
 11
19.2771
 21
5.0
 31
0.0
  0
LINE
  5
2B
330
1D
100
AcDbEntity
  8
0
100
AcDbLine
 10
18.6771
 20
5.0
 30
0.0
 11
18.6771
 21
6.920280432432
 31
0.0
  0
LINE
  5
2C
330
1D
100
AcDbEntity
  8
0
100
AcDbLine
 10
19.2771
 20
5.0
 30
0.0
 11
20.6771
 21
5.0
 31
0.0
  0
LINE
  5
2E
330
1D
100
AcDbEntity
  8
0
100
AcDbLine
 10
22.8483
 20
5.0
 30
0.0
 11
23.4691
 21
5.0
 31
0.0
  0
LINE
  5
2F
330
1D
100
AcDbEntity
  8
0
100
AcDbLine
 10
22.8483
 20
5.0
 30
0.0
 11
24.2483
 21
5.0
 31
0.0
  0
LINE
  5
31
330
1D
100
AcDbEntity
  8
0
100
AcDbLine
 10
22.0771
 20
5.0
 30
0.0
 11
22.6771
 21
5.0
 31
0.0
  0
LINE
  5
32
330
1D
100
AcDbEntity
  8
0
100
AcDbLine
 10
21.4567
 20
5.0
 30
0.0
 11
22.0567
 21
5.0
 31
0.0
  0
LINE
  5
33
330
1D
100
AcDbEntity
  8
0
100
AcDbLine
 10
20.0567
 20
5.0
 30
0.0
 11
21.4567
 21
5.0
 31
0.0
  0
LINE
  5
34
330
1D
100
AcDbEntity
  8
0
100
AcDbLine
 10
18.6567
 20
5.0
 30
0.0
 11
20.0567
 21
5.0
 31
0.0
  0
LINE
  5
36
330
1D
100
AcDbEntity
  8
0
100
AcDbLine
 10
18.6567
 20
5.0
 30
0.0
 11
18.9771
 21
5.0
 31
0.0
  0
LINE
  5
37
330
1D
100
AcDbEntity
  8
0
100
AcDbLine
 10
17.5771
 20
5.0
 30
0.0
 11
17.5771
 21
6.589586592544
 31
0.0
  0
LINE
  5
38
330
1D
100
AcDbEntity
  8
0
100
AcDbLine
 10
18.0567
 20
5.0
 30
0.0
 11
18.6567
 21
5.0
 31
0.0
  0
LINE
  5
39
330
1D
100
AcDbEntity
  8
0
100
AcDbLine
 10
18.0567
 20
5.0
 30
0.0
 11
18.0567
 21
6.646003394762
 31
0.0
  0
LINE
  5
3A
330
1D
100
AcDbEntity
  8
0
100
AcDbLine
 10
18.9771
 20
5.0
 30
0.0
 11
19.5771
 21
5.0
 31
0.0
  0
LINE
  5
3B
330
1D
100
AcDbEntity
  8
0
100
AcDbLine
 10
15.5771
 20
5.0
 30
0.0
 11
16.1771
 21
5.0
 31
0.0
  0
LINE
  5
3C
330
1D
100
AcDbEntity
  8
0
100
AcDbLine
 10
15.5771
 20
5.0
 30
0.0
 11
15.5771
 21
6.953360084477
 31
0.0
  0
LINE
  5
3D
330
1D
100
AcDbEntity
  8
0
100
AcDbLine
 10
15.5771
 20
5.0
 30
0.0
 11
15.5771
 21
6.975943522562
 31
0.0
  0
LINE
  5
3E
330
1D
100
AcDbEntity
  8
0
100
AcDbLine
 10
16.1771
 20
5.0
 30
0.0
 11
17.5771
 21
5.0
 31
0.0
  0
LINE
  5
40
330
1D
100
AcDbEntity
  8
0
100
AcDbLine
 10
24.8483
 20
5.0
 30
0.0
 11
24.8483
 21
5.5
 31
0.0
  0
LINE
  5
41
330
1D
100
AcDbEntity
  8
0
100
AcDbLine
 10
24.2483
 20
5.0
 30
0.0
 11
24.8483
 21
5.0
 31
0.0
  0
LINE
  5
43
330
1D
100
AcDbEntity
  8
0
100
AcDbLine
 10
24.4154
 20
5.5
 30
0.0
 11
25.0154
 21
5.5
 31
0.0
  0
LINE
  5
44
330
1D
100
AcDbEntity
  8
0
100
AcDbLine
 10
24.4154
 20
5.5
 30
0.0
 11
24.4154
 21
7.657838245614
 31
0.0
  0
LINE
  5
45
330
1D
100
AcDbEntity
  8
0
100
AcDbLine
 10
24.8483
 20
5.5
 30
0.0
 11
24.8483
 21
5.0
 31
0.0
  0
LINE
  5
47
330
1D
100
AcDbEntity
  8
0
100
AcDbLine
 10
23.4691
 20
5.0
 30
0.0
 11
23.4691
 21
3.0
 31
0.0
  0
LINE
  5
48
330
1D
100
AcDbEntity
  8
0
100
AcDbLine
 10
24.0691
 20
3.0
 30
0.0
 11
25.4691
 21
3.0
 31
0.0
  0
LINE
  5
4A
330
1D
100
AcDbEntity
  8
0
100
AcDbLine
 10
38.8323
 20
2.0
 30
0.0
 11
39.4323
 21
2.0
 31
0.0
  0
LINE
  5
4B
330
1D
100
AcDbEntity
  8
0
100
AcDbLine
 10
38.8323
 20
2.0
 30
0.0
 11
38.8323
 21
3.739833729448
 31
0.0
  0
LINE
  5
4C
330
1D
100
AcDbEntity
  8
0
100
AcDbLine
 10
38.8323
 20
2.0
 30
0.0
 11
38.8323
 21
3.940282798427
 31
0.0
  0
LINE
  5
4D
330
1D
100
AcDbEntity
  8
0
100
AcDbLine
 10
42.8323
 20
2.0
 30
0.0
 11
42.8323
 21
3.0
 31
0.0
  0
LINE
  5
4E
330
1D
100
AcDbEntity
  8
0
100
AcDbLine
 10
42.2323
 20
2.0
 30
0.0
 11
42.8323
 21
2.0
 31
0.0
  0
LINE
  5
50
330
1D
100
AcDbEntity
  8
0
100
AcDbLine
 10
40.8323
 20
2.0
 30
0.0
 11
42.2323
 21
2.0
 31
0.0
  0
LINE
  5
52
330
1D
100
AcDbEntity
  8
0
100
AcDbLine
 10
39.4323
 20
2.0
 30
0.0
 11
40.8323
 21
2.0
 31
0.0
  0
LINE
  5
54
330
1D
100
AcDbEntity
  8
0
100
AcDbLine
 10
31.7821
 20
2.0
 30
0.0
 11
32.3821
 21
2.0
 31
0.0
  0
LINE
  5
55
330
1D
100
AcDbEntity
  8
0
100
AcDbLine
 10
31.7821
 20
2.0
 30
0.0
 11
31.7821
 21
4.0
 31
0.0
  0
LINE
  5
56
330
1D
100
AcDbEntity
  8
0
100
AcDbLine
 10
35.7821
 20
2.0
 30
0.0
 11
35.7821
 21
3.0
 31
0.0
  0
LINE
  5
57
330
1D
100
AcDbEntity
  8
0
100
AcDbLine
 10
35.1821
 20
2.0
 30
0.0
 11
35.7821
 21
2.0
 31
0.0
  0
LINE
  5
59
330
1D
100
AcDbEntity
  8
0
100
AcDbLine
 10
33.7821
 20
2.0
 30
0.0
 11
35.1821
 21
2.0
 31
0.0
  0
LINE
  5
5B
330
1D
100
AcDbEntity
  8
0
100
AcDbLine
 10
32.3821
 20
2.0
 30
0.0
 11
33.7821
 21
2.0
 31
0.0
  0
LINE
  5
5D
330
1D
100
AcDbEntity
  8
0
100
AcDbLine
 10
42.5152
 20
2.0
 30
0.0
 11
43.1152
 21
2.0
 31
0.0
  0
LINE
  5
5E
330
1D
100
AcDbEntity
  8
0
100
AcDbLine
 10
45.9152
 20
2.0
 30
0.0
 11
46.5139
 21
2.0
 31
0.0
  0
LINE
  5
61
330
1D
100
AcDbEntity
  8
0
100
AcDbLine
 10
44.5152
 20
2.0
 30
0.0
 11
45.9152
 21
2.0
 31
0.0
  0
LINE
  5
63
330
1D
100
AcDbEntity
  8
0
100
AcDbLine
 10
43.1152
 20
2.0
 30
0.0
 11
44.5152
 21
2.0
 31
0.0
  0
LINE
  5
66
330
1D
100
AcDbEntity
  8
0
100
AcDbLine
 10
47.1139
 20
1.0
 30
0.0
 11
48.5139
 21
1.0
 31
0.0
  0
LINE
  5
68
330
1D
100
AcDbEntity
  8
0
100
AcDbLine
 10
50.5139
 20
1.0
 30
0.0
 11
50.5139
 21
2.0
 31
0.0
  0
LINE
  5
69
330
1D
100
AcDbEntity
  8
0
100
AcDbLine
 10
49.9139
 20
1.0
 30
0.0
 11
50.5139
 21
1.0
 31
0.0
  0
LINE
  5
6B
330
1D
100
AcDbEntity
  8
0
100
AcDbLine
 10
48.5139
 20
1.0
 30
0.0
 11
49.9139
 21
1.0
 31
0.0
  0
LINE
  5
6D
330
1D
100
AcDbEntity
  8
0
100
AcDbLine
 10
46.2053
 20
2.0
 30
0.0
 11
46.5139
 21
2.0
 31
0.0
  0
LINE
  5
6E
330
1D
100
AcDbEntity
  8
0
100
AcDbLine
 10
46.2053
 20
2.0
 30
0.0
 11
46.8053
 21
2.0
 31
0.0
  0
LINE
  5
6F
330
1D
100
AcDbEntity
  8
0
100
AcDbLine
 10
46.2053
 20
2.0
 30
0.0
 11
46.2053
 21
4.244245717345
 31
0.0
  0
LINE
  5
70
330
1D
100
AcDbEntity
  8
0
100
AcDbLine
 10
50.0923
 20
2.0
 30
0.0
 11
51.4923
 21
2.0
 31
0.0
  0
LINE
  5
71
330
1D
100
AcDbEntity
  8
0
100
AcDbLine
 10
50.2053
 20
2.0
 30
0.0
 11
50.2053
 21
4.0
 31
0.0
  0
LINE
  5
72
330
1D
100
AcDbEntity
  8
0
100
AcDbLine
 10
49.6053
 20
2.0
 30
0.0
 11
50.2053
 21
2.0
 31
0.0
  0
LINE
  5
74
330
1D
100
AcDbEntity
  8
0
100
AcDbLine
 10
49.6053
 20
2.0
 30
0.0
 11
50.0923
 21
2.0
 31
0.0
  0
LINE
  5
76
330
1D
100
AcDbEntity
  8
0
100
AcDbLine
 10
50.5139
 20
2.0
 30
0.0
 11
50.5139
 21
1.0
 31
0.0
  0
LINE
  5
78
330
1D
100
AcDbEntity
  8
0
100
AcDbLine
 10
48.0923
 20
2.0
 30
0.0
 11
48.2053
 21
2.0
 31
0.0
  0
LINE
  5
7A
330
1D
100
AcDbEntity
  8
0
100
AcDbLine
 10
48.2053
 20
2.0
 30
0.0
 11
49.6053
 21
2.0
 31
0.0
  0
LINE
  5
7C
330
1D
100
AcDbEntity
  8
0
100
AcDbLine
 10
46.8053
 20
2.0
 30
0.0
 11
48.2053
 21
2.0
 31
0.0
  0
LINE
  5
7E
330
1D
100
AcDbEntity
  8
0
100
AcDbLine
 10
50.5139
 20
2.0
 30
0.0
 11
51.4923
 21
2.0
 31
0.0
  0
LINE
  5
7F
330
1D
100
AcDbEntity
  8
0
100
AcDbLine
 10
46.5139
 20
2.0
 30
0.0
 11
46.5139
 21
1.0
 31
0.0
  0
LINE
  5
80
330
1D
100
AcDbEntity
  8
0
100
AcDbLine
 10
46.5139
 20
1.0
 30
0.0
 11
47.1139
 21
1.0
 31
0.0
  0
LINE
  5
81
330
1D
100
AcDbEntity
  8
0
100
AcDbLine
 10
46.5139
 20
1.0
 30
0.0
 11
46.5139
 21
2.0
 31
0.0
  0
LINE
  5
82
330
1D
100
AcDbEntity
  8
0
100
AcDbLine
 10
46.046
 20
2.93
 30
0.0
 11
46.2053
 21
2.919680212014
 31
0.0
  0
LINE
  5
83
330
1D
100
AcDbEntity
  8
0
100
AcDbLine
 10
25.5737
 20
3.0
 30
0.0
 11
26.1736
 21
3.0
 31
0.0
  0
LINE
  5
84
330
1D
100
AcDbEntity
  8
0
100
AcDbLine
 10
25.5737
 20
3.0
 30
0.0
 11
25.5737
 21
4.0
 31
0.0
  0
LINE
  5
85
330
1D
100
AcDbEntity
  8
0
100
AcDbLine
 10
26.1736
 20
3.0
 30
0.0
 11
27.5737
 21
3.0
 31
0.0
  0
LINE
  5
87
330
1D
100
AcDbEntity
  8
0
100
AcDbLine
 10
26.8691
 20
3.0
 30
0.0
 11
27.5737
 21
3.0
 31
0.0
  0
LINE
  5
89
330
1D
100
AcDbEntity
  8
0
100
AcDbLine
 10
38.8063
 20
3.0
 30
0.0
 11
38.8063
 21
4.590152946955
 31
0.0
  0
LINE
  5
8A
330
1D
100
AcDbEntity
  8
0
100
AcDbLine
 10
38.9937
 20
3.0
 30
0.0
 11
39.5937
 21
3.0
 31
0.0
  0
LINE
  5
8B
330
1D
100
AcDbEntity
  8
0
100
AcDbLine
 10
38.9937
 20
3.0
 30
0.0
 11
38.9937
 21
5.130597945205
 31
0.0
  0
LINE
  5
8C
330
1D
100
AcDbEntity
  8
0
100
AcDbLine
 10
41.3543
 20
3.0
 30
0.0
 11
41.9543
 21
3.0
 31
0.0
  0
LINE
  5
8D
330
1D
100
AcDbEntity
  8
0
100
AcDbLine
 10
41.9543
 20
3.0
 30
0.0
 11
43.3543
 21
3.0
 31
0.0
  0
LINE
  5
90
330
1D
100
AcDbEntity
  8
0
100
AcDbLine
 10
43.3543
 20
3.0
 30
0.0
 11
44.7543
 21
3.0
 31
0.0
  0
LINE
  5
92
330
1D
100
AcDbEntity
  8
0
100
AcDbLine
 10
42.8323
 20
3.0
 30
0.0
 11
42.8323
 21
2.0
 31
0.0
  0
LINE
  5
93
330
1D
100
AcDbEntity
  8
0
100
AcDbLine
 10
42.9937
 20
3.0
 30
0.0
 11
42.9937
 21
4.804038937093
 31
0.0
  0
LINE
  5
94
330
1D
100
AcDbEntity
  8
0
100
AcDbLine
 10
42.3937
 20
3.0
 30
0.0
 11
42.9937
 21
3.0
 31
0.0
  0
LINE
  5
96
330
1D
100
AcDbEntity
  8
0
100
AcDbLine
 10
40.9937
 20
3.0
 30
0.0
 11
42.3937
 21
3.0
 31
0.0
  0
LINE
  5
98
330
1D
100
AcDbEntity
  8
0
100
AcDbLine
 10
39.5937
 20
3.0
 30
0.0
 11
40.9937
 21
3.0
 31
0.0
  0
LINE
  5
9A
330
1D
100
AcDbEntity
  8
0
100
AcDbLine
 10
38.2063
 20
3.0
 30
0.0
 11
38.8063
 21
3.0
 31
0.0
  0
LINE
  5
9C
330
1D
100
AcDbEntity
  8
0
100
AcDbLine
 10
44.7543
 20
3.0
 30
0.0
 11
45.3543
 21
3.0
 31
0.0
  0
LINE
  5
9F
330
1D
100
AcDbEntity
  8
0
100
AcDbLine
 10
34.8063
 20
3.0
 30
0.0
 11
35.4063
 21
3.0
 31
0.0
  0
LINE
  5
A0
330
1D
100
AcDbEntity
  8
0
100
AcDbLine
 10
34.8063
 20
3.0
 30
0.0
 11
34.8063
 21
4.0
 31
0.0
  0
LINE
  5
A1
330
1D
100
AcDbEntity
  8
0
100
AcDbLine
 10
29.5737
 20
3.0
 30
0.0
 11
29.5737
 21
4.0
 31
0.0
  0
LINE
  5
A3
330
1D
100
AcDbEntity
  8
0
100
AcDbLine
 10
35.7821
 20
3.0
 30
0.0
 11
35.7821
 21
2.0
 31
0.0
  0
LINE
  5
A4
330
1D
100
AcDbEntity
  8
0
100
AcDbLine
 10
35.4063
 20
3.0
 30
0.0
 11
36.8063
 21
3.0
 31
0.0
  0
LINE
  5
A6
330
1D
100
AcDbEntity
  8
0
100
AcDbLine
 10
28.9737
 20
3.0
 30
0.0
 11
29.5737
 21
3.0
 31
0.0
  0
LINE
  5
A8
330
1D
100
AcDbEntity
  8
0
100
AcDbLine
 10
27.5737
 20
3.0
 30
0.0
 11
28.9737
 21
3.0
 31
0.0
  0
LINE
  5
AA
330
1D
100
AcDbEntity
  8
0
100
AcDbLine
 10
36.8063
 20
3.0
 30
0.0
 11
38.2063
 21
3.0
 31
0.0
  0
LINE
  5
AC
330
1D
100
AcDbEntity
  8
0
100
AcDbLine
 10
36.0239
 20
3.0
 30
0.0
 11
36.6239
 21
3.0
 31
0.0
  0
LINE
  5
AD
330
1D
100
AcDbEntity
  8
0
100
AcDbLine
 10
35.7821
 20
3.0
 30
0.0
 11
36.0239
 21
3.0
 31
0.0
  0
LINE
  5
AE
330
1D
100
AcDbEntity
  8
0
100
AcDbLine
 10
35.7821
 20
3.0
 30
0.0
 11
36.8063
 21
3.0
 31
0.0
  0
LINE
  5
B0
330
1D
100
AcDbEntity
  8
0
100
AcDbLine
 10
26.8691
 20
3.0
 30
0.0
 11
27.4691
 21
3.0
 31
0.0
  0
LINE
  5
B1
330
1D
100
AcDbEntity
  8
0
100
AcDbLine
 10
25.4691
 20
3.0
 30
0.0
 11
26.8691
 21
3.0
 31
0.0
  0
LINE
  5
B3
330
1D
100
AcDbEntity
  8
0
100
AcDbLine
 10
45.3543
 20
3.0
 30
0.0
 11
45.3543
 21
3.54081120944
 31
0.0
  0
LINE
  5
B6
330
1D
100
AcDbEntity
  8
0
100
AcDbLine
 10
44.988935779817
 20
3.0
 30
0.0
 11
46.046
 21
2.93
 31
0.0
  0
LINE
  5
B9
330
1D
100
AcDbEntity
  8
0
100
AcDbLine
 10
51.4923
 20
2.0
 30
0.0
 11
52.0923
 21
2.0
 31
0.0
  0
LINE
  5
BC
330
1D
100
AcDbEntity
  8
0
100
AcDbLine
 10
25.5737
 20
4.0
 30
0.0
 11
25.5737
 21
3.0
 31
0.0
  0
LINE
  5
BE
330
1D
100
AcDbEntity
  8
0
100
AcDbLine
 10
27.2683
 20
4.0
 30
0.0
 11
28.6683
 21
4.0
 31
0.0
  0
LINE
  5
BF
330
1D
100
AcDbEntity
  8
0
100
AcDbLine
 10
27.2683
 20
4.0
 30
0.0
 11
27.2683
 21
5.5
 31
0.0
  0
LINE
  5
C0
330
1D
100
AcDbEntity
  8
0
100
AcDbLine
 10
25.2683
 20
4.0
 30
0.0
 11
25.8683
 21
4.0
 31
0.0
  0
LINE
  5
C1
330
1D
100
AcDbEntity
  8
0
100
AcDbLine
 10
25.2683
 20
4.0
 30
0.0
 11
25.2683
 21
5.5
 31
0.0
  0
LINE
  5
C2
330
1D
100
AcDbEntity
  8
0
100
AcDbLine
 10
25.8683
 20
4.0
 30
0.0
 11
27.2683
 21
4.0
 31
0.0
  0
LINE
  5
C5
330
1D
100
AcDbEntity
  8
0
100
AcDbLine
 10
28.6683
 20
4.0
 30
0.0
 11
28.8926
 21
4.0
 31
0.0
  0
LINE
  5
C6
330
1D
100
AcDbEntity
  8
0
100
AcDbLine
 10
28.2926
 20
4.0
 30
0.0
 11
28.8926
 21
4.0
 31
0.0
  0
LINE
  5
C8
330
1D
100
AcDbEntity
  8
0
100
AcDbLine
 10
28.8926
 20
4.0
 30
0.0
 11
30.2926
 21
4.0
 31
0.0
  0
LINE
  5
CA
330
1D
100
AcDbEntity
  8
0
100
AcDbLine
 10
31.1617
 20
4.0
 30
0.0
 11
31.7617
 21
4.0
 31
0.0
  0
LINE
  5
CB
330
1D
100
AcDbEntity
  8
0
100
AcDbLine
 10
31.1617
 20
4.0
 30
0.0
 11
31.1617
 21
6.368873244147
 31
0.0
  0
LINE
  5
CC
330
1D
100
AcDbEntity
  8
0
100
AcDbLine
 10
31.7617
 20
4.0
 30
0.0
 11
33.1617
 21
4.0
 31
0.0
  0
LINE
  5
CE
330
1D
100
AcDbEntity
  8
0
100
AcDbLine
 10
31.6926
 20
4.0
 30
0.0
 11
31.7821
 21
4.0
 31
0.0
  0
LINE
  5
CF
330
1D
100
AcDbEntity
  8
0
100
AcDbLine
 10
31.6926
 20
4.0
 30
0.0
 11
32.2926
 21
4.0
 31
0.0
  0
LINE
  5
D0
330
1D
100
AcDbEntity
  8
0
100
AcDbLine
 10
30.2926
 20
4.0
 30
0.0
 11
31.6926
 21
4.0
 31
0.0
  0
LINE
  5
D2
330
1D
100
AcDbEntity
  8
0
100
AcDbLine
 10
29.5737
 20
4.0
 30
0.0
 11
30.2926
 21
4.0
 31
0.0
  0
LINE
  5
D3
330
1D
100
AcDbEntity
  8
0
100
AcDbLine
 10
29.5737
 20
4.0
 30
0.0
 11
29.5737
 21
3.0
 31
0.0
  0
LINE
  5
D6
330
1D
100
AcDbEntity
  8
0
100
AcDbLine
 10
35.1617
 20
4.0
 30
0.0
 11
35.1617
 21
5.990415238095
 31
0.0
  0
LINE
  5
D7
330
1D
100
AcDbEntity
  8
0
100
AcDbLine
 10
34.5617
 20
4.0
 30
0.0
 11
35.1617
 21
4.0
 31
0.0
  0
LINE
  5
D9
330
1D
100
AcDbEntity
  8
0
100
AcDbLine
 10
34.8063
 20
4.0
 30
0.0
 11
34.8063
 21
3.0
 31
0.0
  0
LINE
  5
DA
330
1D
100
AcDbEntity
  8
0
100
AcDbLine
 10
33.1617
 20
4.0
 30
0.0
 11
34.5617
 21
4.0
 31
0.0
  0
LINE
  5
DC
330
1D
100
AcDbEntity
  8
0
100
AcDbLine
 10
31.7821
 20
4.0
 30
0.0
 11
31.7821
 21
2.0
 31
0.0
  0
LINE
  5
E1
330
1D
100
AcDbEntity
  8
0
100
AcDbLine
 10
38.8063
 20
4.590152946955
 30
0.0
 11
38.8063
 21
3.0
 31
0.0
  0
LINE
  5
E6
330
1D
100
AcDbEntity
  8
0
100
AcDbLine
 10
36.75
 20
4.789
 30
0.0
 11
38.395
 21
4.635
 31
0.0
  0
LINE
  5
E7
330
1D
100
AcDbEntity
  8
0
100
AcDbLine
 10
38.395
 20
4.635
 30
0.0
 11
38.9937
 21
4.56971935167
 31
0.0
  0
LINE
  5
E8
330
1D
100
AcDbEntity
  8
0
100
AcDbLine
 10
35.656
 20
4.884
 30
0.0
 11
36.75
 21
4.789
 31
0.0
  0
LINE
  5
EA
330
1D
100
AcDbEntity
  8
0
100
AcDbLine
 10
25.192
 20
5.038
 30
0.0
 11
25.2683
 21
5.030591688121
 31
0.0
  0
LINE
  5
EB
330
1D
100
AcDbEntity
  8
0
100
AcDbLine
 10
35.1617
 20
4.923179044517
 30
0.0
 11
35.656
 21
4.884
 31
0.0
  0
LINE
  5
EF
330
1D
100
AcDbEntity
  8
0
100
AcDbLine
 10
38.8323
 20
3.940282798427
 30
0.0
 11
38.8323
 21
2.0
 31
0.0
  0
LINE
  5
F0
330
1D
100
AcDbEntity
  8
0
100
AcDbLine
 10
38.8323
 20
3.739833729448
 30
0.0
 11
38.8323
 21
2.0
 31
0.0
  0
LINE
  5
F3
330
1D
100
AcDbEntity
  8
0
100
AcDbLine
 10
42.9937
 20
3.678116735367
 30
0.0
 11
43.4
 21
3.654
 31
0.0
  0
LINE
  5
F5
330
1D
100
AcDbEntity
  8
0
100
AcDbLine
 10
45.3543
 20
3.54081120944
 30
0.0
 11
45.3543
 21
3.0
 31
0.0
  0
LINE
  5
FC
330
1D
100
AcDbEntity
  8
0
100
AcDbLine
 10
39.4525
 20
5.0
 30
0.0
 11
40.0525
 21
5.0
 31
0.0
  0
LINE
  5
FD
330
1D
100
AcDbEntity
  8
0
100
AcDbLine
 10
39.4525
 20
5.0
 30
0.0
 11
39.4525
 21
6.830355769231
 31
0.0
  0
LINE
  5
FE
330
1D
100
AcDbEntity
  8
0
100
AcDbLine
 10
40.0525
 20
5.0
 30
0.0
 11
41.4525
 21
5.0
 31
0.0
  0
LINE
  5
103
330
1D
100
AcDbEntity
  8
0
100
AcDbLine
 10
42.9937
 20
4.804038937093
 30
0.0
 11
42.9937
 21
3.0
 31
0.0
  0
LINE
  5
104
330
1D
100
AcDbEntity
  8
0
100
AcDbLine
 10
42.9937
 20
4.689178125
 30
0.0
 11
43.5
 21
4.705
 31
0.0
  0
LINE
  5
105
330
1D
100
AcDbEntity
  8
0
100
AcDbLine
 10
43.003
 20
4.803
 30
0.0
 11
43.5
 21
4.705
 31
0.0
  0
LINE
  5
106
330
1D
100
AcDbEntity
  8
0
100
AcDbLine
 10
43.4525
 20
5.0
 30
0.0
 11
43.4525
 21
6.594110619469
 31
0.0
  0
LINE
  5
107
330
1D
100
AcDbEntity
  8
0
100
AcDbLine
 10
42.8525
 20
5.0
 30
0.0
 11
43.4525
 21
5.0
 31
0.0
  0
LINE
  5
109
330
1D
100
AcDbEntity
  8
0
100
AcDbLine
 10
41.4525
 20
5.0
 30
0.0
 11
42.8525
 21
5.0
 31
0.0
  0
LINE
  5
10B
330
1D
100
AcDbEntity
  8
0
100
AcDbLine
 10
42.081
 20
4.906
 30
0.0
 11
43.003
 21
4.803
 31
0.0
  0
LINE
  5
10C
330
1D
100
AcDbEntity
  8
0
100
AcDbLine
 10
41.013557692308
 20
5.0
 30
0.0
 11
42.081
 21
4.906
 31
0.0
  0
LINE
  5
10E
330
1D
100
AcDbEntity
  8
0
100
AcDbLine
 10
25.0154
 20
5.5
 30
0.0
 11
26.4154
 21
5.5
 31
0.0
  0
LINE
  5
110
330
1D
100
AcDbEntity
  8
0
100
AcDbLine
 10
25.2683
 20
5.5
 30
0.0
 11
25.2683
 21
4.0
 31
0.0
  0
LINE
  5
111
330
1D
100
AcDbEntity
  8
0
100
AcDbLine
 10
26.4154
 20
5.5
 30
0.0
 11
27.8154
 21
5.5
 31
0.0
  0
LINE
  5
114
330
1D
100
AcDbEntity
  8
0
100
AcDbLine
 10
27.2683
 20
5.5
 30
0.0
 11
27.2683
 21
4.0
 31
0.0
  0
LINE
  5
115
330
1D
100
AcDbEntity
  8
0
100
AcDbLine
 10
28.4154
 20
5.5
 30
0.0
 11
28.4154
 21
7.16252
 31
0.0
  0
LINE
  5
116
330
1D
100
AcDbEntity
  8
0
100
AcDbLine
 10
27.8154
 20
5.5
 30
0.0
 11
28.4154
 21
5.5
 31
0.0
  0
LINE
  5
123
330
1D
100
AcDbEntity
  8
0
100
AcDbLine
 10
28.4154
 20
5.888601174743
 30
0.0
 11
29.156
 21
5.819
 31
0.0
  0
LINE
  5
124
330
1D
100
AcDbEntity
  8
0
100
AcDbLine
 10
29.156
 20
5.819
 30
0.0
 11
30.25
 21
5.701
 31
0.0
  0
LINE
  5
128
330
1D
100
AcDbEntity
  8
0
100
AcDbLine
 10
30.25
 20
5.701
 30
0.0
 11
31.1617
 21
5.591884021871
 31
0.0
  0
LINE
  5
12F
330
1D
100
AcDbEntity
  8
0
100
AcDbLine
 10
38.427
 20
5.14
 30
0.0
 11
38.967
 21
5.132
 31
0.0
  0
LINE
  5
130
330
1D
100
AcDbEntity
  8
0
100
AcDbLine
 10
38.314
 20
5.107
 30
0.0
 11
38.427
 21
5.14
 31
0.0
  0
LINE
  5
131
330
1D
100
AcDbEntity
  8
0
100
AcDbLine
 10
38.314
 20
5.107
 30
0.0
 11
38.9937
 21
4.996333773377
 31
0.0
  0
LINE
  5
133
330
1D
100
AcDbEntity
  8
0
100
AcDbLine
 10
35.1617
 20
5.990415238095
 30
0.0
 11
35.1617
 21
4.0
 31
0.0
  0
LINE
  5
134
330
1D
100
AcDbEntity
  8
0
100
AcDbLine
 10
35.573
 20
5.926
 30
0.0
 11
35.573
 21
5.846
 31
0.0
  0
LINE
  5
135
330
1D
100
AcDbEntity
  8
0
100
AcDbLine
 10
35.1617
 20
5.853826004228
 30
0.0
 11
35.573
 21
5.846
 31
0.0
  0
LINE
  5
136
330
1D
100
AcDbEntity
  8
0
100
AcDbLine
 10
34.628
 20
6.074
 30
0.0
 11
35.573
 21
5.926
 31
0.0
  0
LINE
  5
137
330
1D
100
AcDbEntity
  8
0
100
AcDbLine
 10
33.1
 20
6.237
 30
0.0
 11
34.628
 21
6.074
 31
0.0
  0
LINE
  5
138
330
1D
100
AcDbEntity
  8
0
100
AcDbLine
 10
38.9937
 20
5.130597945205
 30
0.0
 11
38.9937
 21
3.0
 31
0.0
  0
LINE
  5
13A
330
1D
100
AcDbEntity
  8
0
100
AcDbLine
 10
38.967
 20
5.132
 30
0.0
 11
39.4525
 21
5.106505707763
 31
0.0
  0
LINE
  5
13D
330
1D
100
AcDbEntity
  8
0
100
AcDbLine
 10
45.249
 20
5.595
 30
0.0
 11
46.6
 21
5.652
 31
0.0
  0
LINE
  5
13E
330
1D
100
AcDbEntity
  8
0
100
AcDbLine
 10
45.249
 20
5.595
 30
0.0
 11
46.2543
 21
5.436412330009
 31
0.0
  0
LINE
  5
13F
330
1D
100
AcDbEntity
  8
0
100
AcDbLine
 10
43.713
 20
6.283
 30
0.0
 11
44.262
 21
6.324
 31
0.0
  0
LINE
  5
140
330
1D
100
AcDbEntity
  8
0
100
AcDbLine
 10
43.4525
 20
6.283587373168
 30
0.0
 11
43.713
 21
6.283
 31
0.0
  0
LINE
  5
145
330
1D
100
AcDbEntity
  8
0
100
AcDbLine
 10
46.2543
 20
4.0
 30
0.0
 11
46.8543
 21
4.0
 31
0.0
  0
LINE
  5
146
330
1D
100
AcDbEntity
  8
0
100
AcDbLine
 10
46.2543
 20
4.0
 30
0.0
 11
46.2543
 21
5.637414581791
 31
0.0
  0
LINE
  5
148
330
1D
100
AcDbEntity
  8
0
100
AcDbLine
 10
50.2053
 20
4.0
 30
0.0
 11
50.2053
 21
2.0
 31
0.0
  0
LINE
  5
149
330
1D
100
AcDbEntity
  8
0
100
AcDbLine
 10
49.6543
 20
4.0
 30
0.0
 11
50.2543
 21
4.0
 31
0.0
  0
LINE
  5
14C
330
1D
100
AcDbEntity
  8
0
100
AcDbLine
 10
48.2543
 20
4.0
 30
0.0
 11
49.6543
 21
4.0
 31
0.0
  0
LINE
  5
14E
330
1D
100
AcDbEntity
  8
0
100
AcDbLine
 10
46.8543
 20
4.0
 30
0.0
 11
48.2543
 21
4.0
 31
0.0
  0
LINE
  5
155
330
1D
100
AcDbEntity
  8
0
100
AcDbLine
 10
46.2053
 20
4.244245717345
 30
0.0
 11
46.2053
 21
2.0
 31
0.0
  0
LINE
  5
157
330
1D
100
AcDbEntity
  8
0
100
AcDbLine
 10
46.051
 20
4.176
 30
0.0
 11
46.2053
 21
4.16446989011
 31
0.0
  0
LINE
  5
158
330
1D
100
AcDbEntity
  8
0
100
AcDbLine
 10
45.501
 20
4.244
 30
0.0
 11
45.945
 21
4.254
 31
0.0
  0
LINE
  5
159
330
1D
100
AcDbEntity
  8
0
100
AcDbLine
 10
45.501
 20
4.244
 30
0.0
 11
46.051
 21
4.176
 31
0.0
  0
LINE
  5
15A
330
1D
100
AcDbEntity
  8
0
100
AcDbLine
 10
45.945
 20
4.254
 30
0.0
 11
46.2543
 21
4.242409528908
 31
0.0
  0
LINE
  5
15B
330
1D
100
AcDbEntity
  8
0
100
AcDbLine
 10
50.2543
 20
4.0
 30
0.0
 11
50.2543
 21
5.474683300589
 31
0.0
  0
LINE
  5
160
330
1D
100
AcDbEntity
  8
0
100
AcDbLine
 10
50.2543
 20
4.010910060362
 30
0.0
 11
50.7
 21
3.958
 31
0.0
  0
LINE
  5
161
330
1D
100
AcDbEntity
  8
0
100
AcDbLine
 10
50.475
 20
3.948
 30
0.0
 11
50.7
 21
3.958
 31
0.0
  0
LINE
  5
162
330
1D
100
AcDbEntity
  8
0
100
AcDbLine
 10
50.2053
 20
3.954360849057
 30
0.0
 11
50.475
 21
3.948
 31
0.0
  0
LINE
  5
164
330
1D
100
AcDbEntity
  8
0
100
AcDbLine
 10
50.2543
 20
5.474683300589
 30
0.0
 11
50.2543
 21
4.0
 31
0.0
  0
LINE
  5
167
330
1D
100
AcDbEntity
  8
0
100
AcDbLine
 10
46.2543
 20
5.637414581791
 30
0.0
 11
46.2543
 21
4.0
 31
0.0
  0
LINE
  5
16B
330
1D
100
AcDbEntity
  8
0
100
AcDbLine
 10
46.6
 20
5.652
 30
0.0
 11
47.442
 21
5.641
 31
0.0
  0
LINE
  5
16C
330
1D
100
AcDbEntity
  8
0
100
AcDbLine
 10
47.442
 20
5.641
 30
0.0
 11
48.4
 21
5.607
 31
0.0
  0
LINE
  5
16E
330
1D
100
AcDbEntity
  8
0
100
AcDbLine
 10
48.4
 20
5.607
 30
0.0
 11
50.045
 21
5.501
 31
0.0
  0
LINE
  5
16F
330
1D
100
AcDbEntity
  8
0
100
AcDbLine
 10
50.045
 20
5.501
 30
0.0
 11
51.063
 21
5.373
 31
0.0
  0
LINE
  5
170
330
1D
100
AcDbEntity
  8
0
100
AcDbLine
 10
51.063
 20
5.373
 30
0.0
 11
51.063
 21
5.27
 31
0.0
  0
LINE
  5
171
330
1D
100
AcDbEntity
  8
0
100
AcDbLine
 10
50.448
 20
5.235
 30
0.0
 11
51.063
 21
5.27
 31
0.0
  0
LINE
  5
172
330
1D
100
AcDbEntity
  8
0
100
AcDbLine
 10
50.2543
 20
5.2355811
 30
0.0
 11
50.448
 21
5.235
 31
0.0
  0
LINE
  5
177
330
1D
100
AcDbEntity
  8
0
100
AcDbLine
 10
24.8483
 20
5.073482871891
 30
0.0
 11
25.192
 21
5.038
 31
0.0
  0
LINE
  5
179
330
1D
100
AcDbEntity
  8
0
100
AcDbLine
 10
17.5771
 20
6.589586592544
 30
0.0
 11
17.5771
 21
5.0
 31
0.0
  0
LINE
  5
17A
330
1D
100
AcDbEntity
  8
0
100
AcDbLine
 10
18.0567
 20
6.646003394762
 30
0.0
 11
18.0567
 21
5.0
 31
0.0
  0
LINE
  5
17C
330
1D
100
AcDbEntity
  8
0
100
AcDbLine
 10
17.7
 20
6.567
 30
0.0
 11
18.0567
 21
6.504985490196
 31
0.0
  0
LINE
  5
17D
330
1D
100
AcDbEntity
  8
0
100
AcDbLine
 10
20.75
 20
6.608
 30
0.0
 11
20.8483
 21
6.592580392157
 31
0.0
  0
LINE
  5
182
330
1D
100
AcDbEntity
  8
0
100
AcDbLine
 10
16.171
 20
6.848
 30
0.0
 11
17.7
 21
6.567
 31
0.0
  0
LINE
  5
185
330
1D
100
AcDbEntity
  8
0
100
AcDbLine
 10
19.57
 20
6.789
 30
0.0
 11
20.75
 21
6.608
 31
0.0
  0
LINE
  5
186
330
1D
100
AcDbEntity
  8
0
100
AcDbLine
 10
18.522
 20
6.885
 30
0.0
 11
18.6771
 21
6.855668163265
 31
0.0
  0
LINE
  5
187
330
1D
100
AcDbEntity
  8
0
100
AcDbLine
 10
15.5771
 20
6.953360084477
 30
0.0
 11
15.5771
 21
5.0
 31
0.0
  0
LINE
  5
188
330
1D
100
AcDbEntity
  8
0
100
AcDbLine
 10
15.5771
 20
6.975943522562
 30
0.0
 11
15.5771
 21
5.0
 31
0.0
  0
LINE
  5
189
330
1D
100
AcDbEntity
  8
0
100
AcDbLine
 10
18.169
 20
6.967
 30
0.0
 11
18.233
 21
6.977
 31
0.0
  0
LINE
  5
18A
330
1D
100
AcDbEntity
  8
0
100
AcDbLine
 10
18.169
 20
6.967
 30
0.0
 11
18.522
 21
6.885
 31
0.0
  0
LINE
  5
18C
330
1D
100
AcDbEntity
  8
0
100
AcDbLine
 10
18.6771
 20
6.920280432432
 30
0.0
 11
18.6771
 21
5.0
 31
0.0
  0
LINE
  5
18E
330
1D
100
AcDbEntity
  8
0
100
AcDbLine
 10
18.645
 20
6.925
 30
0.0
 11
19.57
 21
6.789
 31
0.0
  0
LINE
  5
18F
330
1D
100
AcDbEntity
  8
0
100
AcDbLine
 10
18.233
 20
6.977
 30
0.0
 11
18.645
 21
6.925
 31
0.0
  0
LINE
  5
191
330
1D
100
AcDbEntity
  8
0
100
AcDbLine
 10
23.0
 20
6.948
 30
0.0
 11
24.4154
 21
6.738602669633
 31
0.0
  0
LINE
  5
195
330
1D
100
AcDbEntity
  8
0
100
AcDbLine
 10
28.447
 20
6.969
 30
0.0
 11
28.961
 21
6.983
 31
0.0
  0
LINE
  5
198
330
1D
100
AcDbEntity
  8
0
100
AcDbLine
 10
32.254
 20
6.309
 30
0.0
 11
33.1
 21
6.237
 31
0.0
  0
LINE
  5
199
330
1D
100
AcDbEntity
  8
0
100
AcDbLine
 10
36.1431
 20
7.0
 30
0.0
 11
36.1431
 21
8.398827217742
 31
0.0
  0
LINE
  5
19A
330
1D
100
AcDbEntity
  8
0
100
AcDbLine
 10
35.5431
 20
7.0
 30
0.0
 11
36.1431
 21
7.0
 31
0.0
  0
LINE
  5
19C
330
1D
100
AcDbEntity
  8
0
100
AcDbLine
 10
34.1431
 20
7.0
 30
0.0
 11
35.5431
 21
7.0
 31
0.0
  0
LINE
  5
19E
330
1D
100
AcDbEntity
  8
0
100
AcDbLine
 10
32.1431
 20
7.0
 30
0.0
 11
32.7431
 21
7.0
 31
0.0
  0
LINE
  5
19F
330
1D
100
AcDbEntity
  8
0
100
AcDbLine
 10
32.1431
 20
7.0
 30
0.0
 11
32.1431
 21
8.679935754986
 31
0.0
  0
LINE
  5
1A0
330
1D
100
AcDbEntity
  8
0
100
AcDbLine
 10
32.7431
 20
7.0
 30
0.0
 11
34.1431
 21
7.0
 31
0.0
  0
LINE
  5
1A2
330
1D
100
AcDbEntity
  8
0
100
AcDbLine
 10
31.1617
 20
6.368873244147
 30
0.0
 11
31.1617
 21
4.0
 31
0.0
  0
LINE
  5
1A3
330
1D
100
AcDbEntity
  8
0
100
AcDbLine
 10
31.498
 20
6.361
 30
0.0
 11
32.254
 21
6.309
 31
0.0
  0
LINE
  5
1A4
330
1D
100
AcDbEntity
  8
0
100
AcDbLine
 10
30.601
 20
6.382
 30
0.0
 11
31.498
 21
6.361
 31
0.0
  0
LINE
  5
1A5
330
1D
100
AcDbEntity
  8
0
100
AcDbLine
 10
30.601
 20
6.382
 30
0.0
 11
30.657
 21
6.297
 31
0.0
  0
LINE
  5
1AA
330
1D
100
AcDbEntity
  8
0
100
AcDbLine
 10
15.225
 20
7.029
 30
0.0
 11
16.171
 21
6.848
 31
0.0
  0
LINE
  5
1AB
330
1D
100
AcDbEntity
  8
0
100
AcDbLine
 10
20.8483
 20
7.223235305918
 30
0.0
 11
20.8483
 21
5.0
 31
0.0
  0
LINE
  5
1AD
330
1D
100
AcDbEntity
  8
0
100
AcDbLine
 10
20.732
 20
7.237
 30
0.0
 11
21.729
 21
7.119
 31
0.0
  0
LINE
  5
1AE
330
1D
100
AcDbEntity
  8
0
100
AcDbLine
 10
20.255
 20
7.253
 30
0.0
 11
20.8483
 21
7.103772413793
 31
0.0
  0
LINE
  5
1AF
330
1D
100
AcDbEntity
  8
0
100
AcDbLine
 10
20.255
 20
7.253
 30
0.0
 11
20.732
 21
7.237
 31
0.0
  0
LINE
  5
1B0
330
1D
100
AcDbEntity
  8
0
100
AcDbLine
 10
28.4154
 20
7.16252
 30
0.0
 11
28.4154
 21
5.5
 31
0.0
  0
LINE
  5
1B1
330
1D
100
AcDbEntity
  8
0
100
AcDbLine
 10
21.729
 20
7.119
 30
0.0
 11
23.0
 21
6.948
 31
0.0
  0
LINE
  5
1B4
330
1D
100
AcDbEntity
  8
0
100
AcDbLine
 10
26.4
 20
7.471
 30
0.0
 11
27.928
 21
7.26
 31
0.0
  0
LINE
  5
1B5
330
1D
100
AcDbEntity
  8
0
100
AcDbLine
 10
27.928
 20
7.26
 30
0.0
 11
28.873
 21
7.071
 31
0.0
  0
LINE
  5
1B8
330
1D
100
AcDbEntity
  8
0
100
AcDbLine
 10
28.873
 20
7.071
 30
0.0
 11
28.961
 21
6.983
 31
0.0
  0
LINE
  5
1B9
330
1D
100
AcDbEntity
  8
0
100
AcDbLine
 10
24.4154
 20
7.657838245614
 30
0.0
 11
24.4154
 21
5.5
 31
0.0
  0
LINE
  5
1BC
330
1D
100
AcDbEntity
  8
0
100
AcDbLine
 10
23.815
 20
7.617
 30
0.0
 11
23.926
 21
7.669
 31
0.0
  0
LINE
  5
1BD
330
1D
100
AcDbEntity
  8
0
100
AcDbLine
 10
23.815
 20
7.617
 30
0.0
 11
24.268
 21
7.482
 31
0.0
  0
LINE
  5
1BE
330
1D
100
AcDbEntity
  8
0
100
AcDbLine
 10
23.926
 20
7.669
 30
0.0
 11
24.496
 21
7.656
 31
0.0
  0
LINE
  5
1C5
330
1D
100
AcDbEntity
  8
0
100
AcDbLine
 10
25.788
 20
7.541
 30
0.0
 11
26.4
 21
7.471
 31
0.0
  0
LINE
  5
1C6
330
1D
100
AcDbEntity
  8
0
100
AcDbLine
 10
24.496
 20
7.656
 30
0.0
 11
25.788
 21
7.541
 31
0.0
  0
LINE
  5
1C7
330
1D
100
AcDbEntity
  8
0
100
AcDbLine
 10
24.268
 20
7.482
 30
0.0
 11
24.4154
 21
7.455732040628
 31
0.0
  0
LINE
  5
1C8
330
1D
100
AcDbEntity
  8
0
100
AcDbLine
 10
15.23
 20
7.023
 30
0.0
 11
15.5771
 21
6.953360084477
 31
0.0
  0
LINE
  5
1CE
330
1D
100
AcDbEntity
  8
0
100
AcDbLine
 10
36.1431
 20
7.931569142857
 30
0.0
 11
36.564
 21
7.946
 31
0.0
  0
LINE
  5
1D0
330
1D
100
AcDbEntity
  8
0
100
AcDbLine
 10
36.564
 20
7.946
 30
0.0
 11
37.099
 21
8.094
 31
0.0
  0
LINE
  5
1D8
330
1D
100
AcDbEntity
  8
0
100
AcDbLine
 10
36.759202702703
 20
8.0
 30
0.0
 11
37.099
 21
8.094
 31
0.0
  0
LINE
  5
1DB
330
1D
100
AcDbEntity
  8
0
100
AcDbLine
 10
39.4525
 20
6.830355769231
 30
0.0
 11
39.4525
 21
5.0
 31
0.0
  0
LINE
  5
1DE
330
1D
100
AcDbEntity
  8
0
100
AcDbLine
 10
39.174
 20
6.825
 30
0.0
 11
39.954
 21
6.84
 31
0.0
  0
LINE
  5
1E9
330
1D
100
AcDbEntity
  8
0
100
AcDbLine
 10
39.954
 20
6.84
 30
0.0
 11
41.6
 21
6.774
 31
0.0
  0
LINE
  5
1EA
330
1D
100
AcDbEntity
  8
0
100
AcDbLine
 10
43.4525
 20
6.594110619469
 30
0.0
 11
43.4525
 21
5.0
 31
0.0
  0
LINE
  5
1EB
330
1D
100
AcDbEntity
  8
0
100
AcDbLine
 10
44.262
 20
6.458
 30
0.0
 11
44.262
 21
6.324
 31
0.0
  0
LINE
  5
1F1
330
1D
100
AcDbEntity
  8
0
100
AcDbLine
 10
47.7771
 20
7.0
 30
0.0
 11
48.3771
 21
7.0
 31
0.0
  0
LINE
  5
1F2
330
1D
100
AcDbEntity
  8
0
100
AcDbLine
 10
47.7771
 20
7.0
 30
0.0
 11
47.7771
 21
8.699322775424
 31
0.0
  0
LINE
  5
1F3
330
1D
100
AcDbEntity
  8
0
100
AcDbLine
 10
51.7771
 20
7.0
 30
0.0
 11
51.7771
 21
8.480092820248
 31
0.0
  0
LINE
  5
1F4
330
1D
100
AcDbEntity
  8
0
100
AcDbLine
 10
51.1771
 20
7.0
 30
0.0
 11
51.7771
 21
7.0
 31
0.0
  0
LINE
  5
1F6
330
1D
100
AcDbEntity
  8
0
100
AcDbLine
 10
49.7771
 20
7.0
 30
0.0
 11
51.1771
 21
7.0
 31
0.0
  0
LINE
  5
1F8
330
1D
100
AcDbEntity
  8
0
100
AcDbLine
 10
48.3771
 20
7.0
 30
0.0
 11
49.7771
 21
7.0
 31
0.0
  0
LINE
  5
1FA
330
1D
100
AcDbEntity
  8
0
100
AcDbLine
 10
43.245
 20
6.629
 30
0.0
 11
44.262
 21
6.458
 31
0.0
  0
LINE
  5
1FB
330
1D
100
AcDbEntity
  8
0
100
AcDbLine
 10
41.6
 20
6.774
 30
0.0
 11
43.245
 21
6.629
 31
0.0
  0
LINE
  5
1FC
330
1D
100
AcDbEntity
  8
0
100
AcDbLine
 10
51.7771
 20
8.149647761194
 30
0.0
 11
52.243
 21
8.247
 31
0.0
  0
LINE
  5
1FD
330
1D
100
AcDbEntity
  8
0
100
AcDbLine
 10
38.815
 20
6.718
 30
0.0
 11
39.4525
 21
6.564058238636
 31
0.0
  0
LINE
  5
1FE
330
1D
100
AcDbEntity
  8
0
100
AcDbLine
 10
38.815
 20
6.718
 30
0.0
 11
39.174
 21
6.825
 31
0.0
  0
LINE
  5
1FF
330
1D
100
AcDbEntity
  8
0
100
AcDbLine
 10
30.657
 20
6.297
 30
0.0
 11
31.1617
 21
6.215349848332
 31
0.0
  0
LINE
  5
200
330
1D
100
AcDbEntity
  8
0
100
AcDbLine
 10
55.7739
 20
1.0
 30
0.0
 11
56.3739
 21
1.0
 31
0.0
  0
LINE
  5
201
330
1D
100
AcDbEntity
  8
0
100
AcDbLine
 10
55.7739
 20
1.0
 30
0.0
 11
55.7739
 21
2.0
 31
0.0
  0
LINE
  5
202
330
1D
100
AcDbEntity
  8
0
100
AcDbLine
 10
59.7739
 20
1.0
 30
0.0
 11
59.7739
 21
2.387180263158
 31
0.0
  0
LINE
  5
203
330
1D
100
AcDbEntity
  8
0
100
AcDbLine
 10
64.2641
 20
1.0
 30
0.0
 11
64.2641
 21
2.0
 31
0.0
  0
LINE
  5
204
330
1D
100
AcDbEntity
  8
0
100
AcDbLine
 10
63.6641
 20
1.0
 30
0.0
 11
64.2641
 21
1.0
 31
0.0
  0
LINE
  5
206
330
1D
100
AcDbEntity
  8
0
100
AcDbLine
 10
62.2641
 20
1.0
 30
0.0
 11
63.6641
 21
1.0
 31
0.0
  0
LINE
  5
208
330
1D
100
AcDbEntity
  8
0
100
AcDbLine
 10
60.2641
 20
1.0
 30
0.0
 11
60.8641
 21
1.0
 31
0.0
  0
LINE
  5
209
330
1D
100
AcDbEntity
  8
0
100
AcDbLine
 10
60.2641
 20
1.0
 30
0.0
 11
60.2641
 21
2.24277954393
 31
0.0
  0
LINE
  5
20A
330
1D
100
AcDbEntity
  8
0
100
AcDbLine
 10
60.2641
 20
1.0
 30
0.0
 11
60.2641
 21
2.918093692078
 31
0.0
  0
LINE
  5
20B
330
1D
100
AcDbEntity
  8
0
100
AcDbLine
 10
59.1739
 20
1.0
 30
0.0
 11
59.7739
 21
1.0
 31
0.0
  0
LINE
  5
20D
330
1D
100
AcDbEntity
  8
0
100
AcDbLine
 10
60.8641
 20
1.0
 30
0.0
 11
62.2641
 21
1.0
 31
0.0
  0
LINE
  5
20F
330
1D
100
AcDbEntity
  8
0
100
AcDbLine
 10
72.85
 20
0.0
 30
0.0
 11
72.85
 21
1.0
 31
0.0
  0
LINE
  5
210
330
1D
100
AcDbEntity
  8
0
100
AcDbLine
 10
72.25
 20
0.0
 30
0.0
 11
72.85
 21
0.0
 31
0.0
  0
LINE
  5
212
330
1D
100
AcDbEntity
  8
0
100
AcDbLine
 10
69.45
 20
0.0
 30
0.0
 11
70.85
 21
0.0
 31
0.0
  0
LINE
  5
215
330
1D
100
AcDbEntity
  8
0
100
AcDbLine
 10
72.85
 20
1.0
 30
0.0
 11
72.85
 21
0.0
 31
0.0
  0
LINE
  5
217
330
1D
100
AcDbEntity
  8
0
100
AcDbLine
 10
71.807
 20
1.0
 30
0.0
 11
73.207
 21
1.0
 31
0.0
  0
LINE
  5
219
330
1D
100
AcDbEntity
  8
0
100
AcDbLine
 10
69.807
 20
1.0
 30
0.0
 11
70.407
 21
1.0
 31
0.0
  0
LINE
  5
21A
330
1D
100
AcDbEntity
  8
0
100
AcDbLine
 10
69.807
 20
1.0
 30
0.0
 11
69.807
 21
2.793348101266
 31
0.0
  0
LINE
  5
21B
330
1D
100
AcDbEntity
  8
0
100
AcDbLine
 10
70.407
 20
1.0
 30
0.0
 11
71.807
 21
1.0
 31
0.0
  0
LINE
  5
21D
330
1D
100
AcDbEntity
  8
0
100
AcDbLine
 10
73.807
 20
1.0
 30
0.0
 11
73.807
 21
2.0
 31
0.0
  0
LINE
  5
21E
330
1D
100
AcDbEntity
  8
0
100
AcDbLine
 10
73.207
 20
1.0
 30
0.0
 11
73.807
 21
1.0
 31
0.0
  0
LINE
  5
220
330
1D
100
AcDbEntity
  8
0
100
AcDbLine
 10
72.85
 20
1.0
 30
0.0
 11
73.207
 21
1.0
 31
0.0
  0
LINE
  5
221
330
1D
100
AcDbEntity
  8
0
100
AcDbLine
 10
70.85
 20
0.0
 30
0.0
 11
72.25
 21
0.0
 31
0.0
  0
LINE
  5
223
330
1D
100
AcDbEntity
  8
0
100
AcDbLine
 10
68.85
 20
0.0
 30
0.0
 11
69.45
 21
0.0
 31
0.0
  0
LINE
  5
224
330
1D
100
AcDbEntity
  8
0
100
AcDbLine
 10
68.85
 20
0.0
 30
0.0
 11
68.85
 21
1.66251
 31
0.0
  0
LINE
  5
225
330
1D
100
AcDbEntity
  8
0
100
AcDbLine
 10
68.85
 20
0.0
 30
0.0
 11
68.85
 21
2.186669565217
 31
0.0
  0
LINE
  5
226
330
1D
100
AcDbEntity
  8
0
100
AcDbLine
 10
68.85
 20
1.66251
 30
0.0
 11
68.85
 21
0.0
 31
0.0
  0
LINE
  5
227
330
1D
100
AcDbEntity
  8
0
100
AcDbLine
 10
57.7739
 20
1.0
 30
0.0
 11
59.1739
 21
1.0
 31
0.0
  0
LINE
  5
229
330
1D
100
AcDbEntity
  8
0
100
AcDbLine
 10
56.3739
 20
1.0
 30
0.0
 11
57.7739
 21
1.0
 31
0.0
  0
LINE
  5
22B
330
1D
100
AcDbEntity
  8
0
100
AcDbLine
 10
67.224
 20
1.66251
 30
0.0
 11
67.692
 21
1.66251
 31
0.0
  0
LINE
  5
22C
330
1D
100
AcDbEntity
  8
0
100
AcDbLine
 10
67.692
 20
1.66251
 30
0.0
 11
68.85
 21
1.66251
 31
0.0
  0
LINE
  5
22D
330
1D
100
AcDbEntity
  8
0
100
AcDbLine
 10
73.807
 20
1.66251
 30
0.0
 11
76.636
 21
1.66251
 31
0.0
  0
LINE
  5
22E
330
1D
100
AcDbEntity
  8
0
100
AcDbLine
 10
76.636
 20
1.66251
 30
0.0
 11
78.03
 21
1.66251
 31
0.0
  0
LINE
  5
22F
330
1D
100
AcDbEntity
  8
0
100
AcDbLine
 10
66.9124
 20
1.96251
 30
0.0
 11
67.38
 21
1.96251
 31
0.0
  0
LINE
  5
230
330
1D
100
AcDbEntity
  8
0
100
AcDbLine
 10
66.9124
 20
1.96251
 30
0.0
 11
67.224
 21
1.66251
 31
0.0
  0
LINE
  5
231
330
1D
100
AcDbEntity
  8
0
100
AcDbLine
 10
66.9124
 20
1.96251
 30
0.0
 11
66.9124
 21
2.078661151258
 31
0.0
  0
LINE
  5
232
330
1D
100
AcDbEntity
  8
0
100
AcDbLine
 10
52.0923
 20
2.0
 30
0.0
 11
52.0923
 21
3.211913144759
 31
0.0
  0
LINE
  5
233
330
1D
100
AcDbEntity
  8
0
100
AcDbLine
 10
55.4174
 20
2.0
 30
0.0
 11
55.7739
 21
2.0
 31
0.0
  0
LINE
  5
234
330
1D
100
AcDbEntity
  8
0
100
AcDbLine
 10
55.4174
 20
2.0
 30
0.0
 11
56.8175
 21
2.0
 31
0.0
  0
LINE
  5
236
330
1D
100
AcDbEntity
  8
0
100
AcDbLine
 10
53.4174
 20
2.0
 30
0.0
 11
54.0174
 21
2.0
 31
0.0
  0
LINE
  5
237
330
1D
100
AcDbEntity
  8
0
100
AcDbLine
 10
53.4174
 20
2.0
 30
0.0
 11
53.4174
 21
2.541109467865
 31
0.0
  0
LINE
  5
238
330
1D
100
AcDbEntity
  8
0
100
AcDbLine
 10
53.4174
 20
2.0
 30
0.0
 11
53.4174
 21
3.192348717949
 31
0.0
  0
LINE
  5
239
330
1D
100
AcDbEntity
  8
0
100
AcDbLine
 10
54.0174
 20
2.0
 30
0.0
 11
55.4174
 21
2.0
 31
0.0
  0
LINE
  5
23B
330
1D
100
AcDbEntity
  8
0
100
AcDbLine
 10
61.7869
 20
2.0
 30
0.0
 11
62.3869
 21
2.0
 31
0.0
  0
LINE
  5
23C
330
1D
100
AcDbEntity
  8
0
100
AcDbLine
 10
61.7869
 20
2.0
 30
0.0
 11
61.7869
 21
3.67081740413
 31
0.0
  0
LINE
  5
23D
330
1D
100
AcDbEntity
  8
0
100
AcDbLine
 10
63.7869
 20
2.0
 30
0.0
 11
65.1869
 21
2.0
 31
0.0
  0
LINE
  5
23F
330
1D
100
AcDbEntity
  8
0
100
AcDbLine
 10
62.3869
 20
2.0
 30
0.0
 11
63.7869
 21
2.0
 31
0.0
  0
LINE
  5
241
330
1D
100
AcDbEntity
  8
0
100
AcDbLine
 10
64.2641
 20
2.0
 30
0.0
 11
64.2641
 21
1.0
 31
0.0
  0
LINE
  5
242
330
1D
100
AcDbEntity
  8
0
100
AcDbLine
 10
65.7869
 20
2.0
 30
0.0
 11
65.7869
 21
3.0
 31
0.0
  0
LINE
  5
243
330
1D
100
AcDbEntity
  8
0
100
AcDbLine
 10
65.1869
 20
2.0
 30
0.0
 11
65.7869
 21
2.0
 31
0.0
  0
LINE
  5
245
330
1D
100
AcDbEntity
  8
0
100
AcDbLine
 10
57.4174
 20
2.0
 30
0.0
 11
57.4174
 21
3.0
 31
0.0
  0
LINE
  5
247
330
1D
100
AcDbEntity
  8
0
100
AcDbLine
 10
56.8175
 20
2.0
 30
0.0
 11
57.4174
 21
2.0
 31
0.0
  0
LINE
  5
24B
330
1D
100
AcDbEntity
  8
0
100
AcDbLine
 10
64.2641
 20
2.0
 30
0.0
 11
65.1869
 21
2.0
 31
0.0
  0
LINE
  5
24C
330
1D
100
AcDbEntity
  8
0
100
AcDbLine
 10
55.7739
 20
2.0
 30
0.0
 11
55.7739
 21
1.0
 31
0.0
  0
LINE
  5
24D
330
1D
100
AcDbEntity
  8
0
100
AcDbLine
 10
67.38
 20
1.96251
 30
0.0
 11
68.628
 21
1.96251
 31
0.0
  0
LINE
  5
24F
330
1D
100
AcDbEntity
  8
0
100
AcDbLine
 10
73.807
 20
2.0
 30
0.0
 11
73.807
 21
1.0
 31
0.0
  0
LINE
  5
251
330
1D
100
AcDbEntity
  8
0
100
AcDbLine
 10
72.924
 20
2.0
 30
0.0
 11
74.324
 21
2.0
 31
0.0
  0
LINE
  5
253
330
1D
100
AcDbEntity
  8
0
100
AcDbLine
 10
70.924
 20
2.0
 30
0.0
 11
71.524
 21
2.0
 31
0.0
  0
LINE
  5
254
330
1D
100
AcDbEntity
  8
0
100
AcDbLine
 10
70.924
 20
2.0
 30
0.0
 11
70.924
 21
3.988248175182
 31
0.0
  0
LINE
  5
255
330
1D
100
AcDbEntity
  8
0
100
AcDbLine
 10
71.524
 20
2.0
 30
0.0
 11
72.924
 21
2.0
 31
0.0
  0
LINE
  5
257
330
1D
100
AcDbEntity
  8
0
100
AcDbLine
 10
68.628
 20
1.96251
 30
0.0
 11
68.85
 21
1.96251
 31
0.0
  0
LINE
  5
259
330
1D
100
AcDbEntity
  8
0
100
AcDbLine
 10
74.924
 20
2.0
 30
0.0
 11
74.924
 21
3.926743055556
 31
0.0
  0
LINE
  5
25A
330
1D
100
AcDbEntity
  8
0
100
AcDbLine
 10
74.324
 20
2.0
 30
0.0
 11
74.924
 21
2.0
 31
0.0
  0
LINE
  5
263
330
1D
100
AcDbEntity
  8
0
100
AcDbLine
 10
78.732
 20
1.0
 30
0.0
 11
80.132
 21
1.0
 31
0.0
  0
LINE
  5
265
330
1D
100
AcDbEntity
  8
0
100
AcDbLine
 10
78.132
 20
1.0
 30
0.0
 11
78.63
 21
1.0
 31
0.0
  0
LINE
  5
266
330
1D
100
AcDbEntity
  8
0
100
AcDbLine
 10
78.132
 20
1.0
 30
0.0
 11
78.732
 21
1.0
 31
0.0
  0
LINE
  5
267
330
1D
100
AcDbEntity
  8
0
100
AcDbLine
 10
78.132
 20
1.0
 30
0.0
 11
78.132
 21
3.44
 31
0.0
  0
LINE
  5
269
330
1D
100
AcDbEntity
  8
0
100
AcDbLine
 10
80.03
 20
1.0
 30
0.0
 11
80.132
 21
1.0
 31
0.0
  0
LINE
  5
26A
330
1D
100
AcDbEntity
  8
0
100
AcDbLine
 10
78.03
 20
1.0
 30
0.0
 11
78.63
 21
1.0
 31
0.0
  0
LINE
  5
26B
330
1D
100
AcDbEntity
  8
0
100
AcDbLine
 10
78.03
 20
1.0
 30
0.0
 11
78.03
 21
1.66251
 31
0.0
  0
LINE
  5
26C
330
1D
100
AcDbEntity
  8
0
100
AcDbLine
 10
78.03
 20
1.0
 30
0.0
 11
78.03
 21
2.619758685446
 31
0.0
  0
LINE
  5
26D
330
1D
100
AcDbEntity
  8
0
100
AcDbLine
 10
78.03
 20
1.66251
 30
0.0
 11
78.03
 21
1.0
 31
0.0
  0
LINE
  5
26E
330
1D
100
AcDbEntity
  8
0
100
AcDbLine
 10
78.63
 20
1.0
 30
0.0
 11
80.03
 21
1.0
 31
0.0
  0
LINE
  5
272
330
1D
100
AcDbEntity
  8
0
100
AcDbLine
 10
52.0923
 20
2.608221354527
 30
0.0
 11
53.4174
 21
2.541109467865
 31
0.0
  0
LINE
  5
273
330
1D
100
AcDbEntity
  8
0
100
AcDbLine
 10
52.0923
 20
3.211913144759
 30
0.0
 11
52.0923
 21
2.0
 31
0.0
  0
LINE
  5
276
330
1D
100
AcDbEntity
  8
0
100
AcDbLine
 10
60.2641
 20
2.24277954393
 30
0.0
 11
60.2641
 21
1.0
 31
0.0
  0
LINE
  5
278
330
1D
100
AcDbEntity
  8
0
100
AcDbLine
 10
53.4174
 20
2.541109467865
 30
0.0
 11
53.4174
 21
2.0
 31
0.0
  0
LINE
  5
27A
330
1D
100
AcDbEntity
  8
0
100
AcDbLine
 10
53.6653
 20
3.0
 30
0.0
 11
54.2653
 21
3.0
 31
0.0
  0
LINE
  5
27B
330
1D
100
AcDbEntity
  8
0
100
AcDbLine
 10
53.6653
 20
3.0
 30
0.0
 11
53.6653
 21
4.430312969525
 31
0.0
  0
LINE
  5
27C
330
1D
100
AcDbEntity
  8
0
100
AcDbLine
 10
57.0653
 20
3.0
 30
0.0
 11
57.6653
 21
3.0
 31
0.0
  0
LINE
  5
27F
330
1D
100
AcDbEntity
  8
0
100
AcDbLine
 10
57.4174
 20
3.0
 30
0.0
 11
57.4174
 21
2.0
 31
0.0
  0
LINE
  5
281
330
1D
100
AcDbEntity
  8
0
100
AcDbLine
 10
55.6653
 20
3.0
 30
0.0
 11
57.0653
 21
3.0
 31
0.0
  0
LINE
  5
283
330
1D
100
AcDbEntity
  8
0
100
AcDbLine
 10
54.2653
 20
3.0
 30
0.0
 11
55.6653
 21
3.0
 31
0.0
  0
LINE
  5
285
330
1D
100
AcDbEntity
  8
0
100
AcDbLine
 10
57.4174
 20
2.963924301766
 30
0.0
 11
57.589
 21
2.955
 31
0.0
  0
LINE
  5
287
330
1D
100
AcDbEntity
  8
0
100
AcDbLine
 10
57.4174
 20
2.486876306197
 30
0.0
 11
57.8
 21
2.472
 31
0.0
  0
LINE
  5
288
330
1D
100
AcDbEntity
  8
0
100
AcDbLine
 10
59.7739
 20
2.258231857814
 30
0.0
 11
60.2641
 21
2.24277954393
 31
0.0
  0
LINE
  5
289
330
1D
100
AcDbEntity
  8
0
100
AcDbLine
 10
59.7739
 20
2.354287096774
 30
0.0
 11
60.2641
 21
2.34219487666
 31
0.0
  0
LINE
  5
28A
330
1D
100
AcDbEntity
  8
0
100
AcDbLine
 10
57.6653
 20
3.0
 30
0.0
 11
57.6653
 21
4.277558430233
 31
0.0
  0
LINE
  5
290
330
1D
100
AcDbEntity
  8
0
100
AcDbLine
 10
59.7739
 20
2.387180263158
 30
0.0
 11
60.2641
 21
2.363530263158
 31
0.0
  0
LINE
  5
291
330
1D
100
AcDbEntity
  8
0
100
AcDbLine
 10
59.7739
 20
2.387180263158
 30
0.0
 11
59.7739
 21
1.0
 31
0.0
  0
LINE
  5
297
330
1D
100
AcDbEntity
  8
0
100
AcDbLine
 10
61.268
 20
2.878
 30
0.0
 11
61.7869
 21
2.864081008584
 31
0.0
  0
LINE
  5
298
330
1D
100
AcDbEntity
  8
0
100
AcDbLine
 10
62.9036
 20
3.0
 30
0.0
 11
63.5036
 21
3.0
 31
0.0
  0
LINE
  5
299
330
1D
100
AcDbEntity
  8
0
100
AcDbLine
 10
62.9036
 20
3.0
 30
0.0
 11
62.9036
 21
5.250982201405
 31
0.0
  0
LINE
  5
29B
330
1D
100
AcDbEntity
  8
0
100
AcDbLine
 10
65.7869
 20
3.0
 30
0.0
 11
65.7869
 21
2.0
 31
0.0
  0
LINE
  5
29D
330
1D
100
AcDbEntity
  8
0
100
AcDbLine
 10
64.9036
 20
3.0
 30
0.0
 11
66.3036
 21
3.0
 31
0.0
  0
LINE
  5
29F
330
1D
100
AcDbEntity
  8
0
100
AcDbLine
 10
63.5036
 20
3.0
 30
0.0
 11
64.9036
 21
3.0
 31
0.0
  0
LINE
  5
2A1
330
1D
100
AcDbEntity
  8
0
100
AcDbLine
 10
60.2641
 20
2.918093692078
 30
0.0
 11
60.2641
 21
1.0
 31
0.0
  0
LINE
  5
2A2
330
1D
100
AcDbEntity
  8
0
100
AcDbLine
 10
59.825
 20
2.926
 30
0.0
 11
60.2641
 21
2.915379906977
 31
0.0
  0
LINE
  5
2A3
330
1D
100
AcDbEntity
  8
0
100
AcDbLine
 10
60.46
 20
2.902
 30
0.0
 11
61.268
 21
2.878
 31
0.0
  0
LINE
  5
2A4
330
1D
100
AcDbEntity
  8
0
100
AcDbLine
 10
59.656
 20
2.927
 30
0.0
 11
59.825
 21
2.926
 31
0.0
  0
LINE
  5
2A5
330
1D
100
AcDbEntity
  8
0
100
AcDbLine
 10
59.656
 20
2.927
 30
0.0
 11
60.46
 21
2.902
 31
0.0
  0
LINE
  5
2A6
330
1D
100
AcDbEntity
  8
0
100
AcDbLine
 10
59.446
 20
2.403
 30
0.0
 11
60.2641
 21
2.363530263158
 31
0.0
  0
LINE
  5
2A7
330
1D
100
AcDbEntity
  8
0
100
AcDbLine
 10
57.8
 20
2.472
 30
0.0
 11
59.446
 21
2.403
 31
0.0
  0
LINE
  5
2A8
330
1D
100
AcDbEntity
  8
0
100
AcDbLine
 10
59.7739
 20
2.371170284304
 30
0.0
 11
60.2641
 21
2.359779075626
 31
0.0
  0
LINE
  5
2AB
330
1D
100
AcDbEntity
  8
0
100
AcDbLine
 10
66.9124
 20
2.078661151258
 30
0.0
 11
66.9124
 21
1.96251
 31
0.0
  0
LINE
  5
2AC
330
1D
100
AcDbEntity
  8
0
100
AcDbLine
 10
66.9036
 20
3.0
 30
0.0
 11
66.9036
 21
5.151015384615
 31
0.0
  0
LINE
  5
2AD
330
1D
100
AcDbEntity
  8
0
100
AcDbLine
 10
66.3036
 20
3.0
 30
0.0
 11
66.9036
 21
3.0
 31
0.0
  0
LINE
  5
2AF
330
1D
100
AcDbEntity
  8
0
100
AcDbLine
 10
68.257
 20
2.186
 30
0.0
 11
68.697
 21
2.188
 31
0.0
  0
LINE
  5
2B1
330
1D
100
AcDbEntity
  8
0
100
AcDbLine
 10
68.85
 20
2.186669565217
 30
0.0
 11
68.85
 21
0.0
 31
0.0
  0
LINE
  5
2B3
330
1D
100
AcDbEntity
  8
0
100
AcDbLine
 10
69.807
 20
2.793348101266
 30
0.0
 11
69.807
 21
1.0
 31
0.0
  0
LINE
  5
2B5
330
1D
100
AcDbEntity
  8
0
100
AcDbLine
 10
69.498
 20
2.794
 30
0.0
 11
70.446
 21
2.792
 31
0.0
  0
LINE
  5
2B6
330
1D
100
AcDbEntity
  8
0
100
AcDbLine
 10
70.446
 20
2.792
 30
0.0
 11
70.924
 21
2.787857885615
 31
0.0
  0
LINE
  5
2B7
330
1D
100
AcDbEntity
  8
0
100
AcDbLine
 10
68.812
 20
2.782
 30
0.0
 11
69.192
 21
2.756
 31
0.0
  0
LINE
  5
2B8
330
1D
100
AcDbEntity
  8
0
100
AcDbLine
 10
68.812
 20
2.782
 30
0.0
 11
69.498
 21
2.794
 31
0.0
  0
LINE
  5
2B9
330
1D
100
AcDbEntity
  8
0
100
AcDbLine
 10
69.192
 20
2.756
 30
0.0
 11
69.807
 21
2.741323325635
 31
0.0
  0
LINE
  5
2BA
330
1D
100
AcDbEntity
  8
0
100
AcDbLine
 10
68.697
 20
2.188
 30
0.0
 11
69.272
 21
2.183
 31
0.0
  0
LINE
  5
2BB
330
1D
100
AcDbEntity
  8
0
100
AcDbLine
 10
69.272
 20
2.183
 30
0.0
 11
69.807
 21
2.175647251309
 31
0.0
  0
LINE
  5
2BC
330
1D
100
AcDbEntity
  8
0
100
AcDbLine
 10
68.257
 20
2.174
 30
0.0
 11
68.85
 21
2.15109063893
 31
0.0
  0
LINE
  5
2BD
330
1D
100
AcDbEntity
  8
0
100
AcDbLine
 10
65.946
 20
2.096
 30
0.0
 11
66.9124
 21
2.078661151258
 31
0.0
  0
LINE
  5
2BF
330
1D
100
AcDbEntity
  8
0
100
AcDbLine
 10
65.7869
 20
2.099802995461
 30
0.0
 11
65.946
 21
2.096
 31
0.0
  0
LINE
  5
2C1
330
1D
100
AcDbEntity
  8
0
100
AcDbLine
 10
52.963
 20
3.204
 30
0.0
 11
53.112
 21
3.186
 31
0.0
  0
LINE
  5
2C2
330
1D
100
AcDbEntity
  8
0
100
AcDbLine
 10
52.963
 20
3.204
 30
0.0
 11
53.6653
 21
3.185992307692
 31
0.0
  0
LINE
  5
2C3
330
1D
100
AcDbEntity
  8
0
100
AcDbLine
 10
53.4174
 20
3.192348717949
 30
0.0
 11
53.4174
 21
2.0
 31
0.0
  0
LINE
  5
2C5
330
1D
100
AcDbEntity
  8
0
100
AcDbLine
 10
53.112
 20
3.186
 30
0.0
 11
53.4174
 21
3.171333898305
 31
0.0
  0
LINE
  5
2C7
330
1D
100
AcDbEntity
  8
0
100
AcDbLine
 10
53.584
 20
3.729
 30
0.0
 11
53.6653
 21
3.724294533762
 31
0.0
  0
LINE
  5
2C8
330
1D
100
AcDbEntity
  8
0
100
AcDbLine
 10
53.584
 20
3.729
 30
0.0
 11
53.6653
 21
3.727442086586
 31
0.0
  0
LINE
  5
2C9
330
1D
100
AcDbEntity
  8
0
100
AcDbLine
 10
53.584
 20
3.729
 30
0.0
 11
53.6653
 21
3.726866991758
 31
0.0
  0
LINE
  5
2CB
330
1D
100
AcDbEntity
  8
0
100
AcDbLine
 10
55.75
 20
4.402
 30
0.0
 11
57.275
 21
4.315
 31
0.0
  0
LINE
  5
2CE
330
1D
100
AcDbEntity
  8
0
100
AcDbLine
 10
53.087
 20
4.347
 30
0.0
 11
53.6653
 21
4.284450344149
 31
0.0
  0
LINE
  5
2CF
330
1D
100
AcDbEntity
  8
0
100
AcDbLine
 10
53.6653
 20
4.430312969525
 30
0.0
 11
53.6653
 21
3.0
 31
0.0
  0
LINE
  5
2D2
330
1D
100
AcDbEntity
  8
0
100
AcDbLine
 10
54.479
 20
4.443
 30
0.0
 11
55.75
 21
4.402
 31
0.0
  0
LINE
  5
2D3
330
1D
100
AcDbEntity
  8
0
100
AcDbLine
 10
53.068
 20
4.421
 30
0.0
 11
53.087
 21
4.347
 31
0.0
  0
LINE
  5
2D4
330
1D
100
AcDbEntity
  8
0
100
AcDbLine
 10
53.068
 20
4.421
 30
0.0
 11
54.479
 21
4.443
 31
0.0
  0
LINE
  5
2DD
330
1D
100
AcDbEntity
  8
0
100
AcDbLine
 10
61.087
 20
3.666
 30
0.0
 11
62.104
 21
3.673
 31
0.0
  0
LINE
  5
2DE
330
1D
100
AcDbEntity
  8
0
100
AcDbLine
 10
61.7869
 20
3.67081740413
 30
0.0
 11
61.7869
 21
2.0
 31
0.0
  0
LINE
  5
2E0
330
1D
100
AcDbEntity
  8
0
100
AcDbLine
 10
61.087
 20
3.627
 30
0.0
 11
61.77
 21
3.587
 31
0.0
  0
LINE
  5
2E1
330
1D
100
AcDbEntity
  8
0
100
AcDbLine
 10
57.6653
 20
4.277558430233
 30
0.0
 11
57.6653
 21
3.0
 31
0.0
  0
LINE
  5
2E4
330
1D
100
AcDbEntity
  8
0
100
AcDbLine
 10
58.307
 20
4.216
 30
0.0
 11
58.489
 21
4.13
 31
0.0
  0
LINE
  5
2E5
330
1D
100
AcDbEntity
  8
0
100
AcDbLine
 10
57.894
 20
4.099
 30
0.0
 11
58.489
 21
4.13
 31
0.0
  0
LINE
  5
2E6
330
1D
100
AcDbEntity
  8
0
100
AcDbLine
 10
57.6653
 20
4.100878010949
 30
0.0
 11
57.894
 21
4.099
 31
0.0
  0
LINE
  5
2E7
330
1D
100
AcDbEntity
  8
0
100
AcDbLine
 10
62.104
 20
3.673
 30
0.0
 11
62.9036
 21
3.659398055893
 31
0.0
  0
LINE
  5
2EB
330
1D
100
AcDbEntity
  8
0
100
AcDbLine
 10
70.924
 20
3.988248175182
 30
0.0
 11
70.924
 21
2.0
 31
0.0
  0
LINE
  5
2EC
330
1D
100
AcDbEntity
  8
0
100
AcDbLine
 10
70.548
 20
4.5
 30
0.0
 11
71.148
 21
4.5
 31
0.0
  0
LINE
  5
2ED
330
1D
100
AcDbEntity
  8
0
100
AcDbLine
 10
70.548
 20
4.5
 30
0.0
 11
70.548
 21
6.19506013986
 31
0.0
  0
LINE
  5
2EE
330
1D
100
AcDbEntity
  8
0
100
AcDbLine
 10
71.148
 20
4.5
 30
0.0
 11
72.548
 21
4.5
 31
0.0
  0
LINE
  5
2F1
330
1D
100
AcDbEntity
  8
0
100
AcDbLine
 10
72.548
 20
4.5
 30
0.0
 11
73.948
 21
4.5
 31
0.0
  0
LINE
  5
2F4
330
1D
100
AcDbEntity
  8
0
100
AcDbLine
 10
74.548
 20
4.5
 30
0.0
 11
74.548
 21
6.168475170399
 31
0.0
  0
LINE
  5
2F5
330
1D
100
AcDbEntity
  8
0
100
AcDbLine
 10
73.948
 20
4.5
 30
0.0
 11
74.548
 21
4.5
 31
0.0
  0
LINE
  5
2F7
330
1D
100
AcDbEntity
  8
0
100
AcDbLine
 10
72.75
 20
4.01
 30
0.0
 11
73.971
 21
3.982
 31
0.0
  0
LINE
  5
2F8
330
1D
100
AcDbEntity
  8
0
100
AcDbLine
 10
73.971
 20
3.982
 30
0.0
 11
74.905
 21
3.934
 31
0.0
  0
LINE
  5
2F9
330
1D
100
AcDbEntity
  8
0
100
AcDbLine
 10
71.372
 20
4.006
 30
0.0
 11
72.75
 21
4.01
 31
0.0
  0
LINE
  5
2FA
330
1D
100
AcDbEntity
  8
0
100
AcDbLine
 10
70.413
 20
3.968
 30
0.0
 11
71.372
 21
4.006
 31
0.0
  0
LINE
  5
2FB
330
1D
100
AcDbEntity
  8
0
100
AcDbLine
 10
70.195
 20
3.887
 30
0.0
 11
70.924
 21
3.840632508834
 31
0.0
  0
LINE
  5
2FC
330
1D
100
AcDbEntity
  8
0
100
AcDbLine
 10
70.195
 20
3.887
 30
0.0
 11
70.413
 21
3.968
 31
0.0
  0
LINE
  5
2FE
330
1D
100
AcDbEntity
  8
0
100
AcDbLine
 10
57.275
 20
4.315
 30
0.0
 11
58.307
 21
4.216
 31
0.0
  0
LINE
  5
301
330
1D
100
AcDbEntity
  8
0
100
AcDbLine
 10
55.8987
 20
5.0
 30
0.0
 11
56.4987
 21
5.0
 31
0.0
  0
LINE
  5
302
330
1D
100
AcDbEntity
  8
0
100
AcDbLine
 10
55.8987
 20
5.0
 30
0.0
 11
55.8987
 21
6.350968961864
 31
0.0
  0
LINE
  5
303
330
1D
100
AcDbEntity
  8
0
100
AcDbLine
 10
59.8987
 20
5.0
 30
0.0
 11
59.8987
 21
6.220411755725
 31
0.0
  0
LINE
  5
304
330
1D
100
AcDbEntity
  8
0
100
AcDbLine
 10
59.2987
 20
5.0
 30
0.0
 11
59.8987
 21
5.0
 31
0.0
  0
LINE
  5
306
330
1D
100
AcDbEntity
  8
0
100
AcDbLine
 10
57.8987
 20
5.0
 30
0.0
 11
59.2987
 21
5.0
 31
0.0
  0
LINE
  5
308
330
1D
100
AcDbEntity
  8
0
100
AcDbLine
 10
56.4987
 20
5.0
 30
0.0
 11
57.8987
 21
5.0
 31
0.0
  0
LINE
  5
30E
330
1D
100
AcDbEntity
  8
0
100
AcDbLine
 10
62.9036
 20
5.250982201405
 30
0.0
 11
62.9036
 21
3.0
 31
0.0
  0
LINE
  5
311
330
1D
100
AcDbEntity
  8
0
100
AcDbLine
 10
64.7
 20
5.268
 30
0.0
 11
65.921
 21
5.229
 31
0.0
  0
LINE
  5
312
330
1D
100
AcDbEntity
  8
0
100
AcDbLine
 10
63.684
 20
5.272
 30
0.0
 11
64.7
 21
5.268
 31
0.0
  0
LINE
  5
313
330
1D
100
AcDbEntity
  8
0
100
AcDbLine
 10
62.83
 20
5.249
 30
0.0
 11
63.684
 21
5.272
 31
0.0
  0
LINE
  5
314
330
1D
100
AcDbEntity
  8
0
100
AcDbLine
 10
61.916
 20
5.156
 30
0.0
 11
62.83
 21
5.249
 31
0.0
  0
LINE
  5
315
330
1D
100
AcDbEntity
  8
0
100
AcDbLine
 10
61.916
 20
5.156
 30
0.0
 11
62.894
 21
5.022
 31
0.0
  0
LINE
  5
316
330
1D
100
AcDbEntity
  8
0
100
AcDbLine
 10
59.8987
 20
5.987014712919
 30
0.0
 11
60.052
 21
5.996
 31
0.0
  0
LINE
  5
31D
330
1D
100
AcDbEntity
  8
0
100
AcDbLine
 10
66.856
 20
5.162
 30
0.0
 11
67.298
 21
5.06
 31
0.0
  0
LINE
  5
31E
330
1D
100
AcDbEntity
  8
0
100
AcDbLine
 10
66.9124
 20
5.001809454545
 30
0.0
 11
66.9124
 21
5.148984615385
 31
0.0
  0
LINE
  5
320
330
1D
100
AcDbEntity
  8
0
100
AcDbLine
 10
66.9124
 20
5.148984615385
 30
0.0
 11
66.9124
 21
5.001809454545
 31
0.0
  0
LINE
  5
321
330
1D
100
AcDbEntity
  8
0
100
AcDbLine
 10
66.9036
 20
5.151015384615
 30
0.0
 11
66.9036
 21
3.0
 31
0.0
  0
LINE
  5
322
330
1D
100
AcDbEntity
  8
0
100
AcDbLine
 10
66.9036
 20
5.000481454545
 30
0.0
 11
67.298
 21
5.06
 31
0.0
  0
LINE
  5
323
330
1D
100
AcDbEntity
  8
0
100
AcDbLine
 10
65.921
 20
5.229
 30
0.0
 11
66.856
 21
5.162
 31
0.0
  0
LINE
  5
327
330
1D
100
AcDbEntity
  8
0
100
AcDbLine
 10
59.8987
 20
6.220411755725
 30
0.0
 11
59.8987
 21
5.0
 31
0.0
  0
LINE
  5
328
330
1D
100
AcDbEntity
  8
0
100
AcDbLine
 10
55.327
 20
6.168
 30
0.0
 11
55.328
 21
6.302
 31
0.0
  0
LINE
  5
329
330
1D
100
AcDbEntity
  8
0
100
AcDbLine
 10
55.327
 20
6.168
 30
0.0
 11
55.8987
 21
6.075121293375
 31
0.0
  0
LINE
  5
32A
330
1D
100
AcDbEntity
  8
0
100
AcDbLine
 10
59.8987
 20
6.220411755725
 30
0.0
 11
60.386
 21
6.117
 31
0.0
  0
LINE
  5
32E
330
1D
100
AcDbEntity
  8
0
100
AcDbLine
 10
70.548
 20
6.19506013986
 30
0.0
 11
70.548
 21
4.5
 31
0.0
  0
LINE
  5
32F
330
1D
100
AcDbEntity
  8
0
100
AcDbLine
 10
74.548
 20
6.168475170399
 30
0.0
 11
74.548
 21
4.5
 31
0.0
  0
LINE
  5
332
330
1D
100
AcDbEntity
  8
0
100
AcDbLine
 10
74.029
 20
6.218
 30
0.0
 11
75.056
 21
6.12
 31
0.0
  0
LINE
  5
333
330
1D
100
AcDbEntity
  8
0
100
AcDbLine
 10
70.679
 20
6.211
 30
0.0
 11
71.566
 21
6.253
 31
0.0
  0
LINE
  5
334
330
1D
100
AcDbEntity
  8
0
100
AcDbLine
 10
69.964
 20
6.124
 30
0.0
 11
70.679
 21
6.211
 31
0.0
  0
LINE
  5
335
330
1D
100
AcDbEntity
  8
0
100
AcDbLine
 10
69.823
 20
6.015
 30
0.0
 11
69.964
 21
6.124
 31
0.0
  0
LINE
  5
336
330
1D
100
AcDbEntity
  8
0
100
AcDbLine
 10
69.823
 20
6.015
 30
0.0
 11
70.548
 21
5.881756756757
 31
0.0
  0
LINE
  5
337
330
1D
100
AcDbEntity
  8
0
100
AcDbLine
 10
60.052
 20
5.996
 30
0.0
 11
60.386
 21
6.117
 31
0.0
  0
LINE
  5
33D
330
1D
100
AcDbEntity
  8
0
100
AcDbLine
 10
74.924
 20
3.926743055556
 30
0.0
 11
74.924
 21
2.0
 31
0.0
  0
LINE
  5
33E
330
1D
100
AcDbEntity
  8
0
100
AcDbLine
 10
74.905
 20
3.934
 30
0.0
 11
75.193
 21
3.824
 31
0.0
  0
LINE
  5
33F
330
1D
100
AcDbEntity
  8
0
100
AcDbLine
 10
74.924
 20
3.807568935428
 30
0.0
 11
75.193
 21
3.824
 31
0.0
  0
LINE
  5
341
330
1D
100
AcDbEntity
  8
0
100
AcDbLine
 10
78.03
 20
2.619758685446
 30
0.0
 11
78.03
 21
1.0
 31
0.0
  0
LINE
  5
342
330
1D
100
AcDbEntity
  8
0
100
AcDbLine
 10
77.951
 20
3.392
 30
0.0
 11
78.132
 21
3.38901320132
 31
0.0
  0
LINE
  5
343
330
1D
100
AcDbEntity
  8
0
100
AcDbLine
 10
78.132
 20
3.44
 30
0.0
 11
78.132
 21
1.0
 31
0.0
  0
LINE
  5
344
330
1D
100
AcDbEntity
  8
0
100
AcDbLine
 10
78.026
 20
3.44
 30
0.0
 11
78.626
 21
3.44
 31
0.0
  0
LINE
  5
345
330
1D
100
AcDbEntity
  8
0
100
AcDbLine
 10
78.026
 20
3.44
 30
0.0
 11
78.026
 21
5.165959183673
 31
0.0
  0
LINE
  5
34E
330
1D
100
AcDbEntity
  8
0
100
AcDbLine
 10
78.626
 20
3.44
 30
0.0
 11
80.026
 21
3.44
 31
0.0
  0
LINE
  5
352
330
1D
100
AcDbEntity
  8
0
100
AcDbLine
 10
77.252
 20
3.428
 30
0.0
 11
77.951
 21
3.392
 31
0.0
  0
LINE
  5
353
330
1D
100
AcDbEntity
  8
0
100
AcDbLine
 10
77.252
 20
3.428
 30
0.0
 11
78.026
 21
3.456991289199
 31
0.0
  0
LINE
  5
356
330
1D
100
AcDbEntity
  8
0
100
AcDbLine
 10
77.527
 20
4.966
 30
0.0
 11
78.026
 21
4.929357810414
 31
0.0
  0
LINE
  5
357
330
1D
100
AcDbEntity
  8
0
100
AcDbLine
 10
77.228
 20
5.071
 30
0.0
 11
77.706
 21
5.148
 31
0.0
  0
LINE
  5
358
330
1D
100
AcDbEntity
  8
0
100
AcDbLine
 10
77.228
 20
5.071
 30
0.0
 11
77.527
 21
4.966
 31
0.0
  0
LINE
  5
359
330
1D
100
AcDbEntity
  8
0
100
AcDbLine
 10
78.026
 20
5.165959183673
 30
0.0
 11
78.026
 21
3.44
 31
0.0
  0
LINE
  5
35E
330
1D
100
AcDbEntity
  8
0
100
AcDbLine
 10
77.706
 20
5.148
 30
0.0
 11
78.686
 21
5.203
 31
0.0
  0
LINE
  5
361
330
1D
100
AcDbEntity
  8
0
100
AcDbLine
 10
75.131
 20
5.906
 30
0.0
 11
75.399
 21
6.011
 31
0.0
  0
LINE
  5
363
330
1D
100
AcDbEntity
  8
0
100
AcDbLine
 10
75.056
 20
6.12
 30
0.0
 11
75.399
 21
6.011
 31
0.0
  0
LINE
  5
366
330
1D
100
AcDbEntity
  8
0
100
AcDbLine
 10
78.686
 20
5.203
 30
0.0
 11
80.0
 21
5.224
 31
0.0
  0
LINE
  5
367
330
1D
100
AcDbEntity
  8
0
100
AcDbLine
 10
74.548
 20
5.858888888889
 30
0.0
 11
75.131
 21
5.906
 31
0.0
  0
LINE
  5
369
330
1D
100
AcDbEntity
  8
0
100
AcDbLine
 10
55.8987
 20
6.350968961864
 30
0.0
 11
55.8987
 21
5.0
 31
0.0
  0
LINE
  5
36B
330
1D
100
AcDbEntity
  8
0
100
AcDbLine
 10
55.328
 20
6.302
 30
0.0
 11
56.272
 21
6.383
 31
0.0
  0
LINE
  5
36D
330
1D
100
AcDbEntity
  8
0
100
AcDbLine
 10
56.272
 20
6.383
 30
0.0
 11
57.8
 21
6.381
 31
0.0
  0
LINE
  5
36E
330
1D
100
AcDbEntity
  8
0
100
AcDbLine
 10
57.8
 20
6.381
 30
0.0
 11
58.858
 21
6.333
 31
0.0
  0
LINE
  5
36F
330
1D
100
AcDbEntity
  8
0
100
AcDbLine
 10
63.4059
 20
7.0
 30
0.0
 11
64.0059
 21
7.0
 31
0.0
  0
LINE
  5
370
330
1D
100
AcDbEntity
  8
0
100
AcDbLine
 10
63.4059
 20
7.0
 30
0.0
 11
63.4059
 21
8.737747293447
 31
0.0
  0
LINE
  5
372
330
1D
100
AcDbEntity
  8
0
100
AcDbLine
 10
67.406
 20
7.0
 30
0.0
 11
67.406
 21
8.639732441472
 31
0.0
  0
LINE
  5
373
330
1D
100
AcDbEntity
  8
0
100
AcDbLine
 10
66.8059
 20
7.0
 30
0.0
 11
67.406
 21
7.0
 31
0.0
  0
LINE
  5
375
330
1D
100
AcDbEntity
  8
0
100
AcDbLine
 10
65.4059
 20
7.0
 30
0.0
 11
66.8059
 21
7.0
 31
0.0
  0
LINE
  5
377
330
1D
100
AcDbEntity
  8
0
100
AcDbLine
 10
64.0059
 20
7.0
 30
0.0
 11
65.4059
 21
7.0
 31
0.0
  0
LINE
  5
379
330
1D
100
AcDbEntity
  8
0
100
AcDbLine
 10
63.4059
 20
8.135442836676
 30
0.0
 11
63.4059
 21
8.737747293447
 31
0.0
  0
LINE
  5
37A
330
1D
100
AcDbEntity
  8
0
100
AcDbLine
 10
59.731
 20
6.256
 30
0.0
 11
60.386
 21
6.117
 31
0.0
  0
LINE
  5
37B
330
1D
100
AcDbEntity
  8
0
100
AcDbLine
 10
58.858
 20
6.333
 30
0.0
 11
59.731
 21
6.256
 31
0.0
  0
LINE
  5
37C
330
1D
100
AcDbEntity
  8
0
100
AcDbLine
 10
62.953
 20
8.188
 30
0.0
 11
63.4059
 21
8.135442836676
 31
0.0
  0
LINE
  5
37E
330
1D
100
AcDbEntity
  8
0
100
AcDbLine
 10
78.026
 20
7.0
 30
0.0
 11
78.626
 21
7.0
 31
0.0
  0
LINE
  5
37F
330
1D
100
AcDbEntity
  8
0
100
AcDbLine
 10
78.026
 20
7.0
 30
0.0
 11
78.026
 21
8.623010582011
 31
0.0
  0
LINE
  5
385
330
1D
100
AcDbEntity
  8
0
100
AcDbLine
 10
78.626
 20
7.0
 30
0.0
 11
80.026
 21
7.0
 31
0.0
  0
LINE
  5
387
330
1D
100
AcDbEntity
  8
0
100
AcDbLine
 10
78.026
 20
8.168714821764
 30
0.0
 11
78.026
 21
8.44
 31
0.0
  0
LINE
  5
388
330
1D
100
AcDbEntity
  8
0
100
AcDbLine
 10
78.026
 20
8.168714821764
 30
0.0
 11
78.026
 21
8.623010582011
 31
0.0
  0
LINE
  5
389
330
1D
100
AcDbEntity
  8
0
100
AcDbLine
 10
72.6
 20
6.262
 30
0.0
 11
74.029
 21
6.218
 31
0.0
  0
LINE
  5
38A
330
1D
100
AcDbEntity
  8
0
100
AcDbLine
 10
67.406
 20
8.186565081839
 30
0.0
 11
67.926
 21
8.281
 31
0.0
  0
LINE
  5
38B
330
1D
100
AcDbEntity
  8
0
100
AcDbLine
 10
71.566
 20
6.253
 30
0.0
 11
72.6
 21
6.262
 31
0.0
  0
LINE
  5
38F
330
1D
100
AcDbEntity
  8
0
100
AcDbLine
 10
47.596
 20
8.266
 30
0.0
 11
47.7771
 21
8.24163989239
 31
0.0
  0
LINE
  5
393
330
1D
100
AcDbEntity
  8
0
100
AcDbLine
 10
31.742
 20
8.383
 30
0.0
 11
32.1431
 21
8.299870466321
 31
0.0
  0
LINE
  5
394
330
1D
100
AcDbEntity
  8
0
100
AcDbLine
 10
9.442
 20
8.375
 30
0.0
 11
15.23
 21
7.023
 31
0.0
  0
LINE
  5
395
330
1D
100
AcDbEntity
  8
0
100
AcDbLine
 10
36.564
 20
8.325
 30
0.0
 11
37.099
 21
8.094
 31
0.0
  0
LINE
  5
396
330
1D
100
AcDbEntity
  8
0
100
AcDbLine
 10
36.1431
 20
8.398827217742
 30
0.0
 11
36.564
 21
8.325
 31
0.0
  0
LINE
  5
397
330
1D
100
AcDbEntity
  8
0
100
AcDbLine
 10
36.1431
 20
8.398827217742
 30
0.0
 11
36.1431
 21
7.0
 31
0.0
  0
LINE
  5
399
330
1D
100
AcDbEntity
  8
0
100
AcDbLine
 10
51.7771
 20
8.480092820248
 30
0.0
 11
51.7771
 21
7.0
 31
0.0
  0
LINE
  5
39A
330
1D
100
AcDbEntity
  8
0
100
AcDbLine
 10
52.044
 20
8.459
 30
0.0
 11
52.243
 21
8.247
 31
0.0
  0
LINE
  5
39B
330
1D
100
AcDbEntity
  8
0
100
AcDbLine
 10
47.132
 20
8.439
 30
0.0
 11
47.228
 21
8.608
 31
0.0
  0
LINE
  5
39C
330
1D
100
AcDbEntity
  8
0
100
AcDbLine
 10
47.132
 20
8.439
 30
0.0
 11
47.596
 21
8.266
 31
0.0
  0
LINE
  5
39E
330
1D
100
AcDbEntity
  8
0
100
AcDbLine
 10
51.1771
 20
8.52751017562
 30
0.0
 11
52.044
 21
8.459
 31
0.0
  0
LINE
  5
39F
330
1D
100
AcDbEntity
  8
0
100
AcDbLine
 10
35.572
 20
8.499
 30
0.0
 11
36.564
 21
8.325
 31
0.0
  0
LINE
  5
3A1
330
1D
100
AcDbEntity
  8
0
100
AcDbLine
 10
32.1431
 20
8.679935754986
 30
0.0
 11
32.1431
 21
7.0
 31
0.0
  0
LINE
  5
3A4
330
1D
100
AcDbEntity
  8
0
100
AcDbLine
 10
47.7771
 20
8.699322775424
 30
0.0
 11
47.7771
 21
7.0
 31
0.0
  0
LINE
  5
3A6
330
1D
100
AcDbEntity
  8
0
100
AcDbLine
 10
47.228
 20
8.608
 30
0.0
 11
48.172
 21
8.765
 31
0.0
  0
LINE
  5
3A7
330
1D
100
AcDbEntity
  8
0
100
AcDbLine
 10
34.3
 20
8.633
 30
0.0
 11
35.572
 21
8.499
 31
0.0
  0
LINE
  5
3A9
330
1D
100
AcDbEntity
  8
0
100
AcDbLine
 10
48.172
 20
8.765
 30
0.0
 11
48.856160821491
 21
8.710931505326
 31
0.0
  0
LINE
  5
3AA
330
1D
100
AcDbEntity
  8
0
100
AcDbLine
 10
32.653
 20
8.701
 30
0.0
 11
34.3
 21
8.633
 31
0.0
  0
LINE
  5
3AB
330
1D
100
AcDbEntity
  8
0
100
AcDbLine
 10
31.951
 20
8.672
 30
0.0
 11
32.653
 21
8.701
 31
0.0
  0
LINE
  5
3AC
330
1D
100
AcDbEntity
  8
0
100
AcDbLine
 10
31.561
 20
8.595
 30
0.0
 11
31.742
 21
8.383
 31
0.0
  0
LINE
  5
3AD
330
1D
100
AcDbEntity
  8
0
100
AcDbLine
 10
31.561
 20
8.595
 30
0.0
 11
31.951
 21
8.672
 31
0.0
  0
LINE
  5
3AE
330
1D
100
AcDbEntity
  8
0
100
AcDbLine
 10
78.026
 20
8.44
 30
0.0
 11
78.026
 21
8.168714821764
 31
0.0
  0
LINE
  5
3AF
330
1D
100
AcDbEntity
  8
0
100
AcDbLine
 10
78.026
 20
8.623010582011
 30
0.0
 11
78.026
 21
8.168714821764
 31
0.0
  0
LINE
  5
3B0
330
1D
100
AcDbEntity
  8
0
100
AcDbLine
 10
78.026
 20
8.623010582011
 30
0.0
 11
78.026
 21
7.0
 31
0.0
  0
LINE
  5
3B1
330
1D
100
AcDbEntity
  8
0
100
AcDbLine
 10
77.544
 20
8.521
 30
0.0
 11
78.489
 21
8.721
 31
0.0
  0
LINE
  5
3B2
330
1D
100
AcDbEntity
  8
0
100
AcDbLine
 10
67.92
 20
8.479
 30
0.0
 11
67.926
 21
8.281
 31
0.0
  0
LINE
  5
3B4
330
1D
100
AcDbEntity
  8
0
100
AcDbLine
 10
63.4059
 20
8.737747293447
 30
0.0
 11
63.4059
 21
8.135442836676
 31
0.0
  0
LINE
  5
3B5
330
1D
100
AcDbEntity
  8
0
100
AcDbLine
 10
63.4059
 20
8.737747293447
 30
0.0
 11
63.4059
 21
7.0
 31
0.0
  0
LINE
  5
3B6
330
1D
100
AcDbEntity
  8
0
100
AcDbLine
 10
66.37
 20
8.791
 30
0.0
 11
67.322
 21
8.666
 31
0.0
  0
LINE
  5
3B7
330
1D
100
AcDbEntity
  8
0
100
AcDbLine
 10
67.406
 20
8.639732441472
 30
0.0
 11
67.406
 21
7.0
 31
0.0
  0
LINE
  5
3BB
330
1D
100
AcDbEntity
  8
0
100
AcDbLine
 10
78.489
 20
8.721
 30
0.0
 11
80.0
 21
8.799
 31
0.0
  0
LINE
  5
3BC
330
1D
100
AcDbEntity
  8
0
100
AcDbLine
 10
67.322
 20
8.666
 30
0.0
 11
67.92
 21
8.479
 31
0.0
  0
LINE
  5
3BE
330
1D
100
AcDbEntity
  8
0
100
AcDbLine
 10
62.915
 20
8.686
 30
0.0
 11
63.4059
 21
8.737747293447
 31
0.0
  0
LINE
  5
3BF
330
1D
100
AcDbEntity
  8
0
100
AcDbLine
 10
62.915
 20
8.686
 30
0.0
 11
64.319
 21
8.834
 31
0.0
  0
LINE
  5
3C1
330
1D
100
AcDbEntity
  8
0
100
AcDbLine
 10
64.319
 20
8.834
 30
0.0
 11
65.2
 21
8.846
 31
0.0
  0
LINE
  5
3C3
330
1D
100
AcDbEntity
  8
0
100
AcDbLine
 10
65.2
 20
8.846
 30
0.0
 11
66.37
 21
8.791
 31
0.0
  0
LINE
  5
3C8
330
1D
100
AcDbEntity
  8
0
100
AcDbLine
 10
62.4
 20
8.438
 30
0.0
 11
62.953
 21
8.188
 31
0.0
  0
LINE
  5
3C9
330
1D
100
AcDbEntity
  8
0
100
AcDbLine
 10
62.4
 20
8.438
 30
0.0
 11
62.915
 21
8.686
 31
0.0
  0
LINE
  5
3CA
330
1D
100
AcDbEntity
  8
0
100
AcDbLine
 10
6.105
 20
9.443
 30
0.0
 11
9.442
 21
8.375
 31
0.0
  0
LINE
  5
3CB
330
1D
100
AcDbEntity
  8
0
100
AcDbLine
 10
77.511
 20
8.275
 30
0.0
 11
78.026
 21
8.168714821764
 31
0.0
  0
LINE
  5
3CC
330
1D
100
AcDbEntity
  8
0
100
AcDbLine
 10
77.511
 20
8.275
 30
0.0
 11
77.544
 21
8.521
 31
0.0
  0
LINE
  5
3CD
330
1D
100
AcDbEntity
  8
0
100
AcDbLine
 10
4.719
 20
9.982
 30
0.0
 11
6.105
 21
9.443
 31
0.0
  0
LINE
  5
73C
330
1D
100
AcDbEntity
  8
0
100
AcDbLine
 10
3.735
 20
10.412
 30
0.0
 11
4.719
 21
9.982
 31
0.0
  0
LINE
  5
73E
330
1D
100
AcDbEntity
  8
0
100
AcDbLine
 10
1.969
 20
11.694
 30
0.0
 11
2.295
 21
11.294
 31
0.0
  0
LINE
  5
741
330
1D
100
AcDbEntity
  8
0
100
AcDbLine
 10
2.295
 20
11.294
 30
0.0
 11
3.735
 21
10.412
 31
0.0
  0
LINE
  5
749
330
1D
100
AcDbEntity
  8
0
100
AcDbLine
 10
20.693
 20
10.976
 30
0.0
 11
24.064
 21
11.01
 31
0.0
  0
LINE
  5
74A
330
1D
100
AcDbEntity
  8
0
100
AcDbLine
 10
48.351
 20
10.996
 30
0.0
 11
55.737
 21
10.987
 31
0.0
  0
LINE
  5
74B
330
1D
100
AcDbEntity
  8
0
100
AcDbLine
 10
55.737
 20
10.987
 30
0.0
 11
67.845
 21
10.98
 31
0.0
  0
LINE
  5
74C
330
1D
100
AcDbEntity
  8
0
100
AcDbLine
 10
43.084
 20
11.004
 30
0.0
 11
48.351
 21
10.996
 31
0.0
  0
LINE
  5
753
330
1D
100
AcDbEntity
  8
0
100
AcDbLine
 10
36.477
 20
11.017
 30
0.0
 11
43.084
 21
11.004
 31
0.0
  0
LINE
  5
754
330
1D
100
AcDbEntity
  8
0
100
AcDbLine
 10
17.927
 20
10.922
 30
0.0
 11
20.693
 21
10.976
 31
0.0
  0
LINE
  5
757
330
1D
100
AcDbEntity
  8
0
100
AcDbLine
 10
0.989
 20
13.754
 30
0.0
 11
1.969
 21
11.694
 31
0.0
  0
LINE
  5
758
330
1D
100
AcDbEntity
  8
0
100
AcDbLine
 10
0.236
 20
34.325
 30
0.0
 11
0.281
 21
34.735
 31
0.0
  0
LINE
  5
759
330
1D
100
AcDbEntity
  8
0
100
AcDbLine
 10
0.236
 20
34.325
 30
0.0
 11
0.989
 21
13.754
 31
0.0
  0
LINE
  5
75A
330
1D
100
AcDbEntity
  8
0
100
AcDbLine
 10
0.507
 20
35.109
 30
0.0
 11
0.655
 21
35.225
 31
0.0
  0
LINE
  5
75B
330
1D
100
AcDbEntity
  8
0
100
AcDbLine
 10
0.281
 20
34.735
 30
0.0
 11
0.507
 21
35.109
 31
0.0
  0
LINE
  5
75C
330
1D
100
AcDbEntity
  8
0
100
AcDbLine
 10
22.135
 20
39.92
 30
0.0
 11
34.766
 21
41.736
 31
0.0
  0
LINE
  5
75D
330
1D
100
AcDbEntity
  8
0
100
AcDbLine
 10
40.7719
 20
186.583
 30
0.0
 11
40.8627
 21
186.41
 31
0.0
  0
LINE
  5
75E
330
1D
100
AcDbEntity
  8
0
100
AcDbLine
 10
40.8627
 20
186.41
 30
0.0
 11
40.9276
 21
186.151
 31
0.0
  0
LINE
  5
75F
330
1D
100
AcDbEntity
  8
0
100
AcDbLine
 10
42.931
 20
185.279
 30
0.0
 11
53.0138
 21
184.85
 31
0.0
  0
LINE
  5
760
330
1D
100
AcDbEntity
  8
0
100
AcDbLine
 10
41.1761
 20
185.804
 30
0.0
 11
41.5175
 21
185.55
 31
0.0
  0
LINE
  5
761
330
1D
100
AcDbEntity
  8
0
100
AcDbLine
 10
41.5175
 20
185.55
 30
0.0
 11
41.82
 21
185.443
 31
0.0
  0
LINE
  5
762
330
1D
100
AcDbEntity
  8
0
100
AcDbLine
 10
41.82
 20
185.443
 30
0.0
 11
41.9438
 21
185.39
 31
0.0
  0
LINE
  5
763
330
1D
100
AcDbEntity
  8
0
100
AcDbLine
 10
41.9438
 20
185.39
 30
0.0
 11
42.4029
 21
185.313
 31
0.0
  0
LINE
  5
764
330
1D
100
AcDbEntity
  8
0
100
AcDbLine
 10
42.4029
 20
185.313
 30
0.0
 11
42.931
 21
185.279
 31
0.0
  0
LINE
  5
765
330
1D
100
AcDbEntity
  8
0
100
AcDbLine
 10
40.9276
 20
186.151
 30
0.0
 11
41.08704227221
 21
185.976204795918
 31
0.0
  0
LINE
  5
766
330
1D
100
AcDbEntity
  8
0
100
AcDbLine
 10
41.4117
 20
201.0
 30
0.0
 11
42.4069
 21
201.0
 31
0.0
  0
LINE
  5
767
330
1D
100
AcDbEntity
  8
0
100
AcDbLine
 10
40.693
 20
187.565
 30
0.0
 11
40.7
 21
187.033
 31
0.0
  0
LINE
  5
768
330
1D
100
AcDbEntity
  8
0
100
AcDbLine
 10
40.3666
 20
201.0
 30
0.0
 11
40.708
 21
201.0
 31
0.0
  0
LINE
  5
769
330
1D
100
AcDbEntity
  8
0
100
AcDbLine
 10
40.0182
 20
201.0
 30
0.0
 11
40.3666
 21
201.0
 31
0.0
  0
LINE
  5
76A
330
1D
100
AcDbEntity
  8
0
100
AcDbLine
 10
39.9813
 20
201.0
 30
0.0
 11
40.693
 21
187.565
 31
0.0
  0
LINE
  5
76B
330
1D
100
AcDbEntity
  8
0
100
AcDbLine
 10
40.708
 20
201.0
 30
0.0
 11
41.4117
 21
201.0
 31
0.0
  0
LINE
  5
76C
330
1D
100
AcDbEntity
  8
0
100
AcDbLine
 10
46.1662
 20
201.0
 30
0.0
 11
47.1065
 21
201.0
 31
0.0
  0
LINE
  5
76D
330
1D
100
AcDbEntity
  8
0
100
AcDbLine
 10
43.7705
 20
201.0
 30
0.0
 11
45.2478
 21
201.0
 31
0.0
  0
LINE
  5
76E
330
1D
100
AcDbEntity
  8
0
100
AcDbLine
 10
48.0568
 20
201.0
 30
0.0
 11
48.9981
 21
201.0
 31
0.0
  0
LINE
  5
76F
330
1D
100
AcDbEntity
  8
0
100
AcDbLine
 10
47.1065
 20
201.0
 30
0.0
 11
48.0568
 21
201.0
 31
0.0
  0
LINE
  5
770
330
1D
100
AcDbEntity
  8
0
100
AcDbLine
 10
45.2478
 20
201.0
 30
0.0
 11
46.1662
 21
201.0
 31
0.0
  0
LINE
  5
771
330
1D
100
AcDbEntity
  8
0
100
AcDbLine
 10
42.4069
 20
201.0
 30
0.0
 11
43.7705
 21
201.0
 31
0.0
  0
LINE
  5
772
330
1D
100
AcDbEntity
  8
0
100
AcDbLine
 10
40.7
 20
187.033
 30
0.0
 11
40.7719
 21
186.583
 31
0.0
  0
LINE
  5
773
330
1D
100
AcDbEntity
  8
0
100
AcDbLine
 10
34.766
 20
41.736
 30
0.0
 11
48.307
 21
43.15
 31
0.0
  0
LINE
  5
774
330
1D
100
AcDbEntity
  8
0
100
AcDbLine
 10
10.772
 20
37.795
 30
0.0
 11
22.135
 21
39.92
 31
0.0
  0
LINE
  5
775
330
1D
100
AcDbEntity
  8
0
100
AcDbLine
 10
53.0138
 20
184.85
 30
0.0
 11
67.783
 21
184.471
 31
0.0
  0
LINE
  5
776
330
1D
100
AcDbEntity
  8
0
100
AcDbLine
 10
48.9981
 20
201.0
 30
0.0
 11
50.8906
 21
201.0
 31
0.0
  0
LINE
  5
777
330
1D
100
AcDbEntity
  8
0
100
AcDbLine
 10
50.8906
 20
201.0
 30
0.0
 11
53.8763
 21
201.0
 31
0.0
  0
LINE
  5
778
330
1D
100
AcDbEntity
  8
0
100
AcDbLine
 10
48.307
 20
43.15
 30
0.0
 11
63.162
 21
44.118
 31
0.0
  0
LINE
  5
779
330
1D
100
AcDbEntity
  8
0
100
AcDbLine
 10
0.993
 20
35.368
 30
0.0
 11
2.134
 21
35.706
 31
0.0
  0
LINE
  5
77A
330
1D
100
AcDbEntity
  8
0
100
AcDbLine
 10
0.655
 20
35.225
 30
0.0
 11
0.993
 21
35.368
 31
0.0
  0
LINE
  5
77C
330
1D
100
AcDbEntity
  8
0
100
AcDbLine
 10
53.8763
 20
201.0
 30
0.0
 11
58.8503
 21
201.0
 31
0.0
  0
LINE
  5
77D
330
1D
100
AcDbEntity
  8
0
100
AcDbLine
 10
58.8503
 20
201.0
 30
0.0
 11
65.9206
 21
201.0
 31
0.0
  0
LINE
  5
783
330
1D
100
AcDbEntity
  8
0
100
AcDbLine
 10
67.845
 20
10.98
 30
0.0
 11
80.0
 21
10.979
 31
0.0
  0
LINE
  5
79E
330
1D
100
AcDbEntity
  8
0
100
AcDbLine
 10
63.162
 20
44.118
 30
0.0
 11
63.217108461287
 21
44.102692094087
 31
0.0
  0
LINE
  5
79F
330
1D
100
AcDbEntity
  8
0
100
AcDbLine
 10
63.162
 20
44.118
 30
0.0
 11
63.439
 21
44.128
 31
0.0
  0
LINE
  5
7A0
330
1D
100
AcDbEntity
  8
0
100
AcDbLine
 10
64.0
 20
44.147483832335
 30
0.0
 11
64.0
 21
55.5
 31
0.0
  0
LINE
  5
7A1
330
1D
100
AcDbEntity
  8
0
100
AcDbLine
 10
64.274
 20
44.157
 30
0.0
 11
65.664
 21
44.201
 31
0.0
  0
LINE
  5
7A3
330
1D
100
AcDbEntity
  8
0
100
AcDbLine
 10
65.664
 20
44.201
 30
0.0
 11
67.602
 21
44.256
 31
0.0
  0
LINE
  5
7A4
330
1D
100
AcDbEntity
  8
0
100
AcDbLine
 10
67.602
 20
44.256
 30
0.0
 11
69.932
 21
44.312
 31
0.0
  0
LINE
  5
7A9
330
1D
100
AcDbEntity
  8
0
100
AcDbLine
 10
63.439
 20
44.128
 30
0.0
 11
64.0
 21
44.147483832335
 31
0.0
  0
LINE
  5
7AA
330
1D
100
AcDbEntity
  8
0
100
AcDbLine
 10
63.439
 20
44.128
 30
0.0
 11
64.274
 21
44.157
 31
0.0
  0
LINE
  5
7AB
330
1D
100
AcDbEntity
  8
0
100
AcDbLine
 10
72.701
 20
44.362
 30
0.0
 11
75.48
 21
44.397
 31
0.0
  0
LINE
  5
7AC
330
1D
100
AcDbEntity
  8
0
100
AcDbLine
 10
69.932
 20
44.312
 30
0.0
 11
72.701
 21
44.362
 31
0.0
  0
LINE
  5
7B7
330
1D
100
AcDbEntity
  8
0
100
AcDbLine
 10
75.48
 20
44.397
 30
0.0
 11
78.461
 21
44.415
 31
0.0
  0
LINE
  5
7B8
330
1D
100
AcDbEntity
  8
0
100
AcDbLine
 10
64.0
 20
55.5
 30
0.0
 11
64.0
 21
44.147483832335
 31
0.0
  0
LINE
  5
7B9
330
1D
100
AcDbEntity
  8
0
100
AcDbLine
 10
64.0
 20
55.5
 30
0.0
 11
64.118
 21
58.5668
 31
0.0
  0
LINE
  5
7BA
330
1D
100
AcDbEntity
  8
0
100
AcDbLine
 10
64.118
 20
58.5668
 30
0.0
 11
64.47
 21
61.6156
 31
0.0
  0
LINE
  5
7BB
330
1D
100
AcDbEntity
  8
0
100
AcDbLine
 10
66.033
 20
65.4
 30
0.0
 11
66.109
 21
65.4
 31
0.0
  0
LINE
  5
7BC
330
1D
100
AcDbEntity
  8
0
100
AcDbLine
 10
65.597
 20
65.3018
 30
0.0
 11
66.033
 21
65.4
 31
0.0
  0
LINE
  5
7BD
330
1D
100
AcDbEntity
  8
0
100
AcDbLine
 10
66.109
 20
65.4
 30
0.0
 11
66.423
 21
65.4
 31
0.0
  0
LINE
  5
7BE
330
1D
100
AcDbEntity
  8
0
100
AcDbLine
 10
66.423
 20
65.4
 30
0.0
 11
66.97
 21
65.4
 31
0.0
  0
LINE
  5
7BF
330
1D
100
AcDbEntity
  8
0
100
AcDbLine
 10
66.97
 20
65.4
 30
0.0
 11
67.739
 21
65.4
 31
0.0
  0
LINE
  5
7C0
330
1D
100
AcDbEntity
  8
0
100
AcDbLine
 10
65.25
 20
65.0265
 30
0.0
 11
65.597
 21
65.3018
 31
0.0
  0
LINE
  5
7C1
330
1D
100
AcDbEntity
  8
0
100
AcDbLine
 10
65.056
 20
64.6282
 30
0.0
 11
65.25
 21
65.0265
 31
0.0
  0
LINE
  5
7C2
330
1D
100
AcDbEntity
  8
0
100
AcDbLine
 10
67.739
 20
65.4
 30
0.0
 11
68.718
 21
65.4
 31
0.0
  0
LINE
  5
7C3
330
1D
100
AcDbEntity
  8
0
100
AcDbLine
 10
64.47
 20
61.6156
 30
0.0
 11
65.056
 21
64.6282
 31
0.0
  0
LINE
  5
7C4
330
1D
100
AcDbEntity
  8
0
100
AcDbLine
 10
68.577
 20
74.4793
 30
0.0
 11
68.807
 21
74.4177
 31
0.0
  0
LINE
  5
7C5
330
1D
100
AcDbEntity
  8
0
100
AcDbLine
 10
68.495
 20
85.0
 30
0.0
 11
68.495
 21
184.468925650558
 31
0.0
  0
LINE
  5
7C6
330
1D
100
AcDbEntity
  8
0
100
AcDbLine
 10
68.435
 20
184.469
 30
0.0
 11
70.049
 21
184.467
 31
0.0
  0
LINE
  5
7C7
330
1D
100
AcDbEntity
  8
0
100
AcDbLine
 10
67.783
 20
184.471
 30
0.0
 11
68.435
 21
184.469
 31
0.0
  0
LINE
  5
7C8
330
1D
100
AcDbEntity
  8
0
100
AcDbLine
 10
67.783
 20
184.471
 30
0.0
 11
67.851472145677
 21
184.485544736827
 31
0.0
  0
LINE
  5
7C9
330
1D
100
AcDbEntity
  8
0
100
AcDbLine
 10
65.9206
 20
201.0
 30
0.0
 11
79.974
 21
201.0
 31
0.0
  0
LINE
  5
7CA
330
1D
100
AcDbEntity
  8
0
100
AcDbLine
 10
68.5
 20
85.0
 30
0.0
 11
68.5
 21
74.5
 31
0.0
  0
LINE
  5
7CB
330
1D
100
AcDbEntity
  8
0
100
AcDbLine
 10
68.5
 20
85.0
 30
0.0
 11
68.607
 21
85.0
 31
0.0
  0
LINE
  5
7CC
330
1D
100
AcDbEntity
  8
0
100
AcDbLine
 10
68.607
 20
85.0
 30
0.0
 11
68.926
 21
85.0
 31
0.0
  0
LINE
  5
7CD
330
1D
100
AcDbEntity
  8
0
100
AcDbLine
 10
68.5
 20
74.5
 30
0.0
 11
68.5
 21
85.0
 31
0.0
  0
LINE
  5
7CE
330
1D
100
AcDbEntity
  8
0
100
AcDbLine
 10
68.5
 20
74.5
 30
0.0
 11
68.577
 21
74.4793
 31
0.0
  0
LINE
  5
7CF
330
1D
100
AcDbEntity
  8
0
100
AcDbLine
 10
69.891
 20
65.4
 30
0.0
 11
71.236
 21
65.4
 31
0.0
  0
LINE
  5
7D0
330
1D
100
AcDbEntity
  8
0
100
AcDbLine
 10
69.944494922737
 20
65.4
 30
0.0
 11
70.083
 21
65.6073
 31
0.0
  0
LINE
  5
7D1
330
1D
100
AcDbEntity
  8
0
100
AcDbLine
 10
70.083
 20
65.6073
 30
0.0
 11
71.161
 21
66.8364
 31
0.0
  0
LINE
  5
7D2
330
1D
100
AcDbEntity
  8
0
100
AcDbLine
 10
70.226
 20
74.0376
 30
0.0
 11
70.825
 21
73.877
 31
0.0
  0
LINE
  5
7D3
330
1D
100
AcDbEntity
  8
0
100
AcDbLine
 10
69.966999999986
 20
74.106850000004
 30
0.0
 11
70.226
 21
74.0375
 31
0.0
  0
LINE
  5
7D4
330
1D
100
AcDbEntity
  8
0
100
AcDbLine
 10
71.236
 20
65.4
 30
0.0
 11
72.731
 21
65.4
 31
0.0
  0
LINE
  5
7D5
330
1D
100
AcDbEntity
  8
0
100
AcDbLine
 10
71.161
 20
66.8364
 30
0.0
 11
71.583
 21
67.2393
 31
0.0
  0
LINE
  5
7D6
330
1D
100
AcDbEntity
  8
0
100
AcDbLine
 10
71.5
 20
68.8478
 30
0.0
 11
71.5
 21
69.0573
 31
0.0
  0
LINE
  5
7D7
330
1D
100
AcDbEntity
  8
0
100
AcDbLine
 10
71.5
 20
68.8042
 30
0.0
 11
71.5
 21
68.9224
 31
0.0
  0
LINE
  5
7D8
330
1D
100
AcDbEntity
  8
0
100
AcDbLine
 10
71.5
 20
68.8042
 30
0.0
 11
71.618
 21
68.6857
 31
0.0
  0
LINE
  5
7D9
330
1D
100
AcDbEntity
  8
0
100
AcDbLine
 10
71.5
 20
69.0573
 30
0.0
 11
71.5
 21
68.8478
 31
0.0
  0
LINE
  5
7DA
330
1D
100
AcDbEntity
  8
0
100
AcDbLine
 10
71.5
 20
69.0573
 30
0.0
 11
71.5
 21
69.4985
 31
0.0
  0
LINE
  5
7DB
330
1D
100
AcDbEntity
  8
0
100
AcDbLine
 10
71.5
 20
70.7865
 30
0.0
 11
71.5
 21
70.216
 31
0.0
  0
LINE
  5
7DC
330
1D
100
AcDbEntity
  8
0
100
AcDbLine
 10
71.5
 20
70.7865
 30
0.0
 11
71.5
 21
71.5071
 31
0.0
  0
LINE
  5
7DD
330
1D
100
AcDbEntity
  8
0
100
AcDbLine
 10
71.5
 20
70.216
 30
0.0
 11
71.5
 21
69.4985
 31
0.0
  0
LINE
  5
7DE
330
1D
100
AcDbEntity
  8
0
100
AcDbLine
 10
71.5
 20
70.216
 30
0.0
 11
71.5
 21
70.7865
 31
0.0
  0
LINE
  5
7DF
330
1D
100
AcDbEntity
  8
0
100
AcDbLine
 10
71.5
 20
71.6301
 30
0.0
 11
71.5
 21
71.9059
 31
0.0
  0
LINE
  5
7E0
330
1D
100
AcDbEntity
  8
0
100
AcDbLine
 10
71.5
 20
71.6301
 30
0.0
 11
71.5
 21
71.5071
 31
0.0
  0
LINE
  5
7E1
330
1D
100
AcDbEntity
  8
0
100
AcDbLine
 10
71.5
 20
71.5071
 30
0.0
 11
71.5
 21
71.6301
 31
0.0
  0
LINE
  5
7E2
330
1D
100
AcDbEntity
  8
0
100
AcDbLine
 10
71.5
 20
71.5071
 30
0.0
 11
71.5
 21
70.7865
 31
0.0
  0
LINE
  5
7E3
330
1D
100
AcDbEntity
  8
0
100
AcDbLine
 10
71.5
 20
71.5071
 30
0.0
 11
71.5
 21
70.3908
 31
0.0
  0
LINE
  5
7E4
330
1D
100
AcDbEntity
  8
0
100
AcDbLine
 10
71.5
 20
72.2142
 30
0.0
 11
71.5
 21
73.6961
 31
0.0
  0
LINE
  5
7E5
330
1D
100
AcDbEntity
  8
0
100
AcDbLine
 10
71.5
 20
72.2142
 30
0.0
 11
71.5
 21
71.9059
 31
0.0
  0
LINE
  5
7E6
330
1D
100
AcDbEntity
  8
0
100
AcDbLine
 10
71.5
 20
71.9059
 30
0.0
 11
71.5
 21
72.2142
 31
0.0
  0
LINE
  5
7E7
330
1D
100
AcDbEntity
  8
0
100
AcDbLine
 10
71.5
 20
71.9059
 30
0.0
 11
71.5
 21
71.6301
 31
0.0
  0
LINE
  5
7E8
330
1D
100
AcDbEntity
  8
0
100
AcDbLine
 10
71.5
 20
69.4985
 30
0.0
 11
71.5
 21
69.0573
 31
0.0
  0
LINE
  5
7E9
330
1D
100
AcDbEntity
  8
0
100
AcDbLine
 10
71.5
 20
69.4985
 30
0.0
 11
71.5
 21
70.216
 31
0.0
  0
LINE
  5
7EA
330
1D
100
AcDbEntity
  8
0
100
AcDbLine
 10
71.5
 20
69.6401
 30
0.0
 11
71.5
 21
70.3908
 31
0.0
  0
LINE
  5
7EB
330
1D
100
AcDbEntity
  8
0
100
AcDbLine
 10
71.5
 20
69.6401
 30
0.0
 11
71.5
 21
69.1923
 31
0.0
  0
LINE
  5
7EC
330
1D
100
AcDbEntity
  8
0
100
AcDbLine
 10
71.5
 20
69.1923
 30
0.0
 11
71.5
 21
69.6401
 31
0.0
  0
LINE
  5
7ED
330
1D
100
AcDbEntity
  8
0
100
AcDbLine
 10
71.5
 20
69.1923
 30
0.0
 11
71.5
 21
68.9224
 31
0.0
  0
LINE
  5
7EE
330
1D
100
AcDbEntity
  8
0
100
AcDbLine
 10
71.5
 20
68.9224
 30
0.0
 11
71.5
 21
69.1923
 31
0.0
  0
LINE
  5
7EF
330
1D
100
AcDbEntity
  8
0
100
AcDbLine
 10
71.5
 20
68.9224
 30
0.0
 11
71.5
 21
68.8042
 31
0.0
  0
LINE
  5
7F0
330
1D
100
AcDbEntity
  8
0
100
AcDbLine
 10
71.5
 20
73.6961
 30
0.0
 11
71.5
 21
72.2142
 31
0.0
  0
LINE
  5
7F1
330
1D
100
AcDbEntity
  8
0
100
AcDbLine
 10
71.583
 20
67.2393
 30
0.0
 11
71.838
 21
67.564
 31
0.0
  0
LINE
  5
7F2
330
1D
100
AcDbEntity
  8
0
100
AcDbLine
 10
76.066
 20
65.4
 30
0.0
 11
77.85
 21
65.4
 31
0.0
  0
LINE
  5
7F3
330
1D
100
AcDbEntity
  8
0
100
AcDbLine
 10
79.67
 20
65.4
 30
0.0
 11
81.496
 21
65.4
 31
0.0
  0
LINE
  5
7F4
330
1D
100
AcDbEntity
  8
0
100
AcDbLine
 10
77.85
 20
65.4
 30
0.0
 11
79.67
 21
65.4
 31
0.0
  0
LINE
  5
7F5
330
1D
100
AcDbEntity
  8
0
100
AcDbLine
 10
74.35
 20
65.4
 30
0.0
 11
76.066
 21
65.4
 31
0.0
  0
LINE
  5
7F6
330
1D
100
AcDbEntity
  8
0
100
AcDbLine
 10
72.731
 20
65.4
 30
0.0
 11
74.35
 21
65.4
 31
0.0
  0
LINE
  5
7FA
330
1D
100
AcDbEntity
  8
0
100
AcDbLine
 10
71.838
 20
67.564
 30
0.0
 11
71.928
 21
67.9553
 31
0.0
  0
LINE
  5
7FB
330
1D
100
AcDbEntity
  8
0
100
AcDbLine
 10
71.618
 20
68.6857
 30
0.0
 11
71.856
 21
68.3505
 31
0.0
  0
LINE
  5
7FC
330
1D
100
AcDbEntity
  8
0
100
AcDbLine
 10
71.856
 20
68.3505
 30
0.0
 11
71.928
 21
67.9553
 31
0.0
  0
LINE
  5
7FD
330
1D
100
AcDbEntity
  8
0
100
AcDbLine
 10
71.5
 20
70.3908
 30
0.0
 11
71.5
 21
69.6401
 31
0.0
  0
LINE
  5
7FE
330
1D
100
AcDbEntity
  8
0
100
AcDbLine
 10
71.5
 20
70.3908
 30
0.0
 11
71.5
 21
71.5071
 31
0.0
  0
LINE
  5
7FF
330
1D
100
AcDbEntity
  8
0
100
AcDbLine
 10
70.825
 20
73.877
 30
0.0
 11
71.5
 21
73.6961
 31
0.0
  0
LINE
  5
800
330
1D
100
AcDbEntity
  8
0
100
AcDbLine
 10
70.226
 20
74.0375
 30
0.0
 11
70.825
 21
73.877
 31
0.0
  0
LINE
  5
801
330
1D
100
AcDbEntity
  8
0
100
AcDbLine
 10
69.186
 20
74.316
 30
0.0
 11
69.708
 21
74.1761
 31
0.0
  0
LINE
  5
802
330
1D
100
AcDbEntity
  8
0
100
AcDbLine
 10
70.687
 20
85.0
 30
0.0
 11
71.079
 21
85.0
 31
0.0
  0
LINE
  5
803
330
1D
100
AcDbEntity
  8
0
100
AcDbLine
 10
73.226
 20
85.0
 30
0.0
 11
73.368
 21
85.0
 31
0.0
  0
LINE
  5
804
330
1D
100
AcDbEntity
  8
0
100
AcDbLine
 10
79.215
 20
85.0
 30
0.0
 11
80.785
 21
85.0
 31
0.0
  0
LINE
  5
805
330
1D
100
AcDbEntity
  8
0
100
AcDbLine
 10
77.66
 20
85.0
 30
0.0
 11
79.215
 21
85.0
 31
0.0
  0
LINE
  5
806
330
1D
100
AcDbEntity
  8
0
100
AcDbLine
 10
76.149
 20
85.0
 30
0.0
 11
77.66
 21
85.0
 31
0.0
  0
LINE
  5
807
330
1D
100
AcDbEntity
  8
0
100
AcDbLine
 10
74.709
 20
85.0
 30
0.0
 11
76.149
 21
85.0
 31
0.0
  0
LINE
  5
808
330
1D
100
AcDbEntity
  8
0
100
AcDbLine
 10
73.368
 20
85.0
 30
0.0
 11
74.709
 21
85.0
 31
0.0
  0
LINE
  5
809
330
1D
100
AcDbEntity
  8
0
100
AcDbLine
 10
72.151
 20
85.0
 30
0.0
 11
73.368
 21
85.0
 31
0.0
  0
LINE
  5
80A
330
1D
100
AcDbEntity
  8
0
100
AcDbLine
 10
70.174
 20
85.0
 30
0.0
 11
71.079
 21
85.0
 31
0.0
  0
LINE
  5
80B
330
1D
100
AcDbEntity
  8
0
100
AcDbLine
 10
69.452
 20
85.0
 30
0.0
 11
70.174
 21
85.0
 31
0.0
  0
LINE
  5
80C
330
1D
100
AcDbEntity
  8
0
100
AcDbLine
 10
69.708
 20
74.1761
 30
0.0
 11
70.226
 21
74.0376
 31
0.0
  0
LINE
  5
80D
330
1D
100
AcDbEntity
  8
0
100
AcDbLine
 10
68.926
 20
85.0
 30
0.0
 11
69.452
 21
85.0
 31
0.0
  0
LINE
  5
80E
330
1D
100
AcDbEntity
  8
0
100
AcDbLine
 10
74.882
 20
184.495
 30
0.0
 11
77.323
 21
184.47
 31
0.0
  0
LINE
  5
80F
330
1D
100
AcDbEntity
  8
0
100
AcDbLine
 10
77.323
 20
184.47
 30
0.0
 11
81.378
 21
184.471
 31
0.0
  0
LINE
  5
810
330
1D
100
AcDbEntity
  8
0
100
AcDbLine
 10
70.049
 20
184.467
 30
0.0
 11
72.319
 21
184.462
 31
0.0
  0
LINE
  5
811
330
1D
100
AcDbEntity
  8
0
100
AcDbLine
 10
79.974
 20
201.0
 30
0.0
 11
86.68
 21
201.0
 31
0.0
  0
LINE
  5
812
330
1D
100
AcDbEntity
  8
0
100
AcDbLine
 10
72.319
 20
184.462
 30
0.0
 11
74.882
 21
184.495
 31
0.0
  0
LINE
  5
813
330
1D
100
AcDbEntity
  8
0
100
AcDbLine
 10
71.079
 20
85.0
 30
0.0
 11
72.151
 21
85.0
 31
0.0
  0
LINE
  5
814
330
1D
100
AcDbEntity
  8
0
100
AcDbLine
 10
68.807
 20
74.4177
 30
0.0
 11
69.186
 21
74.316
 31
0.0
  0
LINE
  5
815
330
1D
100
AcDbEntity
  8
0
100
AcDbLine
 10
69.966999999986
 20
74.106850000004
 30
0.0
 11
70.226
 21
74.0375
 31
0.0
  0
LINE
  5
816
330
1D
100
AcDbEntity
  8
0
100
AcDbLine
 10
68.718
 20
65.4
 30
0.0
 11
69.891
 21
65.4
 31
0.0
  0
LINE
  5
817
330
1D
100
AcDbEntity
  8
0
100
AcDbLine
 10
81.496
 20
65.4
 30
0.0
 11
83.296
 21
65.4
 31
0.0
  0
LINE
  5
818
330
1D
100
AcDbEntity
  8
0
100
AcDbLine
 10
83.296
 20
65.4
 30
0.0
 11
85.04
 21
65.4
 31
0.0
  0
LINE
  5
819
330
1D
100
AcDbEntity
  8
0
100
AcDbLine
 10
83.851
 20
85.0
 30
0.0
 11
85.291
 21
85.0
 31
0.0
  0
LINE
  5
81A
330
1D
100
AcDbEntity
  8
0
100
AcDbLine
 10
82.34
 20
85.0
 30
0.0
 11
83.851
 21
85.0
 31
0.0
  0
LINE
  5
81B
330
1D
100
AcDbEntity
  8
0
100
AcDbLine
 10
81.378
 20
184.471
 30
0.0
 11
84.608
 21
184.495
 31
0.0
  0
LINE
  5
81C
330
1D
100
AcDbEntity
  8
0
100
AcDbLine
 10
80.785
 20
85.0
 30
0.0
 11
82.34
 21
85.0
 31
0.0
  0
LINE
  5
822
330
1D
100
AcDbEntity
  8
0
100
AcDbLine
 10
85.04
 20
65.4
 30
0.0
 11
86.698
 21
65.4
 31
0.0
  0
LINE
  5
823
330
1D
100
AcDbEntity
  8
0
100
AcDbLine
 10
86.698
 20
65.4
 30
0.0
 11
88.241
 21
65.4
 31
0.0
  0
LINE
  5
824
330
1D
100
AcDbEntity
  8
0
100
AcDbLine
 10
88.241
 20
65.4
 30
0.0
 11
89.643
 21
65.4
 31
0.0
  0
LINE
  5
825
330
1D
100
AcDbEntity
  8
0
100
AcDbLine
 10
88.162
 20
67.5639
 30
0.0
 11
88.416
 21
67.2394
 31
0.0
  0
LINE
  5
826
330
1D
100
AcDbEntity
  8
0
100
AcDbLine
 10
88.144
 20
68.3505
 30
0.0
 11
88.382
 21
68.6857
 31
0.0
  0
LINE
  5
827
330
1D
100
AcDbEntity
  8
0
100
AcDbLine
 10
88.5
 20
68.8042
 30
0.0
 11
88.5
 21
68.9224
 31
0.0
  0
LINE
  5
828
330
1D
100
AcDbEntity
  8
0
100
AcDbLine
 10
88.382
 20
68.6857
 30
0.0
 11
88.5
 21
68.8042
 31
0.0
  0
LINE
  5
829
330
1D
100
AcDbEntity
  8
0
100
AcDbLine
 10
88.5
 20
69.1923
 30
0.0
 11
88.5
 21
68.9224
 31
0.0
  0
LINE
  5
82A
330
1D
100
AcDbEntity
  8
0
100
AcDbLine
 10
88.5
 20
69.1923
 30
0.0
 11
88.5
 21
69.6401
 31
0.0
  0
LINE
  5
82B
330
1D
100
AcDbEntity
  8
0
100
AcDbLine
 10
88.5
 20
68.9224
 30
0.0
 11
88.5
 21
68.8042
 31
0.0
  0
LINE
  5
82C
330
1D
100
AcDbEntity
  8
0
100
AcDbLine
 10
88.5
 20
68.9224
 30
0.0
 11
88.5
 21
69.1923
 31
0.0
  0
LINE
  5
82D
330
1D
100
AcDbEntity
  8
0
100
AcDbLine
 10
88.5
 20
71.9059
 30
0.0
 11
88.5
 21
71.6301
 31
0.0
  0
LINE
  5
82E
330
1D
100
AcDbEntity
  8
0
100
AcDbLine
 10
88.5
 20
71.9059
 30
0.0
 11
88.5
 21
72.2142
 31
0.0
  0
LINE
  5
82F
330
1D
100
AcDbEntity
  8
0
100
AcDbLine
 10
88.5
 20
71.6301
 30
0.0
 11
88.5
 21
71.5071
 31
0.0
  0
LINE
  5
830
330
1D
100
AcDbEntity
  8
0
100
AcDbLine
 10
88.5
 20
71.6301
 30
0.0
 11
88.5
 21
71.9059
 31
0.0
  0
LINE
  5
831
330
1D
100
AcDbEntity
  8
0
100
AcDbLine
 10
88.5
 20
71.5071
 30
0.0
 11
88.5
 21
70.3908
 31
0.0
  0
LINE
  5
832
330
1D
100
AcDbEntity
  8
0
100
AcDbLine
 10
88.5
 20
71.5071
 30
0.0
 11
88.5
 21
71.6301
 31
0.0
  0
LINE
  5
833
330
1D
100
AcDbEntity
  8
0
100
AcDbLine
 10
88.5
 20
72.2142
 30
0.0
 11
88.5
 21
71.9059
 31
0.0
  0
LINE
  5
834
330
1D
100
AcDbEntity
  8
0
100
AcDbLine
 10
88.5
 20
72.2142
 30
0.0
 11
88.5
 21
73.6962
 31
0.0
  0
LINE
  5
835
330
1D
100
AcDbEntity
  8
0
100
AcDbLine
 10
88.5
 20
70.3908
 30
0.0
 11
88.5
 21
69.6401
 31
0.0
  0
LINE
  5
836
330
1D
100
AcDbEntity
  8
0
100
AcDbLine
 10
88.5
 20
70.3908
 30
0.0
 11
88.5
 21
71.5071
 31
0.0
  0
LINE
  5
837
330
1D
100
AcDbEntity
  8
0
100
AcDbLine
 10
88.5
 20
69.6401
 30
0.0
 11
88.5
 21
69.1923
 31
0.0
  0
LINE
  5
838
330
1D
100
AcDbEntity
  8
0
100
AcDbLine
 10
88.5
 20
69.6401
 30
0.0
 11
88.5
 21
70.3908
 31
0.0
  0
LINE
  5
839
330
1D
100
AcDbEntity
  8
0
100
AcDbLine
 10
88.416
 20
67.2394
 30
0.0
 11
88.839
 21
66.8364
 31
0.0
  0
LINE
  5
83A
330
1D
100
AcDbEntity
  8
0
100
AcDbLine
 10
88.073
 20
67.9554
 30
0.0
 11
88.162
 21
67.5639
 31
0.0
  0
LINE
  5
83B
330
1D
100
AcDbEntity
  8
0
100
AcDbLine
 10
88.073
 20
67.9554
 30
0.0
 11
88.144
 21
68.3505
 31
0.0
  0
LINE
  5
83C
330
1D
100
AcDbEntity
  8
0
100
AcDbLine
 10
87.849
 20
85.0
 30
0.0
 11
88.921
 21
85.0
 31
0.0
  0
LINE
  5
83D
330
1D
100
AcDbEntity
  8
0
100
AcDbLine
 10
86.632
 20
85.0
 30
0.0
 11
87.849
 21
85.0
 31
0.0
  0
LINE
  5
83E
330
1D
100
AcDbEntity
  8
0
100
AcDbLine
 10
84.608
 20
184.495
 30
0.0
 11
87.407
 21
184.468
 31
0.0
  0
LINE
  5
83F
330
1D
100
AcDbEntity
  8
0
100
AcDbLine
 10
86.68
 20
201.0
 30
0.0
 11
92.011
 21
201.0
 31
0.0
  0
LINE
  5
840
330
1D
100
AcDbEntity
  8
0
100
AcDbLine
 10
87.407
 20
184.468
 30
0.0
 11
89.398
 21
184.475
 31
0.0
  0
LINE
  5
841
330
1D
100
AcDbEntity
  8
0
100
AcDbLine
 10
85.291
 20
85.0
 30
0.0
 11
86.632
 21
85.0
 31
0.0
  0
LINE
  5
842
330
1D
100
AcDbEntity
  8
0
100
AcDbLine
 10
88.839
 20
66.8364
 30
0.0
 11
89.917
 21
65.6073
 31
0.0
  0
LINE
  5
843
330
1D
100
AcDbEntity
  8
0
100
AcDbLine
 10
89.643
 20
65.4
 30
0.0
 11
90.88
 21
65.4
 31
0.0
  0
LINE
  5
844
330
1D
100
AcDbEntity
  8
0
100
AcDbLine
 10
92.778
 20
65.4
 30
0.0
 11
93.406
 21
65.4
 31
0.0
  0
LINE
  5
845
330
1D
100
AcDbEntity
  8
0
100
AcDbLine
 10
90.88
 20
65.4
 30
0.0
 11
91.931
 21
65.4
 31
0.0
  0
LINE
  5
846
330
1D
100
AcDbEntity
  8
0
100
AcDbLine
 10
93.406
 20
65.4
 30
0.0
 11
93.805
 21
65.4
 31
0.0
  0
LINE
  5
847
330
1D
100
AcDbEntity
  8
0
100
AcDbLine
 10
93.805
 20
65.4
 30
0.0
 11
93.967
 21
65.4
 31
0.0
  0
LINE
  5
848
330
1D
100
AcDbEntity
  8
0
100
AcDbLine
 10
93.967
 20
65.4
 30
0.0
 11
94.403
 21
65.3018
 31
0.0
  0
LINE
  5
849
330
1D
100
AcDbEntity
  8
0
100
AcDbLine
 10
91.931
 20
65.4
 30
0.0
 11
92.778
 21
65.4
 31
0.0
  0
LINE
  5
84A
330
1D
100
AcDbEntity
  8
0
100
AcDbLine
 10
94.403
 20
65.3018
 30
0.0
 11
94.75
 21
65.0265
 31
0.0
  0
LINE
  5
84B
330
1D
100
AcDbEntity
  8
0
100
AcDbLine
 10
94.75
 20
65.0265
 30
0.0
 11
94.944
 21
64.6282
 31
0.0
  0
LINE
  5
84C
330
1D
100
AcDbEntity
  8
0
100
AcDbLine
 10
95.53
 20
61.6156
 30
0.0
 11
95.882
 21
58.5668
 31
0.0
  0
LINE
  5
84D
330
1D
100
AcDbEntity
  8
0
100
AcDbLine
 10
94.944
 20
64.6282
 30
0.0
 11
95.53
 21
61.6156
 31
0.0
  0
LINE
  5
84E
330
1D
100
AcDbEntity
  8
0
100
AcDbLine
 10
95.882
 20
58.5668
 30
0.0
 11
96.0
 21
55.5
 31
0.0
  0
LINE
  5
84F
330
1D
100
AcDbEntity
  8
0
100
AcDbLine
 10
89.917
 20
65.6073
 30
0.0
 11
90.055505077263
 21
65.4
 31
0.0
  0
LINE
  5
850
330
1D
100
AcDbEntity
  8
0
100
AcDbLine
 10
90.292
 20
74.1762
 30
0.0
 11
90.814
 21
74.316
 31
0.0
  0
LINE
  5
851
330
1D
100
AcDbEntity
  8
0
100
AcDbLine
 10
90.548
 20
85.0
 30
0.0
 11
91.074
 21
85.0
 31
0.0
  0
LINE
  5
852
330
1D
100
AcDbEntity
  8
0
100
AcDbLine
 10
91.454
 20
85.0
 30
0.0
 11
91.454
 21
184.475614740368
 31
0.0
  0
LINE
  5
853
330
1D
100
AcDbEntity
  8
0
100
AcDbLine
 10
91.454
 20
85.0
 30
0.0
 11
91.454
 21
184.475614740369
 31
0.0
  0
LINE
  5
854
330
1D
100
AcDbEntity
  8
0
100
AcDbLine
 10
91.5
 20
74.5
 30
0.0
 11
91.5
 21
85.0
 31
0.0
  0
LINE
  5
855
330
1D
100
AcDbEntity
  8
0
100
AcDbLine
 10
91.393
 20
85.0
 30
0.0
 11
91.5
 21
85.0
 31
0.0
  0
LINE
  5
856
330
1D
100
AcDbEntity
  8
0
100
AcDbLine
 10
91.423
 20
74.4793
 30
0.0
 11
91.5
 21
74.5
 31
0.0
  0
LINE
  5
857
330
1D
100
AcDbEntity
  8
0
100
AcDbLine
 10
91.074
 20
85.0
 30
0.0
 11
91.393
 21
85.0
 31
0.0
  0
LINE
  5
858
330
1D
100
AcDbEntity
  8
0
100
AcDbLine
 10
91.193
 20
74.4177
 30
0.0
 11
91.423
 21
74.4793
 31
0.0
  0
LINE
  5
859
330
1D
100
AcDbEntity
  8
0
100
AcDbLine
 10
90.814
 20
74.316
 30
0.0
 11
91.193
 21
74.4177
 31
0.0
  0
LINE
  5
85A
330
1D
100
AcDbEntity
  8
0
100
AcDbLine
 10
89.826
 20
85.0
 30
0.0
 11
90.548
 21
85.0
 31
0.0
  0
LINE
  5
85B
330
1D
100
AcDbEntity
  8
0
100
AcDbLine
 10
89.774
 20
74.0376
 30
0.0
 11
90.292
 21
74.1762
 31
0.0
  0
LINE
  5
85C
330
1D
100
AcDbEntity
  8
0
100
AcDbLine
 10
89.175
 20
73.877
 30
0.0
 11
89.774
 21
74.0376
 31
0.0
  0
LINE
  5
85D
330
1D
100
AcDbEntity
  8
0
100
AcDbLine
 10
88.921
 20
85.0
 30
0.0
 11
89.826
 21
85.0
 31
0.0
  0
LINE
  5
85E
330
1D
100
AcDbEntity
  8
0
100
AcDbLine
 10
91.873
 20
184.47
 30
0.0
 11
92.088
 21
184.471
 31
0.0
  0
LINE
  5
85F
330
1D
100
AcDbEntity
  8
0
100
AcDbLine
 10
90.679
 20
184.486
 30
0.0
 11
91.873
 21
184.47
 31
0.0
  0
LINE
  5
860
330
1D
100
AcDbEntity
  8
0
100
AcDbLine
 10
89.398
 20
184.475
 30
0.0
 11
90.679
 21
184.486
 31
0.0
  0
LINE
  5
861
330
1D
100
AcDbEntity
  8
0
100
AcDbLine
 10
92.011
 20
201.0
 30
0.0
 11
99.043
 21
201.0
 31
0.0
  0
LINE
  5
862
330
1D
100
AcDbEntity
  8
0
100
AcDbLine
 10
91.454
 20
184.469496442688
 30
0.0
 11
91.841924523549
 21
184.470416421795
 31
0.0
  0
LINE
  5
863
330
1D
100
AcDbEntity
  8
0
100
AcDbLine
 10
91.454
 20
184.469496442688
 30
0.0
 11
91.841924523549
 21
184.470416421795
 31
0.0
  0
LINE
  5
864
330
1D
100
AcDbEntity
  8
0
100
AcDbLine
 10
92.088
 20
184.471
 30
0.0
 11
106.935
 21
184.85
 31
0.0
  0
LINE
  5
865
330
1D
100
AcDbEntity
  8
0
100
AcDbLine
 10
91.5
 20
85.0
 30
0.0
 11
91.5
 21
74.5
 31
0.0
  0
LINE
  5
866
330
1D
100
AcDbEntity
  8
0
100
AcDbLine
 10
88.5
 20
73.6962
 30
0.0
 11
89.175
 21
73.877
 31
0.0
  0
LINE
  5
867
330
1D
100
AcDbEntity
  8
0
100
AcDbLine
 10
88.5
 20
73.6962
 30
0.0
 11
88.5
 21
72.2142
 31
0.0
  0
LINE
  5
86E
330
1D
100
AcDbEntity
  8
0
100
AcDbLine
 10
99.043
 20
201.0
 30
0.0
 11
106.072
 21
201.0
 31
0.0
  0
LINE
  5
86F
330
1D
100
AcDbEntity
  8
0
100
AcDbLine
 10
111.413
 20
201.0
 30
0.0
 11
112.538
 21
201.0
 31
0.0
  0
LINE
  5
870
330
1D
100
AcDbEntity
  8
0
100
AcDbLine
 10
107.534
 20
201.0
 30
0.0
 11
110.281
 21
201.0
 31
0.0
  0
LINE
  5
871
330
1D
100
AcDbEntity
  8
0
100
AcDbLine
 10
106.072
 20
201.0
 30
0.0
 11
107.534
 21
201.0
 31
0.0
  0
LINE
  5
872
330
1D
100
AcDbEntity
  8
0
100
AcDbLine
 10
106.935
 20
184.85
 30
0.0
 11
117.018
 21
185.279
 31
0.0
  0
LINE
  5
873
330
1D
100
AcDbEntity
  8
0
100
AcDbLine
 10
115.799
 20
201.0
 30
0.0
 11
116.27
 21
201.0
 31
0.0
  0
LINE
  5
874
330
1D
100
AcDbEntity
  8
0
100
AcDbLine
 10
114.95
 20
201.0
 30
0.0
 11
115.799
 21
201.0
 31
0.0
  0
LINE
  5
875
330
1D
100
AcDbEntity
  8
0
100
AcDbLine
 10
113.762
 20
201.0
 30
0.0
 11
114.95
 21
201.0
 31
0.0
  0
LINE
  5
876
330
1D
100
AcDbEntity
  8
0
100
AcDbLine
 10
112.538
 20
201.0
 30
0.0
 11
113.762
 21
201.0
 31
0.0
  0
LINE
  5
877
330
1D
100
AcDbEntity
  8
0
100
AcDbLine
 10
110.281
 20
201.0
 30
0.0
 11
111.413
 21
201.0
 31
0.0
  0
LINE
  5
878
330
1D
100
AcDbEntity
  8
0
100
AcDbLine
 10
118.431
 20
185.55
 30
0.0
 11
118.772
 21
185.804
 31
0.0
  0
LINE
  5
879
330
1D
100
AcDbEntity
  8
0
100
AcDbLine
 10
118.129
 20
185.443
 30
0.0
 11
118.431
 21
185.55
 31
0.0
  0
LINE
  5
87A
330
1D
100
AcDbEntity
  8
0
100
AcDbLine
 10
118.005
 20
185.39
 30
0.0
 11
118.129
 21
185.443
 31
0.0
  0
LINE
  5
87B
330
1D
100
AcDbEntity
  8
0
100
AcDbLine
 10
117.546
 20
185.313
 30
0.0
 11
118.005
 21
185.39
 31
0.0
  0
LINE
  5
87C
330
1D
100
AcDbEntity
  8
0
100
AcDbLine
 10
117.018
 20
185.279
 30
0.0
 11
117.546
 21
185.313
 31
0.0
  0
LINE
  5
87D
330
1D
100
AcDbEntity
  8
0
100
AcDbLine
 10
117.983
 20
201.0
 30
0.0
 11
118.647
 21
201.0
 31
0.0
  0
LINE
  5
87E
330
1D
100
AcDbEntity
  8
0
100
AcDbLine
 10
119.281
 20
187.558
 30
0.0
 11
119.981
 21
201.0
 31
0.0
  0
LINE
  5
87F
330
1D
100
AcDbEntity
  8
0
100
AcDbLine
 10
119.249
 20
187.033
 30
0.0
 11
119.281
 21
187.558
 31
0.0
  0
LINE
  5
880
330
1D
100
AcDbEntity
  8
0
100
AcDbLine
 10
119.177
 20
186.583
 30
0.0
 11
119.249
 21
187.033
 31
0.0
  0
LINE
  5
881
330
1D
100
AcDbEntity
  8
0
100
AcDbLine
 10
119.021
 20
186.151
 30
0.0
 11
119.085393484106
 21
186.407583267436
 31
0.0
  0
LINE
  5
882
330
1D
100
AcDbEntity
  8
0
100
AcDbLine
 10
118.714
 20
185.814
 30
0.0
 11
118.772
 21
185.804
 31
0.0
  0
LINE
  5
883
330
1D
100
AcDbEntity
  8
0
100
AcDbLine
 10
118.714
 20
185.814
 30
0.0
 11
119.021
 21
186.151
 31
0.0
  0
LINE
  5
884
330
1D
100
AcDbEntity
  8
0
100
AcDbLine
 10
119.202
 20
201.0
 30
0.0
 11
119.53
 21
201.0
 31
0.0
  0
LINE
  5
885
330
1D
100
AcDbEntity
  8
0
100
AcDbLine
 10
119.53
 20
201.0
 30
0.0
 11
119.885
 21
201.0
 31
0.0
  0
LINE
  5
886
330
1D
100
AcDbEntity
  8
0
100
AcDbLine
 10
119.885
 20
201.0
 30
0.0
 11
119.981
 21
201.0
 31
0.0
  0
LINE
  5
887
330
1D
100
AcDbEntity
  8
0
100
AcDbLine
 10
118.647
 20
201.0
 30
0.0
 11
119.202
 21
201.0
 31
0.0
  0
LINE
  5
888
330
1D
100
AcDbEntity
  8
0
100
AcDbLine
 10
117.137
 20
201.0
 30
0.0
 11
117.983
 21
201.0
 31
0.0
  0
LINE
  5
889
330
1D
100
AcDbEntity
  8
0
100
AcDbLine
 10
116.27
 20
201.0
 30
0.0
 11
117.137
 21
201.0
 31
0.0
  0
LINE
  5
8D3
330
1D
100
AcDbEntity
  8
0
100
AcDbLine
 10
48.856160821491
 20
8.710931505326
 30
0.0
 11
51.1771
 21
8.52751017562
 31
0.0
  0
LINE
  5
8D4
330
1D
100
AcDbEntity
  8
0
100
AcDbLine
 10
2.134
 20
35.706
 30
0.0
 11
10.772
 21
37.795
 31
0.0
  0
LINE
  5
8D5
330
1D
100
AcDbEntity
  8
0
100
AcDbLine
 10
4.843
 20
9.99
 30
0.0
 11
17.927
 21
10.922
 31
0.0
  0
LINE
  5
8D6
330
1D
100
AcDbEntity
  8
0
100
AcDbLine
 10
24.064
 20
11.01
 30
0.0
 11
36.477
 21
11.017
 31
0.0
  0
LINE
  5
8D7
330
1D
100
AcDbEntity
  8
0
100
AcDbLine
 10
110.0861
 20
1.0
 30
0.0
 11
109.4861
 21
1.0
 31
0.0
  0
LINE
  5
8D8
330
1D
100
AcDbEntity
  8
0
100
AcDbLine
 10
109.9077
 20
2.0
 30
0.0
 11
108.5077
 21
2.0
 31
0.0
  0
LINE
  5
8D9
330
1D
100
AcDbEntity
  8
0
100
AcDbLine
 10
109.7457
 20
4.010910060362
 30
0.0
 11
109.3
 21
3.958
 31
0.0
  0
LINE
  5
8DA
330
1D
100
AcDbEntity
  8
0
100
AcDbLine
 10
109.525
 20
3.948
 30
0.0
 11
109.3
 21
3.958
 31
0.0
  0
LINE
  5
8DB
330
1D
100
AcDbEntity
  8
0
100
AcDbLine
 10
109.955
 20
5.501
 30
0.0
 11
108.937
 21
5.373
 31
0.0
  0
LINE
  5
8DC
330
1D
100
AcDbEntity
  8
0
100
AcDbLine
 10
109.552
 20
5.235
 30
0.0
 11
108.937
 21
5.27
 31
0.0
  0
LINE
  5
8DD
330
1D
100
AcDbEntity
  8
0
100
AcDbLine
 10
110.2229
 20
7.0
 30
0.0
 11
108.8229
 21
7.0
 31
0.0
  0
LINE
  5
8DE
330
1D
100
AcDbEntity
  8
0
100
AcDbLine
 10
111.649
 20
10.996
 30
0.0
 11
104.263
 21
10.987
 31
0.0
  0
LINE
  5
8DF
330
1D
100
AcDbEntity
  8
0
100
AcDbLine
 10
111.143839178509
 20
8.710931505326
 30
0.0
 11
108.8229
 21
8.52751017562
 31
0.0
  0
LINE
  5
8E0
330
1D
100
AcDbEntity
  8
0
100
AcDbLine
 10
135.9309
 20
3.0
 30
0.0
 11
134.5309
 21
3.0
 31
0.0
  0
LINE
  5
8E1
330
1D
100
AcDbEntity
  8
0
100
AcDbLine
 10
134.7317
 20
4.0
 30
0.0
 11
134.1317
 21
4.0
 31
0.0
  0
LINE
  5
8E2
330
1D
100
AcDbEntity
  8
0
100
AcDbLine
 10
134.9846
 20
5.5
 30
0.0
 11
133.5846
 21
5.5
 31
0.0
  0
LINE
  5
8E3
330
1D
100
AcDbEntity
  8
0
100
AcDbLine
 10
135.504
 20
7.656
 30
0.0
 11
134.212
 21
7.541
 31
0.0
  0
LINE
  5
8E4
330
1D
100
AcDbEntity
  8
0
100
AcDbLine
 10
135.936
 20
11.01
 30
0.0
 11
123.523
 21
11.017
 31
0.0
  0
LINE
  5
8E5
330
1D
100
AcDbEntity
  8
0
100
AcDbLine
 10
159.764
 20
34.325
 30
0.0
 11
159.011
 21
13.754
 31
0.0
  0
LINE
  5
8E6
330
1D
100
AcDbEntity
  8
0
100
AcDbLine
 10
150.558
 20
8.375
 30
0.0
 11
144.77
 21
7.023
 31
0.0
  0
LINE
  5
8E7
330
1D
100
AcDbEntity
  8
0
100
AcDbLine
 10
155.157
 20
9.99
 30
0.0
 11
142.073
 21
10.922
 31
0.0
  0
LINE
  5
8E8
330
1D
100
AcDbEntity
  8
0
100
AcDbLine
 10
159.011
 20
13.754
 30
0.0
 11
158.031
 21
11.694
 31
0.0
  0
LINE
  5
8E9
330
1D
100
AcDbEntity
  8
0
100
AcDbLine
 10
153.895
 20
9.443
 30
0.0
 11
150.558
 21
8.375
 31
0.0
  0
LINE
  5
8EA
330
1D
100
AcDbEntity
  8
0
100
AcDbLine
 10
155.281
 20
9.982
 30
0.0
 11
155.157
 21
9.99
 31
0.0
  0
LINE
  5
8EB
330
1D
100
AcDbEntity
  8
0
100
AcDbLine
 10
156.265
 20
10.412
 30
0.0
 11
155.281
 21
9.982
 31
0.0
  0
LINE
  5
8EC
330
1D
100
AcDbEntity
  8
0
100
AcDbLine
 10
158.031
 20
11.694
 30
0.0
 11
157.705
 21
11.294
 31
0.0
  0
LINE
  5
8ED
330
1D
100
AcDbEntity
  8
0
100
AcDbLine
 10
157.705
 20
11.294
 30
0.0
 11
156.265
 21
10.412
 31
0.0
  0
LINE
  5
8EE
330
1D
100
AcDbEntity
  8
0
100
AcDbLine
 10
155.281
 20
9.982
 30
0.0
 11
153.895
 21
9.443
 31
0.0
  0
LINE
  5
8EF
330
1D
100
AcDbEntity
  8
0
100
AcDbLine
 10
141.3229
 20
5.0
 30
0.0
 11
140.7229
 21
5.0
 31
0.0
  0
LINE
  5
8F0
330
1D
100
AcDbEntity
  8
0
100
AcDbLine
 10
141.3433
 20
5.0
 30
0.0
 11
139.9433
 21
5.0
 31
0.0
  0
LINE
  5
8F1
330
1D
100
AcDbEntity
  8
0
100
AcDbLine
 10
141.0229
 20
5.0
 30
0.0
 11
140.4229
 21
5.0
 31
0.0
  0
LINE
  5
8F2
330
1D
100
AcDbEntity
  8
0
100
AcDbLine
 10
141.355
 20
6.925
 30
0.0
 11
140.43
 21
6.789
 31
0.0
  0
LINE
  5
8F3
330
1D
100
AcDbEntity
  8
0
100
AcDbLine
 10
142.073
 20
10.922
 30
0.0
 11
139.307
 21
10.976
 31
0.0
  0
LINE
  5
8F4
330
1D
100
AcDbEntity
  8
0
100
AcDbLine
 10
141.3229
 20
5.0
 30
0.0
 11
141.3229
 21
6.920280432432
 31
0.0
  0
LINE
  5
8F5
330
1D
100
AcDbEntity
  8
0
100
AcDbLine
 10
142.4229
 20
5.0
 30
0.0
 11
142.4229
 21
6.589586592544
 31
0.0
  0
LINE
  5
8F6
330
1D
100
AcDbEntity
  8
0
100
AcDbLine
 10
141.9433
 20
5.0
 30
0.0
 11
141.9433
 21
6.646003394762
 31
0.0
  0
LINE
  5
8F7
330
1D
100
AcDbEntity
  8
0
100
AcDbLine
 10
144.4229
 20
5.0
 30
0.0
 11
144.4229
 21
6.953360084477
 31
0.0
  0
LINE
  5
8F8
330
1D
100
AcDbEntity
  8
0
100
AcDbLine
 10
144.4229
 20
5.0
 30
0.0
 11
144.4229
 21
6.975943522562
 31
0.0
  0
LINE
  5
8F9
330
1D
100
AcDbEntity
  8
0
100
AcDbLine
 10
142.4229
 20
6.589586592544
 30
0.0
 11
142.4229
 21
5.0
 31
0.0
  0
LINE
  5
8FA
330
1D
100
AcDbEntity
  8
0
100
AcDbLine
 10
141.9433
 20
6.646003394762
 30
0.0
 11
141.9433
 21
5.0
 31
0.0
  0
LINE
  5
8FB
330
1D
100
AcDbEntity
  8
0
100
AcDbLine
 10
144.4229
 20
6.953360084477
 30
0.0
 11
144.4229
 21
5.0
 31
0.0
  0
LINE
  5
8FC
330
1D
100
AcDbEntity
  8
0
100
AcDbLine
 10
144.4229
 20
6.975943522562
 30
0.0
 11
144.4229
 21
5.0
 31
0.0
  0
LINE
  5
8FD
330
1D
100
AcDbEntity
  8
0
100
AcDbLine
 10
141.3229
 20
6.920280432432
 30
0.0
 11
141.3229
 21
5.0
 31
0.0
  0
LINE
  5
8FE
330
1D
100
AcDbEntity
  8
0
100
AcDbLine
 10
141.3433
 20
5.0
 30
0.0
 11
141.0229
 21
5.0
 31
0.0
  0
LINE
  5
8FF
330
1D
100
AcDbEntity
  8
0
100
AcDbLine
 10
141.9433
 20
5.0
 30
0.0
 11
141.3433
 21
5.0
 31
0.0
  0
LINE
  5
900
330
1D
100
AcDbEntity
  8
0
100
AcDbLine
 10
144.4229
 20
5.0
 30
0.0
 11
143.8229
 21
5.0
 31
0.0
  0
LINE
  5
901
330
1D
100
AcDbEntity
  8
0
100
AcDbLine
 10
143.8229
 20
5.0
 30
0.0
 11
142.4229
 21
5.0
 31
0.0
  0
LINE
  5
902
330
1D
100
AcDbEntity
  8
0
100
AcDbLine
 10
142.3
 20
6.567
 30
0.0
 11
141.9433
 21
6.504985490196
 31
0.0
  0
LINE
  5
903
330
1D
100
AcDbEntity
  8
0
100
AcDbLine
 10
143.829
 20
6.848
 30
0.0
 11
142.3
 21
6.567
 31
0.0
  0
LINE
  5
904
330
1D
100
AcDbEntity
  8
0
100
AcDbLine
 10
141.478
 20
6.885
 30
0.0
 11
141.3229
 21
6.855668163265
 31
0.0
  0
LINE
  5
905
330
1D
100
AcDbEntity
  8
0
100
AcDbLine
 10
141.831
 20
6.967
 30
0.0
 11
141.767
 21
6.977
 31
0.0
  0
LINE
  5
906
330
1D
100
AcDbEntity
  8
0
100
AcDbLine
 10
141.831
 20
6.967
 30
0.0
 11
141.478
 21
6.885
 31
0.0
  0
LINE
  5
907
330
1D
100
AcDbEntity
  8
0
100
AcDbLine
 10
141.767
 20
6.977
 30
0.0
 11
141.355
 21
6.925
 31
0.0
  0
LINE
  5
908
330
1D
100
AcDbEntity
  8
0
100
AcDbLine
 10
144.775
 20
7.029
 30
0.0
 11
143.829
 21
6.848
 31
0.0
  0
LINE
  5
909
330
1D
100
AcDbEntity
  8
0
100
AcDbLine
 10
144.77
 20
7.023
 30
0.0
 11
144.4229
 21
6.953360084477
 31
0.0
  0
LINE
  5
90A
330
1D
100
AcDbEntity
  8
0
100
AcDbLine
 10
139.1517
 20
5.0
 30
0.0
 11
139.1517
 21
7.223235305918
 31
0.0
  0
LINE
  5
90B
330
1D
100
AcDbEntity
  8
0
100
AcDbLine
 10
135.5846
 20
5.5
 30
0.0
 11
135.5846
 21
7.657838245614
 31
0.0
  0
LINE
  5
90C
330
1D
100
AcDbEntity
  8
0
100
AcDbLine
 10
139.1517
 20
7.223235305918
 30
0.0
 11
139.1517
 21
5.0
 31
0.0
  0
LINE
  5
90D
330
1D
100
AcDbEntity
  8
0
100
AcDbLine
 10
135.5846
 20
7.657838245614
 30
0.0
 11
135.5846
 21
5.5
 31
0.0
  0
LINE
  5
90E
330
1D
100
AcDbEntity
  8
0
100
AcDbLine
 10
138.5517
 20
5.0
 30
0.0
 11
137.1517
 21
5.0
 31
0.0
  0
LINE
  5
90F
330
1D
100
AcDbEntity
  8
0
100
AcDbLine
 10
137.9229
 20
5.0
 30
0.0
 11
137.3229
 21
5.0
 31
0.0
  0
LINE
  5
910
330
1D
100
AcDbEntity
  8
0
100
AcDbLine
 10
139.1517
 20
5.0
 30
0.0
 11
138.5517
 21
5.0
 31
0.0
  0
LINE
  5
911
330
1D
100
AcDbEntity
  8
0
100
AcDbLine
 10
139.3229
 20
5.0
 30
0.0
 11
137.9229
 21
5.0
 31
0.0
  0
LINE
  5
912
330
1D
100
AcDbEntity
  8
0
100
AcDbLine
 10
140.7229
 20
5.0
 30
0.0
 11
139.3229
 21
5.0
 31
0.0
  0
LINE
  5
913
330
1D
100
AcDbEntity
  8
0
100
AcDbLine
 10
138.5433
 20
5.0
 30
0.0
 11
137.9433
 21
5.0
 31
0.0
  0
LINE
  5
914
330
1D
100
AcDbEntity
  8
0
100
AcDbLine
 10
139.9433
 20
5.0
 30
0.0
 11
138.5433
 21
5.0
 31
0.0
  0
LINE
  5
915
330
1D
100
AcDbEntity
  8
0
100
AcDbLine
 10
136.5309
 20
3.0
 30
0.0
 11
135.9309
 21
3.0
 31
0.0
  0
LINE
  5
916
330
1D
100
AcDbEntity
  8
0
100
AcDbLine
 10
136.5309
 20
3.0
 30
0.0
 11
136.5309
 21
5.0
 31
0.0
  0
LINE
  5
917
330
1D
100
AcDbEntity
  8
0
100
AcDbLine
 10
137.1517
 20
5.0
 30
0.0
 11
136.5309
 21
5.0
 31
0.0
  0
LINE
  5
918
330
1D
100
AcDbEntity
  8
0
100
AcDbLine
 10
137.1517
 20
5.0
 30
0.0
 11
135.7517
 21
5.0
 31
0.0
  0
LINE
  5
919
330
1D
100
AcDbEntity
  8
0
100
AcDbLine
 10
135.1517
 20
5.0
 30
0.0
 11
135.1517
 21
5.5
 31
0.0
  0
LINE
  5
91A
330
1D
100
AcDbEntity
  8
0
100
AcDbLine
 10
135.7517
 20
5.0
 30
0.0
 11
135.1517
 21
5.0
 31
0.0
  0
LINE
  5
91B
330
1D
100
AcDbEntity
  8
0
100
AcDbLine
 10
135.5846
 20
5.5
 30
0.0
 11
134.9846
 21
5.5
 31
0.0
  0
LINE
  5
91C
330
1D
100
AcDbEntity
  8
0
100
AcDbLine
 10
135.1517
 20
5.5
 30
0.0
 11
135.1517
 21
5.0
 31
0.0
  0
LINE
  5
91D
330
1D
100
AcDbEntity
  8
0
100
AcDbLine
 10
136.5309
 20
5.0
 30
0.0
 11
136.5309
 21
3.0
 31
0.0
  0
LINE
  5
91E
330
1D
100
AcDbEntity
  8
0
100
AcDbLine
 10
134.7317
 20
4.0
 30
0.0
 11
134.7317
 21
5.5
 31
0.0
  0
LINE
  5
91F
330
1D
100
AcDbEntity
  8
0
100
AcDbLine
 10
134.808
 20
5.038
 30
0.0
 11
134.7317
 21
5.030591688121
 31
0.0
  0
LINE
  5
920
330
1D
100
AcDbEntity
  8
0
100
AcDbLine
 10
134.7317
 20
5.5
 30
0.0
 11
134.7317
 21
4.0
 31
0.0
  0
LINE
  5
921
330
1D
100
AcDbEntity
  8
0
100
AcDbLine
 10
135.1517
 20
5.073482871891
 30
0.0
 11
134.808
 21
5.038
 31
0.0
  0
LINE
  5
922
330
1D
100
AcDbEntity
  8
0
100
AcDbLine
 10
139.25
 20
6.608
 30
0.0
 11
139.1517
 21
6.592580392157
 31
0.0
  0
LINE
  5
923
330
1D
100
AcDbEntity
  8
0
100
AcDbLine
 10
140.43
 20
6.789
 30
0.0
 11
139.25
 21
6.608
 31
0.0
  0
LINE
  5
924
330
1D
100
AcDbEntity
  8
0
100
AcDbLine
 10
137.0
 20
6.948
 30
0.0
 11
135.5846
 21
6.738602669633
 31
0.0
  0
LINE
  5
925
330
1D
100
AcDbEntity
  8
0
100
AcDbLine
 10
139.268
 20
7.237
 30
0.0
 11
138.271
 21
7.119
 31
0.0
  0
LINE
  5
926
330
1D
100
AcDbEntity
  8
0
100
AcDbLine
 10
139.745
 20
7.253
 30
0.0
 11
139.1517
 21
7.103772413793
 31
0.0
  0
LINE
  5
927
330
1D
100
AcDbEntity
  8
0
100
AcDbLine
 10
139.745
 20
7.253
 30
0.0
 11
139.268
 21
7.237
 31
0.0
  0
LINE
  5
928
330
1D
100
AcDbEntity
  8
0
100
AcDbLine
 10
138.271
 20
7.119
 30
0.0
 11
137.0
 21
6.948
 31
0.0
  0
LINE
  5
929
330
1D
100
AcDbEntity
  8
0
100
AcDbLine
 10
136.185
 20
7.617
 30
0.0
 11
136.074
 21
7.669
 31
0.0
  0
LINE
  5
92A
330
1D
100
AcDbEntity
  8
0
100
AcDbLine
 10
136.185
 20
7.617
 30
0.0
 11
135.732
 21
7.482
 31
0.0
  0
LINE
  5
92B
330
1D
100
AcDbEntity
  8
0
100
AcDbLine
 10
136.074
 20
7.669
 30
0.0
 11
135.504
 21
7.656
 31
0.0
  0
LINE
  5
92C
330
1D
100
AcDbEntity
  8
0
100
AcDbLine
 10
135.732
 20
7.482
 30
0.0
 11
135.5846
 21
7.455732040628
 31
0.0
  0
LINE
  5
92D
330
1D
100
AcDbEntity
  8
0
100
AcDbLine
 10
139.307
 20
10.976
 30
0.0
 11
135.936
 21
11.01
 31
0.0
  0
LINE
  5
92E
330
1D
100
AcDbEntity
  8
0
100
AcDbLine
 10
123.1937
 20
3.0
 30
0.0
 11
121.7937
 21
3.0
 31
0.0
  0
LINE
  5
92F
330
1D
100
AcDbEntity
  8
0
100
AcDbLine
 10
123.25
 20
4.789
 30
0.0
 11
121.605
 21
4.635
 31
0.0
  0
LINE
  5
930
330
1D
100
AcDbEntity
  8
0
100
AcDbLine
 10
123.523
 20
11.017
 30
0.0
 11
116.916
 21
11.004
 31
0.0
  0
LINE
  5
931
330
1D
100
AcDbEntity
  8
0
100
AcDbLine
 10
128.8383
 20
4.0
 30
0.0
 11
128.2383
 21
4.0
 31
0.0
  0
LINE
  5
932
330
1D
100
AcDbEntity
  8
0
100
AcDbLine
 10
129.7074
 20
4.0
 30
0.0
 11
128.3074
 21
4.0
 31
0.0
  0
LINE
  5
933
330
1D
100
AcDbEntity
  8
0
100
AcDbLine
 10
128.502
 20
6.361
 30
0.0
 11
127.746
 21
6.309
 31
0.0
  0
LINE
  5
934
330
1D
100
AcDbEntity
  8
0
100
AcDbLine
 10
128.439
 20
8.595
 30
0.0
 11
128.258
 21
8.383
 31
0.0
  0
LINE
  5
935
330
1D
100
AcDbEntity
  8
0
100
AcDbLine
 10
128.439
 20
8.595
 30
0.0
 11
128.049
 21
8.672
 31
0.0
  0
LINE
  5
936
330
1D
100
AcDbEntity
  8
0
100
AcDbLine
 10
128.8383
 20
4.0
 30
0.0
 11
128.8383
 21
6.368873244147
 31
0.0
  0
LINE
  5
937
330
1D
100
AcDbEntity
  8
0
100
AcDbLine
 10
131.5846
 20
5.5
 30
0.0
 11
131.5846
 21
7.16252
 31
0.0
  0
LINE
  5
938
330
1D
100
AcDbEntity
  8
0
100
AcDbLine
 10
128.8383
 20
6.368873244147
 30
0.0
 11
128.8383
 21
4.0
 31
0.0
  0
LINE
  5
939
330
1D
100
AcDbEntity
  8
0
100
AcDbLine
 10
131.5846
 20
7.16252
 30
0.0
 11
131.5846
 21
5.5
 31
0.0
  0
LINE
  5
93A
330
1D
100
AcDbEntity
  8
0
100
AcDbLine
 10
129.343
 20
6.297
 30
0.0
 11
128.8383
 21
6.215349848332
 31
0.0
  0
LINE
  5
93B
330
1D
100
AcDbEntity
  8
0
100
AcDbLine
 10
132.4263
 20
3.0
 30
0.0
 11
131.0263
 21
3.0
 31
0.0
  0
LINE
  5
93C
330
1D
100
AcDbEntity
  8
0
100
AcDbLine
 10
132.7317
 20
4.0
 30
0.0
 11
131.3317
 21
4.0
 31
0.0
  0
LINE
  5
93D
330
1D
100
AcDbEntity
  8
0
100
AcDbLine
 10
131.7074
 20
4.0
 30
0.0
 11
131.1074
 21
4.0
 31
0.0
  0
LINE
  5
93E
330
1D
100
AcDbEntity
  8
0
100
AcDbLine
 10
131.5846
 20
5.888601174743
 30
0.0
 11
130.844
 21
5.819
 31
0.0
  0
LINE
  5
93F
330
1D
100
AcDbEntity
  8
0
100
AcDbLine
 10
134.4263
 20
3.0
 30
0.0
 11
134.4263
 21
4.0
 31
0.0
  0
LINE
  5
940
330
1D
100
AcDbEntity
  8
0
100
AcDbLine
 10
134.4263
 20
4.0
 30
0.0
 11
134.4263
 21
3.0
 31
0.0
  0
LINE
  5
941
330
1D
100
AcDbEntity
  8
0
100
AcDbLine
 10
134.4263
 20
3.0
 30
0.0
 11
133.8264
 21
3.0
 31
0.0
  0
LINE
  5
942
330
1D
100
AcDbEntity
  8
0
100
AcDbLine
 10
133.8264
 20
3.0
 30
0.0
 11
132.4263
 21
3.0
 31
0.0
  0
LINE
  5
943
330
1D
100
AcDbEntity
  8
0
100
AcDbLine
 10
133.1309
 20
3.0
 30
0.0
 11
132.4263
 21
3.0
 31
0.0
  0
LINE
  5
944
330
1D
100
AcDbEntity
  8
0
100
AcDbLine
 10
133.1309
 20
3.0
 30
0.0
 11
132.5309
 21
3.0
 31
0.0
  0
LINE
  5
945
330
1D
100
AcDbEntity
  8
0
100
AcDbLine
 10
134.5309
 20
3.0
 30
0.0
 11
133.1309
 21
3.0
 31
0.0
  0
LINE
  5
946
330
1D
100
AcDbEntity
  8
0
100
AcDbLine
 10
132.7317
 20
4.0
 30
0.0
 11
132.7317
 21
5.5
 31
0.0
  0
LINE
  5
947
330
1D
100
AcDbEntity
  8
0
100
AcDbLine
 10
134.1317
 20
4.0
 30
0.0
 11
132.7317
 21
4.0
 31
0.0
  0
LINE
  5
948
330
1D
100
AcDbEntity
  8
0
100
AcDbLine
 10
133.5846
 20
5.5
 30
0.0
 11
132.1846
 21
5.5
 31
0.0
  0
LINE
  5
949
330
1D
100
AcDbEntity
  8
0
100
AcDbLine
 10
132.7317
 20
5.5
 30
0.0
 11
132.7317
 21
4.0
 31
0.0
  0
LINE
  5
94A
330
1D
100
AcDbEntity
  8
0
100
AcDbLine
 10
132.1846
 20
5.5
 30
0.0
 11
131.5846
 21
5.5
 31
0.0
  0
LINE
  5
94B
330
1D
100
AcDbEntity
  8
0
100
AcDbLine
 10
130.4263
 20
3.0
 30
0.0
 11
130.4263
 21
4.0
 31
0.0
  0
LINE
  5
94C
330
1D
100
AcDbEntity
  8
0
100
AcDbLine
 10
131.0263
 20
3.0
 30
0.0
 11
130.4263
 21
3.0
 31
0.0
  0
LINE
  5
94D
330
1D
100
AcDbEntity
  8
0
100
AcDbLine
 10
131.3317
 20
4.0
 30
0.0
 11
131.1074
 21
4.0
 31
0.0
  0
LINE
  5
94E
330
1D
100
AcDbEntity
  8
0
100
AcDbLine
 10
131.1074
 20
4.0
 30
0.0
 11
129.7074
 21
4.0
 31
0.0
  0
LINE
  5
94F
330
1D
100
AcDbEntity
  8
0
100
AcDbLine
 10
130.4263
 20
4.0
 30
0.0
 11
129.7074
 21
4.0
 31
0.0
  0
LINE
  5
950
330
1D
100
AcDbEntity
  8
0
100
AcDbLine
 10
130.4263
 20
4.0
 30
0.0
 11
130.4263
 21
3.0
 31
0.0
  0
LINE
  5
951
330
1D
100
AcDbEntity
  8
0
100
AcDbLine
 10
130.844
 20
5.819
 30
0.0
 11
129.75
 21
5.701
 31
0.0
  0
LINE
  5
952
330
1D
100
AcDbEntity
  8
0
100
AcDbLine
 10
129.75
 20
5.701
 30
0.0
 11
128.8383
 21
5.591884021871
 31
0.0
  0
LINE
  5
953
330
1D
100
AcDbEntity
  8
0
100
AcDbLine
 10
131.553
 20
6.969
 30
0.0
 11
131.039
 21
6.983
 31
0.0
  0
LINE
  5
954
330
1D
100
AcDbEntity
  8
0
100
AcDbLine
 10
129.399
 20
6.382
 30
0.0
 11
128.502
 21
6.361
 31
0.0
  0
LINE
  5
955
330
1D
100
AcDbEntity
  8
0
100
AcDbLine
 10
129.399
 20
6.382
 30
0.0
 11
129.343
 21
6.297
 31
0.0
  0
LINE
  5
956
330
1D
100
AcDbEntity
  8
0
100
AcDbLine
 10
133.6
 20
7.471
 30
0.0
 11
132.072
 21
7.26
 31
0.0
  0
LINE
  5
957
330
1D
100
AcDbEntity
  8
0
100
AcDbLine
 10
132.072
 20
7.26
 30
0.0
 11
131.127
 21
7.071
 31
0.0
  0
LINE
  5
958
330
1D
100
AcDbEntity
  8
0
100
AcDbLine
 10
131.127
 20
7.071
 30
0.0
 11
131.039
 21
6.983
 31
0.0
  0
LINE
  5
959
330
1D
100
AcDbEntity
  8
0
100
AcDbLine
 10
134.212
 20
7.541
 30
0.0
 11
133.6
 21
7.471
 31
0.0
  0
LINE
  5
95A
330
1D
100
AcDbEntity
  8
0
100
AcDbLine
 10
127.746
 20
6.309
 30
0.0
 11
126.9
 21
6.237
 31
0.0
  0
LINE
  5
95B
330
1D
100
AcDbEntity
  8
0
100
AcDbLine
 10
126.2179
 20
2.0
 30
0.0
 11
124.8179
 21
2.0
 31
0.0
  0
LINE
  5
95C
330
1D
100
AcDbEntity
  8
0
100
AcDbLine
 10
125.4383
 20
4.0
 30
0.0
 11
124.8383
 21
4.0
 31
0.0
  0
LINE
  5
95D
330
1D
100
AcDbEntity
  8
0
100
AcDbLine
 10
125.372
 20
6.074
 30
0.0
 11
124.427
 21
5.926
 31
0.0
  0
LINE
  5
95E
330
1D
100
AcDbEntity
  8
0
100
AcDbLine
 10
128.2179
 20
2.0
 30
0.0
 11
127.6179
 21
2.0
 31
0.0
  0
LINE
  5
95F
330
1D
100
AcDbEntity
  8
0
100
AcDbLine
 10
128.2179
 20
2.0
 30
0.0
 11
128.2179
 21
4.0
 31
0.0
  0
LINE
  5
960
330
1D
100
AcDbEntity
  8
0
100
AcDbLine
 10
127.6179
 20
2.0
 30
0.0
 11
126.2179
 21
2.0
 31
0.0
  0
LINE
  5
961
330
1D
100
AcDbEntity
  8
0
100
AcDbLine
 10
128.2383
 20
4.0
 30
0.0
 11
126.8383
 21
4.0
 31
0.0
  0
LINE
  5
962
330
1D
100
AcDbEntity
  8
0
100
AcDbLine
 10
128.3074
 20
4.0
 30
0.0
 11
128.2179
 21
4.0
 31
0.0
  0
LINE
  5
963
330
1D
100
AcDbEntity
  8
0
100
AcDbLine
 10
128.3074
 20
4.0
 30
0.0
 11
127.7074
 21
4.0
 31
0.0
  0
LINE
  5
964
330
1D
100
AcDbEntity
  8
0
100
AcDbLine
 10
126.8383
 20
4.0
 30
0.0
 11
125.4383
 21
4.0
 31
0.0
  0
LINE
  5
965
330
1D
100
AcDbEntity
  8
0
100
AcDbLine
 10
128.2179
 20
4.0
 30
0.0
 11
128.2179
 21
2.0
 31
0.0
  0
LINE
  5
966
330
1D
100
AcDbEntity
  8
0
100
AcDbLine
 10
126.9
 20
6.237
 30
0.0
 11
125.372
 21
6.074
 31
0.0
  0
LINE
  5
967
330
1D
100
AcDbEntity
  8
0
100
AcDbLine
 10
125.1937
 20
3.0
 30
0.0
 11
125.1937
 21
4.0
 31
0.0
  0
LINE
  5
968
330
1D
100
AcDbEntity
  8
0
100
AcDbLine
 10
125.1937
 20
4.0
 30
0.0
 11
125.1937
 21
3.0
 31
0.0
  0
LINE
  5
969
330
1D
100
AcDbEntity
  8
0
100
AcDbLine
 10
124.2179
 20
2.0
 30
0.0
 11
124.2179
 21
3.0
 31
0.0
  0
LINE
  5
96A
330
1D
100
AcDbEntity
  8
0
100
AcDbLine
 10
124.8179
 20
2.0
 30
0.0
 11
124.2179
 21
2.0
 31
0.0
  0
LINE
  5
96B
330
1D
100
AcDbEntity
  8
0
100
AcDbLine
 10
125.1937
 20
3.0
 30
0.0
 11
124.5937
 21
3.0
 31
0.0
  0
LINE
  5
96C
330
1D
100
AcDbEntity
  8
0
100
AcDbLine
 10
124.2179
 20
3.0
 30
0.0
 11
124.2179
 21
2.0
 31
0.0
  0
LINE
  5
96D
330
1D
100
AcDbEntity
  8
0
100
AcDbLine
 10
124.5937
 20
3.0
 30
0.0
 11
123.1937
 21
3.0
 31
0.0
  0
LINE
  5
96E
330
1D
100
AcDbEntity
  8
0
100
AcDbLine
 10
123.9761
 20
3.0
 30
0.0
 11
123.3761
 21
3.0
 31
0.0
  0
LINE
  5
96F
330
1D
100
AcDbEntity
  8
0
100
AcDbLine
 10
124.2179
 20
3.0
 30
0.0
 11
123.9761
 21
3.0
 31
0.0
  0
LINE
  5
970
330
1D
100
AcDbEntity
  8
0
100
AcDbLine
 10
124.2179
 20
3.0
 30
0.0
 11
123.1937
 21
3.0
 31
0.0
  0
LINE
  5
971
330
1D
100
AcDbEntity
  8
0
100
AcDbLine
 10
124.8383
 20
4.0
 30
0.0
 11
124.8383
 21
5.990415238095
 31
0.0
  0
LINE
  5
972
330
1D
100
AcDbEntity
  8
0
100
AcDbLine
 10
124.344
 20
4.884
 30
0.0
 11
123.25
 21
4.789
 31
0.0
  0
LINE
  5
973
330
1D
100
AcDbEntity
  8
0
100
AcDbLine
 10
124.8383
 20
4.923179044517
 30
0.0
 11
124.344
 21
4.884
 31
0.0
  0
LINE
  5
974
330
1D
100
AcDbEntity
  8
0
100
AcDbLine
 10
124.8383
 20
5.990415238095
 30
0.0
 11
124.8383
 21
4.0
 31
0.0
  0
LINE
  5
975
330
1D
100
AcDbEntity
  8
0
100
AcDbLine
 10
124.427
 20
5.926
 30
0.0
 11
124.427
 21
5.846
 31
0.0
  0
LINE
  5
976
330
1D
100
AcDbEntity
  8
0
100
AcDbLine
 10
124.8383
 20
5.853826004228
 30
0.0
 11
124.427
 21
5.846
 31
0.0
  0
LINE
  5
977
330
1D
100
AcDbEntity
  8
0
100
AcDbLine
 10
125.8569
 20
7.0
 30
0.0
 11
124.4569
 21
7.0
 31
0.0
  0
LINE
  5
978
330
1D
100
AcDbEntity
  8
0
100
AcDbLine
 10
125.7
 20
8.633
 30
0.0
 11
124.428
 21
8.499
 31
0.0
  0
LINE
  5
979
330
1D
100
AcDbEntity
  8
0
100
AcDbLine
 10
127.8569
 20
7.0
 30
0.0
 11
127.2569
 21
7.0
 31
0.0
  0
LINE
  5
97A
330
1D
100
AcDbEntity
  8
0
100
AcDbLine
 10
127.8569
 20
7.0
 30
0.0
 11
127.8569
 21
8.679935754986
 31
0.0
  0
LINE
  5
97B
330
1D
100
AcDbEntity
  8
0
100
AcDbLine
 10
127.2569
 20
7.0
 30
0.0
 11
125.8569
 21
7.0
 31
0.0
  0
LINE
  5
97C
330
1D
100
AcDbEntity
  8
0
100
AcDbLine
 10
128.258
 20
8.383
 30
0.0
 11
127.8569
 21
8.299870466321
 31
0.0
  0
LINE
  5
97D
330
1D
100
AcDbEntity
  8
0
100
AcDbLine
 10
127.8569
 20
8.679935754986
 30
0.0
 11
127.8569
 21
7.0
 31
0.0
  0
LINE
  5
97E
330
1D
100
AcDbEntity
  8
0
100
AcDbLine
 10
127.347
 20
8.701
 30
0.0
 11
125.7
 21
8.633
 31
0.0
  0
LINE
  5
97F
330
1D
100
AcDbEntity
  8
0
100
AcDbLine
 10
128.049
 20
8.672
 30
0.0
 11
127.347
 21
8.701
 31
0.0
  0
LINE
  5
980
330
1D
100
AcDbEntity
  8
0
100
AcDbLine
 10
123.8569
 20
7.0
 30
0.0
 11
123.8569
 21
8.398827217742
 31
0.0
  0
LINE
  5
981
330
1D
100
AcDbEntity
  8
0
100
AcDbLine
 10
124.4569
 20
7.0
 30
0.0
 11
123.8569
 21
7.0
 31
0.0
  0
LINE
  5
982
330
1D
100
AcDbEntity
  8
0
100
AcDbLine
 10
123.8569
 20
7.931569142857
 30
0.0
 11
123.436
 21
7.946
 31
0.0
  0
LINE
  5
983
330
1D
100
AcDbEntity
  8
0
100
AcDbLine
 10
123.436
 20
7.946
 30
0.0
 11
122.901
 21
8.094
 31
0.0
  0
LINE
  5
984
330
1D
100
AcDbEntity
  8
0
100
AcDbLine
 10
123.240797297297
 20
8.0
 30
0.0
 11
122.901
 21
8.094
 31
0.0
  0
LINE
  5
985
330
1D
100
AcDbEntity
  8
0
100
AcDbLine
 10
123.436
 20
8.325
 30
0.0
 11
122.901
 21
8.094
 31
0.0
  0
LINE
  5
986
330
1D
100
AcDbEntity
  8
0
100
AcDbLine
 10
123.8569
 20
8.398827217742
 30
0.0
 11
123.436
 21
8.325
 31
0.0
  0
LINE
  5
987
330
1D
100
AcDbEntity
  8
0
100
AcDbLine
 10
123.8569
 20
8.398827217742
 30
0.0
 11
123.8569
 21
7.0
 31
0.0
  0
LINE
  5
988
330
1D
100
AcDbEntity
  8
0
100
AcDbLine
 10
124.428
 20
8.499
 30
0.0
 11
123.436
 21
8.325
 31
0.0
  0
LINE
  5
989
330
1D
100
AcDbEntity
  8
0
100
AcDbLine
 10
116.8848
 20
2.0
 30
0.0
 11
115.4848
 21
2.0
 31
0.0
  0
LINE
  5
98A
330
1D
100
AcDbEntity
  8
0
100
AcDbLine
 10
116.6457
 20
3.0
 30
0.0
 11
115.2457
 21
3.0
 31
0.0
  0
LINE
  5
98B
330
1D
100
AcDbEntity
  8
0
100
AcDbLine
 10
116.287
 20
6.283
 30
0.0
 11
115.738
 21
6.324
 31
0.0
  0
LINE
  5
98C
330
1D
100
AcDbEntity
  8
0
100
AcDbLine
 10
116.755
 20
6.629
 30
0.0
 11
115.738
 21
6.458
 31
0.0
  0
LINE
  5
98D
330
1D
100
AcDbEntity
  8
0
100
AcDbLine
 10
116.916
 20
11.004
 30
0.0
 11
111.649
 21
10.996
 31
0.0
  0
LINE
  5
98E
330
1D
100
AcDbEntity
  8
0
100
AcDbLine
 10
120.5475
 20
5.0
 30
0.0
 11
120.5475
 21
6.830355769231
 31
0.0
  0
LINE
  5
98F
330
1D
100
AcDbEntity
  8
0
100
AcDbLine
 10
116.5475
 20
5.0
 30
0.0
 11
116.5475
 21
6.594110619469
 31
0.0
  0
LINE
  5
990
330
1D
100
AcDbEntity
  8
0
100
AcDbLine
 10
120.5475
 20
6.830355769231
 30
0.0
 11
120.5475
 21
5.0
 31
0.0
  0
LINE
  5
991
330
1D
100
AcDbEntity
  8
0
100
AcDbLine
 10
116.5475
 20
6.594110619469
 30
0.0
 11
116.5475
 21
5.0
 31
0.0
  0
LINE
  5
992
330
1D
100
AcDbEntity
  8
0
100
AcDbLine
 10
119.1677
 20
2.0
 30
0.0
 11
117.7677
 21
2.0
 31
0.0
  0
LINE
  5
993
330
1D
100
AcDbEntity
  8
0
100
AcDbLine
 10
119.0063
 20
3.0
 30
0.0
 11
117.6063
 21
3.0
 31
0.0
  0
LINE
  5
994
330
1D
100
AcDbEntity
  8
0
100
AcDbLine
 10
119.9475
 20
5.0
 30
0.0
 11
118.5475
 21
5.0
 31
0.0
  0
LINE
  5
995
330
1D
100
AcDbEntity
  8
0
100
AcDbLine
 10
118.986442307692
 20
5.0
 30
0.0
 11
117.919
 21
4.906
 31
0.0
  0
LINE
  5
996
330
1D
100
AcDbEntity
  8
0
100
AcDbLine
 10
121.1677
 20
2.0
 30
0.0
 11
121.1677
 21
3.739833729448
 31
0.0
  0
LINE
  5
997
330
1D
100
AcDbEntity
  8
0
100
AcDbLine
 10
121.1677
 20
2.0
 30
0.0
 11
121.1677
 21
3.940282798427
 31
0.0
  0
LINE
  5
998
330
1D
100
AcDbEntity
  8
0
100
AcDbLine
 10
121.1937
 20
3.0
 30
0.0
 11
121.1937
 21
4.590152946955
 31
0.0
  0
LINE
  5
999
330
1D
100
AcDbEntity
  8
0
100
AcDbLine
 10
121.0063
 20
3.0
 30
0.0
 11
121.0063
 21
5.130597945205
 31
0.0
  0
LINE
  5
99A
330
1D
100
AcDbEntity
  8
0
100
AcDbLine
 10
121.1937
 20
4.590152946955
 30
0.0
 11
121.1937
 21
3.0
 31
0.0
  0
LINE
  5
99B
330
1D
100
AcDbEntity
  8
0
100
AcDbLine
 10
121.1677
 20
3.940282798427
 30
0.0
 11
121.1677
 21
2.0
 31
0.0
  0
LINE
  5
99C
330
1D
100
AcDbEntity
  8
0
100
AcDbLine
 10
121.1677
 20
3.739833729448
 30
0.0
 11
121.1677
 21
2.0
 31
0.0
  0
LINE
  5
99D
330
1D
100
AcDbEntity
  8
0
100
AcDbLine
 10
121.0063
 20
5.130597945205
 30
0.0
 11
121.0063
 21
3.0
 31
0.0
  0
LINE
  5
99E
330
1D
100
AcDbEntity
  8
0
100
AcDbLine
 10
121.1677
 20
2.0
 30
0.0
 11
120.5677
 21
2.0
 31
0.0
  0
LINE
  5
99F
330
1D
100
AcDbEntity
  8
0
100
AcDbLine
 10
120.5677
 20
2.0
 30
0.0
 11
119.1677
 21
2.0
 31
0.0
  0
LINE
  5
9A0
330
1D
100
AcDbEntity
  8
0
100
AcDbLine
 10
121.0063
 20
3.0
 30
0.0
 11
120.4063
 21
3.0
 31
0.0
  0
LINE
  5
9A1
330
1D
100
AcDbEntity
  8
0
100
AcDbLine
 10
120.4063
 20
3.0
 30
0.0
 11
119.0063
 21
3.0
 31
0.0
  0
LINE
  5
9A2
330
1D
100
AcDbEntity
  8
0
100
AcDbLine
 10
121.7937
 20
3.0
 30
0.0
 11
121.1937
 21
3.0
 31
0.0
  0
LINE
  5
9A3
330
1D
100
AcDbEntity
  8
0
100
AcDbLine
 10
121.605
 20
4.635
 30
0.0
 11
121.0063
 21
4.56971935167
 31
0.0
  0
LINE
  5
9A4
330
1D
100
AcDbEntity
  8
0
100
AcDbLine
 10
120.5475
 20
5.0
 30
0.0
 11
119.9475
 21
5.0
 31
0.0
  0
LINE
  5
9A5
330
1D
100
AcDbEntity
  8
0
100
AcDbLine
 10
121.573
 20
5.14
 30
0.0
 11
121.033
 21
5.132
 31
0.0
  0
LINE
  5
9A6
330
1D
100
AcDbEntity
  8
0
100
AcDbLine
 10
121.686
 20
5.107
 30
0.0
 11
121.573
 21
5.14
 31
0.0
  0
LINE
  5
9A7
330
1D
100
AcDbEntity
  8
0
100
AcDbLine
 10
121.686
 20
5.107
 30
0.0
 11
121.0063
 21
4.996333773377
 31
0.0
  0
LINE
  5
9A8
330
1D
100
AcDbEntity
  8
0
100
AcDbLine
 10
121.033
 20
5.132
 30
0.0
 11
120.5475
 21
5.106505707763
 31
0.0
  0
LINE
  5
9A9
330
1D
100
AcDbEntity
  8
0
100
AcDbLine
 10
117.0063
 20
3.0
 30
0.0
 11
117.0063
 21
4.804038937093
 31
0.0
  0
LINE
  5
9AA
330
1D
100
AcDbEntity
  8
0
100
AcDbLine
 10
117.0063
 20
4.804038937093
 30
0.0
 11
117.0063
 21
3.0
 31
0.0
  0
LINE
  5
9AB
330
1D
100
AcDbEntity
  8
0
100
AcDbLine
 10
117.1677
 20
2.0
 30
0.0
 11
117.1677
 21
3.0
 31
0.0
  0
LINE
  5
9AC
330
1D
100
AcDbEntity
  8
0
100
AcDbLine
 10
117.7677
 20
2.0
 30
0.0
 11
117.1677
 21
2.0
 31
0.0
  0
LINE
  5
9AD
330
1D
100
AcDbEntity
  8
0
100
AcDbLine
 10
117.4848
 20
2.0
 30
0.0
 11
116.8848
 21
2.0
 31
0.0
  0
LINE
  5
9AE
330
1D
100
AcDbEntity
  8
0
100
AcDbLine
 10
118.6457
 20
3.0
 30
0.0
 11
118.0457
 21
3.0
 31
0.0
  0
LINE
  5
9AF
330
1D
100
AcDbEntity
  8
0
100
AcDbLine
 10
118.0457
 20
3.0
 30
0.0
 11
116.6457
 21
3.0
 31
0.0
  0
LINE
  5
9B0
330
1D
100
AcDbEntity
  8
0
100
AcDbLine
 10
117.1677
 20
3.0
 30
0.0
 11
117.1677
 21
2.0
 31
0.0
  0
LINE
  5
9B1
330
1D
100
AcDbEntity
  8
0
100
AcDbLine
 10
117.6063
 20
3.0
 30
0.0
 11
117.0063
 21
3.0
 31
0.0
  0
LINE
  5
9B2
330
1D
100
AcDbEntity
  8
0
100
AcDbLine
 10
117.0063
 20
3.678116735367
 30
0.0
 11
116.6
 21
3.654
 31
0.0
  0
LINE
  5
9B3
330
1D
100
AcDbEntity
  8
0
100
AcDbLine
 10
117.0063
 20
4.689178125
 30
0.0
 11
116.5
 21
4.705
 31
0.0
  0
LINE
  5
9B4
330
1D
100
AcDbEntity
  8
0
100
AcDbLine
 10
116.997
 20
4.803
 30
0.0
 11
116.5
 21
4.705
 31
0.0
  0
LINE
  5
9B5
330
1D
100
AcDbEntity
  8
0
100
AcDbLine
 10
117.1475
 20
5.0
 30
0.0
 11
116.5475
 21
5.0
 31
0.0
  0
LINE
  5
9B6
330
1D
100
AcDbEntity
  8
0
100
AcDbLine
 10
118.5475
 20
5.0
 30
0.0
 11
117.1475
 21
5.0
 31
0.0
  0
LINE
  5
9B7
330
1D
100
AcDbEntity
  8
0
100
AcDbLine
 10
117.919
 20
4.906
 30
0.0
 11
116.997
 21
4.803
 31
0.0
  0
LINE
  5
9B8
330
1D
100
AcDbEntity
  8
0
100
AcDbLine
 10
120.046
 20
6.84
 30
0.0
 11
118.4
 21
6.774
 31
0.0
  0
LINE
  5
9B9
330
1D
100
AcDbEntity
  8
0
100
AcDbLine
 10
120.826
 20
6.825
 30
0.0
 11
120.046
 21
6.84
 31
0.0
  0
LINE
  5
9BA
330
1D
100
AcDbEntity
  8
0
100
AcDbLine
 10
121.185
 20
6.718
 30
0.0
 11
120.5475
 21
6.564058238636
 31
0.0
  0
LINE
  5
9BB
330
1D
100
AcDbEntity
  8
0
100
AcDbLine
 10
121.185
 20
6.718
 30
0.0
 11
120.826
 21
6.825
 31
0.0
  0
LINE
  5
9BC
330
1D
100
AcDbEntity
  8
0
100
AcDbLine
 10
116.5475
 20
6.283587373168
 30
0.0
 11
116.287
 21
6.283
 31
0.0
  0
LINE
  5
9BD
330
1D
100
AcDbEntity
  8
0
100
AcDbLine
 10
118.4
 20
6.774
 30
0.0
 11
116.755
 21
6.629
 31
0.0
  0
LINE
  5
9BE
330
1D
100
AcDbEntity
  8
0
100
AcDbLine
 10
112.8861
 20
1.0
 30
0.0
 11
111.4861
 21
1.0
 31
0.0
  0
LINE
  5
9BF
330
1D
100
AcDbEntity
  8
0
100
AcDbLine
 10
113.1947
 20
2.0
 30
0.0
 11
111.7947
 21
2.0
 31
0.0
  0
LINE
  5
9C0
330
1D
100
AcDbEntity
  8
0
100
AcDbLine
 10
113.1457
 20
4.0
 30
0.0
 11
111.7457
 21
4.0
 31
0.0
  0
LINE
  5
9C1
330
1D
100
AcDbEntity
  8
0
100
AcDbLine
 10
113.4
 20
5.652
 30
0.0
 11
112.558
 21
5.641
 31
0.0
  0
LINE
  5
9C2
330
1D
100
AcDbEntity
  8
0
100
AcDbLine
 10
113.7947
 20
2.0
 30
0.0
 11
113.7947
 21
4.244245717345
 31
0.0
  0
LINE
  5
9C3
330
1D
100
AcDbEntity
  8
0
100
AcDbLine
 10
114.6457
 20
3.0
 30
0.0
 11
114.6457
 21
3.54081120944
 31
0.0
  0
LINE
  5
9C4
330
1D
100
AcDbEntity
  8
0
100
AcDbLine
 10
114.6457
 20
3.54081120944
 30
0.0
 11
114.6457
 21
3.0
 31
0.0
  0
LINE
  5
9C5
330
1D
100
AcDbEntity
  8
0
100
AcDbLine
 10
113.7947
 20
4.244245717345
 30
0.0
 11
113.7947
 21
2.0
 31
0.0
  0
LINE
  5
9C6
330
1D
100
AcDbEntity
  8
0
100
AcDbLine
 10
114.0848
 20
2.0
 30
0.0
 11
113.4861
 21
2.0
 31
0.0
  0
LINE
  5
9C7
330
1D
100
AcDbEntity
  8
0
100
AcDbLine
 10
115.4848
 20
2.0
 30
0.0
 11
114.0848
 21
2.0
 31
0.0
  0
LINE
  5
9C8
330
1D
100
AcDbEntity
  8
0
100
AcDbLine
 10
113.7947
 20
2.0
 30
0.0
 11
113.4861
 21
2.0
 31
0.0
  0
LINE
  5
9C9
330
1D
100
AcDbEntity
  8
0
100
AcDbLine
 10
113.7947
 20
2.0
 30
0.0
 11
113.1947
 21
2.0
 31
0.0
  0
LINE
  5
9CA
330
1D
100
AcDbEntity
  8
0
100
AcDbLine
 10
113.4861
 20
2.0
 30
0.0
 11
113.4861
 21
1.0
 31
0.0
  0
LINE
  5
9CB
330
1D
100
AcDbEntity
  8
0
100
AcDbLine
 10
113.4861
 20
1.0
 30
0.0
 11
112.8861
 21
1.0
 31
0.0
  0
LINE
  5
9CC
330
1D
100
AcDbEntity
  8
0
100
AcDbLine
 10
113.4861
 20
1.0
 30
0.0
 11
113.4861
 21
2.0
 31
0.0
  0
LINE
  5
9CD
330
1D
100
AcDbEntity
  8
0
100
AcDbLine
 10
113.954
 20
2.93
 30
0.0
 11
113.7947
 21
2.919680212014
 31
0.0
  0
LINE
  5
9CE
330
1D
100
AcDbEntity
  8
0
100
AcDbLine
 10
115.2457
 20
3.0
 30
0.0
 11
114.6457
 21
3.0
 31
0.0
  0
LINE
  5
9CF
330
1D
100
AcDbEntity
  8
0
100
AcDbLine
 10
115.011064220183
 20
3.0
 30
0.0
 11
113.954
 21
2.93
 31
0.0
  0
LINE
  5
9D0
330
1D
100
AcDbEntity
  8
0
100
AcDbLine
 10
114.751
 20
5.595
 30
0.0
 11
113.4
 21
5.652
 31
0.0
  0
LINE
  5
9D1
330
1D
100
AcDbEntity
  8
0
100
AcDbLine
 10
114.751
 20
5.595
 30
0.0
 11
113.7457
 21
5.436412330009
 31
0.0
  0
LINE
  5
9D2
330
1D
100
AcDbEntity
  8
0
100
AcDbLine
 10
114.499
 20
4.244
 30
0.0
 11
114.055
 21
4.254
 31
0.0
  0
LINE
  5
9D3
330
1D
100
AcDbEntity
  8
0
100
AcDbLine
 10
114.499
 20
4.244
 30
0.0
 11
113.949
 21
4.176
 31
0.0
  0
LINE
  5
9D4
330
1D
100
AcDbEntity
  8
0
100
AcDbLine
 10
113.7457
 20
4.0
 30
0.0
 11
113.1457
 21
4.0
 31
0.0
  0
LINE
  5
9D5
330
1D
100
AcDbEntity
  8
0
100
AcDbLine
 10
113.7457
 20
4.0
 30
0.0
 11
113.7457
 21
5.637414581791
 31
0.0
  0
LINE
  5
9D6
330
1D
100
AcDbEntity
  8
0
100
AcDbLine
 10
113.949
 20
4.176
 30
0.0
 11
113.7947
 21
4.16446989011
 31
0.0
  0
LINE
  5
9D7
330
1D
100
AcDbEntity
  8
0
100
AcDbLine
 10
114.055
 20
4.254
 30
0.0
 11
113.7457
 21
4.242409528908
 31
0.0
  0
LINE
  5
9D8
330
1D
100
AcDbEntity
  8
0
100
AcDbLine
 10
113.7457
 20
5.637414581791
 30
0.0
 11
113.7457
 21
4.0
 31
0.0
  0
LINE
  5
9D9
330
1D
100
AcDbEntity
  8
0
100
AcDbLine
 10
109.7947
 20
2.0
 30
0.0
 11
109.7947
 21
4.0
 31
0.0
  0
LINE
  5
9DA
330
1D
100
AcDbEntity
  8
0
100
AcDbLine
 10
109.7947
 20
4.0
 30
0.0
 11
109.7947
 21
2.0
 31
0.0
  0
LINE
  5
9DB
330
1D
100
AcDbEntity
  8
0
100
AcDbLine
 10
111.4861
 20
1.0
 30
0.0
 11
110.0861
 21
1.0
 31
0.0
  0
LINE
  5
9DC
330
1D
100
AcDbEntity
  8
0
100
AcDbLine
 10
110.3947
 20
2.0
 30
0.0
 11
109.7947
 21
2.0
 31
0.0
  0
LINE
  5
9DD
330
1D
100
AcDbEntity
  8
0
100
AcDbLine
 10
110.3947
 20
2.0
 30
0.0
 11
109.9077
 21
2.0
 31
0.0
  0
LINE
  5
9DE
330
1D
100
AcDbEntity
  8
0
100
AcDbLine
 10
111.9077
 20
2.0
 30
0.0
 11
111.7947
 21
2.0
 31
0.0
  0
LINE
  5
9DF
330
1D
100
AcDbEntity
  8
0
100
AcDbLine
 10
111.7947
 20
2.0
 30
0.0
 11
110.3947
 21
2.0
 31
0.0
  0
LINE
  5
9E0
330
1D
100
AcDbEntity
  8
0
100
AcDbLine
 10
110.3457
 20
4.0
 30
0.0
 11
109.7457
 21
4.0
 31
0.0
  0
LINE
  5
9E1
330
1D
100
AcDbEntity
  8
0
100
AcDbLine
 10
111.7457
 20
4.0
 30
0.0
 11
110.3457
 21
4.0
 31
0.0
  0
LINE
  5
9E2
330
1D
100
AcDbEntity
  8
0
100
AcDbLine
 10
109.7457
 20
4.0
 30
0.0
 11
109.7457
 21
5.474683300589
 31
0.0
  0
LINE
  5
9E3
330
1D
100
AcDbEntity
  8
0
100
AcDbLine
 10
109.7947
 20
3.954360849057
 30
0.0
 11
109.525
 21
3.948
 31
0.0
  0
LINE
  5
9E4
330
1D
100
AcDbEntity
  8
0
100
AcDbLine
 10
109.7457
 20
5.474683300589
 30
0.0
 11
109.7457
 21
4.0
 31
0.0
  0
LINE
  5
9E5
330
1D
100
AcDbEntity
  8
0
100
AcDbLine
 10
112.558
 20
5.641
 30
0.0
 11
111.6
 21
5.607
 31
0.0
  0
LINE
  5
9E6
330
1D
100
AcDbEntity
  8
0
100
AcDbLine
 10
111.6
 20
5.607
 30
0.0
 11
109.955
 21
5.501
 31
0.0
  0
LINE
  5
9E7
330
1D
100
AcDbEntity
  8
0
100
AcDbLine
 10
109.7457
 20
5.2355811
 30
0.0
 11
109.552
 21
5.235
 31
0.0
  0
LINE
  5
9E8
330
1D
100
AcDbEntity
  8
0
100
AcDbLine
 10
115.738
 20
6.458
 30
0.0
 11
115.738
 21
6.324
 31
0.0
  0
LINE
  5
9E9
330
1D
100
AcDbEntity
  8
0
100
AcDbLine
 10
112.2229
 20
7.0
 30
0.0
 11
111.6229
 21
7.0
 31
0.0
  0
LINE
  5
9EA
330
1D
100
AcDbEntity
  8
0
100
AcDbLine
 10
112.2229
 20
7.0
 30
0.0
 11
112.2229
 21
8.699322775424
 31
0.0
  0
LINE
  5
9EB
330
1D
100
AcDbEntity
  8
0
100
AcDbLine
 10
111.6229
 20
7.0
 30
0.0
 11
110.2229
 21
7.0
 31
0.0
  0
LINE
  5
9EC
330
1D
100
AcDbEntity
  8
0
100
AcDbLine
 10
112.404
 20
8.266
 30
0.0
 11
112.2229
 21
8.24163989239
 31
0.0
  0
LINE
  5
9ED
330
1D
100
AcDbEntity
  8
0
100
AcDbLine
 10
112.868
 20
8.439
 30
0.0
 11
112.772
 21
8.608
 31
0.0
  0
LINE
  5
9EE
330
1D
100
AcDbEntity
  8
0
100
AcDbLine
 10
112.868
 20
8.439
 30
0.0
 11
112.404
 21
8.266
 31
0.0
  0
LINE
  5
9EF
330
1D
100
AcDbEntity
  8
0
100
AcDbLine
 10
112.2229
 20
8.699322775424
 30
0.0
 11
112.2229
 21
7.0
 31
0.0
  0
LINE
  5
9F0
330
1D
100
AcDbEntity
  8
0
100
AcDbLine
 10
112.772
 20
8.608
 30
0.0
 11
111.828
 21
8.765
 31
0.0
  0
LINE
  5
9F1
330
1D
100
AcDbEntity
  8
0
100
AcDbLine
 10
111.828
 20
8.765
 30
0.0
 11
111.143839178509
 21
8.710931505326
 31
0.0
  0
LINE
  5
9F2
330
1D
100
AcDbEntity
  8
0
100
AcDbLine
 10
86.193
 20
1.66251
 30
0.0
 11
83.364
 21
1.66251
 31
0.0
  0
LINE
  5
9F3
330
1D
100
AcDbEntity
  8
0
100
AcDbLine
 10
92.155
 20
10.98
 30
0.0
 11
80.0
 21
10.979
 31
0.0
  0
LINE
  5
9F4
330
1D
100
AcDbEntity
  8
0
100
AcDbLine
 10
97.7359
 20
1.0
 30
0.0
 11
96.3359
 21
1.0
 31
0.0
  0
LINE
  5
9F5
330
1D
100
AcDbEntity
  8
0
100
AcDbLine
 10
97.6131
 20
2.0
 30
0.0
 11
96.2131
 21
2.0
 31
0.0
  0
LINE
  5
9F6
330
1D
100
AcDbEntity
  8
0
100
AcDbLine
 10
97.0964
 20
3.0
 30
0.0
 11
96.4964
 21
3.0
 31
0.0
  0
LINE
  5
9F7
330
1D
100
AcDbEntity
  8
0
100
AcDbLine
 10
97.17
 20
5.249
 30
0.0
 11
96.316
 21
5.272
 31
0.0
  0
LINE
  5
9F8
330
1D
100
AcDbEntity
  8
0
100
AcDbLine
 10
97.047
 20
8.188
 30
0.0
 11
96.5941
 21
8.135442836676
 31
0.0
  0
LINE
  5
9F9
330
1D
100
AcDbEntity
  8
0
100
AcDbLine
 10
97.085
 20
8.686
 30
0.0
 11
96.5941
 21
8.737747293447
 31
0.0
  0
LINE
  5
9FA
330
1D
100
AcDbEntity
  8
0
100
AcDbLine
 10
104.263
 20
10.987
 30
0.0
 11
92.155
 21
10.98
 31
0.0
  0
LINE
  5
9FB
330
1D
100
AcDbEntity
  8
0
100
AcDbLine
 10
97.085
 20
8.686
 30
0.0
 11
95.681
 21
8.834
 31
0.0
  0
LINE
  5
9FC
330
1D
100
AcDbEntity
  8
0
100
AcDbLine
 10
103.6261
 20
1.0
 30
0.0
 11
102.2261
 21
1.0
 31
0.0
  0
LINE
  5
9FD
330
1D
100
AcDbEntity
  8
0
100
AcDbLine
 10
104.5826
 20
2.0
 30
0.0
 11
103.1825
 21
2.0
 31
0.0
  0
LINE
  5
9FE
330
1D
100
AcDbEntity
  8
0
100
AcDbLine
 10
104.3347
 20
3.0
 30
0.0
 11
102.9347
 21
3.0
 31
0.0
  0
LINE
  5
9FF
330
1D
100
AcDbEntity
  8
0
100
AcDbLine
 10
104.25
 20
4.402
 30
0.0
 11
102.725
 21
4.315
 31
0.0
  0
LINE
  5
A00
330
1D
100
AcDbEntity
  8
0
100
AcDbLine
 10
103.5013
 20
5.0
 30
0.0
 11
102.1013
 21
5.0
 31
0.0
  0
LINE
  5
A01
330
1D
100
AcDbEntity
  8
0
100
AcDbLine
 10
103.728
 20
6.383
 30
0.0
 11
102.2
 21
6.381
 31
0.0
  0
LINE
  5
A02
330
1D
100
AcDbEntity
  8
0
100
AcDbLine
 10
104.1013
 20
5.0
 30
0.0
 11
104.1013
 21
6.350968961864
 31
0.0
  0
LINE
  5
A03
330
1D
100
AcDbEntity
  8
0
100
AcDbLine
 10
104.673
 20
6.168
 30
0.0
 11
104.672
 21
6.302
 31
0.0
  0
LINE
  5
A04
330
1D
100
AcDbEntity
  8
0
100
AcDbLine
 10
104.1013
 20
6.350968961864
 30
0.0
 11
104.1013
 21
5.0
 31
0.0
  0
LINE
  5
A05
330
1D
100
AcDbEntity
  8
0
100
AcDbLine
 10
106.5826
 20
2.0
 30
0.0
 11
105.9826
 21
2.0
 31
0.0
  0
LINE
  5
A06
330
1D
100
AcDbEntity
  8
0
100
AcDbLine
 10
107.037
 20
3.204
 30
0.0
 11
106.3347
 21
3.185992307692
 31
0.0
  0
LINE
  5
A07
330
1D
100
AcDbEntity
  8
0
100
AcDbLine
 10
106.416
 20
3.729
 30
0.0
 11
106.3347
 21
3.724294533762
 31
0.0
  0
LINE
  5
A08
330
1D
100
AcDbEntity
  8
0
100
AcDbLine
 10
106.416
 20
3.729
 30
0.0
 11
106.3347
 21
3.727442086586
 31
0.0
  0
LINE
  5
A09
330
1D
100
AcDbEntity
  8
0
100
AcDbLine
 10
106.416
 20
3.729
 30
0.0
 11
106.3347
 21
3.726866991758
 31
0.0
  0
LINE
  5
A0A
330
1D
100
AcDbEntity
  8
0
100
AcDbLine
 10
106.932
 20
4.421
 30
0.0
 11
105.521
 21
4.443
 31
0.0
  0
LINE
  5
A0B
330
1D
100
AcDbEntity
  8
0
100
AcDbLine
 10
106.913
 20
4.347
 30
0.0
 11
106.3347
 21
4.284450344149
 31
0.0
  0
LINE
  5
A0C
330
1D
100
AcDbEntity
  8
0
100
AcDbLine
 10
107.9077
 20
2.0
 30
0.0
 11
107.9077
 21
3.211913144759
 31
0.0
  0
LINE
  5
A0D
330
1D
100
AcDbEntity
  8
0
100
AcDbLine
 10
106.5826
 20
2.0
 30
0.0
 11
106.5826
 21
3.192348717949
 31
0.0
  0
LINE
  5
A0E
330
1D
100
AcDbEntity
  8
0
100
AcDbLine
 10
107.9077
 20
3.211913144759
 30
0.0
 11
107.9077
 21
2.0
 31
0.0
  0
LINE
  5
A0F
330
1D
100
AcDbEntity
  8
0
100
AcDbLine
 10
106.5826
 20
3.192348717949
 30
0.0
 11
106.5826
 21
2.0
 31
0.0
  0
LINE
  5
A10
330
1D
100
AcDbEntity
  8
0
100
AcDbLine
 10
109.4861
 20
1.0
 30
0.0
 11
109.4861
 21
2.0
 31
0.0
  0
LINE
  5
A11
330
1D
100
AcDbEntity
  8
0
100
AcDbLine
 10
109.4861
 20
2.0
 30
0.0
 11
109.4861
 21
1.0
 31
0.0
  0
LINE
  5
A12
330
1D
100
AcDbEntity
  8
0
100
AcDbLine
 10
109.4861
 20
2.0
 30
0.0
 11
108.5077
 21
2.0
 31
0.0
  0
LINE
  5
A13
330
1D
100
AcDbEntity
  8
0
100
AcDbLine
 10
108.5077
 20
2.0
 30
0.0
 11
107.9077
 21
2.0
 31
0.0
  0
LINE
  5
A14
330
1D
100
AcDbEntity
  8
0
100
AcDbLine
 10
106.5826
 20
2.0
 30
0.0
 11
106.5826
 21
2.541109467865
 31
0.0
  0
LINE
  5
A15
330
1D
100
AcDbEntity
  8
0
100
AcDbLine
 10
107.9077
 20
2.608221354527
 30
0.0
 11
106.5826
 21
2.541109467865
 31
0.0
  0
LINE
  5
A16
330
1D
100
AcDbEntity
  8
0
100
AcDbLine
 10
106.5826
 20
2.541109467865
 30
0.0
 11
106.5826
 21
2.0
 31
0.0
  0
LINE
  5
A17
330
1D
100
AcDbEntity
  8
0
100
AcDbLine
 10
108.937
 20
5.373
 30
0.0
 11
108.937
 21
5.27
 31
0.0
  0
LINE
  5
A18
330
1D
100
AcDbEntity
  8
0
100
AcDbLine
 10
107.037
 20
3.204
 30
0.0
 11
106.888
 21
3.186
 31
0.0
  0
LINE
  5
A19
330
1D
100
AcDbEntity
  8
0
100
AcDbLine
 10
106.888
 20
3.186
 30
0.0
 11
106.5826
 21
3.171333898305
 31
0.0
  0
LINE
  5
A1A
330
1D
100
AcDbEntity
  8
0
100
AcDbLine
 10
106.932
 20
4.421
 30
0.0
 11
106.913
 21
4.347
 31
0.0
  0
LINE
  5
A1B
330
1D
100
AcDbEntity
  8
0
100
AcDbLine
 10
106.3347
 20
3.0
 30
0.0
 11
106.3347
 21
4.430312969525
 31
0.0
  0
LINE
  5
A1C
330
1D
100
AcDbEntity
  8
0
100
AcDbLine
 10
106.3347
 20
4.430312969525
 30
0.0
 11
106.3347
 21
3.0
 31
0.0
  0
LINE
  5
A1D
330
1D
100
AcDbEntity
  8
0
100
AcDbLine
 10
104.2261
 20
1.0
 30
0.0
 11
103.6261
 21
1.0
 31
0.0
  0
LINE
  5
A1E
330
1D
100
AcDbEntity
  8
0
100
AcDbLine
 10
104.2261
 20
1.0
 30
0.0
 11
104.2261
 21
2.0
 31
0.0
  0
LINE
  5
A1F
330
1D
100
AcDbEntity
  8
0
100
AcDbLine
 10
104.5826
 20
2.0
 30
0.0
 11
104.2261
 21
2.0
 31
0.0
  0
LINE
  5
A20
330
1D
100
AcDbEntity
  8
0
100
AcDbLine
 10
105.9826
 20
2.0
 30
0.0
 11
104.5826
 21
2.0
 31
0.0
  0
LINE
  5
A21
330
1D
100
AcDbEntity
  8
0
100
AcDbLine
 10
104.2261
 20
2.0
 30
0.0
 11
104.2261
 21
1.0
 31
0.0
  0
LINE
  5
A22
330
1D
100
AcDbEntity
  8
0
100
AcDbLine
 10
106.3347
 20
3.0
 30
0.0
 11
105.7347
 21
3.0
 31
0.0
  0
LINE
  5
A23
330
1D
100
AcDbEntity
  8
0
100
AcDbLine
 10
105.7347
 20
3.0
 30
0.0
 11
104.3347
 21
3.0
 31
0.0
  0
LINE
  5
A24
330
1D
100
AcDbEntity
  8
0
100
AcDbLine
 10
105.521
 20
4.443
 30
0.0
 11
104.25
 21
4.402
 31
0.0
  0
LINE
  5
A25
330
1D
100
AcDbEntity
  8
0
100
AcDbLine
 10
104.1013
 20
5.0
 30
0.0
 11
103.5013
 21
5.0
 31
0.0
  0
LINE
  5
A26
330
1D
100
AcDbEntity
  8
0
100
AcDbLine
 10
104.673
 20
6.168
 30
0.0
 11
104.1013
 21
6.075121293375
 31
0.0
  0
LINE
  5
A27
330
1D
100
AcDbEntity
  8
0
100
AcDbLine
 10
108.2229
 20
7.0
 30
0.0
 11
108.2229
 21
8.480092820248
 31
0.0
  0
LINE
  5
A28
330
1D
100
AcDbEntity
  8
0
100
AcDbLine
 10
108.8229
 20
7.0
 30
0.0
 11
108.2229
 21
7.0
 31
0.0
  0
LINE
  5
A29
330
1D
100
AcDbEntity
  8
0
100
AcDbLine
 10
108.2229
 20
8.149647761194
 30
0.0
 11
107.757
 21
8.247
 31
0.0
  0
LINE
  5
A2A
330
1D
100
AcDbEntity
  8
0
100
AcDbLine
 10
104.672
 20
6.302
 30
0.0
 11
103.728
 21
6.383
 31
0.0
  0
LINE
  5
A2B
330
1D
100
AcDbEntity
  8
0
100
AcDbLine
 10
108.2229
 20
8.480092820248
 30
0.0
 11
108.2229
 21
7.0
 31
0.0
  0
LINE
  5
A2C
330
1D
100
AcDbEntity
  8
0
100
AcDbLine
 10
107.956
 20
8.459
 30
0.0
 11
107.757
 21
8.247
 31
0.0
  0
LINE
  5
A2D
330
1D
100
AcDbEntity
  8
0
100
AcDbLine
 10
108.8229
 20
8.52751017562
 30
0.0
 11
107.956
 21
8.459
 31
0.0
  0
LINE
  5
A2E
330
1D
100
AcDbEntity
  8
0
100
AcDbLine
 10
101.142
 20
6.333
 30
0.0
 11
100.269
 21
6.256
 31
0.0
  0
LINE
  5
A2F
330
1D
100
AcDbEntity
  8
0
100
AcDbLine
 10
100.2261
 20
2.258231857814
 30
0.0
 11
99.7359
 21
2.24277954393
 31
0.0
  0
LINE
  5
A30
330
1D
100
AcDbEntity
  8
0
100
AcDbLine
 10
100.2261
 20
2.354287096774
 30
0.0
 11
99.7359
 21
2.34219487666
 31
0.0
  0
LINE
  5
A31
330
1D
100
AcDbEntity
  8
0
100
AcDbLine
 10
100.2261
 20
2.387180263158
 30
0.0
 11
99.7359
 21
2.363530263158
 31
0.0
  0
LINE
  5
A32
330
1D
100
AcDbEntity
  8
0
100
AcDbLine
 10
100.175
 20
2.926
 30
0.0
 11
99.7359
 21
2.915379906977
 31
0.0
  0
LINE
  5
A33
330
1D
100
AcDbEntity
  8
0
100
AcDbLine
 10
100.344
 20
2.927
 30
0.0
 11
99.54
 21
2.902
 31
0.0
  0
LINE
  5
A34
330
1D
100
AcDbEntity
  8
0
100
AcDbLine
 10
100.554
 20
2.403
 30
0.0
 11
99.7359
 21
2.363530263158
 31
0.0
  0
LINE
  5
A35
330
1D
100
AcDbEntity
  8
0
100
AcDbLine
 10
100.2261
 20
2.371170284304
 30
0.0
 11
99.7359
 21
2.359779075626
 31
0.0
  0
LINE
  5
A36
330
1D
100
AcDbEntity
  8
0
100
AcDbLine
 10
100.1013
 20
5.987014712919
 30
0.0
 11
99.948
 21
5.996
 31
0.0
  0
LINE
  5
A37
330
1D
100
AcDbEntity
  8
0
100
AcDbLine
 10
100.1013
 20
6.220411755725
 30
0.0
 11
99.614
 21
6.117
 31
0.0
  0
LINE
  5
A38
330
1D
100
AcDbEntity
  8
0
100
AcDbLine
 10
100.269
 20
6.256
 30
0.0
 11
99.614
 21
6.117
 31
0.0
  0
LINE
  5
A39
330
1D
100
AcDbEntity
  8
0
100
AcDbLine
 10
102.3347
 20
3.0
 30
0.0
 11
102.3347
 21
4.277558430233
 31
0.0
  0
LINE
  5
A3A
330
1D
100
AcDbEntity
  8
0
100
AcDbLine
 10
102.3347
 20
4.277558430233
 30
0.0
 11
102.3347
 21
3.0
 31
0.0
  0
LINE
  5
A3B
330
1D
100
AcDbEntity
  8
0
100
AcDbLine
 10
102.2261
 20
1.0
 30
0.0
 11
100.8261
 21
1.0
 31
0.0
  0
LINE
  5
A3C
330
1D
100
AcDbEntity
  8
0
100
AcDbLine
 10
102.2
 20
2.472
 30
0.0
 11
100.554
 21
2.403
 31
0.0
  0
LINE
  5
A3D
330
1D
100
AcDbEntity
  8
0
100
AcDbLine
 10
102.5826
 20
2.0
 30
0.0
 11
102.5826
 21
3.0
 31
0.0
  0
LINE
  5
A3E
330
1D
100
AcDbEntity
  8
0
100
AcDbLine
 10
103.1825
 20
2.0
 30
0.0
 11
102.5826
 21
2.0
 31
0.0
  0
LINE
  5
A3F
330
1D
100
AcDbEntity
  8
0
100
AcDbLine
 10
102.9347
 20
3.0
 30
0.0
 11
102.3347
 21
3.0
 31
0.0
  0
LINE
  5
A40
330
1D
100
AcDbEntity
  8
0
100
AcDbLine
 10
102.5826
 20
3.0
 30
0.0
 11
102.5826
 21
2.0
 31
0.0
  0
LINE
  5
A41
330
1D
100
AcDbEntity
  8
0
100
AcDbLine
 10
102.5826
 20
2.963924301766
 30
0.0
 11
102.411
 21
2.955
 31
0.0
  0
LINE
  5
A42
330
1D
100
AcDbEntity
  8
0
100
AcDbLine
 10
102.5826
 20
2.486876306197
 30
0.0
 11
102.2
 21
2.472
 31
0.0
  0
LINE
  5
A43
330
1D
100
AcDbEntity
  8
0
100
AcDbLine
 10
100.2261
 20
1.0
 30
0.0
 11
100.2261
 21
2.387180263158
 31
0.0
  0
LINE
  5
A44
330
1D
100
AcDbEntity
  8
0
100
AcDbLine
 10
100.8261
 20
1.0
 30
0.0
 11
100.2261
 21
1.0
 31
0.0
  0
LINE
  5
A45
330
1D
100
AcDbEntity
  8
0
100
AcDbLine
 10
100.2261
 20
2.387180263158
 30
0.0
 11
100.2261
 21
1.0
 31
0.0
  0
LINE
  5
A46
330
1D
100
AcDbEntity
  8
0
100
AcDbLine
 10
100.344
 20
2.927
 30
0.0
 11
100.175
 21
2.926
 31
0.0
  0
LINE
  5
A47
330
1D
100
AcDbEntity
  8
0
100
AcDbLine
 10
101.693
 20
4.216
 30
0.0
 11
101.511
 21
4.13
 31
0.0
  0
LINE
  5
A48
330
1D
100
AcDbEntity
  8
0
100
AcDbLine
 10
102.106
 20
4.099
 30
0.0
 11
101.511
 21
4.13
 31
0.0
  0
LINE
  5
A49
330
1D
100
AcDbEntity
  8
0
100
AcDbLine
 10
102.3347
 20
4.100878010949
 30
0.0
 11
102.106
 21
4.099
 31
0.0
  0
LINE
  5
A4A
330
1D
100
AcDbEntity
  8
0
100
AcDbLine
 10
102.725
 20
4.315
 30
0.0
 11
101.693
 21
4.216
 31
0.0
  0
LINE
  5
A4B
330
1D
100
AcDbEntity
  8
0
100
AcDbLine
 10
100.1013
 20
5.0
 30
0.0
 11
100.1013
 21
6.220411755725
 31
0.0
  0
LINE
  5
A4C
330
1D
100
AcDbEntity
  8
0
100
AcDbLine
 10
100.7013
 20
5.0
 30
0.0
 11
100.1013
 21
5.0
 31
0.0
  0
LINE
  5
A4D
330
1D
100
AcDbEntity
  8
0
100
AcDbLine
 10
102.1013
 20
5.0
 30
0.0
 11
100.7013
 21
5.0
 31
0.0
  0
LINE
  5
A4E
330
1D
100
AcDbEntity
  8
0
100
AcDbLine
 10
100.1013
 20
6.220411755725
 30
0.0
 11
100.1013
 21
5.0
 31
0.0
  0
LINE
  5
A4F
330
1D
100
AcDbEntity
  8
0
100
AcDbLine
 10
98.2131
 20
2.0
 30
0.0
 11
98.2131
 21
3.67081740413
 31
0.0
  0
LINE
  5
A50
330
1D
100
AcDbEntity
  8
0
100
AcDbLine
 10
97.0964
 20
3.0
 30
0.0
 11
97.0964
 21
5.250982201405
 31
0.0
  0
LINE
  5
A51
330
1D
100
AcDbEntity
  8
0
100
AcDbLine
 10
98.2131
 20
3.67081740413
 30
0.0
 11
98.2131
 21
2.0
 31
0.0
  0
LINE
  5
A52
330
1D
100
AcDbEntity
  8
0
100
AcDbLine
 10
97.0964
 20
5.250982201405
 30
0.0
 11
97.0964
 21
3.0
 31
0.0
  0
LINE
  5
A53
330
1D
100
AcDbEntity
  8
0
100
AcDbLine
 10
99.7359
 20
1.0
 30
0.0
 11
99.1359
 21
1.0
 31
0.0
  0
LINE
  5
A54
330
1D
100
AcDbEntity
  8
0
100
AcDbLine
 10
99.7359
 20
1.0
 30
0.0
 11
99.7359
 21
2.24277954393
 31
0.0
  0
LINE
  5
A55
330
1D
100
AcDbEntity
  8
0
100
AcDbLine
 10
99.7359
 20
1.0
 30
0.0
 11
99.7359
 21
2.918093692078
 31
0.0
  0
LINE
  5
A56
330
1D
100
AcDbEntity
  8
0
100
AcDbLine
 10
99.1359
 20
1.0
 30
0.0
 11
97.7359
 21
1.0
 31
0.0
  0
LINE
  5
A57
330
1D
100
AcDbEntity
  8
0
100
AcDbLine
 10
98.2131
 20
2.0
 30
0.0
 11
97.6131
 21
2.0
 31
0.0
  0
LINE
  5
A58
330
1D
100
AcDbEntity
  8
0
100
AcDbLine
 10
99.7359
 20
2.24277954393
 30
0.0
 11
99.7359
 21
1.0
 31
0.0
  0
LINE
  5
A59
330
1D
100
AcDbEntity
  8
0
100
AcDbLine
 10
98.732
 20
2.878
 30
0.0
 11
98.2131
 21
2.864081008584
 31
0.0
  0
LINE
  5
A5A
330
1D
100
AcDbEntity
  8
0
100
AcDbLine
 10
99.7359
 20
2.918093692078
 30
0.0
 11
99.7359
 21
1.0
 31
0.0
  0
LINE
  5
A5B
330
1D
100
AcDbEntity
  8
0
100
AcDbLine
 10
99.54
 20
2.902
 30
0.0
 11
98.732
 21
2.878
 31
0.0
  0
LINE
  5
A5C
330
1D
100
AcDbEntity
  8
0
100
AcDbLine
 10
98.913
 20
3.666
 30
0.0
 11
97.896
 21
3.673
 31
0.0
  0
LINE
  5
A5D
330
1D
100
AcDbEntity
  8
0
100
AcDbLine
 10
98.913
 20
3.627
 30
0.0
 11
98.23
 21
3.587
 31
0.0
  0
LINE
  5
A5E
330
1D
100
AcDbEntity
  8
0
100
AcDbLine
 10
97.896
 20
3.673
 30
0.0
 11
97.0964
 21
3.659398055893
 31
0.0
  0
LINE
  5
A5F
330
1D
100
AcDbEntity
  8
0
100
AcDbLine
 10
98.084
 20
5.156
 30
0.0
 11
97.17
 21
5.249
 31
0.0
  0
LINE
  5
A60
330
1D
100
AcDbEntity
  8
0
100
AcDbLine
 10
98.084
 20
5.156
 30
0.0
 11
97.106
 21
5.022
 31
0.0
  0
LINE
  5
A61
330
1D
100
AcDbEntity
  8
0
100
AcDbLine
 10
99.948
 20
5.996
 30
0.0
 11
99.614
 21
6.117
 31
0.0
  0
LINE
  5
A62
330
1D
100
AcDbEntity
  8
0
100
AcDbLine
 10
102.2
 20
6.381
 30
0.0
 11
101.142
 21
6.333
 31
0.0
  0
LINE
  5
A63
330
1D
100
AcDbEntity
  8
0
100
AcDbLine
 10
97.6
 20
8.438
 30
0.0
 11
97.047
 21
8.188
 31
0.0
  0
LINE
  5
A64
330
1D
100
AcDbEntity
  8
0
100
AcDbLine
 10
97.6
 20
8.438
 30
0.0
 11
97.085
 21
8.686
 31
0.0
  0
LINE
  5
A65
330
1D
100
AcDbEntity
  8
0
100
AcDbLine
 10
91.15
 20
0.0
 30
0.0
 11
90.55
 21
0.0
 31
0.0
  0
LINE
  5
A66
330
1D
100
AcDbEntity
  8
0
100
AcDbLine
 10
91.188
 20
2.782
 30
0.0
 11
90.502
 21
2.794
 31
0.0
  0
LINE
  5
A67
330
1D
100
AcDbEntity
  8
0
100
AcDbLine
 10
90.808
 20
2.756
 30
0.0
 11
90.193
 21
2.741323325635
 31
0.0
  0
LINE
  5
A68
330
1D
100
AcDbEntity
  8
0
100
AcDbLine
 10
90.728
 20
2.183
 30
0.0
 11
90.193
 21
2.175647251309
 31
0.0
  0
LINE
  5
A69
330
1D
100
AcDbEntity
  8
0
100
AcDbLine
 10
95.0964
 20
3.0
 30
0.0
 11
93.6964
 21
3.0
 31
0.0
  0
LINE
  5
A6A
330
1D
100
AcDbEntity
  8
0
100
AcDbLine
 10
94.054
 20
2.096
 30
0.0
 11
93.0876
 21
2.078661151258
 31
0.0
  0
LINE
  5
A6B
330
1D
100
AcDbEntity
  8
0
100
AcDbLine
 10
94.079
 20
5.229
 30
0.0
 11
93.144
 21
5.162
 31
0.0
  0
LINE
  5
A6C
330
1D
100
AcDbEntity
  8
0
100
AcDbLine
 10
95.7359
 20
1.0
 30
0.0
 11
95.7359
 21
2.0
 31
0.0
  0
LINE
  5
A6D
330
1D
100
AcDbEntity
  8
0
100
AcDbLine
 10
96.3359
 20
1.0
 30
0.0
 11
95.7359
 21
1.0
 31
0.0
  0
LINE
  5
A6E
330
1D
100
AcDbEntity
  8
0
100
AcDbLine
 10
96.2131
 20
2.0
 30
0.0
 11
94.8131
 21
2.0
 31
0.0
  0
LINE
  5
A6F
330
1D
100
AcDbEntity
  8
0
100
AcDbLine
 10
95.7359
 20
2.0
 30
0.0
 11
95.7359
 21
1.0
 31
0.0
  0
LINE
  5
A70
330
1D
100
AcDbEntity
  8
0
100
AcDbLine
 10
94.2131
 20
2.0
 30
0.0
 11
94.2131
 21
3.0
 31
0.0
  0
LINE
  5
A71
330
1D
100
AcDbEntity
  8
0
100
AcDbLine
 10
94.8131
 20
2.0
 30
0.0
 11
94.2131
 21
2.0
 31
0.0
  0
LINE
  5
A72
330
1D
100
AcDbEntity
  8
0
100
AcDbLine
 10
95.7359
 20
2.0
 30
0.0
 11
94.8131
 21
2.0
 31
0.0
  0
LINE
  5
A73
330
1D
100
AcDbEntity
  8
0
100
AcDbLine
 10
94.2131
 20
3.0
 30
0.0
 11
94.2131
 21
2.0
 31
0.0
  0
LINE
  5
A74
330
1D
100
AcDbEntity
  8
0
100
AcDbLine
 10
96.4964
 20
3.0
 30
0.0
 11
95.0964
 21
3.0
 31
0.0
  0
LINE
  5
A75
330
1D
100
AcDbEntity
  8
0
100
AcDbLine
 10
94.2131
 20
2.099802995461
 30
0.0
 11
94.054
 21
2.096
 31
0.0
  0
LINE
  5
A76
330
1D
100
AcDbEntity
  8
0
100
AcDbLine
 10
95.3
 20
5.268
 30
0.0
 11
94.079
 21
5.229
 31
0.0
  0
LINE
  5
A77
330
1D
100
AcDbEntity
  8
0
100
AcDbLine
 10
96.316
 20
5.272
 30
0.0
 11
95.3
 21
5.268
 31
0.0
  0
LINE
  5
A78
330
1D
100
AcDbEntity
  8
0
100
AcDbLine
 10
93.0964
 20
3.0
 30
0.0
 11
93.0964
 21
5.151015384615
 31
0.0
  0
LINE
  5
A79
330
1D
100
AcDbEntity
  8
0
100
AcDbLine
 10
93.0964
 20
5.151015384615
 30
0.0
 11
93.0964
 21
3.0
 31
0.0
  0
LINE
  5
A7A
330
1D
100
AcDbEntity
  8
0
100
AcDbLine
 10
91.15
 20
0.0
 30
0.0
 11
91.15
 21
1.66251
 31
0.0
  0
LINE
  5
A7B
330
1D
100
AcDbEntity
  8
0
100
AcDbLine
 10
91.15
 20
0.0
 30
0.0
 11
91.15
 21
2.186669565217
 31
0.0
  0
LINE
  5
A7C
330
1D
100
AcDbEntity
  8
0
100
AcDbLine
 10
91.15
 20
1.66251
 30
0.0
 11
91.15
 21
0.0
 31
0.0
  0
LINE
  5
A7D
330
1D
100
AcDbEntity
  8
0
100
AcDbLine
 10
92.776
 20
1.66251
 30
0.0
 11
92.308
 21
1.66251
 31
0.0
  0
LINE
  5
A7E
330
1D
100
AcDbEntity
  8
0
100
AcDbLine
 10
92.308
 20
1.66251
 30
0.0
 11
91.15
 21
1.66251
 31
0.0
  0
LINE
  5
A7F
330
1D
100
AcDbEntity
  8
0
100
AcDbLine
 10
93.0876
 20
1.96251
 30
0.0
 11
92.62
 21
1.96251
 31
0.0
  0
LINE
  5
A80
330
1D
100
AcDbEntity
  8
0
100
AcDbLine
 10
93.0876
 20
1.96251
 30
0.0
 11
92.776
 21
1.66251
 31
0.0
  0
LINE
  5
A81
330
1D
100
AcDbEntity
  8
0
100
AcDbLine
 10
93.0876
 20
1.96251
 30
0.0
 11
93.0876
 21
2.078661151258
 31
0.0
  0
LINE
  5
A82
330
1D
100
AcDbEntity
  8
0
100
AcDbLine
 10
92.62
 20
1.96251
 30
0.0
 11
91.372
 21
1.96251
 31
0.0
  0
LINE
  5
A83
330
1D
100
AcDbEntity
  8
0
100
AcDbLine
 10
91.372
 20
1.96251
 30
0.0
 11
91.15
 21
1.96251
 31
0.0
  0
LINE
  5
A84
330
1D
100
AcDbEntity
  8
0
100
AcDbLine
 10
93.0876
 20
2.078661151258
 30
0.0
 11
93.0876
 21
1.96251
 31
0.0
  0
LINE
  5
A85
330
1D
100
AcDbEntity
  8
0
100
AcDbLine
 10
93.6964
 20
3.0
 30
0.0
 11
93.0964
 21
3.0
 31
0.0
  0
LINE
  5
A86
330
1D
100
AcDbEntity
  8
0
100
AcDbLine
 10
91.743
 20
2.186
 30
0.0
 11
91.303
 21
2.188
 31
0.0
  0
LINE
  5
A87
330
1D
100
AcDbEntity
  8
0
100
AcDbLine
 10
91.15
 20
2.186669565217
 30
0.0
 11
91.15
 21
0.0
 31
0.0
  0
LINE
  5
A88
330
1D
100
AcDbEntity
  8
0
100
AcDbLine
 10
91.188
 20
2.782
 30
0.0
 11
90.808
 21
2.756
 31
0.0
  0
LINE
  5
A89
330
1D
100
AcDbEntity
  8
0
100
AcDbLine
 10
91.303
 20
2.188
 30
0.0
 11
90.728
 21
2.183
 31
0.0
  0
LINE
  5
A8A
330
1D
100
AcDbEntity
  8
0
100
AcDbLine
 10
91.743
 20
2.174
 30
0.0
 11
91.15
 21
2.15109063893
 31
0.0
  0
LINE
  5
A8B
330
1D
100
AcDbEntity
  8
0
100
AcDbLine
 10
93.144
 20
5.162
 30
0.0
 11
92.702
 21
5.06
 31
0.0
  0
LINE
  5
A8C
330
1D
100
AcDbEntity
  8
0
100
AcDbLine
 10
93.0876
 20
5.001809454545
 30
0.0
 11
93.0876
 21
5.148984615385
 31
0.0
  0
LINE
  5
A8D
330
1D
100
AcDbEntity
  8
0
100
AcDbLine
 10
93.0876
 20
5.148984615385
 30
0.0
 11
93.0876
 21
5.001809454545
 31
0.0
  0
LINE
  5
A8E
330
1D
100
AcDbEntity
  8
0
100
AcDbLine
 10
93.0964
 20
5.000481454545
 30
0.0
 11
92.702
 21
5.06
 31
0.0
  0
LINE
  5
A8F
330
1D
100
AcDbEntity
  8
0
100
AcDbLine
 10
94.5941
 20
7.0
 30
0.0
 11
93.1941
 21
7.0
 31
0.0
  0
LINE
  5
A90
330
1D
100
AcDbEntity
  8
0
100
AcDbLine
 10
94.8
 20
8.846
 30
0.0
 11
93.63
 21
8.791
 31
0.0
  0
LINE
  5
A91
330
1D
100
AcDbEntity
  8
0
100
AcDbLine
 10
96.5941
 20
7.0
 30
0.0
 11
95.9941
 21
7.0
 31
0.0
  0
LINE
  5
A92
330
1D
100
AcDbEntity
  8
0
100
AcDbLine
 10
96.5941
 20
7.0
 30
0.0
 11
96.5941
 21
8.737747293447
 31
0.0
  0
LINE
  5
A93
330
1D
100
AcDbEntity
  8
0
100
AcDbLine
 10
95.9941
 20
7.0
 30
0.0
 11
94.5941
 21
7.0
 31
0.0
  0
LINE
  5
A94
330
1D
100
AcDbEntity
  8
0
100
AcDbLine
 10
96.5941
 20
8.135442836676
 30
0.0
 11
96.5941
 21
8.737747293447
 31
0.0
  0
LINE
  5
A95
330
1D
100
AcDbEntity
  8
0
100
AcDbLine
 10
96.5941
 20
8.737747293447
 30
0.0
 11
96.5941
 21
8.135442836676
 31
0.0
  0
LINE
  5
A96
330
1D
100
AcDbEntity
  8
0
100
AcDbLine
 10
96.5941
 20
8.737747293447
 30
0.0
 11
96.5941
 21
7.0
 31
0.0
  0
LINE
  5
A97
330
1D
100
AcDbEntity
  8
0
100
AcDbLine
 10
95.681
 20
8.834
 30
0.0
 11
94.8
 21
8.846
 31
0.0
  0
LINE
  5
A98
330
1D
100
AcDbEntity
  8
0
100
AcDbLine
 10
92.594
 20
7.0
 30
0.0
 11
92.594
 21
8.639732441472
 31
0.0
  0
LINE
  5
A99
330
1D
100
AcDbEntity
  8
0
100
AcDbLine
 10
93.1941
 20
7.0
 30
0.0
 11
92.594
 21
7.0
 31
0.0
  0
LINE
  5
A9A
330
1D
100
AcDbEntity
  8
0
100
AcDbLine
 10
92.594
 20
8.186565081839
 30
0.0
 11
92.074
 21
8.281
 31
0.0
  0
LINE
  5
A9B
330
1D
100
AcDbEntity
  8
0
100
AcDbLine
 10
92.08
 20
8.479
 30
0.0
 11
92.074
 21
8.281
 31
0.0
  0
LINE
  5
A9C
330
1D
100
AcDbEntity
  8
0
100
AcDbLine
 10
93.63
 20
8.791
 30
0.0
 11
92.678
 21
8.666
 31
0.0
  0
LINE
  5
A9D
330
1D
100
AcDbEntity
  8
0
100
AcDbLine
 10
92.594
 20
8.639732441472
 30
0.0
 11
92.594
 21
7.0
 31
0.0
  0
LINE
  5
A9E
330
1D
100
AcDbEntity
  8
0
100
AcDbLine
 10
92.678
 20
8.666
 30
0.0
 11
92.08
 21
8.479
 31
0.0
  0
LINE
  5
A9F
330
1D
100
AcDbEntity
  8
0
100
AcDbLine
 10
87.75
 20
0.0
 30
0.0
 11
87.15
 21
0.0
 31
0.0
  0
LINE
  5
AA0
330
1D
100
AcDbEntity
  8
0
100
AcDbLine
 10
88.193
 20
1.0
 30
0.0
 11
86.793
 21
1.0
 31
0.0
  0
LINE
  5
AA1
330
1D
100
AcDbEntity
  8
0
100
AcDbLine
 10
88.476
 20
2.0
 30
0.0
 11
87.076
 21
2.0
 31
0.0
  0
LINE
  5
AA2
330
1D
100
AcDbEntity
  8
0
100
AcDbLine
 10
88.852
 20
4.5
 30
0.0
 11
87.452
 21
4.5
 31
0.0
  0
LINE
  5
AA3
330
1D
100
AcDbEntity
  8
0
100
AcDbLine
 10
88.628
 20
4.006
 30
0.0
 11
87.25
 21
4.01
 31
0.0
  0
LINE
  5
AA4
330
1D
100
AcDbEntity
  8
0
100
AcDbLine
 10
88.434
 20
6.253
 30
0.0
 11
87.4
 21
6.262
 31
0.0
  0
LINE
  5
AA5
330
1D
100
AcDbEntity
  8
0
100
AcDbLine
 10
89.076
 20
2.0
 30
0.0
 11
89.076
 21
3.988248175182
 31
0.0
  0
LINE
  5
AA6
330
1D
100
AcDbEntity
  8
0
100
AcDbLine
 10
89.076
 20
3.988248175182
 30
0.0
 11
89.076
 21
2.0
 31
0.0
  0
LINE
  5
AA7
330
1D
100
AcDbEntity
  8
0
100
AcDbLine
 10
90.55
 20
0.0
 30
0.0
 11
89.15
 21
0.0
 31
0.0
  0
LINE
  5
AA8
330
1D
100
AcDbEntity
  8
0
100
AcDbLine
 10
90.193
 20
1.0
 30
0.0
 11
89.593
 21
1.0
 31
0.0
  0
LINE
  5
AA9
330
1D
100
AcDbEntity
  8
0
100
AcDbLine
 10
90.193
 20
1.0
 30
0.0
 11
90.193
 21
2.793348101266
 31
0.0
  0
LINE
  5
AAA
330
1D
100
AcDbEntity
  8
0
100
AcDbLine
 10
89.593
 20
1.0
 30
0.0
 11
88.193
 21
1.0
 31
0.0
  0
LINE
  5
AAB
330
1D
100
AcDbEntity
  8
0
100
AcDbLine
 10
89.15
 20
0.0
 30
0.0
 11
87.75
 21
0.0
 31
0.0
  0
LINE
  5
AAC
330
1D
100
AcDbEntity
  8
0
100
AcDbLine
 10
89.076
 20
2.0
 30
0.0
 11
88.476
 21
2.0
 31
0.0
  0
LINE
  5
AAD
330
1D
100
AcDbEntity
  8
0
100
AcDbLine
 10
90.193
 20
2.793348101266
 30
0.0
 11
90.193
 21
1.0
 31
0.0
  0
LINE
  5
AAE
330
1D
100
AcDbEntity
  8
0
100
AcDbLine
 10
90.502
 20
2.794
 30
0.0
 11
89.554
 21
2.792
 31
0.0
  0
LINE
  5
AAF
330
1D
100
AcDbEntity
  8
0
100
AcDbLine
 10
89.554
 20
2.792
 30
0.0
 11
89.076
 21
2.787857885615
 31
0.0
  0
LINE
  5
AB0
330
1D
100
AcDbEntity
  8
0
100
AcDbLine
 10
89.452
 20
4.5
 30
0.0
 11
88.852
 21
4.5
 31
0.0
  0
LINE
  5
AB1
330
1D
100
AcDbEntity
  8
0
100
AcDbLine
 10
89.452
 20
4.5
 30
0.0
 11
89.452
 21
6.19506013986
 31
0.0
  0
LINE
  5
AB2
330
1D
100
AcDbEntity
  8
0
100
AcDbLine
 10
89.587
 20
3.968
 30
0.0
 11
88.628
 21
4.006
 31
0.0
  0
LINE
  5
AB3
330
1D
100
AcDbEntity
  8
0
100
AcDbLine
 10
89.805
 20
3.887
 30
0.0
 11
89.076
 21
3.840632508834
 31
0.0
  0
LINE
  5
AB4
330
1D
100
AcDbEntity
  8
0
100
AcDbLine
 10
89.805
 20
3.887
 30
0.0
 11
89.587
 21
3.968
 31
0.0
  0
LINE
  5
AB5
330
1D
100
AcDbEntity
  8
0
100
AcDbLine
 10
89.452
 20
6.19506013986
 30
0.0
 11
89.452
 21
4.5
 31
0.0
  0
LINE
  5
AB6
330
1D
100
AcDbEntity
  8
0
100
AcDbLine
 10
89.321
 20
6.211
 30
0.0
 11
88.434
 21
6.253
 31
0.0
  0
LINE
  5
AB7
330
1D
100
AcDbEntity
  8
0
100
AcDbLine
 10
90.036
 20
6.124
 30
0.0
 11
89.321
 21
6.211
 31
0.0
  0
LINE
  5
AB8
330
1D
100
AcDbEntity
  8
0
100
AcDbLine
 10
90.177
 20
6.015
 30
0.0
 11
90.036
 21
6.124
 31
0.0
  0
LINE
  5
AB9
330
1D
100
AcDbEntity
  8
0
100
AcDbLine
 10
90.177
 20
6.015
 30
0.0
 11
89.452
 21
5.881756756757
 31
0.0
  0
LINE
  5
ABA
330
1D
100
AcDbEntity
  8
0
100
AcDbLine
 10
85.076
 20
2.0
 30
0.0
 11
85.076
 21
3.926743055556
 31
0.0
  0
LINE
  5
ABB
330
1D
100
AcDbEntity
  8
0
100
AcDbLine
 10
85.076
 20
3.926743055556
 30
0.0
 11
85.076
 21
2.0
 31
0.0
  0
LINE
  5
ABC
330
1D
100
AcDbEntity
  8
0
100
AcDbLine
 10
87.15
 20
0.0
 30
0.0
 11
87.15
 21
1.0
 31
0.0
  0
LINE
  5
ABD
330
1D
100
AcDbEntity
  8
0
100
AcDbLine
 10
87.15
 20
1.0
 30
0.0
 11
87.15
 21
0.0
 31
0.0
  0
LINE
  5
ABE
330
1D
100
AcDbEntity
  8
0
100
AcDbLine
 10
86.193
 20
1.0
 30
0.0
 11
86.193
 21
2.0
 31
0.0
  0
LINE
  5
ABF
330
1D
100
AcDbEntity
  8
0
100
AcDbLine
 10
86.793
 20
1.0
 30
0.0
 11
86.193
 21
1.0
 31
0.0
  0
LINE
  5
AC0
330
1D
100
AcDbEntity
  8
0
100
AcDbLine
 10
87.15
 20
1.0
 30
0.0
 11
86.793
 21
1.0
 31
0.0
  0
LINE
  5
AC1
330
1D
100
AcDbEntity
  8
0
100
AcDbLine
 10
86.193
 20
2.0
 30
0.0
 11
86.193
 21
1.0
 31
0.0
  0
LINE
  5
AC2
330
1D
100
AcDbEntity
  8
0
100
AcDbLine
 10
87.076
 20
2.0
 30
0.0
 11
85.676
 21
2.0
 31
0.0
  0
LINE
  5
AC3
330
1D
100
AcDbEntity
  8
0
100
AcDbLine
 10
85.676
 20
2.0
 30
0.0
 11
85.076
 21
2.0
 31
0.0
  0
LINE
  5
AC4
330
1D
100
AcDbEntity
  8
0
100
AcDbLine
 10
87.452
 20
4.5
 30
0.0
 11
86.052
 21
4.5
 31
0.0
  0
LINE
  5
AC5
330
1D
100
AcDbEntity
  8
0
100
AcDbLine
 10
85.452
 20
4.5
 30
0.0
 11
85.452
 21
6.168475170399
 31
0.0
  0
LINE
  5
AC6
330
1D
100
AcDbEntity
  8
0
100
AcDbLine
 10
86.052
 20
4.5
 30
0.0
 11
85.452
 21
4.5
 31
0.0
  0
LINE
  5
AC7
330
1D
100
AcDbEntity
  8
0
100
AcDbLine
 10
87.25
 20
4.01
 30
0.0
 11
86.029
 21
3.982
 31
0.0
  0
LINE
  5
AC8
330
1D
100
AcDbEntity
  8
0
100
AcDbLine
 10
86.029
 20
3.982
 30
0.0
 11
85.095
 21
3.934
 31
0.0
  0
LINE
  5
AC9
330
1D
100
AcDbEntity
  8
0
100
AcDbLine
 10
85.452
 20
6.168475170399
 30
0.0
 11
85.452
 21
4.5
 31
0.0
  0
LINE
  5
ACA
330
1D
100
AcDbEntity
  8
0
100
AcDbLine
 10
85.971
 20
6.218
 30
0.0
 11
84.944
 21
6.12
 31
0.0
  0
LINE
  5
ACB
330
1D
100
AcDbEntity
  8
0
100
AcDbLine
 10
85.095
 20
3.934
 30
0.0
 11
84.807
 21
3.824
 31
0.0
  0
LINE
  5
ACC
330
1D
100
AcDbEntity
  8
0
100
AcDbLine
 10
85.076
 20
3.807568935428
 30
0.0
 11
84.807
 21
3.824
 31
0.0
  0
LINE
  5
ACD
330
1D
100
AcDbEntity
  8
0
100
AcDbLine
 10
84.869
 20
5.906
 30
0.0
 11
84.601
 21
6.011
 31
0.0
  0
LINE
  5
ACE
330
1D
100
AcDbEntity
  8
0
100
AcDbLine
 10
84.944
 20
6.12
 30
0.0
 11
84.601
 21
6.011
 31
0.0
  0
LINE
  5
ACF
330
1D
100
AcDbEntity
  8
0
100
AcDbLine
 10
85.452
 20
5.858888888889
 30
0.0
 11
84.869
 21
5.906
 31
0.0
  0
LINE
  5
AD0
330
1D
100
AcDbEntity
  8
0
100
AcDbLine
 10
87.4
 20
6.262
 30
0.0
 11
85.971
 21
6.218
 31
0.0
  0
LINE
  5
AD1
330
1D
100
AcDbEntity
  8
0
100
AcDbLine
 10
81.268
 20
1.0
 30
0.0
 11
79.868
 21
1.0
 31
0.0
  0
LINE
  5
AD2
330
1D
100
AcDbEntity
  8
0
100
AcDbLine
 10
81.37
 20
1.0
 30
0.0
 11
79.97
 21
1.0
 31
0.0
  0
LINE
  5
AD3
330
1D
100
AcDbEntity
  8
0
100
AcDbLine
 10
81.374
 20
3.44
 30
0.0
 11
79.974
 21
3.44
 31
0.0
  0
LINE
  5
AD4
330
1D
100
AcDbEntity
  8
0
100
AcDbLine
 10
81.314
 20
5.203
 30
0.0
 11
80.0
 21
5.224
 31
0.0
  0
LINE
  5
AD5
330
1D
100
AcDbEntity
  8
0
100
AcDbLine
 10
81.868
 20
1.0
 30
0.0
 11
81.868
 21
3.44
 31
0.0
  0
LINE
  5
AD6
330
1D
100
AcDbEntity
  8
0
100
AcDbLine
 10
81.868
 20
3.44
 30
0.0
 11
81.868
 21
1.0
 31
0.0
  0
LINE
  5
AD7
330
1D
100
AcDbEntity
  8
0
100
AcDbLine
 10
83.364
 20
1.66251
 30
0.0
 11
81.97
 21
1.66251
 31
0.0
  0
LINE
  5
AD8
330
1D
100
AcDbEntity
  8
0
100
AcDbLine
 10
81.868
 20
1.0
 30
0.0
 11
81.37
 21
1.0
 31
0.0
  0
LINE
  5
AD9
330
1D
100
AcDbEntity
  8
0
100
AcDbLine
 10
81.868
 20
1.0
 30
0.0
 11
81.268
 21
1.0
 31
0.0
  0
LINE
  5
ADA
330
1D
100
AcDbEntity
  8
0
100
AcDbLine
 10
81.97
 20
1.0
 30
0.0
 11
81.37
 21
1.0
 31
0.0
  0
LINE
  5
ADB
330
1D
100
AcDbEntity
  8
0
100
AcDbLine
 10
81.97
 20
1.0
 30
0.0
 11
81.97
 21
1.66251
 31
0.0
  0
LINE
  5
ADC
330
1D
100
AcDbEntity
  8
0
100
AcDbLine
 10
81.97
 20
1.0
 30
0.0
 11
81.97
 21
2.619758685446
 31
0.0
  0
LINE
  5
ADD
330
1D
100
AcDbEntity
  8
0
100
AcDbLine
 10
81.97
 20
1.66251
 30
0.0
 11
81.97
 21
1.0
 31
0.0
  0
LINE
  5
ADE
330
1D
100
AcDbEntity
  8
0
100
AcDbLine
 10
81.97
 20
2.619758685446
 30
0.0
 11
81.97
 21
1.0
 31
0.0
  0
LINE
  5
ADF
330
1D
100
AcDbEntity
  8
0
100
AcDbLine
 10
82.049
 20
3.392
 30
0.0
 11
81.868
 21
3.38901320132
 31
0.0
  0
LINE
  5
AE0
330
1D
100
AcDbEntity
  8
0
100
AcDbLine
 10
81.974
 20
3.44
 30
0.0
 11
81.374
 21
3.44
 31
0.0
  0
LINE
  5
AE1
330
1D
100
AcDbEntity
  8
0
100
AcDbLine
 10
81.974
 20
3.44
 30
0.0
 11
81.974
 21
5.165959183673
 31
0.0
  0
LINE
  5
AE2
330
1D
100
AcDbEntity
  8
0
100
AcDbLine
 10
82.748
 20
3.428
 30
0.0
 11
82.049
 21
3.392
 31
0.0
  0
LINE
  5
AE3
330
1D
100
AcDbEntity
  8
0
100
AcDbLine
 10
82.748
 20
3.428
 30
0.0
 11
81.974
 21
3.456991289199
 31
0.0
  0
LINE
  5
AE4
330
1D
100
AcDbEntity
  8
0
100
AcDbLine
 10
82.473
 20
4.966
 30
0.0
 11
81.974
 21
4.929357810414
 31
0.0
  0
LINE
  5
AE5
330
1D
100
AcDbEntity
  8
0
100
AcDbLine
 10
82.772
 20
5.071
 30
0.0
 11
82.294
 21
5.148
 31
0.0
  0
LINE
  5
AE6
330
1D
100
AcDbEntity
  8
0
100
AcDbLine
 10
82.772
 20
5.071
 30
0.0
 11
82.473
 21
4.966
 31
0.0
  0
LINE
  5
AE7
330
1D
100
AcDbEntity
  8
0
100
AcDbLine
 10
81.974
 20
5.165959183673
 30
0.0
 11
81.974
 21
3.44
 31
0.0
  0
LINE
  5
AE8
330
1D
100
AcDbEntity
  8
0
100
AcDbLine
 10
82.294
 20
5.148
 30
0.0
 11
81.314
 21
5.203
 31
0.0
  0
LINE
  5
AE9
330
1D
100
AcDbEntity
  8
0
100
AcDbLine
 10
79.97
 20
1.0
 30
0.0
 11
79.868
 21
1.0
 31
0.0
  0
LINE
  5
AEA
330
1D
100
AcDbEntity
  8
0
100
AcDbLine
 10
81.974
 20
7.0
 30
0.0
 11
81.374
 21
7.0
 31
0.0
  0
LINE
  5
AEB
330
1D
100
AcDbEntity
  8
0
100
AcDbLine
 10
81.974
 20
7.0
 30
0.0
 11
81.974
 21
8.623010582011
 31
0.0
  0
LINE
  5
AEC
330
1D
100
AcDbEntity
  8
0
100
AcDbLine
 10
81.374
 20
7.0
 30
0.0
 11
79.974
 21
7.0
 31
0.0
  0
LINE
  5
AED
330
1D
100
AcDbEntity
  8
0
100
AcDbLine
 10
81.974
 20
8.168714821764
 30
0.0
 11
81.974
 21
8.44
 31
0.0
  0
LINE
  5
AEE
330
1D
100
AcDbEntity
  8
0
100
AcDbLine
 10
81.974
 20
8.168714821764
 30
0.0
 11
81.974
 21
8.623010582011
 31
0.0
  0
LINE
  5
AEF
330
1D
100
AcDbEntity
  8
0
100
AcDbLine
 10
81.974
 20
8.44
 30
0.0
 11
81.974
 21
8.168714821764
 31
0.0
  0
LINE
  5
AF0
330
1D
100
AcDbEntity
  8
0
100
AcDbLine
 10
81.974
 20
8.623010582011
 30
0.0
 11
81.974
 21
8.168714821764
 31
0.0
  0
LINE
  5
AF1
330
1D
100
AcDbEntity
  8
0
100
AcDbLine
 10
81.974
 20
8.623010582011
 30
0.0
 11
81.974
 21
7.0
 31
0.0
  0
LINE
  5
AF2
330
1D
100
AcDbEntity
  8
0
100
AcDbLine
 10
82.456
 20
8.521
 30
0.0
 11
81.511
 21
8.721
 31
0.0
  0
LINE
  5
AF3
330
1D
100
AcDbEntity
  8
0
100
AcDbLine
 10
81.511
 20
8.721
 30
0.0
 11
80.0
 21
8.799
 31
0.0
  0
LINE
  5
AF4
330
1D
100
AcDbEntity
  8
0
100
AcDbLine
 10
82.489
 20
8.275
 30
0.0
 11
81.974
 21
8.168714821764
 31
0.0
  0
LINE
  5
AF5
330
1D
100
AcDbEntity
  8
0
100
AcDbLine
 10
82.489
 20
8.275
 30
0.0
 11
82.456
 21
8.521
 31
0.0
  0
LINE
  5
AF6
330
1D
100
AcDbEntity
  8
0
100
AcDbLine
 10
111.693
 20
43.15
 30
0.0
 11
96.838
 21
44.118
 31
0.0
  0
LINE
  5
AF7
330
1D
100
AcDbEntity
  8
0
100
AcDbLine
 10
125.234
 20
41.736
 30
0.0
 11
111.693
 21
43.15
 31
0.0
  0
LINE
  5
AF8
330
1D
100
AcDbEntity
  8
0
100
AcDbLine
 10
96.0
 20
44.147483832335
 30
0.0
 11
96.0
 21
55.5
 31
0.0
  0
LINE
  5
AF9
330
1D
100
AcDbEntity
  8
0
100
AcDbLine
 10
96.0
 20
55.5
 30
0.0
 11
96.0
 21
44.147483832335
 31
0.0
  0
LINE
  5
AFA
330
1D
100
AcDbEntity
  8
0
100
AcDbLine
 10
84.52
 20
44.397
 30
0.0
 11
81.539
 21
44.415
 31
0.0
  0
LINE
  5
AFB
330
1D
100
AcDbEntity
  8
0
100
AcDbLine
 10
96.838
 20
44.118
 30
0.0
 11
96.782891538713
 21
44.102692094087
 31
0.0
  0
LINE
  5
AFC
330
1D
100
AcDbEntity
  8
0
100
AcDbLine
 10
96.838
 20
44.118
 30
0.0
 11
96.561
 21
44.128
 31
0.0
  0
LINE
  5
AFD
330
1D
100
AcDbEntity
  8
0
100
AcDbLine
 10
95.726
 20
44.157
 30
0.0
 11
94.336
 21
44.201
 31
0.0
  0
LINE
  5
AFE
330
1D
100
AcDbEntity
  8
0
100
AcDbLine
 10
94.336
 20
44.201
 30
0.0
 11
92.398
 21
44.256
 31
0.0
  0
LINE
  5
AFF
330
1D
100
AcDbEntity
  8
0
100
AcDbLine
 10
92.398
 20
44.256
 30
0.0
 11
90.068
 21
44.312
 31
0.0
  0
LINE
  5
B00
330
1D
100
AcDbEntity
  8
0
100
AcDbLine
 10
96.561
 20
44.128
 30
0.0
 11
96.0
 21
44.147483832335
 31
0.0
  0
LINE
  5
B01
330
1D
100
AcDbEntity
  8
0
100
AcDbLine
 10
96.561
 20
44.128
 30
0.0
 11
95.726
 21
44.157
 31
0.0
  0
LINE
  5
B02
330
1D
100
AcDbEntity
  8
0
100
AcDbLine
 10
87.299
 20
44.362
 30
0.0
 11
84.52
 21
44.397
 31
0.0
  0
LINE
  5
B03
330
1D
100
AcDbEntity
  8
0
100
AcDbLine
 10
90.068
 20
44.312
 30
0.0
 11
87.299
 21
44.362
 31
0.0
  0
LINE
  5
B04
330
1D
100
AcDbEntity
  8
0
100
AcDbLine
 10
137.865
 20
39.92
 30
0.0
 11
125.234
 21
41.736
 31
0.0
  0
LINE
  5
B05
330
1D
100
AcDbEntity
  8
0
100
AcDbLine
 10
159.764
 20
34.325
 30
0.0
 11
159.719
 21
34.735
 31
0.0
  0
LINE
  5
B06
330
1D
100
AcDbEntity
  8
0
100
AcDbLine
 10
159.493
 20
35.109
 30
0.0
 11
159.345
 21
35.225
 31
0.0
  0
LINE
  5
B07
330
1D
100
AcDbEntity
  8
0
100
AcDbLine
 10
159.719
 20
34.735
 30
0.0
 11
159.493
 21
35.109
 31
0.0
  0
LINE
  5
B08
330
1D
100
AcDbEntity
  8
0
100
AcDbLine
 10
149.228
 20
37.795
 30
0.0
 11
137.865
 21
39.92
 31
0.0
  0
LINE
  5
B09
330
1D
100
AcDbEntity
  8
0
100
AcDbLine
 10
159.007
 20
35.368
 30
0.0
 11
157.866
 21
35.706
 31
0.0
  0
LINE
  5
B0A
330
1D
100
AcDbEntity
  8
0
100
AcDbLine
 10
159.345
 20
35.225
 30
0.0
 11
159.007
 21
35.368
 31
0.0
  0
LINE
  5
B0B
330
1D
100
AcDbEntity
  8
0
100
AcDbLine
 10
157.866
 20
35.706
 30
0.0
 11
149.228
 21
37.795
 31
0.0
  0
LINE
  5
B0C
330
1D
100
AcDbEntity
  8
0
100
AcDbLine
 10
78.461
 20
44.415
 30
0.0
 11
81.539
 21
44.415
 31
0.0
  0
ENDSEC
  0
SECTION
  2
OBJECTS
  0
DICTIONARY
  5
C
330
0
100
AcDbDictionary
281
     1
  3
ACAD_GROUP
350
D
  3
ACAD_LAYOUT
350
1A
  3
ACAD_MLEADERSTYLE
350
B0F
  3
ACAD_MLINESTYLE
350
17
  3
ACAD_PLOTSETTINGS
350
19
  3
ACAD_PLOTSTYLENAME
350
E
  3
ACAD_SCALELIST
350
8B1
  3
AcDbVariableDictionary
350
B0D
  3
DWGPROPS
350
B12
  0
DICTIONARY
  5
D
102
{ACAD_REACTORS
330
C
102
}
330
C
100
AcDbDictionary
281
     1
  0
DICTIONARY
  5
1A
102
{ACAD_REACTORS
330
C
102
}
330
C
100
AcDbDictionary
281
     1
  3
Layout1
350
1C
  3
Model
350
1E
  0
DICTIONARY
  5
B0F
102
{ACAD_REACTORS
330
C
102
}
330
C
100
AcDbDictionary
281
     1
  0
DICTIONARY
  5
17
102
{ACAD_REACTORS
330
C
102
}
330
C
100
AcDbDictionary
281
     1
  3
Standard
350
18
  0
DICTIONARY
  5
19
102
{ACAD_REACTORS
330
C
102
}
330
C
100
AcDbDictionary
281
     1
  0
ACDBDICTIONARYWDFLT
  5
E
102
{ACAD_REACTORS
330
C
102
}
330
C
100
AcDbDictionary
281
     1
  3
Normal
350
F
100
AcDbDictionaryWithDefault
340
F
  0
DICTIONARY
  5
8B1
102
{ACAD_REACTORS
330
C
102
}
330
C
100
AcDbDictionary
281
     1
  3
A0
350
8B2
  3
A1
350
8B3
  3
A2
350
8B4
  3
A3
350
8B5
  3
A4
350
8B6
  3
A5
350
8B7
  3
A6
350
8B8
  3
A7
350
8B9
  3
A8
350
8BA
  3
A9
350
8BB
  3
B0
350
8BC
  3
B1
350
8BD
  3
B2
350
8BE
  3
B3
350
8BF
  3
B4
350
8C0
  3
B5
350
8C1
  3
B6
350
8C2
  3
B7
350
8C3
  3
B8
350
8C4
  3
B9
350
8C5
  3
C0
350
8C6
  3
C1
350
8C7
  3
C2
350
8C8
  3
C3
350
8C9
  3
C4
350
8CA
  3
C5
350
8CB
  3
C6
350
8CC
  3
C7
350
8CD
  3
C8
350
8CE
  3
C9
350
8CF
  3
D0
350
8D0
  3
D1
350
8D1
  3
D2
350
8D2
  0
DICTIONARY
  5
B0D
102
{ACAD_REACTORS
330
C
102
}
330
C
100
AcDbDictionary
281
     1
  3
CANNOSCALE
350
B10
  0
XRECORD
  5
B12
102
{ACAD_REACTORS
330
C
102
}
330
C
100
AcDbXrecord
280
     1
  1
DWGPROPS COOKIE
  2

  3

  4

  6

  7

  8
MARTIN
  9

300
=
301
=
302
=
303
=
304
=
305
=
306
=
307
=
308
=
309
=
 40
0.0
 41
2456213.859737407
 42
2456213.863820162
  1

 90
        0
  0
LAYOUT
  5
1C
102
{ACAD_REACTORS
330
1A
102
}
330
1A
100
AcDbPlotSettings
  1

  2
none_device
  4

  6

 40
0.0
 41
0.0
 42
0.0
 43
0.0
 44
0.0
 45
0.0
 46
0.0
 47
0.0
 48
0.0
 49
0.0
140
0.0
141
0.0
142
1.0
143
1.0
 70
   688
 72
     0
 73
     0
 74
     5
  7

 75
    16
147
1.0
148
0.0
149
0.0
100
AcDbLayout
  1
Layout1
 70
     1
 71
     1
 10
0.0
 20
0.0
 11
12.0
 21
9.0
 12
0.0
 22
0.0
 32
0.0
 14
1.000000000000E+20
 24
1.000000000000E+20
 34
1.000000000000E+20
 15
-1.000000000000E+20
 25
-1.000000000000E+20
 35
-1.000000000000E+20
146
0.0
 13
0.0
 23
0.0
 33
0.0
 16
1.0
 26
0.0
 36
0.0
 17
0.0
 27
1.0
 37
0.0
 76
     0
330
1B
  0
LAYOUT
  5
1E
102
{ACAD_REACTORS
330
1A
102
}
330
1A
100
AcDbPlotSettings
  1

  2
none_device
  4

  6

 40
0.0
 41
0.0
 42
0.0
 43
0.0
 44
0.0
 45
0.0
 46
0.0
 47
0.0
 48
0.0
 49
0.0
140
0.0
141
0.0
142
1.0
143
1.0
 70
  1712
 72
     0
 73
     0
 74
     0
  7

 75
     0
147
1.0
148
0.0
149
0.0
100
AcDbLayout
  1
Model
 70
     1
 71
     0
 10
0.0
 20
0.0
 11
12.0
 21
9.0
 12
0.0
 22
0.0
 32
0.0
 14
0.236
 24
0.0
 34
0.0
 15
159.764
 25
201.0
 35
0.0
146
0.0
 13
0.0
 23
0.0
 33
0.0
 16
1.0
 26
0.0
 36
0.0
 17
0.0
 27
1.0
 37
0.0
 76
     0
330
1D
331
8AC
  0
MLINESTYLE
  5
18
102
{ACAD_REACTORS
330
17
102
}
330
17
100
AcDbMlineStyle
  2
Standard
 70
     0
  3

 62
   256
 51
90.0
 52
90.0
 71
     2
 49
0.5
 62
   256
  6
BYLAYER
 49
-0.5
 62
   256
  6
BYLAYER
  0
ACDBPLACEHOLDER
  5
F
102
{ACAD_REACTORS
330
E
102
}
330
E
  0
SCALE
  5
8B2
102
{ACAD_REACTORS
330
8B1
102
}
330
8B1
100
AcDbScale
 70
     0
300
1:1
140
1.0
141
1.0
290
     1
  0
SCALE
  5
8B3
102
{ACAD_REACTORS
330
8B1
102
}
330
8B1
100
AcDbScale
 70
     0
300
1:2
140
1.0
141
2.0
290
     0
  0
SCALE
  5
8B4
102
{ACAD_REACTORS
330
8B1
102
}
330
8B1
100
AcDbScale
 70
     0
300
1:4
140
1.0
141
4.0
290
     0
  0
SCALE
  5
8B5
102
{ACAD_REACTORS
330
8B1
102
}
330
8B1
100
AcDbScale
 70
     0
300
1:5
140
1.0
141
5.0
290
     0
  0
SCALE
  5
8B6
102
{ACAD_REACTORS
330
8B1
102
}
330
8B1
100
AcDbScale
 70
     0
300
1:8
140
1.0
141
8.0
290
     0
  0
SCALE
  5
8B7
102
{ACAD_REACTORS
330
8B1
102
}
330
8B1
100
AcDbScale
 70
     0
300
1:10
140
1.0
141
10.0
290
     0
  0
SCALE
  5
8B8
102
{ACAD_REACTORS
330
8B1
102
}
330
8B1
100
AcDbScale
 70
     0
300
1:16
140
1.0
141
16.0
290
     0
  0
SCALE
  5
8B9
102
{ACAD_REACTORS
330
8B1
102
}
330
8B1
100
AcDbScale
 70
     0
300
1:20
140
1.0
141
20.0
290
     0
  0
SCALE
  5
8BA
102
{ACAD_REACTORS
330
8B1
102
}
330
8B1
100
AcDbScale
 70
     0
300
1:30
140
1.0
141
30.0
290
     0
  0
SCALE
  5
8BB
102
{ACAD_REACTORS
330
8B1
102
}
330
8B1
100
AcDbScale
 70
     0
300
1:40
140
1.0
141
40.0
290
     0
  0
SCALE
  5
8BC
102
{ACAD_REACTORS
330
8B1
102
}
330
8B1
100
AcDbScale
 70
     0
300
1:50
140
1.0
141
50.0
290
     0
  0
SCALE
  5
8BD
102
{ACAD_REACTORS
330
8B1
102
}
330
8B1
100
AcDbScale
 70
     0
300
1:100
140
1.0
141
100.0
290
     0
  0
SCALE
  5
8BE
102
{ACAD_REACTORS
330
8B1
102
}
330
8B1
100
AcDbScale
 70
     0
300
2:1
140
2.0
141
1.0
290
     0
  0
SCALE
  5
8BF
102
{ACAD_REACTORS
330
8B1
102
}
330
8B1
100
AcDbScale
 70
     0
300
4:1
140
4.0
141
1.0
290
     0
  0
SCALE
  5
8C0
102
{ACAD_REACTORS
330
8B1
102
}
330
8B1
100
AcDbScale
 70
     0
300
8:1
140
8.0
141
1.0
290
     0
  0
SCALE
  5
8C1
102
{ACAD_REACTORS
330
8B1
102
}
330
8B1
100
AcDbScale
 70
     0
300
10:1
140
10.0
141
1.0
290
     0
  0
SCALE
  5
8C2
102
{ACAD_REACTORS
330
8B1
102
}
330
8B1
100
AcDbScale
 70
     0
300
100:1
140
100.0
141
1.0
290
     0
  0
SCALE
  5
8C3
102
{ACAD_REACTORS
330
8B1
102
}
330
8B1
100
AcDbScale
 70
     0
300
1/128" = 1'-0"
140
0.0078125
141
12.0
290
     0
  0
SCALE
  5
8C4
102
{ACAD_REACTORS
330
8B1
102
}
330
8B1
100
AcDbScale
 70
     0
300
1/64" = 1'-0"
140
0.015625
141
12.0
290
     0
  0
SCALE
  5
8C5
102
{ACAD_REACTORS
330
8B1
102
}
330
8B1
100
AcDbScale
 70
     0
300
1/32" = 1'-0"
140
0.03125
141
12.0
290
     0
  0
SCALE
  5
8C6
102
{ACAD_REACTORS
330
8B1
102
}
330
8B1
100
AcDbScale
 70
     0
300
1/16" = 1'-0"
140
0.0625
141
12.0
290
     0
  0
SCALE
  5
8C7
102
{ACAD_REACTORS
330
8B1
102
}
330
8B1
100
AcDbScale
 70
     0
300
3/32" = 1'-0"
140
0.09375
141
12.0
290
     0
  0
SCALE
  5
8C8
102
{ACAD_REACTORS
330
8B1
102
}
330
8B1
100
AcDbScale
 70
     0
300
1/8" = 1'-0"
140
0.125
141
12.0
290
     0
  0
SCALE
  5
8C9
102
{ACAD_REACTORS
330
8B1
102
}
330
8B1
100
AcDbScale
 70
     0
300
3/16" = 1'-0"
140
0.1875
141
12.0
290
     0
  0
SCALE
  5
8CA
102
{ACAD_REACTORS
330
8B1
102
}
330
8B1
100
AcDbScale
 70
     0
300
1/4" = 1'-0"
140
0.25
141
12.0
290
     0
  0
SCALE
  5
8CB
102
{ACAD_REACTORS
330
8B1
102
}
330
8B1
100
AcDbScale
 70
     0
300
3/8" = 1'-0"
140
0.375
141
12.0
290
     0
  0
SCALE
  5
8CC
102
{ACAD_REACTORS
330
8B1
102
}
330
8B1
100
AcDbScale
 70
     0
300
1/2" = 1'-0"
140
0.5
141
12.0
290
     0
  0
SCALE
  5
8CD
102
{ACAD_REACTORS
330
8B1
102
}
330
8B1
100
AcDbScale
 70
     0
300
3/4" = 1'-0"
140
0.75
141
12.0
290
     0
  0
SCALE
  5
8CE
102
{ACAD_REACTORS
330
8B1
102
}
330
8B1
100
AcDbScale
 70
     0
300
1" = 1'-0"
140
1.0
141
12.0
290
     0
  0
SCALE
  5
8CF
102
{ACAD_REACTORS
330
8B1
102
}
330
8B1
100
AcDbScale
 70
     0
300
1-1/2" = 1'-0"
140
1.5
141
12.0
290
     0
  0
SCALE
  5
8D0
102
{ACAD_REACTORS
330
8B1
102
}
330
8B1
100
AcDbScale
 70
     0
300
3" = 1'-0"
140
3.0
141
12.0
290
     0
  0
SCALE
  5
8D1
102
{ACAD_REACTORS
330
8B1
102
}
330
8B1
100
AcDbScale
 70
     0
300
6" = 1'-0"
140
6.0
141
12.0
290
     0
  0
SCALE
  5
8D2
102
{ACAD_REACTORS
330
8B1
102
}
330
8B1
100
AcDbScale
 70
     0
300
1'-0" = 1'-0"
140
12.0
141
12.0
290
     0
  0
DICTIONARYVAR
  5
B10
102
{ACAD_REACTORS
330
B0D
102
}
330
B0D
100
DictionaryVariables
280
     0
  1
1:1
  0
ENDSEC
  0
SECTION
  2
THUMBNAILIMAGE
 90
    16364
310
28000000B40000005500000001000800000000000000000000000000000000000000000000000000FFFFFF000000FF0000FFFF0000FF0000FFFF0000FF000000FF00FF000000000080808000C0C0C0000000FF007F7FFF000000A5005252A50000007F003F3F7F0000004C0026264C000000260013132600003FFF007F9FFF
310
000029A5005267A500001F7F003F4F7F0000134C00262F4C000009260013172600007FFF007FBFFF000052A500527CA500003F7F003F5F7F0000264C0026394C0000132600131C260000BFFF007FDFFF00007CA5005291A500005F7F003F6F7F0000394C0026424C00001C26001321260000FFFF007FFFFF0000A5A50052A5
310
A500007F7F003F7F7F00004C4C00264C4C00002626001326260000FFBF007FFFDF0000A57C0052A59100007F5F003F7F6F00004C3900264C420000261C001326210000FF7F007FFFBF0000A5520052A57C00007F3F003F7F5F00004C2600264C39000026130013261C0000FF3F007FFF9F0000A5290052A56700007F1F003F
310
7F4F00004C1300264C2F00002609001326170000FF00007FFF7F0000A5000052A55200007F00003F7F3F00004C0000264C260000260000132613003FFF00009FFF7F0029A5000067A552001F7F00004F7F3F00134C00002F4C260009260000172613007FFF0000BFFF7F0052A500007CA552003F7F00005F7F3F00264C0000
310
394C2600132600001C261300BFFF0000DFFF7F007CA5000091A552005F7F00006F7F3F00394C0000424C26001C26000021261300FFFF0000FFFF7F00A5A50000A5A552007F7F00007F7F3F004C4C00004C4C26002626000026261300FFBF0000FFDF7F00A57C0000A59152007F5F00007F6F3F004C3900004C422600261C00
310
0026211300FF7F0000FFBF7F00A5520000A57C52007F3F00007F5F3F004C2600004C39260026130000261C1300FF3F0000FF9F7F00A5290000A56752007F1F00007F4F3F004C1300004C2F26002609000026171300FF000000FF7F7F00A5000000A55252007F0000007F3F3F004C0000004C2626002600000026131300FF00
310
3F00FF7F9F00A5002900A55267007F001F007F3F4F004C0013004C262F002600090026131700FF007F00FF7FBF00A5005200A5527C007F003F007F3F5F004C0026004C2639002600130026131C00FF00BF00FF7FDF00A5007C00A55291007F005F007F3F6F004C0039004C26420026001C0026132100FF00FF00FF7FFF00A5
310
00A500A552A5007F007F007F3F7F004C004C004C264C002600260026132600BF00FF00DF7FFF007C00A5009152A5005F007F006F3F7F0039004C0042264C001C002600211326007F00FF00BF7FFF005200A5007C52A5003F007F005F3F7F0026004C0039264C00130026001C1326003F00FF009F7FFF002900A5006752A500
310
1F007F004F3F7F0013004C002F264C000900260017132600000000002D2D2D005B5B5B0089898900B7B7B700B3B3B30000000000000000000000000000000000000000000000000000000000000000000000000000000000000000000000000000000000000000000000000000000000000000000000000000000000070707
310
00070707070707070700070707000707070007070707000707070000000000000000000000000000000000000000000000000000000000000000000000000000000000000000000000000000000000000000000000000000000000000000000000000000000000000000000000000000000000000000000000000000000000
310
00000000000000000000000000000000000000000000000000000000000000000000000000000000000707070707070707070707070707070707070707070707000707070707070707070707070707070707070707070707000000000000000000000000000000000000000000000000000000000000000000000000000000
310
00000000000000000000000000000000000000000000000000000000000000000000000000000000000000000000000000000000000000000000000000000000000000000000000000000000000000000000000000000000000007070707070707070707070707070707070707070707070707070707070707070707070707
310
07070707070707070707070707070707070700000000000000000000000000000000000000000000000000000000000000000000000000000000000000000000000000000000000000000000000000000000000000000000000000000000000000000000000000000000000000000000000000000000000000000000000000
310
00000000000000000000000000000707070707070707070707070707070707070000000007070700000007000700000007070700000000070707070707070707070707070707070707000000000000000000000000000000000000000000000000000000000000000000000000000000000000000000000000000000000000
310
00000000000000000000000000000000000000000000000000000000000000000000000000000000000000000000000000000000000000000000000000000000070707070707070707070707070707070707070707070707070707070707070700070707070707070707070707070707070707070707070707070707070707
310
07070000000000000000000000000000000000000000000000000000000000000000000000000000000000000000000000000000000000000000000000000000000000000000000000000000000000000000000000000000000000000000000000000000000000000000000000000000000000000007000000000000000000
310
00000000000000000000000000000000000000000000000000000000000000000000000000000000000000000000000000000000000007000000000000000000000000000000000000000000000000000000000000000000000000000000000000000000000000000000000000000000000000000000000000000000000000
310
00000000000000000000000000000000000000000000000000000000000000000000000000000000000007000000000000000000000000000000000000000000000000000000000000000000000000000000000000000000000000000000000000000000000000000000000007000000000000000000000000000000000000
310
00000000000000000000000000000000000000000000000000000000000000000000000000000000000000000000000000000000000000000000000000000000000000000000000000000000000000000000000000000000000000000000000700000000000000000000000000000000000000000000000000000000000000
310
00000000000000000000000000000000000000000000000000000000000000000000070000000000000000000000000000000000000000000000000000000000000000000000000000000000000000000000000000000000000000000000000000000000000000000000000000000000000000000000000000000000000000
310
00000000000000000000000000000000000000000007000000000000000000000000000000000000000000000000000000000000000000000000000000000000000000000000000000000000000000000000000000000007000000000000000000000000000000000000000000000000000000000000000000000000000000
310
00000000000000000000000000000000000000000000000000000000000000000000000000000000000000000000000000000000000000000000000000000000000000000000000000000700000000000000000000000000000000000000000000000000000000000000000000000000000000000000000000000000000000
310
00000000000000000000000000070000000000000000000000000000000000000000000000000000000000000000000000000000000000000000000000000000000000000000000000000000000000000000000000000000000000000000000000000000000000000000000000000000000000000000000000000000000000
310
07000000000000000000000000000000000000000000000000000000000000000000000000000000000000000000000000000000000000000000000000000000000007000000000000000000000000000000000000000000000000000000000000000000000000000000000000000000000000000000000000000000000000
310
00000000000000000000000000000000000000000000000000000000000000000000000000000000000000000000000000000000000700000000000000000000000000000000000000000000000000000000000000000000000000000000000000000000000000000000000000000000000000000000000700000000000000
310
00000000000000000000000000000000000000000000000000000000000000000000000000000000000000000000000000000000000000000000000000000000000000000000000000000000000000000000000000000000000000000000000000000000000000000000070000000000000000000000000000000000000000
310
00000000000000000000000000000000000000000000000000000000000000000000000000000000000000000007000000000000000000000000000000000000000000000000000000000000000000000000000000000000000000000000000000000000000000000000000000000000000000000000000000000000000000
310
00000000000000000000000000000000000000000000000000000000000000000700000000000000000000000000000000000000000000000000000000000000000000000000000000000000000000000000000000000000000000000000000000000700000000000000000000000000000000000000000000000000000000
310
00000000000000000000000000000000000000000000000000000000000000000000000000000000000000000000000000000000000000000000000000000000000000000000000000000000000000000000000000070000000000000000000000000000000000000000000000000000000000000000000000000000000000
310
00000000000000000000000000000000000000000000000007000000000000000000000000000000000000000000000000000000000000000000000000000000000000000000000000000000000000000000000000000000000000000000000000000000000000000000000000000000000000000000000000000000000000
310
00000000000000000000000007070000000000000000000000000000000000000000000000000000000000000000000000000000000000000000000000000000000000000000000000000007070000000000000000000000000000000000000000000000000000000000000000000000000000000000000000000000000000
310
00000000000000000000000000000000000000000000000000000000000000000000000000000000000000000000000000000000000000000000000000000000000000070707070707070707000000000000000000000000000000000000000000000000000000000000000000000000000000000000000707070707070707
310
07000000000000000000000000000000000000000000000000000000000000000000000000000000000000000000000000000000000000000000000000000000000000000000000000000000000000000000000000000000000000000000000000000000000000000000000000000000000000000000000000000000000000
310
00000707070707000000000000000000000000000000000000000000000000000000000000000000070707070700000000000000000000000000000000000000000000000000000000000000000000000000000000000000000000000000000000000000000000000000000000000000000000000000000000000000000000
310
00000000000000000000000000000000000000000000000000000000000000000000000000000000000000000000000000000000000000000000000007070707070707070707070707070707070007070707070707070707070707070700000000000000000000000000000000000000000000000000000000000000000000
310
00000000000000000000000000000000000000000000000000000000000000000000000000000000000000000000000000000000000000000000000000000000000000000000000000000000000000000000000000000000000000000000000000000000000000000000000000000000000000000000000000000700000000
310
00000000000000000007000000000000000000000000000000000000000000000000000000000000000000000000000000000000000000000000000000000000000000000000000000000000000000000000000000000000000000000000000000000000000000000000000000000000000000000000000000000000000000
310
00000000000000000000000000000000000000000000000000000000000000000000000000000000000000000000000007000000000000000000000000000700000000000000000000000000000000000000000000000000000000000000000000000000000000000000000000000000000000000000000000000000000000
310
00000000000000000000000000000000000000000000000000000000000000000000000000000000000000000000000000000000000000000000000000000000000000000000000000000000000000000000000000000000000000000000000000000000000700000000000000000000000000070000000000000000000000
310
00000000000000000000000000000000000000000000000000000000000000000000000000000000000000000000000000000000000000000000000000000000000000000000000000000000000000000000000000000000000000000000000000000000000000000000000000000000000000000000000000000000000000
310
00000000000000000000000000000000000000000000000000000007000000000000000000000000000700000000000000000000000000000000000000000000000000000000000000000000000000000000000000000000000000000000000000000000000000000000000000000000000000000000000000000000000000
310
00000000000000000000000000000000000000000000000000000000000000000000000000000000000000000000000000000000000000000000000000000000000000000000000000000000000000000700000000000000000000000000070000000000000000000000000000000000000000000000000000000000000000
310
00000000000000000000000000000000000000000000000000000000000000000000000000000000000000000000000000000000000000000000000000000000000000000000000000000000000000000000000000000000000000000000000000000000000000000000000000000000000000000000000000000000000000
310
00000000000007000000000000000000000000000700000000000000000000000000000000000000000000000000000000000000000000000000000000000000000000000000000000000000000000000000000000000000000000000000000000000000000000000000000000000000000000000000000000000000000000
310
00000000000000000000000000000000000000000000000000000000000000000000000000000000000000000000000000000000000000000000000007000000000000000000000007000000000000000000000000000000000000000000000000000000000000000000000000000000000000000000000000000000000000
310
00000000000000000000000000000000000000000000000000000000000000000000000000000000000000000000000000000000000000000000000000000000000000000000000000000000000000000000000000000000000000000000000000000000000000000000000000000000000700000000000000000000000700
310
00000000000000000000000000000000000000000000000000000000000000000000000000000000000000000000000000000000000000000000000000000000000000000000000000000000000000000000000000000000000000000000000000000000000000000000000000000000000000000000000000000000000000
310
00000000000000000000000000000000000000000000000000000000000000000000000000000007070707070707070707070707000000000000000000000000000000000000000000000000000000000000000000000000000000000000000000000000000000000000000000000000000000000000000000000000000000
310
00000000000000000000000000000000000000000000000000000000000000000000000000000000000000000000000000000000000000000000000000000000000000000000000000000000000000000000000000000000000000000000070700000000000707000000000000000000000000000000000000000000000000
310
00000000000000000000000000000000000000000000000000000000000000000000000000000000000000000000000000000000000000000000000000000000000000000000000000000000000000000000000000000000000000000000000000000000000000000000000000000000000000000000000000000000000000
310
00000000000000000000000000000000000000000007000000000000070000000000000000000000000000000000000000000000000000000000000000000000000000000000000000000000000000000000000000000000000000000000000000000000000000000000000000000000000000000000000000000000000000
310
00000000000000000000000000000000000000000000000000000000000000000000000000000000000000000000000000000000000000000000000000000000000000000000000000070700000000000007000000000000000000000000000000000000000000000000000000000000000000000000000000000000000000
310
00000000000000000000000000000000000000000000000000000000000000000000000000000000000000000000000000000000000000000000000000000000000000000000000000000000000000000000000000000000000000000000000000000000000000000000000000000000000000000000000000000000000707
310
00000000000000070700000000000000000000000000000000000000000000000000000000000000000000000000000000000000000000000000000000000000000000000000000000000000000000000000000000000000000000000000000000000000000000000000000000000000000000000000000000000000000000
310
00000000000000000000000000000000000000000000000000000000000000000000000000000000000000000000000000000007000000000000000000070000000000000000000000000000000000000000000000000000000000000000000000000000000000000000000000000000000000000000000000000000000000
310
00000000000000000000000000000000000000000000000000000000000000000000000000000000000000000000000000000000000000000000000000000000000000000000000000000000000000000000000000000000000000000000000000000000000000000700000000000000000007000000000000000000000000
310
00000000000000000000000000000000000000000000000000000000000000000000000000000000000000000000000000000000000000000000000000000000000000000000000000000000000000000000000000000000000000000000000000000000000000000000000000000000000000000000000000000000000000
310
00000000000000000000000000000000000000000000000000000000000007000000000000000000070000000000000000000000000000000000000000000000000000000000000000000000000000000000000000000000000000000000000000000000000000000000000000000000000000000000000000000000000000
310
00000000000000000000000000000000000000000000000000000000000000000000000000000000000000000000000000000000000000000000000000000000000000000000000000000000000000000000000707070707070707070707000000000000000000000000000000000000000000000000000000000000000000
310
00000000000000000000000000000000000000000000000000000000000000000000000000000000000000000000000000000000000000000000000000000000000000000000000000000000000000000000000000000000000000000000000000000000000000000000000000000000000000000000000000000000000000
310
00000000000000000007000000000000000000070000000000000000000000000000000000000000000000000000000000000000000000000000000000000000000000000000000000000000000000000000000000000000000000000000000000000000000000000000000000000000000000000000000000000000000000
310
00000000000000000000000000000000000000000000000000000000000000000000000000000000000000000000000000000000000000000000000000000700000000000000000007000000000000000000000000000000000000000000000000000000000000000000000000000000000000000000000000000000000000
310
00000000000000000000000000000000000000000000000000000000000000000000000000000000000000000000000000000000000000000000000000000000000000000000000000000000000000000000000000000000000000000000000000000000000000000000000000000000000000070000000000000000000700
310
00000000000000000000000000000000000000000000000000000000000000000000000000000000000000000000000000000000000000000000000000000000000000000000000000000000000000000000000000000000000000000000000000000000000000000000000000000000000000000000000000000000000000
310
00000000000000000000000000000000000000000000000000000000000000000000000000000000000700000000000000000007000000000000000000000000000000000000000000000000000000000000000000000000000000000000000000000000000000000000000000000000000000000000000000000000000000
310
00000000000000000000000000000000000000000000000000000000000000000000000000000000000000000000000000000000000000000000000000000000000000000000000000000000000000000000000000000000000000000000070000000000000000000700000000000000000000000000000000000000000000
310
00000000000000000000000000000000000000000000000000000000000000000000000000000000000000000000000000000000000000000000000000000000000000000000000000000000000000000000000000000000000000000000000000000000000000000000000000000000000000000000000000000000000000
310
00000000000000000000000000000000000000000700000000000000000007000000000000000000000000000000000000000000000000000000000000000000000000000000000000000000000000000000000000000000000000000000000000000000000000000000000000000000000000000000000000000000000000
310
00000000000000000000000000000000000000000000000000000000000000000000000000000000000000000000000000000000000000000000000000000000000000000000000000070000000000000000000700000000000000000000000000000000000000000000000000000000000000000000000000000000000000
310
00000000000000000000000000000000000000000000000000000000000000000000000000000000000000000000000000000000000000000000000000000000000000000000000000000000000000000000000000000000000000000000000000000000000000000000000000000000000000000000000000000000000007
310
00000000000000000007000000000000000000000000000000000000000000000000000000000000000000000000000000000000000000000000000000000000000000000000000000000000000000000000000000000000000000000000000000000000000000000000000000000000000000000000000000000000000000
310
00000000000000000000000000000000000000000000000000000000000000000000000000000000000000000000000000000000070000000000000000000700000000000000000000000000000000000000000000000000000000000000000000000000000000000000000000000000000000000000000000000000000000
310
00000000000000000000000000000000000000000000000000000000000000000000000000000000000000000000000000000000000000000000000000000000000000000000000000000000000000000000000000000000000000000000000000000000000000000007000000000000000000070000000000000000000000
310
00000000000000000000000000000000000000000000000000000000000000000000000000000000000000000000000000000000000000000000000000000000000000000000000000000000000000000000000000000000000000000000000000000000000000000000000000000000000000000000000000000000000000
310
00000000000000000000000000000000000000000000000000000000000000070000000000000000000700000000000000000000000000000000000000000000000000000000000000000000000000000000000000000000000000000000000000000000000000000000000000000000000000000000000000000000000000
310
00000000000000000000000000000000000000000000000000000000000000000000000000000000000000000000000000000000000000000000000000000000000000000000000000000000000000000000000007000000000000000000070000000000000000000000000000000000000000000000000000000000000000
310
00000000000000000000000000000000000000000000000000000000000000000000000000000000000000000000000000000000000000000000000000000000000000000000000000000000000000000000000000000000000000000000000000000000000000000000000000000000000000000000000000000000000000
310
00000000000000000000070000000000000000000700000000000000000000000000000000000000000000000000000000000000000000000000000000000000000000000000000000000000000000000000000000000000000000000000000000000000000000000000000000000000000000000000000000000000000000
310
00000000000000000000000000000000000000000000000000000000000000000000000000000000000000000000000000000000000000000000000000000007000000000000000000070000000000000000000000000000000000000000000000000000000000000000000000000000000000000000000000000000000000
310
00000000000000000000000000000000000000000000000000000000000000000000000000000000000000000000000000000000000000000000000000000000000000000000000000000000000000000000000000000000000000000000000000000000000000000000000000000000000000000700000000000000000007
310
00000000000000000000000000000000000000000000000000000000000000000000000000000000000000000000000000000000000000000000000000000000000000000000000000000000000000000000000000000000000000000000000000000000000000000000000000000000000000000000000000000000000000
310
00000000000000000000000000000000000000000000000000000000000000000000000000000000000007000000000000000000070000000000000000000000000000000000000000000000000000000000000000000000000000000000000000000000000000000000000000000000000000000000000000000000000000
310
00000000000000000000000000000000000000000000000000000000000000000000000000000000000000000000000000000000000000000000000000000000000000000000000000000000000000000000000000000000000000000000000700000000000000000007000000000000000000000000000000000000000000
310
00000000000000000000000000000000000000000000000000000000000000000000000000000000000000000000000000000000000000000000000000000000000000000000000000000000000000000000000000000000000000000000000000000000000000000000000000000000000000000000000000000000000000
310
00000000000000000000000000000000000000000007000000000000000000070000000000000000000000000000000000000000000000000000000000000000000000000000000000000000000000000000000000000000000000000000000000000000000000000000000000000000000000000000000000000000000000
310
00000000000000000000000000000000000000000000000000000000000000000000000000000000000000000000000000000000000000000000000000000000000000000000000000000700000000000000000007000000000000000000000000000000000000000000000000000000000000000000000000000000000000
310
00000000000000000000000000000000000000000000000000000000000000000000000000000000000000000000000000000000000000000000000000000000000000000000000000000000000000000000000000000000000000000000000000000000000000000000000000000000000000000000000000000000000000
310
07000000000000000000070000000000000000000000000000000000000000000000000000000000000000000000000000000000000000000000000000000000000000000000000000000000000000000000000000000000000000000000000000000000000000000000000000000000000000000000000000000000000000
310
00000000000000000000000000000000000000000000000000000000000000000000000000000000000000000000000000000000000700000000000000000007000000000000000000000000000000000000000000000000000000000000000000000000000000000000000000000000000000000000000000000000000000
310
00000000000000000000000000000000000000000000000000000000000000000000000000000000000000000000000000000000000000000000000000000000000000000000000000000000000000000000000000000000000000000000000000000000000000000000070000000000000000000700000000000000000000
310
00000000000000000000000000000000000000000000000000000000000000000000000000000000000000000000000000000000000000000000000000000000000000000000000000000000000000000000000000000000000000000000000000000000000000000000000000000000000000000000000000000000000000
310
00000000000000000000000000000000000000000000000000000000000000000700000000000000000007000000000000000000000000000000000000000000000000000000000000000000000000000000000000000000000000000000000000000000000000000000000000000000000000000000000000000000000000
310
00000000000000000000000000000000000000000000000000000000000000000000000000000000000000000000000000000000000000000000000000000000000000000000000000000000000000000000000000070000000000000000000700000000000000000000000000000000000000000000000000000000000000
310
00000000000000000000000000000000000000000000000000000000000000000000000000000000000000000000000000000000000000000000000000000000000000000000000000000000000000000000000000000000000000000000000000000000000000000000000000000000000000000000000000000000000000
310
00000000000000000000000700000000000000000007000000000000000000000000000000000000000000000000000000000000000000000000000000000000000000000000000000000000000000000000000000000000000000000000000000000000000000000000000000000000000000000000000000000000000000
310
00000000000000000000000000000000000000000000000000000000000000000000000000000000000000000000000000000000000000000000000000000000070000000000000000000700000000000000000000000000000000000000000000000000000000000000000000000000000000000000000000000000000000
310
00000000000000000000000000000000000000000000000000000000000000000000000000000000000000000000000000000000000000000000000000000000000000000000000000000000000000000000000000000000000000000000000000000000000000000000000000000000000000000007000000000000000000
310
07000000000000000000000000000000000000000000000000000000000000000000000000000000000000000000000000000000000000000000000000000000000000000000000000000000000000000000000000000000000000000000000000000000000000000000000000000000000000000000000000000000000000
310
00000000000000000000000000000000000000000000000000000000000000000000000000000000000000070000000000000000000700000000000000000000000000000000000000000000000000000000000000000000000000000000000000000000000000000000000000000000000000000000000000000000000000
310
00000000000000000000000000000000000000000000000000000000000000000000000000000000000000000000000000000000000000000000000000000000000000000000000000000000000000000000000000000000000000000000000007000000000000000000070000000000000000000000000000000000000000
310
00000000000000000000000000000000000000000000000000000000000000000000000000000000000000000000000000000000000000000000000000000000000000000000000000000000000000000000000000000000000000000000000000000000000000000000000000000000000000000000000000000000000000
310
00000000000000000000000000000000000000000000070000000000000000000700000000000000000000000000000000000000000000000000000000000000000000000000000000000000000000000000000000000000000000000000000000000000000000000000000000000000000000000000000000000000000000
310
00000000000000000000000000000000000000000000000000000000000000000000000000000000000000000000000000000000000000000000000000000000000000000000000000000007000000000000000000070000000000000000000000000000000000000000000000000000000000000000000000000000000000
310
00000000000000000000000000000000000000000000000000000000000000000000000000000000000000000000000000000000000000000000000000000000000000000000000000000000000000000000000000000000000000000000000000000000000000000000000000000000000000000000000000000000000000
310
00070000000000000000000700000000000000000000000000000000000000000000000000000000000000000000000000000000000000000000000000000000000000000000000000000000000000000000000000000000000000000000000000000000000000000000000000000000000000000000000000000000000000
310
00000000000000000000000000000000000000000000000000000000000000000000000000000000000000000000000000000000000007000000000000000000070000000000000000000000000000000000000000000000000000000000000000000000000000000000000000000000000000000000000000000000000000
310
00000000000000000000000000000000000000000000000000000000000000000000000000000000000000000000000000000000000000000000000000000000000000000000000000000000000000000000000000000000000000000000000000000000000000000000000700000000000000000007000000000000000000
310
00000000000000000000000000000000000000000000000000000000000000000000000000000000000000000000000000000000000000000000000000000000000000000000000000000000000000000000000000000000000000000000000000000000000000000000000000000000000000000000000000000000000000
310
00000000000000000000000000000000000000000000000000000000000000000007000000000000000000070000000000000000000000000000000000000000000000000000000000000000000000000000000000000000000000000000000000000000000000000000000000000000000000000000000000000000000000
310
00000000000000000000000000000000000000000000000000000000000000000000000000000000000000000000000000000000000000000000000000000000000000000000000000000000000000000000000000000700000000000000000007000000000000000000000000000000000000000000000000000000000000
310
00000000000000000000000000000000000000000000000000000000000000000000000000000000000000000000000000000000000000000000000000000000000000000000000000000000000000000000000000000000000000000000000000000000000000000000000000000000000000000000000000000000000000
310
00000000000000000000000007000000000000000000070000000000000000000000000000000000000000000000000000000000000000000000000000000000000000000000000000000000000000000000000000000000000000000000000000000000000000000000000000000000000000000000000000000000000000
310
00000000000000000000000000000000000000000000000000000000000000000000000000000000000000000000000000000000000000000000000000000000000700000000000000000007000000000000000000000000000000000000000000000000000000000000000000000000000000000000000000000000000000
310
00000000000000000000000000000000000000000000000000000000000000000000000000000000000000000000000000000000000000000000000000000000000000000000000000000000000000000000000000000000000000000000000000000000000000000000000000000000000000000000070000000000000000
310
00070000000000000000000000000000000000000000000000000000000000000000000000000000000000000000000000000000000000000000000000000000000000000000000000000000000000000000000000000000000000000000000000000000000000000000000000000000000000000000000000000000000000
310
00000000000000000000000000000000000000000000000000000000000000000000000000000000000000000700000000000000000007000000000000000000000000000000000000000000000000000000000000000000000000000000000000000000000000000000000000000000000000000000000000000000000000
310
00000000000000000000000000000000000000000000000000000000000000000000000000000000000000000000000000000000000000000000000000000000000000000000000000000000000000000000000000000000000007070707070707070707070707070707070707070707070707000000000000000000000000
310
00000000000000000000000000000000000000000000000000000000000000000000000000000000000000000000000000000000000000000000000000000000000000000000000000000000000000000000000000000000000000000000000000000000000000000000000000000000000000000000000000000000000000
310
00000000000000000000000007070707000000000000000000000000000000000000000000000000000707070700000000000000000000000000000000000000000000000000000000000000000000000000000000000000000000000000000000000000000000000000000000000000000000000000000000000000000000
310
00000000000000000000000000000000000000000000000000000000000000000000000000000000000000000000000000000000000000000000000000000000000700000000000000000000000000000000000000000000000000000000000000070000000000000000000000000000000000000000000000000000000000
310
00000000000000000000000000000000000000000000000000000000000000000000000000000000000000000000000000000000000000000000000000000000000000000000000000000000000000000000000000000000000000000000000000000000000000000000000000000000000000000000070000000000000000
310
00000000000000000000000000000000000000000000000700000000000000000000000000000000000000000000000000000000000000000000000000000000000000000000000000000000000000000000000000000000000000000000000000000000000000000000000000000000000000000000000000000000000000
310
00000000000000000000000000000000000000000000000000000000000000000000000000000000000000000700000000000000000000000000000000000000000000000000000000000000070000000000000000000000000000000000000000000000000000000000000000000000000000000000000000000000000000
310
00000000000000000000000000000000000000000000000000000000000000000000000000000000000000000000000000000000000000000000000000000000000000000000000000000000000000000000000000000000000000000000000007000000000000000000000000000000000000000000000000000000000000
310
00000007000000000000000000000000000000000000000000000000000000000000000000000000000000000000000000000000000000000000000000000000000000000000000000000000000000000000000000000000000000000000000000000000000000000000000000000000000000000000000000000000000000
310
00000000000000000000000000000000000000000000070000000000000000000000000000000000000000000000000000000000000000000700000000000000000000000000000000000000000000000000000000000000000000000000000000000000000000000000000000000000000000000000000000000000000000
310
00000000000000000000000000000000000000000000000000000000000000000000000000000000000000000000000000000000000000000000000000000000000000000000000000000007070707070707070707070707070707070707070707070707070707070707070707070000000000000000000000000000000000
310
00000000000000000000000000000000000000000000000000000000000000000000000000000000000000000000000000000000000000000000000000000000000000000000000000000000000000000000000000000000000000000000000000000000000000000000000000000000000000000000000000000000000000
310
000000000000000000000000000000000000000000000000000000000000000000000000000000000000000000000000000000000000000000000000000000000000000000000000000000000000000000000000000000000000000000000000000000000000000000000000
  0
ENDSEC
  0
EOF
