  0
SECTION
  2
HEADER
  9
$ACADVER
  1
AC1015
  9
$ACADMAINTVER
 70
     6
  9
$DWGCODEPAGE
  3
ANSI_1252
  9
$INSBASE
 10
0.0
 20
0.0
 30
0.0
  9
$EXTMIN
 10
-0.25
 20
0.0
 30
0.0
  9
$EXTMAX
 10
237.25
 20
338.0
 30
0.0
  9
$LIMMIN
 10
0.0
 20
0.0
  9
$LIMMAX
 10
12.0
 20
9.0
  9
$ORTHOMODE
 70
     0
  9
$REGENMODE
 70
     1
  9
$FILLMODE
 70
     1
  9
$QTEXTMODE
 70
     0
  9
$MIRRTEXT
 70
     1
  9
$LTSCALE
 40
1.0
  9
$ATTMODE
 70
     1
  9
$TEXTSIZE
 40
0.2
  9
$TRACEWID
 40
0.05
  9
$TEXTSTYLE
  7
Standard
  9
$CLAYER
  8
0
  9
$CELTYPE
  6
ByBlock
  9
$CECOLOR
 62
   256
  9
$CELTSCALE
 40
1.0
  9
$DISPSILH
 70
     0
  9
$DIMSCALE
 40
1.0
  9
$DIMASZ
 40
0.18
  9
$DIMEXO
 40
0.0625
  9
$DIMDLI
 40
0.38
  9
$DIMRND
 40
0.0
  9
$DIMDLE
 40
0.0
  9
$DIMEXE
 40
0.18
  9
$DIMTP
 40
0.0
  9
$DIMTM
 40
0.0
  9
$DIMTXT
 40
0.18
  9
$DIMCEN
 40
0.09
  9
$DIMTSZ
 40
0.0
  9
$DIMTOL
 70
     0
  9
$DIMLIM
 70
     0
  9
$DIMTIH
 70
     1
  9
$DIMTOH
 70
     1
  9
$DIMSE1
 70
     0
  9
$DIMSE2
 70
     0
  9
$DIMTAD
 70
     0
  9
$DIMZIN
 70
     0
  9
$DIMBLK
  1

  9
$DIMASO
 70
     1
  9
$DIMSHO
 70
     1
  9
$DIMPOST
  1

  9
$DIMAPOST
  1

  9
$DIMALT
 70
     0
  9
$DIMALTD
 70
     2
  9
$DIMALTF
 40
25.4
  9
$DIMLFAC
 40
1.0
  9
$DIMTOFL
 70
     0
  9
$DIMTVP
 40
0.0
  9
$DIMTIX
 70
     0
  9
$DIMSOXD
 70
     0
  9
$DIMSAH
 70
     0
  9
$DIMBLK1
  1

  9
$DIMBLK2
  1

  9
$DIMSTYLE
  2
Standard
  9
$DIMCLRD
 70
     0
  9
$DIMCLRE
 70
     0
  9
$DIMCLRT
 70
     0
  9
$DIMTFAC
 40
1.0
  9
$DIMGAP
 40
0.09
  9
$DIMJUST
 70
     0
  9
$DIMSD1
 70
     0
  9
$DIMSD2
 70
     0
  9
$DIMTOLJ
 70
     1
  9
$DIMTZIN
 70
     0
  9
$DIMALTZ
 70
     0
  9
$DIMALTTZ
 70
     0
  9
$DIMUPT
 70
     0
  9
$DIMDEC
 70
     4
  9
$DIMTDEC
 70
     4
  9
$DIMALTU
 70
     2
  9
$DIMALTTD
 70
     2
  9
$DIMTXSTY
  7
Standard
  9
$DIMAUNIT
 70
     0
  9
$DIMADEC
 70
     0
  9
$DIMALTRND
 40
0.0
  9
$DIMAZIN
 70
     0
  9
$DIMDSEP
 70
    46
  9
$DIMATFIT
 70
     3
  9
$DIMFRAC
 70
     0
  9
$DIMLDRBLK
  1

  9
$DIMLUNIT
 70
     2
  9
$DIMLWD
 70
    -2
  9
$DIMLWE
 70
    -2
  9
$DIMTMOVE
 70
     2
  9
$LUNITS
 70
     2
  9
$LUPREC
 70
     4
  9
$SKETCHINC
 40
0.1
  9
$FILLETRAD
 40
0.5
  9
$AUNITS
 70
     0
  9
$AUPREC
 70
     0
  9
$MENU
  1
.
  9
$ELEVATION
 40
0.0
  9
$PELEVATION
 40
0.0
  9
$THICKNESS
 40
0.0
  9
$LIMCHECK
 70
     0
  9
$CHAMFERA
 40
0.5
  9
$CHAMFERB
 40
0.5
  9
$CHAMFERC
 40
1.0
  9
$CHAMFERD
 40
0.0
  9
$SKPOLY
 70
     0
  9
$TDCREATE
 40
2455823.472538148
  9
$TDUCREATE
 40
2455823.389204815
  9
$TDUPDATE
 40
2456213.919460174
  9
$TDUUPDATE
 40
2456213.83612684
  9
$TDINDWG
 40
0.0037747801
  9
$TDUSRTIMER
 40
0.0037747801
  9
$USRTIMER
 70
     1
  9
$ANGBASE
 50
0.0
  9
$ANGDIR
 70
     0
  9
$PDMODE
 70
     0
  9
$PDSIZE
 40
0.0
  9
$PLINEWID
 40
0.0
  9
$SPLFRAME
 70
     0
  9
$SPLINETYPE
 70
     6
  9
$SPLINESEGS
 70
     8
  9
$HANDSEED
  5
2AC
  9
$SURFTAB1
 70
     6
  9
$SURFTAB2
 70
     6
  9
$SURFTYPE
 70
     6
  9
$SURFU
 70
     6
  9
$SURFV
 70
     6
  9
$UCSBASE
  2

  9
$UCSNAME
  2

  9
$UCSORG
 10
0.0
 20
0.0
 30
0.0
  9
$UCSXDIR
 10
1.0
 20
0.0
 30
0.0
  9
$UCSYDIR
 10
0.0
 20
1.0
 30
0.0
  9
$UCSORTHOREF
  2

  9
$UCSORTHOVIEW
 70
     0
  9
$UCSORGTOP
 10
0.0
 20
0.0
 30
0.0
  9
$UCSORGBOTTOM
 10
0.0
 20
0.0
 30
0.0
  9
$UCSORGLEFT
 10
0.0
 20
0.0
 30
0.0
  9
$UCSORGRIGHT
 10
0.0
 20
0.0
 30
0.0
  9
$UCSORGFRONT
 10
0.0
 20
0.0
 30
0.0
  9
$UCSORGBACK
 10
0.0
 20
0.0
 30
0.0
  9
$PUCSBASE
  2

  9
$PUCSNAME
  2

  9
$PUCSORG
 10
0.0
 20
0.0
 30
0.0
  9
$PUCSXDIR
 10
1.0
 20
0.0
 30
0.0
  9
$PUCSYDIR
 10
0.0
 20
1.0
 30
0.0
  9
$PUCSORTHOREF
  2

  9
$PUCSORTHOVIEW
 70
     0
  9
$PUCSORGTOP
 10
0.0
 20
0.0
 30
0.0
  9
$PUCSORGBOTTOM
 10
0.0
 20
0.0
 30
0.0
  9
$PUCSORGLEFT
 10
0.0
 20
0.0
 30
0.0
  9
$PUCSORGRIGHT
 10
0.0
 20
0.0
 30
0.0
  9
$PUCSORGFRONT
 10
0.0
 20
0.0
 30
0.0
  9
$PUCSORGBACK
 10
0.0
 20
0.0
 30
0.0
  9
$USERI1
 70
     0
  9
$USERI2
 70
     0
  9
$USERI3
 70
     0
  9
$USERI4
 70
     0
  9
$USERI5
 70
     0
  9
$USERR1
 40
0.0
  9
$USERR2
 40
0.0
  9
$USERR3
 40
0.0
  9
$USERR4
 40
0.0
  9
$USERR5
 40
0.0
  9
$WORLDVIEW
 70
     1
  9
$SHADEDGE
 70
     3
  9
$SHADEDIF
 70
    70
  9
$TILEMODE
 70
     1
  9
$MAXACTVP
 70
    64
  9
$PINSBASE
 10
0.0
 20
0.0
 30
0.0
  9
$PLIMCHECK
 70
     0
  9
$PEXTMIN
 10
1.000000000000E+20
 20
1.000000000000E+20
 30
1.000000000000E+20
  9
$PEXTMAX
 10
-1.000000000000E+20
 20
-1.000000000000E+20
 30
-1.000000000000E+20
  9
$PLIMMIN
 10
0.0
 20
0.0
  9
$PLIMMAX
 10
12.0
 20
9.0
  9
$UNITMODE
 70
     0
  9
$VISRETAIN
 70
     1
  9
$PLINEGEN
 70
     0
  9
$PSLTSCALE
 70
     1
  9
$TREEDEPTH
 70
  3020
  9
$CMLSTYLE
  2
Standard
  9
$CMLJUST
 70
     0
  9
$CMLSCALE
 40
1.0
  9
$PROXYGRAPHICS
 70
     1
  9
$MEASUREMENT
 70
     0
  9
$CELWEIGHT
370
    -1
  9
$ENDCAPS
280
     0
  9
$JOINSTYLE
280
     0
  9
$LWDISPLAY
290
     0
  9
$INSUNITS
 70
     0
  9
$HYPERLINKBASE
  1

  9
$STYLESHEET
  1

  9
$XEDIT
290
     1
  9
$CEPSNTYPE
380
     0
  9
$PSTYLEMODE
290
     1
  9
$FINGERPRINTGUID
  2
{3227FFCE-9F5B-4DD7-AAC8-FFA5B772823D}
  9
$VERSIONGUID
  2
{FAEB1C32-E019-11D5-929B-00C0DF256EC4}
  9
$EXTNAMES
290
     1
  9
$PSVPSCALE
 40
0.0
  9
$OLESTARTUP
290
     0
  0
ENDSEC
  0
SECTION
  2
CLASSES
  0
CLASS
  1
ACDBDICTIONARYWDFLT
  2
AcDbDictionaryWithDefault
  3
ObjectDBX Classes
 90
        0
280
     0
281
     0
  0
CLASS
  1
SCALE
  2
AcDbScale
  3
ObjectDBX Classes
 90
     1153
280
     0
281
     0
  0
CLASS
  1
DICTIONARYVAR
  2
AcDbDictionaryVar
  3
ObjectDBX Classes
 90
        0
280
     0
281
     0
  0
CLASS
  1
ACDBPLACEHOLDER
  2
AcDbPlaceHolder
  3
ObjectDBX Classes
 90
        0
280
     0
281
     0
  0
CLASS
  1
LAYOUT
  2
AcDbLayout
  3
ObjectDBX Classes
 90
        0
280
     0
281
     0
  0
ENDSEC
  0
SECTION
  2
TABLES
  0
TABLE
  2
VPORT
  5
8
330
0
100
AcDbSymbolTable
 70
     1
  0
VPORT
  5
279
330
8
100
AcDbSymbolTableRecord
100
AcDbViewportTableRecord
  2
*Active
 70
     0
 10
0.0
 20
0.0
 11
1.0
 21
1.0
 12
118.5
 22
169.0
 13
0.0
 23
0.0
 14
0.5
 24
0.5
 15
0.5
 25
0.5
 16
0.0
 26
0.0
 36
1.0
 17
0.0
 27
0.0
 37
0.0
 40
344.76
 41
1.790857142857
 42
50.0
 43
0.0
 44
0.0
 50
0.0
 51
0.0
 71
    16
 72
   100
 73
     1
 74
     3
 75
     0
 76
     0
 77
     0
 78
     0
281
     0
 65
     1
110
0.0
120
0.0
130
0.0
111
1.0
121
0.0
131
0.0
112
0.0
122
1.0
132
0.0
 79
     0
146
0.0
  0
ENDTAB
  0
TABLE
  2
LTYPE
  5
5
330
0
100
AcDbSymbolTable
 70
     1
  0
LTYPE
  5
14
330
5
100
AcDbSymbolTableRecord
100
AcDbLinetypeTableRecord
  2
ByBlock
 70
     0
  3

 72
    65
 73
     0
 40
0.0
  0
LTYPE
  5
15
330
5
100
AcDbSymbolTableRecord
100
AcDbLinetypeTableRecord
  2
ByLayer
 70
     0
  3

 72
    65
 73
     0
 40
0.0
  0
LTYPE
  5
16
330
5
100
AcDbSymbolTableRecord
100
AcDbLinetypeTableRecord
  2
Continuous
 70
     0
  3
Solid line
 72
    65
 73
     0
 40
0.0
  0
ENDTAB
  0
TABLE
  2
LAYER
  5
2
330
0
100
AcDbSymbolTable
 70
     1
  0
LAYER
  5
10
330
2
100
AcDbSymbolTableRecord
100
AcDbLayerTableRecord
  2
0
 70
     0
 62
     7
  6
Continuous
370
    -3
390
F
  0
ENDTAB
  0
TABLE
  2
STYLE
  5
3
330
0
100
AcDbSymbolTable
 70
     1
  0
STYLE
  5
11
330
3
100
AcDbSymbolTableRecord
100
AcDbTextStyleTableRecord
  2
Standard
 70
     0
 40
0.0
 41
1.0
 50
0.0
 71
     0
 42
0.2
  3
txt
  4

  0
ENDTAB
  0
TABLE
  2
VIEW
  5
6
330
0
100
AcDbSymbolTable
 70
     0
  0
ENDTAB
  0
TABLE
  2
UCS
  5
7
330
0
100
AcDbSymbolTable
 70
     0
  0
ENDTAB
  0
TABLE
  2
APPID
  5
9
330
0
100
AcDbSymbolTable
 70
     1
  0
APPID
  5
12
330
9
100
AcDbSymbolTableRecord
100
AcDbRegAppTableRecord
  2
ACAD
 70
     0
  0
ENDTAB
  0
TABLE
  2
DIMSTYLE
  5
A
330
0
100
AcDbSymbolTable
 70
     1
100
AcDbDimStyleTable
  0
DIMSTYLE
105
20
330
A
100
AcDbSymbolTableRecord
100
AcDbDimStyleTableRecord
  2
Standard
 70
     0
340
11
  0
ENDTAB
  0
TABLE
  2
BLOCK_RECORD
  5
1
330
0
100
AcDbSymbolTable
 70
     0
  0
BLOCK_RECORD
  5
1D
330
1
100
AcDbSymbolTableRecord
100
AcDbBlockTableRecord
  2
*Model_Space
340
1E
  0
BLOCK_RECORD
  5
1B
330
1
100
AcDbSymbolTableRecord
100
AcDbBlockTableRecord
  2
*Paper_Space
340
1C
  0
ENDTAB
  0
ENDSEC
  0
SECTION
  2
BLOCKS
  0
BLOCK
  5
27C
330
1D
100
AcDbEntity
  8
0
100
AcDbBlockBegin
  2
*Model_Space
 70
     0
 10
0.0
 20
0.0
 30
0.0
  3
*Model_Space
  1
*Model_Space
  0
ENDBLK
  5
27D
330
1D
100
AcDbEntity
  8
0
100
AcDbBlockEnd
  0
BLOCK
  5
27A
330
1B
100
AcDbEntity
 67
     1
  8
0
100
AcDbBlockBegin
  2
*Paper_Space
 70
     0
 10
0.0
 20
0.0
 30
0.0
  3
*Paper_Space
  1
*Paper_Space
  0
ENDBLK
  5
27B
330
1B
100
AcDbEntity
 67
     1
  8
0
100
AcDbBlockEnd
  0
ENDSEC
  0
SECTION
  2
ENTITIES
  0
LINE
  5
23
330
1D
100
AcDbEntity
  8
0
100
AcDbLine
 10
-0.201
 20
273.739
 30
0.0
 11
-0.086
 21
273.581
 31
0.0
  0
LINE
  5
24
330
1D
100
AcDbEntity
  8
0
100
AcDbLine
 10
-0.204
 20
273.74
 30
0.0
 11
-0.089
 21
273.582
 31
0.0
  0
LINE
  5
25
330
1D
100
AcDbEntity
  8
0
100
AcDbLine
 10
-0.218
 20
274.122
 30
0.0
 11
6.372
 21
292.294
 31
0.0
  0
LINE
  5
26
330
1D
100
AcDbEntity
  8
0
100
AcDbLine
 10
-0.218
 20
274.122
 30
0.0
 11
6.372
 21
292.294
 31
0.0
  0
LINE
  5
27
330
1D
100
AcDbEntity
  8
0
100
AcDbLine
 10
-0.221
 20
274.123
 30
0.0
 11
6.369
 21
292.296
 31
0.0
  0
LINE
  5
28
330
1D
100
AcDbEntity
  8
0
100
AcDbLine
 10
-0.247
 20
273.929
 30
0.0
 11
-0.218
 21
274.122
 31
0.0
  0
LINE
  5
29
330
1D
100
AcDbEntity
  8
0
100
AcDbLine
 10
-0.247
 20
273.929
 30
0.0
 11
-0.201
 21
273.739
 31
0.0
  0
LINE
  5
2A
330
1D
100
AcDbEntity
  8
0
100
AcDbLine
 10
-0.25
 20
273.93
 30
0.0
 11
-0.221
 21
274.123
 31
0.0
  0
LINE
  5
2B
330
1D
100
AcDbEntity
  8
0
100
AcDbLine
 10
-0.25
 20
273.93
 30
0.0
 11
-0.204
 21
273.74
 31
0.0
  0
LINE
  5
2C
330
1D
100
AcDbEntity
  8
0
100
AcDbLine
 10
-0.089
 20
273.582
 30
0.0
 11
0.077
 21
273.481
 31
0.0
  0
LINE
  5
2D
330
1D
100
AcDbEntity
  8
0
100
AcDbLine
 10
0.081
 20
273.48
 30
0.0
 11
0.141546173045
 21
273.457889918318
 31
0.0
  0
LINE
  5
30
330
1D
100
AcDbEntity
  8
0
100
AcDbLine
 10
0.081
 20
273.48
 30
0.0
 11
0.141546173045
 21
273.457889918318
 31
0.0
  0
LINE
  5
31
330
1D
100
AcDbEntity
  8
0
100
AcDbLine
 10
-0.086
 20
273.581
 30
0.0
 11
0.081
 21
273.48
 31
0.0
  0
LINE
  5
3C
330
1D
100
AcDbEntity
  8
0
100
AcDbLine
 10
22.175948640495
 20
265.40831722054
 30
0.0
 11
22.456
 21
265.306
 31
0.0
  0
LINE
  5
3D
330
1D
100
AcDbEntity
  8
0
100
AcDbLine
 10
22.175948640495
 20
265.40831722054
 30
0.0
 11
22.456
 21
265.306
 31
0.0
  0
LINE
  5
6D
330
1D
100
AcDbEntity
  8
0
100
AcDbLine
 10
22.78
 20
265.228
 30
0.0
 11
22.969
 21
265.275
 31
0.0
  0
LINE
  5
6E
330
1D
100
AcDbEntity
  8
0
100
AcDbLine
 10
22.456
 20
265.306
 30
0.0
 11
22.541
 21
265.275
 31
0.0
  0
LINE
  5
6F
330
1D
100
AcDbEntity
  8
0
100
AcDbLine
 10
22.456
 20
265.306
 30
0.0
 11
22.587
 21
265.258
 31
0.0
  0
LINE
  5
70
330
1D
100
AcDbEntity
  8
0
100
AcDbLine
 10
22.969
 20
265.275
 30
0.0
 11
23.126
 21
265.39
 31
0.0
  0
LINE
  5
71
330
1D
100
AcDbEntity
  8
0
100
AcDbLine
 10
23.126
 20
265.39
 30
0.0
 11
23.227
 21
265.557
 31
0.0
  0
LINE
  5
72
330
1D
100
AcDbEntity
  8
0
100
AcDbLine
 10
22.587
 20
265.258
 30
0.0
 11
22.78
 21
265.228
 31
0.0
  0
LINE
  5
73
330
1D
100
AcDbEntity
  8
0
100
AcDbLine
 10
23.034
 20
286.421
 30
0.0
 11
25.842
 21
285.395
 31
0.0
  0
LINE
  5
74
330
1D
100
AcDbEntity
  8
0
100
AcDbLine
 10
23.142000000154
 20
286.381538461482
 30
0.0
 11
24.629749999924
 21
285.837937500028
 31
0.0
  0
LINE
  5
75
330
1D
100
AcDbEntity
  8
0
100
AcDbLine
 10
23.227
 20
265.557
 30
0.0
 11
29.816
 21
283.73
 31
0.0
  0
LINE
  5
76
330
1D
100
AcDbEntity
  8
0
100
AcDbLine
 10
29.649
 20
284.004
 30
0.0
 11
29.698
 21
283.986
 31
0.0
  0
LINE
  5
77
330
1D
100
AcDbEntity
  8
0
100
AcDbLine
 10
29.596
 20
283.811
 30
0.0
 11
29.768
 21
283.747
 31
0.0
  0
LINE
  5
78
330
1D
100
AcDbEntity
  8
0
100
AcDbLine
 10
29.306
 20
283.916
 30
0.0
 11
29.596
 21
283.811
 31
0.0
  0
LINE
  5
79
330
1D
100
AcDbEntity
  8
0
100
AcDbLine
 10
29.564129533681
 20
284.035321243523
 30
0.0
 11
29.649
 21
284.004
 31
0.0
  0
LINE
  5
7A
330
1D
100
AcDbEntity
  8
0
100
AcDbLine
 10
29.584561643833
 20
284.027780821919
 30
0.0
 11
29.661
 21
284.0
 31
0.0
  0
LINE
  5
7B
330
1D
100
AcDbEntity
  8
0
100
AcDbLine
 10
29.584561643833
 20
284.027780821919
 30
0.0
 11
29.661
 21
284.0
 31
0.0
  0
LINE
  5
7C
330
1D
100
AcDbEntity
  8
0
100
AcDbLine
 10
29.768
 20
283.747
 30
0.0
 11
29.816
 21
283.73
 31
0.0
  0
LINE
  5
7D
330
1D
100
AcDbEntity
  8
0
100
AcDbLine
 10
29.698
 20
283.986
 30
0.0
 11
29.816
 21
283.73
 31
0.0
  0
LINE
  5
7E
330
1D
100
AcDbEntity
  8
0
100
AcDbLine
 10
197.312
 20
0.0
 30
0.0
 11
199.238
 21
0.0
 31
0.0
  0
LINE
  5
7F
330
1D
100
AcDbEntity
  8
0
100
AcDbLine
 10
196.687
 20
0.0
 30
0.0
 11
198.512
 21
0.0
 31
0.0
  0
LINE
  5
80
330
1D
100
AcDbEntity
  8
0
100
AcDbLine
 10
191.25
 20
0.0
 30
0.0
 11
191.447
 21
0.0
 31
0.0
  0
LINE
  5
81
330
1D
100
AcDbEntity
  8
0
100
AcDbLine
 10
191.25
 20
0.0
 30
0.0
 11
191.25
 21
88.6436
 31
0.0
  0
LINE
  5
82
330
1D
100
AcDbEntity
  8
0
100
AcDbLine
 10
192.759
 20
0.0
 30
0.0
 11
193.38
 21
0.0
 31
0.0
  0
LINE
  5
83
330
1D
100
AcDbEntity
  8
0
100
AcDbLine
 10
192.506
 20
0.0
 30
0.0
 11
192.759
 21
0.0
 31
0.0
  0
LINE
  5
84
330
1D
100
AcDbEntity
  8
0
100
AcDbLine
 10
192.506
 20
0.0
 30
0.0
 11
192.625
 21
0.0
 31
0.0
  0
LINE
  5
85
330
1D
100
AcDbEntity
  8
0
100
AcDbLine
 10
195.676
 20
0.0
 30
0.0
 11
197.312
 21
0.0
 31
0.0
  0
LINE
  5
86
330
1D
100
AcDbEntity
  8
0
100
AcDbLine
 10
193.38
 20
0.0
 30
0.0
 11
194.358
 21
0.0
 31
0.0
  0
LINE
  5
87
330
1D
100
AcDbEntity
  8
0
100
AcDbLine
 10
194.331
 20
0.0
 30
0.0
 11
196.003
 21
0.0
 31
0.0
  0
LINE
  5
88
330
1D
100
AcDbEntity
  8
0
100
AcDbLine
 10
193.001
 20
0.0
 30
0.0
 11
194.331
 21
0.0
 31
0.0
  0
LINE
  5
89
330
1D
100
AcDbEntity
  8
0
100
AcDbLine
 10
193.001
 20
0.0
 30
0.0
 11
193.114
 21
0.0
 31
0.0
  0
LINE
  5
8A
330
1D
100
AcDbEntity
  8
0
100
AcDbLine
 10
192.665
 20
53.837
 30
0.0
 11
192.96
 21
52.6495
 31
0.0
  0
LINE
  5
8B
330
1D
100
AcDbEntity
  8
0
100
AcDbLine
 10
192.277
 20
57.3851
 30
0.0
 11
192.326
 21
56.2102
 31
0.0
  0
LINE
  5
8C
330
1D
100
AcDbEntity
  8
0
100
AcDbLine
 10
192.277
 20
57.3851
 30
0.0
 11
192.277
 21
57.453
 31
0.0
  0
LINE
  5
8D
330
1D
100
AcDbEntity
  8
0
100
AcDbLine
 10
192.326
 20
56.2102
 30
0.0
 11
192.454
 21
55.0257
 31
0.0
  0
LINE
  5
8E
330
1D
100
AcDbEntity
  8
0
100
AcDbLine
 10
192.458
 20
60.132
 30
0.0
 11
193.013
 21
65.541
 31
0.0
  0
LINE
  5
8F
330
1D
100
AcDbEntity
  8
0
100
AcDbLine
 10
192.327
 20
58.8376
 30
0.0
 11
192.458
 21
60.132
 31
0.0
  0
LINE
  5
90
330
1D
100
AcDbEntity
  8
0
100
AcDbLine
 10
192.277
 20
57.453
 30
0.0
 11
192.327
 21
58.8376
 31
0.0
  0
LINE
  5
91
330
1D
100
AcDbEntity
  8
0
100
AcDbLine
 10
192.277
 20
57.453
 30
0.0
 11
192.277
 21
57.3851
 31
0.0
  0
LINE
  5
92
330
1D
100
AcDbEntity
  8
0
100
AcDbLine
 10
192.454
 20
55.0257
 30
0.0
 11
192.665
 21
53.837
 31
0.0
  0
LINE
  5
93
330
1D
100
AcDbEntity
  8
0
100
AcDbLine
 10
193.338
 20
51.4674
 30
0.0
 11
193.803
 21
50.3005
 31
0.0
  0
LINE
  5
94
330
1D
100
AcDbEntity
  8
0
100
AcDbLine
 10
193.803
 20
50.3005
 30
0.0
 11
194.352
 21
49.1534
 31
0.0
  0
LINE
  5
95
330
1D
100
AcDbEntity
  8
0
100
AcDbLine
 10
194.987
 20
48.0319
 30
0.0
 11
195.664
 21
46.9985
 31
0.0
  0
LINE
  5
96
330
1D
100
AcDbEntity
  8
0
100
AcDbLine
 10
195.664
 20
46.9985
 30
0.0
 11
196.414
 21
45.9999
 31
0.0
  0
LINE
  5
97
330
1D
100
AcDbEntity
  8
0
100
AcDbLine
 10
196.414
 20
45.9999
 30
0.0
 11
197.234
 21
45.0407
 31
0.0
  0
LINE
  5
98
330
1D
100
AcDbEntity
  8
0
100
AcDbLine
 10
194.352
 20
49.1534
 30
0.0
 11
194.987
 21
48.0319
 31
0.0
  0
LINE
  5
9B
330
1D
100
AcDbEntity
  8
0
100
AcDbLine
 10
192.96
 20
52.6495
 30
0.0
 11
193.338
 21
51.4674
 31
0.0
  0
LINE
  5
9C
330
1D
100
AcDbEntity
  8
0
100
AcDbLine
 10
197.234
 20
45.0407
 30
0.0
 11
198.122
 21
44.125
 31
0.0
  0
LINE
  5
B1
330
1D
100
AcDbEntity
  8
0
100
AcDbLine
 10
192.034
 20
0.0
 30
0.0
 11
193.001
 21
0.0
 31
0.0
  0
LINE
  5
B2
330
1D
100
AcDbEntity
  8
0
100
AcDbLine
 10
191.447
 20
0.0
 30
0.0
 11
192.034
 21
0.0
 31
0.0
  0
LINE
  5
B3
330
1D
100
AcDbEntity
  8
0
100
AcDbLine
 10
193.013
 20
65.541
 30
0.0
 11
194.679
 21
100.103
 31
0.0
  0
LINE
  5
B4
330
1D
100
AcDbEntity
  8
0
100
AcDbLine
 10
195.108
 20
108.576
 30
0.0
 11
195.998
 21
126.071
 31
0.0
  0
LINE
  5
B5
330
1D
100
AcDbEntity
  8
0
100
AcDbLine
 10
194.679
 20
100.103
 30
0.0
 11
195.108
 21
108.576
 31
0.0
  0
LINE
  5
B7
330
1D
100
AcDbEntity
  8
0
100
AcDbLine
 10
195.998
 20
126.071
 30
0.0
 11
196.067
 21
127.221
 31
0.0
  0
LINE
  5
B8
330
1D
100
AcDbEntity
  8
0
100
AcDbLine
 10
196.067
 20
127.221
 30
0.0
 11
196.222
 21
129.274
 31
0.0
  0
LINE
  5
B9
330
1D
100
AcDbEntity
  8
0
100
AcDbLine
 10
196.347
 20
130.303
 30
0.0
 11
196.598
 21
131.871
 31
0.0
  0
LINE
  5
BA
330
1D
100
AcDbEntity
  8
0
100
AcDbLine
 10
196.222
 20
129.274
 30
0.0
 11
196.347
 21
130.303
 31
0.0
  0
LINE
  5
BD
330
1D
100
AcDbEntity
  8
0
100
AcDbLine
 10
196.598
 20
131.871
 30
0.0
 11
196.936
 21
133.434
 31
0.0
  0
LINE
  5
BE
330
1D
100
AcDbEntity
  8
0
100
AcDbLine
 10
197.304
 20
134.746
 30
0.0
 11
197.733
 21
136.051
 31
0.0
  0
LINE
  5
BF
330
1D
100
AcDbEntity
  8
0
100
AcDbLine
 10
196.936
 20
133.434
 30
0.0
 11
197.304
 21
134.746
 31
0.0
  0
LINE
  5
C3
330
1D
100
AcDbEntity
  8
0
100
AcDbLine
 10
197.733
 20
136.051
 30
0.0
 11
197.872
 21
136.419
 31
0.0
  0
LINE
  5
C7
330
1D
100
AcDbEntity
  8
0
100
AcDbLine
 10
197.872
 20
136.419
 30
0.0
 11
198.753
 21
138.37
 31
0.0
  0
LINE
  5
C8
330
1D
100
AcDbEntity
  8
0
100
AcDbLine
 10
192.187
 20
89.6454
 30
0.0
 11
194.161891698222
 21
89.744251174489
 31
0.0
  0
LINE
  5
C9
330
1D
100
AcDbEntity
  8
0
100
AcDbLine
 10
191.714
 20
89.4908
 30
0.0
 11
192.187
 21
89.6454
 31
0.0
  0
LINE
  5
CA
330
1D
100
AcDbEntity
  8
0
100
AcDbLine
 10
191.374
 20
89.1274
 30
0.0
 11
191.714
 21
89.4908
 31
0.0
  0
LINE
  5
CB
330
1D
100
AcDbEntity
  8
0
100
AcDbLine
 10
191.25
 20
88.6436
 30
0.0
 11
191.374
 21
89.1274
 31
0.0
  0
LINE
  5
CC
330
1D
100
AcDbEntity
  8
0
100
AcDbLine
 10
191.25
 20
88.6436
 30
0.0
 11
191.25
 21
0.0
 31
0.0
  0
LINE
  5
CD
330
1D
100
AcDbEntity
  8
0
100
AcDbLine
 10
196.003
 20
0.0
 30
0.0
 11
197.986
 21
0.0
 31
0.0
  0
LINE
  5
CE
330
1D
100
AcDbEntity
  8
0
100
AcDbLine
 10
196.003
 20
0.0
 30
0.0
 11
197.987
 21
0.0
 31
0.0
  0
LINE
  5
CF
330
1D
100
AcDbEntity
  8
0
100
AcDbLine
 10
200.606
 20
0.0
 30
0.0
 11
202.934
 21
0.0
 31
0.0
  0
LINE
  5
D0
330
1D
100
AcDbEntity
  8
0
100
AcDbLine
 10
201.42
 20
0.0
 30
0.0
 11
203.822
 21
0.0
 31
0.0
  0
LINE
  5
D1
330
1D
100
AcDbEntity
  8
0
100
AcDbLine
 10
199.238
 20
0.0
 30
0.0
 11
201.42
 21
0.0
 31
0.0
  0
LINE
  5
D3
330
1D
100
AcDbEntity
  8
0
100
AcDbLine
 10
198.122
 20
44.125
 30
0.0
 11
199.074
 21
43.2572
 31
0.0
  0
LINE
  5
D4
330
1D
100
AcDbEntity
  8
0
100
AcDbLine
 10
201.153
 20
41.6874
 30
0.0
 11
202.27
 21
40.993
 31
0.0
  0
LINE
  5
D5
330
1D
100
AcDbEntity
  8
0
100
AcDbLine
 10
199.074
 20
43.2572
 30
0.0
 11
200.085
 21
42.4435
 31
0.0
  0
LINE
  5
D8
330
1D
100
AcDbEntity
  8
0
100
AcDbLine
 10
198.753
 20
138.37
 30
0.0
 11
199.461
 21
139.616
 31
0.0
  0
LINE
  5
D9
330
1D
100
AcDbEntity
  8
0
100
AcDbLine
 10
199.461
 20
139.616
 30
0.0
 11
200.268
 21
140.805
 31
0.0
  0
LINE
  5
DB
330
1D
100
AcDbEntity
  8
0
100
AcDbLine
 10
200.268
 20
140.805
 30
0.0
 11
201.149
 21
141.902
 31
0.0
  0
LINE
  5
DD
330
1D
100
AcDbEntity
  8
0
100
AcDbLine
 10
201.149
 20
141.902
 30
0.0
 11
202.113
 21
142.924
 31
0.0
  0
LINE
  5
DE
330
1D
100
AcDbEntity
  8
0
100
AcDbLine
 10
200.085
 20
42.4435
 30
0.0
 11
201.153
 21
41.6874
 31
0.0
  0
LINE
  5
E0
330
1D
100
AcDbEntity
  8
0
100
AcDbLine
 10
199.826
 20
42.3613
 30
0.0
 11
201.994
 21
40.5514
 31
0.0
  0
LINE
  5
E1
330
1D
100
AcDbEntity
  8
0
100
AcDbLine
 10
198.727936411256
 20
43.572655863773
 30
0.0
 11
199.826
 21
42.3613
 31
0.0
  0
LINE
  5
E2
330
1D
100
AcDbEntity
  8
0
100
AcDbLine
 10
198.512
 20
0.0
 30
0.0
 11
200.606
 21
0.0
 31
0.0
  0
LINE
  5
E3
330
1D
100
AcDbEntity
  8
0
100
AcDbLine
 10
197.987
 20
0.0
 30
0.0
 11
200.249
 21
0.0
 31
0.0
  0
LINE
  5
E4
330
1D
100
AcDbEntity
  8
0
100
AcDbLine
 10
200.249
 20
0.0
 30
0.0
 11
202.75
 21
0.0
 31
0.0
  0
LINE
  5
E5
330
1D
100
AcDbEntity
  8
0
100
AcDbLine
 10
197.986
 20
0.0
 30
0.0
 11
200.249
 21
0.0
 31
0.0
  0
LINE
  5
E6
330
1D
100
AcDbEntity
  8
0
100
AcDbLine
 10
201.793
 20
142.584746887967
 30
0.0
 11
201.793
 21
280.385
 31
0.0
  0
LINE
  5
E7
330
1D
100
AcDbEntity
  8
0
100
AcDbLine
 10
29.889
 20
283.917
 30
0.0
 11
33.364
 21
293.501
 31
0.0
  0
LINE
  5
E8
330
1D
100
AcDbEntity
  8
0
100
AcDbLine
 10
24.056243902483
 20
286.047487804862
 30
0.0
 11
24.158682291662
 21
286.009968750002
 31
0.0
  0
LINE
  5
E9
330
1D
100
AcDbEntity
  8
0
100
AcDbLine
 10
23.313
 20
286.319
 30
0.0
 11
24.331
 21
285.947
 31
0.0
  0
LINE
  5
EA
330
1D
100
AcDbEntity
  8
0
100
AcDbLine
 10
23.967400000013
 20
286.079949999995
 30
0.0
 11
24.069695187115
 21
286.042486631035
 31
0.0
  0
LINE
  5
EB
330
1D
100
AcDbEntity
  8
0
100
AcDbLine
 10
23.329
 20
286.1
 30
0.0
 11
24.363
 21
285.721
 31
0.0
  0
LINE
  5
EC
330
1D
100
AcDbEntity
  8
0
100
AcDbLine
 10
23.967400000013
 20
286.079949999995
 30
0.0
 11
24.069695187115
 21
286.042486631035
 31
0.0
  0
LINE
  5
ED
330
1D
100
AcDbEntity
  8
0
100
AcDbLine
 10
27.764
 20
284.48
 30
0.0
 11
28.384
 21
284.253
 31
0.0
  0
LINE
  5
EE
330
1D
100
AcDbEntity
  8
0
100
AcDbLine
 10
26.23
 20
285.04
 30
0.0
 11
27.043
 21
284.743
 31
0.0
  0
LINE
  5
EF
330
1D
100
AcDbEntity
  8
0
100
AcDbLine
 10
25.334
 20
285.368
 30
0.0
 11
26.23
 21
285.04
 31
0.0
  0
LINE
  5
F0
330
1D
100
AcDbEntity
  8
0
100
AcDbLine
 10
27.043
 20
284.743
 30
0.0
 11
27.764
 21
284.48
 31
0.0
  0
LINE
  5
F1
330
1D
100
AcDbEntity
  8
0
100
AcDbLine
 10
28.901
 20
284.064
 30
0.0
 11
29.306
 21
283.916
 31
0.0
  0
LINE
  5
F2
330
1D
100
AcDbEntity
  8
0
100
AcDbLine
 10
28.384
 20
284.253
 30
0.0
 11
28.901
 21
284.064
 31
0.0
  0
LINE
  5
F3
330
1D
100
AcDbEntity
  8
0
100
AcDbLine
 10
28.027
 20
284.596
 30
0.0
 11
29.414
 21
284.09
 31
0.0
  0
LINE
  5
F4
330
1D
100
AcDbEntity
  8
0
100
AcDbLine
 10
25.842
 20
285.395
 30
0.0
 11
28.027
 21
284.596
 31
0.0
  0
LINE
  5
F5
330
1D
100
AcDbEntity
  8
0
100
AcDbLine
 10
29.414
 20
284.09
 30
0.0
 11
29.889
 21
283.917
 31
0.0
  0
LINE
  5
F6
330
1D
100
AcDbEntity
  8
0
100
AcDbLine
 10
24.331
 20
285.947
 30
0.0
 11
24.629749999924
 21
285.837937500028
 31
0.0
  0
LINE
  5
F7
330
1D
100
AcDbEntity
  8
0
100
AcDbLine
 10
24.331
 20
285.947
 30
0.0
 11
24.629749999924
 21
285.837937500028
 31
0.0
  0
LINE
  5
F8
330
1D
100
AcDbEntity
  8
0
100
AcDbLine
 10
24.363
 20
285.721
 30
0.0
 11
25.334
 21
285.368
 31
0.0
  0
LINE
  5
F9
330
1D
100
AcDbEntity
  8
0
100
AcDbLine
 10
201.3
 20
286.039
 30
0.0
 11
201.793
 21
280.385
 31
0.0
  0
LINE
  5
FA
330
1D
100
AcDbEntity
  8
0
100
AcDbLine
 10
24.056243902483
 20
286.047487804862
 30
0.0
 11
24.158682291662
 21
286.009968750002
 31
0.0
  0
LINE
  5
FB
330
1D
100
AcDbEntity
  8
0
100
AcDbLine
 10
29.564129533681
 20
284.035321243523
 30
0.0
 11
29.889
 21
283.917
 31
0.0
  0
LINE
  5
FC
330
1D
100
AcDbEntity
  8
0
100
AcDbLine
 10
29.564129533681
 20
284.035321243523
 30
0.0
 11
29.649
 21
284.004
 31
0.0
  0
LINE
  5
FD
330
1D
100
AcDbEntity
  8
0
100
AcDbLine
 10
23.142000000154
 20
286.381538461482
 30
0.0
 11
24.629749999924
 21
285.837937500028
 31
0.0
  0
LINE
  5
FE
330
1D
100
AcDbEntity
  8
0
100
AcDbLine
 10
9.020974424586
 20
291.540414322238
 30
0.0
 11
9.133975076524
 21
291.499304766068
 31
0.0
  0
LINE
  5
FF
330
1D
100
AcDbEntity
  8
0
100
AcDbLine
 10
8.516
 20
291.512
 30
0.0
 11
9.249
 21
291.243
 31
0.0
  0
LINE
  5
100
330
1D
100
AcDbEntity
  8
0
100
AcDbLine
 10
10.073
 20
290.943
 30
0.0
 11
10.98
 21
290.611
 31
0.0
  0
LINE
  5
101
330
1D
100
AcDbEntity
  8
0
100
AcDbLine
 10
9.088
 20
291.516
 30
0.0
 11
9.174044520431
 21
291.484578767166
 31
0.0
  0
LINE
  5
102
330
1D
100
AcDbEntity
  8
0
100
AcDbLine
 10
9.249
 20
291.243
 30
0.0
 11
10.073
 21
290.943
 31
0.0
  0
LINE
  5
103
330
1D
100
AcDbEntity
  8
0
100
AcDbLine
 10
10.483
 20
291.006
 30
0.0
 11
13.292
 21
289.98
 31
0.0
  0
LINE
  5
104
330
1D
100
AcDbEntity
  8
0
100
AcDbLine
 10
9.020974424586
 20
291.540414322238
 30
0.0
 11
9.133975076524
 21
291.499304766068
 31
0.0
  0
LINE
  5
105
330
1D
100
AcDbEntity
  8
0
100
AcDbLine
 10
8.113
 20
291.872
 30
0.0
 11
8.737
 21
291.644
 31
0.0
  0
LINE
  5
106
330
1D
100
AcDbEntity
  8
0
100
AcDbLine
 10
7.938666666655
 20
291.935666666671
 30
0.0
 11
8.122
 21
291.869
 31
0.0
  0
LINE
  5
107
330
1D
100
AcDbEntity
  8
0
100
AcDbLine
 10
7.88
 20
291.743
 30
0.0
 11
8.516
 21
291.512
 31
0.0
  0
LINE
  5
108
330
1D
100
AcDbEntity
  8
0
100
AcDbLine
 10
7.35
 20
291.937
 30
0.0
 11
7.88
 21
291.743
 31
0.0
  0
LINE
  5
109
330
1D
100
AcDbEntity
  8
0
100
AcDbLine
 10
7.938666666655
 20
291.935666666671
 30
0.0
 11
8.122
 21
291.869
 31
0.0
  0
LINE
  5
10A
330
1D
100
AcDbEntity
  8
0
100
AcDbLine
 10
8.298
 20
291.805
 30
0.0
 11
10.483
 21
291.006
 31
0.0
  0
LINE
  5
10B
330
1D
100
AcDbEntity
  8
0
100
AcDbLine
 10
8.595
 20
291.696
 30
0.0
 11
8.774864332514
 21
291.63018818384
 31
0.0
  0
LINE
  5
10C
330
1D
100
AcDbEntity
  8
0
100
AcDbLine
 10
8.595
 20
291.696
 30
0.0
 11
8.774864332514
 21
291.63018818384
 31
0.0
  0
LINE
  5
10D
330
1D
100
AcDbEntity
  8
0
100
AcDbLine
 10
8.122
 20
291.869
 30
0.0
 11
8.595
 21
291.696
 31
0.0
  0
LINE
  5
10E
330
1D
100
AcDbEntity
  8
0
100
AcDbLine
 10
8.737
 20
291.644
 30
0.0
 11
9.020974424586
 21
291.540414322238
 31
0.0
  0
LINE
  5
10F
330
1D
100
AcDbEntity
  8
0
100
AcDbLine
 10
8.737
 20
291.644
 30
0.0
 11
9.020974424586
 21
291.540414322238
 31
0.0
  0
LINE
  5
110
330
1D
100
AcDbEntity
  8
0
100
AcDbLine
 10
8.737
 20
291.644
 30
0.0
 11
9.255471910101
 21
291.454876404498
 31
0.0
  0
LINE
  5
111
330
1D
100
AcDbEntity
  8
0
100
AcDbLine
 10
8.737
 20
291.644
 30
0.0
 11
9.255471910101
 21
291.454876404498
 31
0.0
  0
LINE
  5
112
330
1D
100
AcDbEntity
  8
0
100
AcDbLine
 10
12.314956521725
 20
290.336869565222
 30
0.0
 11
13.151
 21
290.031
 31
0.0
  0
LINE
  5
113
330
1D
100
AcDbEntity
  8
0
100
AcDbLine
 10
11.959
 20
290.254
 30
0.0
 11
13.001
 21
289.873
 31
0.0
  0
LINE
  5
114
330
1D
100
AcDbEntity
  8
0
100
AcDbLine
 10
10.98
 20
290.611
 30
0.0
 11
11.959
 21
290.254
 31
0.0
  0
LINE
  5
115
330
1D
100
AcDbEntity
  8
0
100
AcDbLine
 10
6.625
 20
292.202
 30
0.0
 11
6.931
 21
292.091
 31
0.0
  0
LINE
  5
118
330
1D
100
AcDbEntity
  8
0
100
AcDbLine
 10
6.912
 20
292.311
 30
0.0
 11
8.298
 21
291.805
 31
0.0
  0
LINE
  5
119
330
1D
100
AcDbEntity
  8
0
100
AcDbLine
 10
6.372
 20
292.294
 30
0.0
 11
6.627065289938
 21
292.414558203447
 31
0.0
  0
LINE
  5
11A
330
1D
100
AcDbEntity
  8
0
100
AcDbLine
 10
6.369
 20
292.296
 30
0.0
 11
6.623607052897
 21
292.415815083716
 31
0.0
  0
LINE
  5
11B
330
1D
100
AcDbEntity
  8
0
100
AcDbLine
 10
6.369
 20
292.296
 30
0.0
 11
6.437
 21
292.271
 31
0.0
  0
LINE
  5
11C
330
1D
100
AcDbEntity
  8
0
100
AcDbLine
 10
6.437
 20
292.271
 30
0.0
 11
6.625
 21
292.202
 31
0.0
  0
LINE
  5
11D
330
1D
100
AcDbEntity
  8
0
100
AcDbLine
 10
6.922161290329
 20
292.307290322578
 30
0.0
 11
8.298
 21
291.805
 31
0.0
  0
LINE
  5
11E
330
1D
100
AcDbEntity
  8
0
100
AcDbLine
 10
6.436
 20
292.484
 30
0.0
 11
6.623607052897
 21
292.415815083716
 31
0.0
  0
LINE
  5
11F
330
1D
100
AcDbEntity
  8
0
100
AcDbLine
 10
6.436
 20
292.484
 30
0.0
 11
9.912
 21
302.068
 31
0.0
  0
LINE
  5
120
330
1D
100
AcDbEntity
  8
0
100
AcDbLine
 10
6.436
 20
292.484
 30
0.0
 11
6.912
 21
292.311
 31
0.0
  0
LINE
  5
121
330
1D
100
AcDbEntity
  8
0
100
AcDbLine
 10
7.393
 20
292.135
 30
0.0
 11
7.719
 21
292.016
 31
0.0
  0
LINE
  5
122
330
1D
100
AcDbEntity
  8
0
100
AcDbLine
 10
6.931
 20
292.091
 30
0.0
 11
7.35
 21
291.937
 31
0.0
  0
LINE
  5
123
330
1D
100
AcDbEntity
  8
0
100
AcDbLine
 10
7.59
 20
292.063
 30
0.0
 11
8.113
 21
291.872
 31
0.0
  0
LINE
  5
124
330
1D
100
AcDbEntity
  8
0
100
AcDbLine
 10
7.719
 20
292.016
 30
0.0
 11
7.87556441715
 21
291.958711656452
 31
0.0
  0
LINE
  5
125
330
1D
100
AcDbEntity
  8
0
100
AcDbLine
 10
7.719
 20
292.016
 30
0.0
 11
7.87556441715
 21
291.958711656452
 31
0.0
  0
LINE
  5
126
330
1D
100
AcDbEntity
  8
0
100
AcDbLine
 10
7.442
 20
292.117
 30
0.0
 11
7.509335937512
 21
292.092296874996
 31
0.0
  0
LINE
  5
127
330
1D
100
AcDbEntity
  8
0
100
AcDbLine
 10
7.442
 20
292.117
 30
0.0
 11
7.509335937512
 21
292.092296874996
 31
0.0
  0
LINE
  5
128
330
1D
100
AcDbEntity
  8
0
100
AcDbLine
 10
7.177
 20
292.213
 30
0.0
 11
7.59
 21
292.063
 31
0.0
  0
LINE
  5
129
330
1D
100
AcDbEntity
  8
0
100
AcDbLine
 10
7.184
 20
292.211
 30
0.0
 11
7.393
 21
292.135
 31
0.0
  0
LINE
  5
12A
330
1D
100
AcDbEntity
  8
0
100
AcDbLine
 10
6.923454545463
 20
292.306818181815
 30
0.0
 11
7.096
 21
292.243
 31
0.0
  0
LINE
  5
12B
330
1D
100
AcDbEntity
  8
0
100
AcDbLine
 10
6.923454545463
 20
292.306818181815
 30
0.0
 11
7.096
 21
292.243
 31
0.0
  0
LINE
  5
12C
330
1D
100
AcDbEntity
  8
0
100
AcDbLine
 10
7.096
 20
292.243
 30
0.0
 11
7.184
 21
292.211
 31
0.0
  0
LINE
  5
12D
330
1D
100
AcDbEntity
  8
0
100
AcDbLine
 10
7.319413793077
 20
292.161275862079
 30
0.0
 11
7.381
 21
292.139
 31
0.0
  0
LINE
  5
12E
330
1D
100
AcDbEntity
  8
0
100
AcDbLine
 10
7.302
 20
292.168
 30
0.0
 11
7.431589041108
 21
292.120534246571
 31
0.0
  0
LINE
  5
12F
330
1D
100
AcDbEntity
  8
0
100
AcDbLine
 10
7.235
 20
292.192
 30
0.0
 11
7.302
 21
292.168
 31
0.0
  0
LINE
  5
130
330
1D
100
AcDbEntity
  8
0
100
AcDbLine
 10
7.376
 20
292.141
 30
0.0
 11
7.442
 21
292.117
 31
0.0
  0
LINE
  5
131
330
1D
100
AcDbEntity
  8
0
100
AcDbLine
 10
9.912
 20
302.068
 30
0.0
 11
12.901
 21
308.841
 31
0.0
  0
LINE
  5
133
330
1D
100
AcDbEntity
  8
0
100
AcDbLine
 10
7.757022580643
 20
292.002003225807
 30
0.0
 11
7.812
 21
291.982
 31
0.0
  0
LINE
  5
134
330
1D
100
AcDbEntity
  8
0
100
AcDbLine
 10
6.922161290329
 20
292.307290322578
 30
0.0
 11
8.298
 21
291.805
 31
0.0
  0
LINE
  5
135
330
1D
100
AcDbEntity
  8
0
100
AcDbLine
 10
6.922161290329
 20
292.307290322578
 30
0.0
 11
7.177
 21
292.213
 31
0.0
  0
LINE
  5
136
330
1D
100
AcDbEntity
  8
0
100
AcDbLine
 10
7.812
 20
291.982
 30
0.0
 11
9.066307999979
 21
291.523922000008
 31
0.0
  0
LINE
  5
137
330
1D
100
AcDbEntity
  8
0
100
AcDbLine
 10
7.812
 20
291.982
 30
0.0
 11
9.088
 21
291.516
 31
0.0
  0
LINE
  5
138
330
1D
100
AcDbEntity
  8
0
100
AcDbLine
 10
12.314956521725
 20
290.336869565222
 30
0.0
 11
13.151
 21
290.031
 31
0.0
  0
LINE
  5
139
330
1D
100
AcDbEntity
  8
0
100
AcDbLine
 10
12.322086739083
 20
290.334265220969
 30
0.0
 11
13.206
 21
290.011
 31
0.0
  0
LINE
  5
13A
330
1D
100
AcDbEntity
  8
0
100
AcDbLine
 10
13.151
 20
290.031
 30
0.0
 11
14.205246478862
 21
289.646302816906
 31
0.0
  0
LINE
  5
13B
330
1D
100
AcDbEntity
  8
0
100
AcDbLine
 10
13.001
 20
289.873
 30
0.0
 11
14.096
 21
289.473
 31
0.0
  0
LINE
  5
13C
330
1D
100
AcDbEntity
  8
0
100
AcDbLine
 10
13.08722222218
 20
290.054333333349
 30
0.0
 11
13.6993973214
 21
289.831138392868
 31
0.0
  0
LINE
  5
13D
330
1D
100
AcDbEntity
  8
0
100
AcDbLine
 10
12.522333333244
 20
290.261000000033
 30
0.0
 11
13.141
 21
290.035
 31
0.0
  0
LINE
  5
13E
330
1D
100
AcDbEntity
  8
0
100
AcDbLine
 10
13.08722222218
 20
290.054333333349
 30
0.0
 11
13.6993973214
 21
289.831138392868
 31
0.0
  0
LINE
  5
13F
330
1D
100
AcDbEntity
  8
0
100
AcDbLine
 10
13.141
 20
290.035
 30
0.0
 11
13.421479452072
 21
289.932301369857
 31
0.0
  0
LINE
  5
140
330
1D
100
AcDbEntity
  8
0
100
AcDbLine
 10
13.141
 20
290.035
 30
0.0
 11
13.421479452072
 21
289.932301369857
 31
0.0
  0
LINE
  5
141
330
1D
100
AcDbEntity
  8
0
100
AcDbLine
 10
14.961922330102
 20
289.369507841671
 30
0.0
 11
15.169
 21
289.294
 31
0.0
  0
LINE
  5
142
330
1D
100
AcDbEntity
  8
0
100
AcDbLine
 10
15.145888044223
 20
289.302207325503
 30
0.0
 11
15.629174107142
 21
289.126004464286
 31
0.0
  0
LINE
  5
143
330
1D
100
AcDbEntity
  8
0
100
AcDbLine
 10
15.145888044223
 20
289.302207325503
 30
0.0
 11
15.629174107142
 21
289.126004464286
 31
0.0
  0
LINE
  5
144
330
1D
100
AcDbEntity
  8
0
100
AcDbLine
 10
21.393622553014
 20
287.019689115057
 30
0.0
 11
22.644
 21
286.563
 31
0.0
  0
LINE
  5
145
330
1D
100
AcDbEntity
  8
0
100
AcDbLine
 10
21.223043054457
 20
287.081945572694
 30
0.0
 11
22.242
 21
286.709
 31
0.0
  0
LINE
  5
146
330
1D
100
AcDbEntity
  8
0
100
AcDbLine
 10
21.11
 20
286.911
 30
0.0
 11
22.24
 21
286.497
 31
0.0
  0
LINE
  5
147
330
1D
100
AcDbEntity
  8
0
100
AcDbLine
 10
19.831
 20
287.59
 30
0.0
 11
23.034
 21
286.421
 31
0.0
  0
LINE
  5
148
330
1D
100
AcDbEntity
  8
0
100
AcDbLine
 10
19.948
 20
287.335
 30
0.0
 11
21.11
 21
286.911
 31
0.0
  0
LINE
  5
149
330
1D
100
AcDbEntity
  8
0
100
AcDbLine
 10
18.767
 20
287.767
 30
0.0
 11
19.948
 21
287.335
 31
0.0
  0
LINE
  5
14A
330
1D
100
AcDbEntity
  8
0
100
AcDbLine
 10
16.494
 20
288.81
 30
0.0
 11
19.831
 21
287.59
 31
0.0
  0
LINE
  5
14B
330
1D
100
AcDbEntity
  8
0
100
AcDbLine
 10
16.397
 20
288.632
 30
0.0
 11
17.579
 21
288.2
 31
0.0
  0
LINE
  5
14C
330
1D
100
AcDbEntity
  8
0
100
AcDbLine
 10
17.579
 20
288.2
 30
0.0
 11
18.767
 21
287.767
 31
0.0
  0
LINE
  5
14D
330
1D
100
AcDbEntity
  8
0
100
AcDbLine
 10
22.902
 20
286.469
 30
0.0
 11
23.313
 21
286.319
 31
0.0
  0
LINE
  5
14E
330
1D
100
AcDbEntity
  8
0
100
AcDbLine
 10
22.902
 20
286.469
 30
0.0
 11
23.120181818162
 21
286.38921390375
 31
0.0
  0
LINE
  5
14F
330
1D
100
AcDbEntity
  8
0
100
AcDbLine
 10
21.971466346249
 20
286.808793269196
 30
0.0
 11
22.425
 21
286.643
 31
0.0
  0
LINE
  5
150
330
1D
100
AcDbEntity
  8
0
100
AcDbLine
 10
22.242
 20
286.709
 30
0.0
 11
23.313
 21
286.319
 31
0.0
  0
LINE
  5
151
330
1D
100
AcDbEntity
  8
0
100
AcDbLine
 10
22.425
 20
286.643
 30
0.0
 11
22.776319204064
 21
286.515045847783
 31
0.0
  0
LINE
  5
152
330
1D
100
AcDbEntity
  8
0
100
AcDbLine
 10
22.48
 20
286.623
 30
0.0
 11
22.879638554102
 21
286.477337349439
 31
0.0
  0
LINE
  5
153
330
1D
100
AcDbEntity
  8
0
100
AcDbLine
 10
22.73313111549
 20
286.530808219167
 30
0.0
 11
22.902
 21
286.469
 31
0.0
  0
LINE
  5
154
330
1D
100
AcDbEntity
  8
0
100
AcDbLine
 10
22.644
 20
286.563
 30
0.0
 11
22.93665517242
 21
286.456044334973
 31
0.0
  0
LINE
  5
155
330
1D
100
AcDbEntity
  8
0
100
AcDbLine
 10
22.24
 20
286.497
 30
0.0
 11
23.329
 21
286.1
 31
0.0
  0
LINE
  5
156
330
1D
100
AcDbEntity
  8
0
100
AcDbLine
 10
21.552194319912
 20
286.961473841543
 30
0.0
 11
21.71682758623
 21
286.901413793095
 31
0.0
  0
LINE
  5
157
330
1D
100
AcDbEntity
  8
0
100
AcDbLine
 10
21.552194319912
 20
286.961473841543
 30
0.0
 11
22.48
 21
286.623
 31
0.0
  0
LINE
  5
158
330
1D
100
AcDbEntity
  8
0
100
AcDbLine
 10
15.346
 20
289.229
 30
0.0
 11
16.077632550372
 21
288.962139261732
 31
0.0
  0
LINE
  5
159
330
1D
100
AcDbEntity
  8
0
100
AcDbLine
 10
15.346
 20
289.229
 30
0.0
 11
16.077632550372
 21
288.962139261732
 31
0.0
  0
LINE
  5
15A
330
1D
100
AcDbEntity
  8
0
100
AcDbLine
 10
15.231
 20
289.058
 30
0.0
 11
16.397
 21
288.632
 31
0.0
  0
LINE
  5
15B
330
1D
100
AcDbEntity
  8
0
100
AcDbLine
 10
15.169
 20
289.294
 30
0.0
 11
15.311610091761
 21
289.242041284397
 31
0.0
  0
LINE
  5
15C
330
1D
100
AcDbEntity
  8
0
100
AcDbLine
 10
15.169
 20
289.294
 30
0.0
 11
15.311610091761
 21
289.242041284397
 31
0.0
  0
LINE
  5
15D
330
1D
100
AcDbEntity
  8
0
100
AcDbLine
 10
14.253833119397
 20
289.628549422332
 30
0.0
 11
15.346
 21
289.229
 31
0.0
  0
LINE
  5
15E
330
1D
100
AcDbEntity
  8
0
100
AcDbLine
 10
14.253833119397
 20
289.628549422332
 30
0.0
 11
15.346
 21
289.229
 31
0.0
  0
LINE
  5
15F
330
1D
100
AcDbEntity
  8
0
100
AcDbLine
 10
14.096
 20
289.473
 30
0.0
 11
15.231
 21
289.058
 31
0.0
  0
LINE
  5
160
330
1D
100
AcDbEntity
  8
0
100
AcDbLine
 10
13.292
 20
289.98
 30
0.0
 11
16.494
 21
288.81
 31
0.0
  0
LINE
  5
161
330
1D
100
AcDbEntity
  8
0
100
AcDbLine
 10
14.961922330102
 20
289.369507841671
 30
0.0
 11
15.169
 21
289.294
 31
0.0
  0
LINE
  5
162
330
1D
100
AcDbEntity
  8
0
100
AcDbLine
 10
13.206
 20
290.011
 30
0.0
 11
13.275508670526
 21
289.985566473986
 31
0.0
  0
LINE
  5
163
330
1D
100
AcDbEntity
  8
0
100
AcDbLine
 10
12.522333333244
 20
290.261000000033
 30
0.0
 11
13.141
 21
290.035
 31
0.0
  0
LINE
  5
164
330
1D
100
AcDbEntity
  8
0
100
AcDbLine
 10
12.322086739083
 20
290.334265220969
 30
0.0
 11
13.206
 21
290.011
 31
0.0
  0
LINE
  5
165
330
1D
100
AcDbEntity
  8
0
100
AcDbLine
 10
12.901
 20
308.841
 30
0.0
 11
16.775
 21
315.145
 31
0.0
  0
LINE
  5
166
330
1D
100
AcDbEntity
  8
0
100
AcDbLine
 10
16.775
 20
315.145
 30
0.0
 11
21.463
 21
320.866
 31
0.0
  0
LINE
  5
167
330
1D
100
AcDbEntity
  8
0
100
AcDbLine
 10
21.463
 20
320.866
 30
0.0
 11
26.88
 21
325.897
 31
0.0
  0
LINE
  5
168
330
1D
100
AcDbEntity
  8
0
100
AcDbLine
 10
33.364
 20
293.501
 30
0.0
 11
35.533
 21
298.17
 31
0.0
  0
LINE
  5
169
330
1D
100
AcDbEntity
  8
0
100
AcDbLine
 10
35.533
 20
298.17
 30
0.0
 11
38.478
 21
302.391
 31
0.0
  0
LINE
  5
16A
330
1D
100
AcDbEntity
  8
0
100
AcDbLine
 10
38.478
 20
302.391
 30
0.0
 11
42.108
 21
306.035
 31
0.0
  0
LINE
  5
16B
330
1D
100
AcDbEntity
  8
0
100
AcDbLine
 10
46.312
 20
308.99
 30
0.0
 11
50.965
 21
311.167
 31
0.0
  0
LINE
  5
16C
330
1D
100
AcDbEntity
  8
0
100
AcDbLine
 10
42.108
 20
306.035
 30
0.0
 11
46.312
 21
308.99
 31
0.0
  0
LINE
  5
16D
330
1D
100
AcDbEntity
  8
0
100
AcDbLine
 10
26.88
 20
325.897
 30
0.0
 11
32.926
 21
330.145
 31
0.0
  0
LINE
  5
16E
330
1D
100
AcDbEntity
  8
0
100
AcDbLine
 10
39.488
 20
333.534
 30
0.0
 11
46.446
 21
336.0
 31
0.0
  0
LINE
  5
16F
330
1D
100
AcDbEntity
  8
0
100
AcDbLine
 10
32.926
 20
330.145
 30
0.0
 11
39.488
 21
333.534
 31
0.0
  0
LINE
  5
170
330
1D
100
AcDbEntity
  8
0
100
AcDbLine
 10
50.965
 20
311.167
 30
0.0
 11
55.923
 21
312.501
 31
0.0
  0
LINE
  5
171
330
1D
100
AcDbEntity
  8
0
100
AcDbLine
 10
55.923
 20
312.501
 30
0.0
 11
61.038
 21
312.95
 31
0.0
  0
LINE
  5
172
330
1D
100
AcDbEntity
  8
0
100
AcDbLine
 10
169.349
 20
312.95
 30
0.0
 11
174.983
 21
312.455
 31
0.0
  0
LINE
  5
173
330
1D
100
AcDbEntity
  8
0
100
AcDbLine
 10
174.983
 20
312.455
 30
0.0
 11
180.446
 21
310.986
 31
0.0
  0
LINE
  5
174
330
1D
100
AcDbEntity
  8
0
100
AcDbLine
 10
180.446
 20
310.986
 30
0.0
 11
185.571
 21
308.587
 31
0.0
  0
LINE
  5
175
330
1D
100
AcDbEntity
  8
0
100
AcDbLine
 10
194.202
 20
301.318
 30
0.0
 11
197.447
 21
296.667
 31
0.0
  0
LINE
  5
176
330
1D
100
AcDbEntity
  8
0
100
AcDbLine
 10
190.204
 20
305.331
 30
0.0
 11
194.202
 21
301.318
 31
0.0
  0
LINE
  5
177
330
1D
100
AcDbEntity
  8
0
100
AcDbLine
 10
197.447
 20
296.667
 30
0.0
 11
199.837
 21
291.523
 31
0.0
  0
LINE
  5
178
330
1D
100
AcDbEntity
  8
0
100
AcDbLine
 10
199.837
 20
291.523
 30
0.0
 11
201.3
 21
286.039
 31
0.0
  0
LINE
  5
179
330
1D
100
AcDbEntity
  8
0
100
AcDbLine
 10
185.571
 20
308.587
 30
0.0
 11
190.204
 21
305.331
 31
0.0
  0
LINE
  5
17A
330
1D
100
AcDbEntity
  8
0
100
AcDbLine
 10
184.206
 20
336.037
 30
0.0
 11
191.315
 21
333.614
 31
0.0
  0
LINE
  5
17B
330
1D
100
AcDbEntity
  8
0
100
AcDbLine
 10
191.315
 20
333.614
 30
0.0
 11
198.05
 21
330.281
 31
0.0
  0
LINE
  5
17C
330
1D
100
AcDbEntity
  8
0
100
AcDbLine
 10
198.05
 20
330.281
 30
0.0
 11
204.293
 21
326.093
 31
0.0
  0
LINE
  5
17D
330
1D
100
AcDbEntity
  8
0
100
AcDbLine
 10
61.038
 20
312.95
 30
0.0
 11
169.349
 21
312.95
 31
0.0
  0
LINE
  5
17E
330
1D
100
AcDbEntity
  8
0
100
AcDbLine
 10
169.349
 20
338.0
 30
0.0
 11
176.841
 21
337.507
 31
0.0
  0
LINE
  5
17F
330
1D
100
AcDbEntity
  8
0
100
AcDbLine
 10
176.841
 20
337.507
 30
0.0
 11
184.206
 21
336.037
 31
0.0
  0
LINE
  5
180
330
1D
100
AcDbEntity
  8
0
100
AcDbLine
 10
61.038
 20
338.0
 30
0.0
 11
169.349
 21
338.0
 31
0.0
  0
LINE
  5
181
330
1D
100
AcDbEntity
  8
0
100
AcDbLine
 10
53.675
 20
337.498
 30
0.0
 11
61.038
 21
338.0
 31
0.0
  0
LINE
  5
182
330
1D
100
AcDbEntity
  8
0
100
AcDbLine
 10
46.446
 20
336.0
 30
0.0
 11
53.675
 21
337.498
 31
0.0
  0
LINE
  5
183
330
1D
100
AcDbEntity
  8
0
100
AcDbLine
 10
12.314956521725
 20
290.336869565222
 30
0.0
 11
13.292
 21
289.98
 31
0.0
  0
LINE
  5
184
330
1D
100
AcDbEntity
  8
0
100
AcDbLine
 10
12.314956521725
 20
290.336869565222
 30
0.0
 11
13.292
 21
289.98
 31
0.0
  0
LINE
  5
185
330
1D
100
AcDbEntity
  8
0
100
AcDbLine
 10
211.921
 20
0.0
 30
0.0
 11
214.25
 21
0.0
 31
0.0
  0
LINE
  5
186
330
1D
100
AcDbEntity
  8
0
100
AcDbLine
 10
202.934
 20
0.0
 30
0.0
 11
205.448
 21
0.0
 31
0.0
  0
LINE
  5
187
330
1D
100
AcDbEntity
  8
0
100
AcDbLine
 10
203.822
 20
0.0
 30
0.0
 11
205.448
 21
0.0
 31
0.0
  0
LINE
  5
188
330
1D
100
AcDbEntity
  8
0
100
AcDbLine
 10
208.126
 20
0.0
 30
0.0
 11
210.903
 21
0.0
 31
0.0
  0
LINE
  5
189
330
1D
100
AcDbEntity
  8
0
100
AcDbLine
 10
205.455
 20
0.0
 30
0.0
 11
208.126
 21
0.0
 31
0.0
  0
LINE
  5
18A
330
1D
100
AcDbEntity
  8
0
100
AcDbLine
 10
206.403
 20
0.0
 30
0.0
 11
209.118
 21
0.0
 31
0.0
  0
LINE
  5
18B
330
1D
100
AcDbEntity
  8
0
100
AcDbLine
 10
205.448
 20
0.0
 30
0.0
 11
208.297
 21
0.0
 31
0.0
  0
LINE
  5
18C
330
1D
100
AcDbEntity
  8
0
100
AcDbLine
 10
205.448
 20
0.0
 30
0.0
 11
210.903
 21
0.0
 31
0.0
  0
LINE
  5
18D
330
1D
100
AcDbEntity
  8
0
100
AcDbLine
 10
206.743
 20
39.0047
 30
0.0
 11
209.105
 21
38.3772
 31
0.0
  0
LINE
  5
18E
330
1D
100
AcDbEntity
  8
0
100
AcDbLine
 10
206.723
 20
37.9927
 30
0.0
 11
209.166
 21
37.2248
 31
0.0
  0
LINE
  5
18F
330
1D
100
AcDbEntity
  8
0
100
AcDbLine
 10
202.113
 20
142.924
 30
0.0
 11
203.667
 21
144.252
 31
0.0
  0
LINE
  5
190
330
1D
100
AcDbEntity
  8
0
100
AcDbLine
 10
203.667
 20
144.252
 30
0.0
 11
203.934
 21
144.466
 31
0.0
  0
LINE
  5
193
330
1D
100
AcDbEntity
  8
0
100
AcDbLine
 10
203.934
 20
144.466
 30
0.0
 11
204.211
 21
144.664
 31
0.0
  0
LINE
  5
194
330
1D
100
AcDbEntity
  8
0
100
AcDbLine
 10
204.331
 20
144.747
 30
0.0
 11
205.411
 21
145.413
 31
0.0
  0
LINE
  5
196
330
1D
100
AcDbEntity
  8
0
100
AcDbLine
 10
204.211
 20
144.664
 30
0.0
 11
204.331
 21
144.747
 31
0.0
  0
LINE
  5
199
330
1D
100
AcDbEntity
  8
0
100
AcDbLine
 10
202.27
 20
40.993
 30
0.0
 11
204.451
 21
39.8798
 31
0.0
  0
LINE
  5
19A
330
1D
100
AcDbEntity
  8
0
100
AcDbLine
 10
205.411
 20
145.413
 30
0.0
 11
206.521
 21
146.02
 31
0.0
  0
LINE
  5
19E
330
1D
100
AcDbEntity
  8
0
100
AcDbLine
 10
206.521
 20
146.02
 30
0.0
 11
208.398
 21
146.806
 31
0.0
  0
LINE
  5
19F
330
1D
100
AcDbEntity
  8
0
100
AcDbLine
 10
204.451
 20
39.8798
 30
0.0
 11
206.743
 21
39.0047
 31
0.0
  0
LINE
  5
1A0
330
1D
100
AcDbEntity
  8
0
100
AcDbLine
 10
204.398
 20
39.0527
 30
0.0
 11
206.723
 21
37.9927
 31
0.0
  0
LINE
  5
1A1
330
1D
100
AcDbEntity
  8
0
100
AcDbLine
 10
201.994
 20
40.5514
 30
0.0
 11
204.398
 21
39.0527
 31
0.0
  0
LINE
  5
1A2
330
1D
100
AcDbEntity
  8
0
100
AcDbLine
 10
202.75
 20
0.0
 30
0.0
 11
205.448
 21
0.0
 31
0.0
  0
LINE
  5
1A5
330
1D
100
AcDbEntity
  8
0
100
AcDbLine
 10
208.398
 20
146.806
 30
0.0
 11
209.809
 21
147.241
 31
0.0
  0
LINE
  5
1A6
330
1D
100
AcDbEntity
  8
0
100
AcDbLine
 10
209.809
 20
147.241
 30
0.0
 11
211.242
 21
147.559
 31
0.0
  0
LINE
  5
1A8
330
1D
100
AcDbEntity
  8
0
100
AcDbLine
 10
209.809
 20
147.241
 30
0.0
 11
211.242
 21
147.559
 31
0.0
  0
LINE
  5
1AA
330
1D
100
AcDbEntity
  8
0
100
AcDbLine
 10
211.242
 20
147.559
 30
0.0
 11
213.346
 21
147.799
 31
0.0
  0
LINE
  5
1AE
330
1D
100
AcDbEntity
  8
0
100
AcDbLine
 10
209.105
 20
38.3772
 30
0.0
 11
211.491
 21
37.9998
 31
0.0
  0
LINE
  5
1B1
330
1D
100
AcDbEntity
  8
0
100
AcDbLine
 10
209.166
 20
37.2248
 30
0.0
 11
211.688
 21
36.758
 31
0.0
  0
LINE
  5
1B5
330
1D
100
AcDbEntity
  8
0
100
AcDbLine
 10
214.053
 20
37.8499
 30
0.0
 11
216.616
 21
37.9998
 31
0.0
  0
LINE
  5
1BB
330
1D
100
AcDbEntity
  8
0
100
AcDbLine
 10
211.491
 20
37.9998
 30
0.0
 11
214.053
 21
37.8499
 31
0.0
  0
LINE
  5
1C0
330
1D
100
AcDbEntity
  8
0
100
AcDbLine
 10
214.053
 20
147.816
 30
0.0
 11
214.76
 21
147.799
 31
0.0
  0
LINE
  5
1C8
330
1D
100
AcDbEntity
  8
0
100
AcDbLine
 10
213.346
 20
147.799
 30
0.0
 11
214.053
 21
147.816
 31
0.0
  0
LINE
  5
1CA
330
1D
100
AcDbEntity
  8
0
100
AcDbLine
 10
211.688
 20
36.758
 30
0.0
 11
214.25
 21
36.6024
 31
0.0
  0
LINE
  5
1CB
330
1D
100
AcDbEntity
  8
0
100
AcDbLine
 10
209.118
 20
0.0
 30
0.0
 11
211.248
 21
0.0
 31
0.0
  0
LINE
  5
1CC
330
1D
100
AcDbEntity
  8
0
100
AcDbLine
 10
208.297
 20
0.0
 30
0.0
 11
211.248
 21
0.0
 31
0.0
  0
LINE
  5
1CD
330
1D
100
AcDbEntity
  8
0
100
AcDbLine
 10
211.248
 20
0.0
 30
0.0
 11
214.25
 21
0.0
 31
0.0
  0
LINE
  5
1CE
330
1D
100
AcDbEntity
  8
0
100
AcDbLine
 10
214.25
 20
36.6024
 30
0.0
 11
216.812
 21
36.758
 31
0.0
  0
LINE
  5
1CF
330
1D
100
AcDbEntity
  8
0
100
AcDbLine
 10
214.25
 20
0.0
 30
0.0
 11
217.252
 21
0.0
 31
0.0
  0
LINE
  5
1D0
330
1D
100
AcDbEntity
  8
0
100
AcDbLine
 10
214.25
 20
0.0
 30
0.0
 11
216.579
 21
0.0
 31
0.0
  0
LINE
  5
1D2
330
1D
100
AcDbEntity
  8
0
100
AcDbLine
 10
216.579
 20
0.0
 30
0.0
 11
217.252
 21
0.0
 31
0.0
  0
LINE
  5
1D3
330
1D
100
AcDbEntity
  8
0
100
AcDbLine
 10
216.579
 20
0.0
 30
0.0
 11
219.382
 21
0.0
 31
0.0
  0
LINE
  5
1D4
330
1D
100
AcDbEntity
  8
0
100
AcDbLine
 10
216.812
 20
36.758
 30
0.0
 11
219.334
 21
37.2248
 31
0.0
  0
LINE
  5
1D6
330
1D
100
AcDbEntity
  8
0
100
AcDbLine
 10
216.616
 20
37.9998
 30
0.0
 11
219.002
 21
38.3772
 31
0.0
  0
LINE
  5
1D9
330
1D
100
AcDbEntity
  8
0
100
AcDbLine
 10
219.002
 20
38.3772
 30
0.0
 11
221.363
 21
39.0047
 31
0.0
  0
LINE
  5
1DA
330
1D
100
AcDbEntity
  8
0
100
AcDbLine
 10
217.252
 20
0.0
 30
0.0
 11
220.203
 21
0.0
 31
0.0
  0
LINE
  5
1DE
330
1D
100
AcDbEntity
  8
0
100
AcDbLine
 10
216.865
 20
147.559
 30
0.0
 11
218.298
 21
147.241
 31
0.0
  0
LINE
  5
1E1
330
1D
100
AcDbEntity
  8
0
100
AcDbLine
 10
214.76
 20
147.799
 30
0.0
 11
216.865
 21
147.559
 31
0.0
  0
LINE
  5
1E5
330
1D
100
AcDbEntity
  8
0
100
AcDbLine
 10
218.298
 20
147.241
 30
0.0
 11
219.708
 21
146.806
 31
0.0
  0
LINE
  5
1E6
330
1D
100
AcDbEntity
  8
0
100
AcDbLine
 10
217.597
 20
0.0
 30
0.0
 11
220.374
 21
0.0
 31
0.0
  0
LINE
  5
1E7
330
1D
100
AcDbEntity
  8
0
100
AcDbLine
 10
217.597
 20
0.0
 30
0.0
 11
223.052
 21
0.0
 31
0.0
  0
LINE
  5
1E8
330
1D
100
AcDbEntity
  8
0
100
AcDbLine
 10
219.382
 20
0.0
 30
0.0
 11
220.203
 21
0.0
 31
0.0
  0
LINE
  5
1E9
330
1D
100
AcDbEntity
  8
0
100
AcDbLine
 10
219.334
 20
37.2248
 30
0.0
 11
221.777
 21
37.9927
 31
0.0
  0
LINE
  5
1EB
330
1D
100
AcDbEntity
  8
0
100
AcDbLine
 10
221.363
 20
39.0047
 30
0.0
 11
223.656
 21
39.8798
 31
0.0
  0
LINE
  5
1EC
330
1D
100
AcDbEntity
  8
0
100
AcDbLine
 10
220.374
 20
0.0
 30
0.0
 11
223.045
 21
0.0
 31
0.0
  0
LINE
  5
1EE
330
1D
100
AcDbEntity
  8
0
100
AcDbLine
 10
222.097
 20
0.0
 30
0.0
 11
224.678
 21
0.0
 31
0.0
  0
LINE
  5
1EF
330
1D
100
AcDbEntity
  8
0
100
AcDbLine
 10
221.777
 20
37.9927
 30
0.0
 11
224.102
 21
39.0527
 31
0.0
  0
LINE
  5
1F2
330
1D
100
AcDbEntity
  8
0
100
AcDbLine
 10
223.656
 20
39.8798
 30
0.0
 11
225.837
 21
40.993
 31
0.0
  0
LINE
  5
1F4
330
1D
100
AcDbEntity
  8
0
100
AcDbLine
 10
224.102
 20
39.0527
 30
0.0
 11
226.506
 21
40.5514
 31
0.0
  0
LINE
  5
1F5
330
1D
100
AcDbEntity
  8
0
100
AcDbLine
 10
220.203
 20
0.0
 30
0.0
 11
223.052
 21
0.0
 31
0.0
  0
LINE
  5
1F6
330
1D
100
AcDbEntity
  8
0
100
AcDbLine
 10
223.052
 20
0.0
 30
0.0
 11
225.75
 21
0.0
 31
0.0
  0
LINE
  5
1F7
330
1D
100
AcDbEntity
  8
0
100
AcDbLine
 10
225.837
 20
40.993
 30
0.0
 11
226.954
 21
41.6874
 31
0.0
  0
LINE
  5
1F8
330
1D
100
AcDbEntity
  8
0
100
AcDbLine
 10
226.506
 20
40.5514
 30
0.0
 11
228.674
 21
42.3613
 31
0.0
  0
LINE
  5
1F9
330
1D
100
AcDbEntity
  8
0
100
AcDbLine
 10
225.75
 20
0.0
 30
0.0
 11
228.251
 21
0.0
 31
0.0
  0
LINE
  5
1FB
330
1D
100
AcDbEntity
  8
0
100
AcDbLine
 10
219.708
 20
146.806
 30
0.0
 11
221.585
 21
146.02
 31
0.0
  0
LINE
  5
1FD
330
1D
100
AcDbEntity
  8
0
100
AcDbLine
 10
223.776
 20
144.747
 30
0.0
 11
223.896
 21
144.664
 31
0.0
  0
LINE
  5
200
330
1D
100
AcDbEntity
  8
0
100
AcDbLine
 10
224.172
 20
144.466
 30
0.0
 11
224.439
 21
144.252
 31
0.0
  0
LINE
  5
201
330
1D
100
AcDbEntity
  8
0
100
AcDbLine
 10
225.993
 20
142.924
 30
0.0
 11
226.958
 21
141.902
 31
0.0
  0
LINE
  5
203
330
1D
100
AcDbEntity
  8
0
100
AcDbLine
 10
224.439
 20
144.252
 30
0.0
 11
225.993
 21
142.924
 31
0.0
  0
LINE
  5
204
330
1D
100
AcDbEntity
  8
0
100
AcDbLine
 10
223.896
 20
144.664
 30
0.0
 11
224.172
 21
144.466
 31
0.0
  0
LINE
  5
206
330
1D
100
AcDbEntity
  8
0
100
AcDbLine
 10
222.695
 20
145.413
 30
0.0
 11
223.776
 21
144.747
 31
0.0
  0
LINE
  5
207
330
1D
100
AcDbEntity
  8
0
100
AcDbLine
 10
221.585
 20
146.02
 30
0.0
 11
222.695
 21
145.413
 31
0.0
  0
LINE
  5
208
330
1D
100
AcDbEntity
  8
0
100
AcDbLine
 10
226.75
 20
142.122286010363
 30
0.0
 11
226.75
 21
280.385
 31
0.0
  0
LINE
  5
209
330
1D
100
AcDbEntity
  8
0
100
AcDbLine
 10
232.824
 20
0.0
 30
0.0
 11
234.142
 21
0.0
 31
0.0
  0
LINE
  5
20A
330
1D
100
AcDbEntity
  8
0
100
AcDbLine
 10
233.337
 20
0.0
 30
0.0
 11
234.535
 21
0.0
 31
0.0
  0
LINE
  5
20B
330
1D
100
AcDbEntity
  8
0
100
AcDbLine
 10
229.262
 20
0.0
 30
0.0
 11
230.513
 21
0.0
 31
0.0
  0
LINE
  5
20C
330
1D
100
AcDbEntity
  8
0
100
AcDbLine
 10
229.988
 20
0.0
 30
0.0
 11
230.513
 21
0.0
 31
0.0
  0
LINE
  5
20D
330
1D
100
AcDbEntity
  8
0
100
AcDbLine
 10
226.954
 20
41.6874
 30
0.0
 11
228.021
 21
42.4435
 31
0.0
  0
LINE
  5
20F
330
1D
100
AcDbEntity
  8
0
100
AcDbLine
 10
228.021
 20
42.4435
 30
0.0
 11
229.033
 21
43.2572
 31
0.0
  0
LINE
  5
210
330
1D
100
AcDbEntity
  8
0
100
AcDbLine
 10
227.08
 20
0.0
 30
0.0
 11
229.262
 21
0.0
 31
0.0
  0
LINE
  5
211
330
1D
100
AcDbEntity
  8
0
100
AcDbLine
 10
227.894
 20
0.0
 30
0.0
 11
229.988
 21
0.0
 31
0.0
  0
LINE
  5
213
330
1D
100
AcDbEntity
  8
0
100
AcDbLine
 10
229.984
 20
44.125
 30
0.0
 11
230.872
 21
45.0407
 31
0.0
  0
LINE
  5
214
330
1D
100
AcDbEntity
  8
0
100
AcDbLine
 10
229.033
 20
43.2572
 30
0.0
 11
229.984
 21
44.125
 31
0.0
  0
LINE
  5
215
330
1D
100
AcDbEntity
  8
0
100
AcDbLine
 10
228.674
 20
42.3613
 30
0.0
 11
230.564
 21
44.4463
 31
0.0
  0
LINE
  5
216
330
1D
100
AcDbEntity
  8
0
100
AcDbLine
 10
228.251
 20
0.0
 30
0.0
 11
230.513
 21
0.0
 31
0.0
  0
LINE
  5
217
330
1D
100
AcDbEntity
  8
0
100
AcDbLine
 10
230.872
 20
45.0407
 30
0.0
 11
231.692
 21
45.9999
 31
0.0
  0
LINE
  5
21A
330
1D
100
AcDbEntity
  8
0
100
AcDbLine
 10
231.692
 20
45.9999
 30
0.0
 11
232.443
 21
46.9985
 31
0.0
  0
LINE
  5
21D
330
1D
100
AcDbEntity
  8
0
100
AcDbLine
 10
233.954
 20
89.5461
 30
0.0
 11
235.12
 21
65.0844
 31
0.0
  0
LINE
  5
21E
330
1D
100
AcDbEntity
  8
0
100
AcDbLine
 10
233.754
 20
49.1534
 30
0.0
 11
234.303
 21
50.3005
 31
0.0
  0
LINE
  5
21F
330
1D
100
AcDbEntity
  8
0
100
AcDbLine
 10
233.12
 20
48.0319
 30
0.0
 11
233.754
 21
49.1534
 31
0.0
  0
LINE
  5
220
330
1D
100
AcDbEntity
  8
0
100
AcDbLine
 10
232.443
 20
46.9985
 30
0.0
 11
233.12
 21
48.0319
 31
0.0
  0
LINE
  5
221
330
1D
100
AcDbEntity
  8
0
100
AcDbLine
 10
230.564
 20
44.4463
 30
0.0
 11
231.335554001275
 21
45.58294511954
 31
0.0
  0
LINE
  5
222
330
1D
100
AcDbEntity
  8
0
100
AcDbLine
 10
230.513
 20
0.0
 30
0.0
 11
232.497
 21
0.0
 31
0.0
  0
LINE
  5
223
330
1D
100
AcDbEntity
  8
0
100
AcDbLine
 10
232.497
 20
0.0
 30
0.0
 11
234.169
 21
0.0
 31
0.0
  0
LINE
  5
224
330
1D
100
AcDbEntity
  8
0
100
AcDbLine
 10
232.497
 20
0.0
 30
0.0
 11
233.337
 21
0.0
 31
0.0
  0
LINE
  5
225
330
1D
100
AcDbEntity
  8
0
100
AcDbLine
 10
232.497
 20
0.0
 30
0.0
 11
232.824
 21
0.0
 31
0.0
  0
LINE
  5
226
330
1D
100
AcDbEntity
  8
0
100
AcDbLine
 10
234.303
 20
50.3005
 30
0.0
 11
234.768
 21
51.4674
 31
0.0
  0
LINE
  5
227
330
1D
100
AcDbEntity
  8
0
100
AcDbLine
 10
234.768
 20
51.4674
 30
0.0
 11
235.147
 21
52.6495
 31
0.0
  0
LINE
  5
228
330
1D
100
AcDbEntity
  8
0
100
AcDbLine
 10
235.441
 20
53.837
 30
0.0
 11
235.652
 21
55.0257
 31
0.0
  0
LINE
  5
229
330
1D
100
AcDbEntity
  8
0
100
AcDbLine
 10
235.147
 20
52.6495
 30
0.0
 11
235.441
 21
53.837
 31
0.0
  0
LINE
  5
22A
330
1D
100
AcDbEntity
  8
0
100
AcDbLine
 10
235.652
 20
55.0257
 30
0.0
 11
235.78
 21
56.2102
 31
0.0
  0
LINE
  5
22B
330
1D
100
AcDbEntity
  8
0
100
AcDbLine
 10
235.12
 20
0.0
 30
0.0
 11
235.741
 21
0.0
 31
0.0
  0
LINE
  5
22C
330
1D
100
AcDbEntity
  8
0
100
AcDbLine
 10
235.386
 20
0.0
 30
0.0
 11
235.875
 21
0.0
 31
0.0
  0
LINE
  5
22D
330
1D
100
AcDbEntity
  8
0
100
AcDbLine
 10
234.535
 20
0.0
 30
0.0
 11
235.386
 21
0.0
 31
0.0
  0
LINE
  5
23D
330
1D
100
AcDbEntity
  8
0
100
AcDbLine
 10
235.648
 20
60.132
 30
0.0
 11
235.779
 21
58.8376
 31
0.0
  0
LINE
  5
23E
330
1D
100
AcDbEntity
  8
0
100
AcDbLine
 10
235.093
 20
65.541
 30
0.0
 11
235.648
 21
60.132
 31
0.0
  0
LINE
  5
23F
330
1D
100
AcDbEntity
  8
0
100
AcDbLine
 10
235.093
 20
65.541
 30
0.0
 11
235.12
 21
65.0844
 31
0.0
  0
LINE
  5
240
330
1D
100
AcDbEntity
  8
0
100
AcDbLine
 10
234.169
 20
0.0
 30
0.0
 11
235.499
 21
0.0
 31
0.0
  0
LINE
  5
241
330
1D
100
AcDbEntity
  8
0
100
AcDbLine
 10
234.169
 20
0.0
 30
0.0
 11
235.12
 21
0.0
 31
0.0
  0
LINE
  5
242
330
1D
100
AcDbEntity
  8
0
100
AcDbLine
 10
235.499
 20
0.0
 30
0.0
 11
236.466
 21
0.0
 31
0.0
  0
LINE
  5
243
330
1D
100
AcDbEntity
  8
0
100
AcDbLine
 10
237.25
 20
0.0
 30
0.0
 11
237.25
 21
88.6436
 31
0.0
  0
LINE
  5
245
330
1D
100
AcDbEntity
  8
0
100
AcDbLine
 10
235.83
 20
57.3851
 30
0.0
 11
235.83
 21
57.453
 31
0.0
  0
LINE
  5
246
330
1D
100
AcDbEntity
  8
0
100
AcDbLine
 10
235.78
 20
56.2102
 30
0.0
 11
235.83
 21
57.3851
 31
0.0
  0
LINE
  5
247
330
1D
100
AcDbEntity
  8
0
100
AcDbLine
 10
235.779
 20
58.8376
 30
0.0
 11
235.83
 21
57.453
 31
0.0
  0
LINE
  5
248
330
1D
100
AcDbEntity
  8
0
100
AcDbLine
 10
235.83
 20
57.453
 30
0.0
 11
235.83
 21
57.3851
 31
0.0
  0
LINE
  5
249
330
1D
100
AcDbEntity
  8
0
100
AcDbLine
 10
235.741
 20
0.0
 30
0.0
 11
235.994
 21
0.0
 31
0.0
  0
LINE
  5
24A
330
1D
100
AcDbEntity
  8
0
100
AcDbLine
 10
235.875
 20
0.0
 30
0.0
 11
235.994
 21
0.0
 31
0.0
  0
LINE
  5
24B
330
1D
100
AcDbEntity
  8
0
100
AcDbLine
 10
236.466
 20
0.0
 30
0.0
 11
237.053
 21
0.0
 31
0.0
  0
LINE
  5
24C
330
1D
100
AcDbEntity
  8
0
100
AcDbLine
 10
236.786
 20
89.4908
 30
0.0
 11
237.126
 21
89.1274
 31
0.0
  0
LINE
  5
24D
330
1D
100
AcDbEntity
  8
0
100
AcDbLine
 10
237.126
 20
89.1274
 30
0.0
 11
237.25
 21
88.6436
 31
0.0
  0
LINE
  5
24E
330
1D
100
AcDbEntity
  8
0
100
AcDbLine
 10
236.313
 20
89.6454
 30
0.0
 11
236.786
 21
89.4908
 31
0.0
  0
LINE
  5
24F
330
1D
100
AcDbEntity
  8
0
100
AcDbLine
 10
237.25
 20
88.6436
 30
0.0
 11
237.25
 21
0.0
 31
0.0
  0
LINE
  5
250
330
1D
100
AcDbEntity
  8
0
100
AcDbLine
 10
237.053
 20
0.0
 30
0.0
 11
237.25
 21
0.0
 31
0.0
  0
LINE
  5
257
330
1D
100
AcDbEntity
  8
0
100
AcDbLine
 10
231.509
 20
131.871
 30
0.0
 11
231.76
 21
130.303
 31
0.0
  0
LINE
  5
258
330
1D
100
AcDbEntity
  8
0
100
AcDbLine
 10
231.171
 20
133.434
 30
0.0
 11
231.509
 21
131.871
 31
0.0
  0
LINE
  5
259
330
1D
100
AcDbEntity
  8
0
100
AcDbLine
 10
231.76
 20
130.303
 30
0.0
 11
231.884
 21
129.274
 31
0.0
  0
LINE
  5
25A
330
1D
100
AcDbEntity
  8
0
100
AcDbLine
 10
230.802
 20
134.746
 30
0.0
 11
231.171
 21
133.434
 31
0.0
  0
LINE
  5
25C
330
1D
100
AcDbEntity
  8
0
100
AcDbLine
 10
226.958
 20
141.902
 30
0.0
 11
227.838
 21
140.805
 31
0.0
  0
LINE
  5
25D
330
1D
100
AcDbEntity
  8
0
100
AcDbLine
 10
229.354
 20
138.37
 30
0.0
 11
230.234
 21
136.419
 31
0.0
  0
LINE
  5
25F
330
1D
100
AcDbEntity
  8
0
100
AcDbLine
 10
230.234
 20
136.419
 30
0.0
 11
230.374
 21
136.051
 31
0.0
  0
LINE
  5
261
330
1D
100
AcDbEntity
  8
0
100
AcDbLine
 10
228.645
 20
139.616
 30
0.0
 11
229.354
 21
138.37
 31
0.0
  0
LINE
  5
263
330
1D
100
AcDbEntity
  8
0
100
AcDbLine
 10
227.838
 20
140.805
 30
0.0
 11
228.645
 21
139.616
 31
0.0
  0
LINE
  5
265
330
1D
100
AcDbEntity
  8
0
100
AcDbLine
 10
230.374
 20
136.051
 30
0.0
 11
230.802
 21
134.746
 31
0.0
  0
LINE
  5
268
330
1D
100
AcDbEntity
  8
0
100
AcDbLine
 10
232.039
 20
127.221
 30
0.0
 11
232.109
 21
126.071
 31
0.0
  0
LINE
  5
26B
330
1D
100
AcDbEntity
  8
0
100
AcDbLine
 10
231.884
 20
129.274
 30
0.0
 11
232.039
 21
127.221
 31
0.0
  0
LINE
  5
26C
330
1D
100
AcDbEntity
  8
0
100
AcDbLine
 10
232.109
 20
126.071
 30
0.0
 11
232.999
 21
108.576
 31
0.0
  0
LINE
  5
26D
330
1D
100
AcDbEntity
  8
0
100
AcDbLine
 10
232.999
 20
108.576
 30
0.0
 11
233.428
 21
100.103
 31
0.0
  0
LINE
  5
26E
330
1D
100
AcDbEntity
  8
0
100
AcDbLine
 10
233.428
 20
100.103
 30
0.0
 11
233.954
 21
89.5461
 31
0.0
  0
LINE
  5
26F
330
1D
100
AcDbEntity
  8
0
100
AcDbLine
 10
233.943142045183
 20
89.764020804582
 30
0.0
 11
236.313
 21
89.6454
 31
0.0
  0
LINE
  5
270
330
1D
100
AcDbEntity
  8
0
100
AcDbLine
 10
226.75
 20
142.122286010363
 30
0.0
 11
226.75
 21
280.385
 31
0.0
  0
LINE
  5
271
330
1D
100
AcDbEntity
  8
0
100
AcDbLine
 10
224.794
 20
295.297
 30
0.0
 11
226.259
 21
287.905
 31
0.0
  0
LINE
  5
272
330
1D
100
AcDbEntity
  8
0
100
AcDbLine
 10
222.381
 20
302.433
 30
0.0
 11
224.794
 21
295.297
 31
0.0
  0
LINE
  5
273
330
1D
100
AcDbEntity
  8
0
100
AcDbLine
 10
226.259
 20
287.905
 30
0.0
 11
226.75
 21
280.385
 31
0.0
  0
LINE
  5
274
330
1D
100
AcDbEntity
  8
0
100
AcDbLine
 10
219.059
 20
309.192
 30
0.0
 11
222.381
 21
302.433
 31
0.0
  0
LINE
  5
275
330
1D
100
AcDbEntity
  8
0
100
AcDbLine
 10
209.937
 20
321.124
 30
0.0
 11
214.887
 21
315.459
 31
0.0
  0
LINE
  5
276
330
1D
100
AcDbEntity
  8
0
100
AcDbLine
 10
204.293
 20
326.093
 30
0.0
 11
209.937
 21
321.124
 31
0.0
  0
LINE
  5
277
330
1D
100
AcDbEntity
  8
0
100
AcDbLine
 10
214.887
 20
315.459
 30
0.0
 11
219.059
 21
309.192
 31
0.0
  0
LINE
  5
278
330
1D
100
AcDbEntity
  8
0
100
AcDbLine
 10
201.793
 20
142.584746887967
 30
0.0
 11
201.793
 21
280.385
 31
0.0
  0
LINE
  5
2A0
330
1D
100
AcDbEntity
  8
0
100
AcDbLine
 10
0.141546173045
 20
273.457889918318
 30
0.0
 11
22.097
 21
265.437
 31
0.0
  0
ENDSEC
  0
SECTION
  2
OBJECTS
  0
DICTIONARY
  5
C
330
0
100
AcDbDictionary
281
     1
  3
ACAD_GROUP
350
D
  3
ACAD_LAYOUT
350
1A
  3
ACAD_MLEADERSTYLE
350
2A3
  3
ACAD_MLINESTYLE
350
17
  3
ACAD_PLOTSETTINGS
350
19
  3
ACAD_PLOTSTYLENAME
350
E
  3
ACAD_SCALELIST
350
27E
  3
AcDbVariableDictionary
350
2A1
  3
DWGPROPS
350
2AB
  0
DICTIONARY
  5
D
102
{ACAD_REACTORS
330
C
102
}
330
C
100
AcDbDictionary
281
     1
  0
DICTIONARY
  5
1A
102
{ACAD_REACTORS
330
C
102
}
330
C
100
AcDbDictionary
281
     1
  3
Layout1
350
1C
  3
Model
350
1E
  0
DICTIONARY
  5
2A3
102
{ACAD_REACTORS
330
C
102
}
330
C
100
AcDbDictionary
281
     1
  0
DICTIONARY
  5
17
102
{ACAD_REACTORS
330
C
102
}
330
C
100
AcDbDictionary
281
     1
  3
Standard
350
18
  0
DICTIONARY
  5
19
102
{ACAD_REACTORS
330
C
102
}
330
C
100
AcDbDictionary
281
     1
  0
ACDBDICTIONARYWDFLT
  5
E
102
{ACAD_REACTORS
330
C
102
}
330
C
100
AcDbDictionary
281
     1
  3
Normal
350
F
100
AcDbDictionaryWithDefault
340
F
  0
DICTIONARY
  5
27E
102
{ACAD_REACTORS
330
C
102
}
330
C
100
AcDbDictionary
281
     1
  3
A0
350
27F
  3
A1
350
280
  3
A2
350
281
  3
A3
350
282
  3
A4
350
283
  3
A5
350
284
  3
A6
350
285
  3
A7
350
286
  3
A8
350
287
  3
A9
350
288
  3
B0
350
289
  3
B1
350
28A
  3
B2
350
28B
  3
B3
350
28C
  3
B4
350
28D
  3
B5
350
28E
  3
B6
350
28F
  3
B7
350
290
  3
B8
350
291
  3
B9
350
292
  3
C0
350
293
  3
C1
350
294
  3
C2
350
295
  3
C3
350
296
  3
C4
350
297
  3
C5
350
298
  3
C6
350
299
  3
C7
350
29A
  3
C8
350
29B
  3
C9
350
29C
  3
D0
350
29D
  3
D1
350
29E
  3
D2
350
29F
  0
DICTIONARY
  5
2A1
102
{ACAD_REACTORS
330
C
102
}
330
C
100
AcDbDictionary
281
     1
  3
CANNOSCALE
350
2A9
  0
XRECORD
  5
2AB
102
{ACAD_REACTORS
330
C
102
}
330
C
100
AcDbXrecord
280
     1
  1
DWGPROPS COOKIE
  2

  3

  4

  6

  7

  8
MARTIN
  9

300
=
301
=
302
=
303
=
304
=
305
=
306
=
307
=
308
=
309
=
 40
0.0
 41
2455823.389204815
 42
2456213.83612684
  1

 90
        0
  0
LAYOUT
  5
1C
102
{ACAD_REACTORS
330
1A
102
}
330
1A
100
AcDbPlotSettings
  1

  2
none_device
  4

  6

 40
0.0
 41
0.0
 42
0.0
 43
0.0
 44
0.0
 45
0.0
 46
0.0
 47
0.0
 48
0.0
 49
0.0
140
0.0
141
0.0
142
1.0
143
1.0
 70
   688
 72
     0
 73
     0
 74
     5
  7

 75
    16
147
1.0
148
0.0
149
0.0
100
AcDbLayout
  1
Layout1
 70
     1
 71
     1
 10
0.0
 20
0.0
 11
12.0
 21
9.0
 12
0.0
 22
0.0
 32
0.0
 14
1.000000000000E+20
 24
1.000000000000E+20
 34
1.000000000000E+20
 15
-1.000000000000E+20
 25
-1.000000000000E+20
 35
-1.000000000000E+20
146
0.0
 13
0.0
 23
0.0
 33
0.0
 16
1.0
 26
0.0
 36
0.0
 17
0.0
 27
1.0
 37
0.0
 76
     0
330
1B
  0
LAYOUT
  5
1E
102
{ACAD_REACTORS
330
1A
102
}
330
1A
100
AcDbPlotSettings
  1

  2
none_device
  4

  6

 40
0.0
 41
0.0
 42
0.0
 43
0.0
 44
0.0
 45
0.0
 46
0.0
 47
0.0
 48
0.0
 49
0.0
140
0.0
141
0.0
142
1.0
143
1.0
 70
  1712
 72
     0
 73
     0
 74
     0
  7

 75
     0
147
1.0
148
0.0
149
0.0
100
AcDbLayout
  1
Model
 70
     1
 71
     0
 10
0.0
 20
0.0
 11
12.0
 21
9.0
 12
0.0
 22
0.0
 32
0.0
 14
-0.25
 24
0.0
 34
0.0
 15
237.25
 25
338.0
 35
0.0
146
0.0
 13
0.0
 23
0.0
 33
0.0
 16
1.0
 26
0.0
 36
0.0
 17
0.0
 27
1.0
 37
0.0
 76
     0
330
1D
331
279
  0
MLINESTYLE
  5
18
102
{ACAD_REACTORS
330
17
102
}
330
17
100
AcDbMlineStyle
  2
Standard
 70
     0
  3

 62
   256
 51
90.0
 52
90.0
 71
     2
 49
0.5
 62
   256
  6
BYLAYER
 49
-0.5
 62
   256
  6
BYLAYER
  0
ACDBPLACEHOLDER
  5
F
102
{ACAD_REACTORS
330
E
102
}
330
E
  0
SCALE
  5
27F
102
{ACAD_REACTORS
330
27E
102
}
330
27E
100
AcDbScale
 70
     0
300
1:1
140
1.0
141
1.0
290
     1
  0
SCALE
  5
280
102
{ACAD_REACTORS
330
27E
102
}
330
27E
100
AcDbScale
 70
     0
300
1:2
140
1.0
141
2.0
290
     0
  0
SCALE
  5
281
102
{ACAD_REACTORS
330
27E
102
}
330
27E
100
AcDbScale
 70
     0
300
1:4
140
1.0
141
4.0
290
     0
  0
SCALE
  5
282
102
{ACAD_REACTORS
330
27E
102
}
330
27E
100
AcDbScale
 70
     0
300
1:5
140
1.0
141
5.0
290
     0
  0
SCALE
  5
283
102
{ACAD_REACTORS
330
27E
102
}
330
27E
100
AcDbScale
 70
     0
300
1:8
140
1.0
141
8.0
290
     0
  0
SCALE
  5
284
102
{ACAD_REACTORS
330
27E
102
}
330
27E
100
AcDbScale
 70
     0
300
1:10
140
1.0
141
10.0
290
     0
  0
SCALE
  5
285
102
{ACAD_REACTORS
330
27E
102
}
330
27E
100
AcDbScale
 70
     0
300
1:16
140
1.0
141
16.0
290
     0
  0
SCALE
  5
286
102
{ACAD_REACTORS
330
27E
102
}
330
27E
100
AcDbScale
 70
     0
300
1:20
140
1.0
141
20.0
290
     0
  0
SCALE
  5
287
102
{ACAD_REACTORS
330
27E
102
}
330
27E
100
AcDbScale
 70
     0
300
1:30
140
1.0
141
30.0
290
     0
  0
SCALE
  5
288
102
{ACAD_REACTORS
330
27E
102
}
330
27E
100
AcDbScale
 70
     0
300
1:40
140
1.0
141
40.0
290
     0
  0
SCALE
  5
289
102
{ACAD_REACTORS
330
27E
102
}
330
27E
100
AcDbScale
 70
     0
300
1:50
140
1.0
141
50.0
290
     0
  0
SCALE
  5
28A
102
{ACAD_REACTORS
330
27E
102
}
330
27E
100
AcDbScale
 70
     0
300
1:100
140
1.0
141
100.0
290
     0
  0
SCALE
  5
28B
102
{ACAD_REACTORS
330
27E
102
}
330
27E
100
AcDbScale
 70
     0
300
2:1
140
2.0
141
1.0
290
     0
  0
SCALE
  5
28C
102
{ACAD_REACTORS
330
27E
102
}
330
27E
100
AcDbScale
 70
     0
300
4:1
140
4.0
141
1.0
290
     0
  0
SCALE
  5
28D
102
{ACAD_REACTORS
330
27E
102
}
330
27E
100
AcDbScale
 70
     0
300
8:1
140
8.0
141
1.0
290
     0
  0
SCALE
  5
28E
102
{ACAD_REACTORS
330
27E
102
}
330
27E
100
AcDbScale
 70
     0
300
10:1
140
10.0
141
1.0
290
     0
  0
SCALE
  5
28F
102
{ACAD_REACTORS
330
27E
102
}
330
27E
100
AcDbScale
 70
     0
300
100:1
140
100.0
141
1.0
290
     0
  0
SCALE
  5
290
102
{ACAD_REACTORS
330
27E
102
}
330
27E
100
AcDbScale
 70
     0
300
1/128" = 1'-0"
140
0.0078125
141
12.0
290
     0
  0
SCALE
  5
291
102
{ACAD_REACTORS
330
27E
102
}
330
27E
100
AcDbScale
 70
     0
300
1/64" = 1'-0"
140
0.015625
141
12.0
290
     0
  0
SCALE
  5
292
102
{ACAD_REACTORS
330
27E
102
}
330
27E
100
AcDbScale
 70
     0
300
1/32" = 1'-0"
140
0.03125
141
12.0
290
     0
  0
SCALE
  5
293
102
{ACAD_REACTORS
330
27E
102
}
330
27E
100
AcDbScale
 70
     0
300
1/16" = 1'-0"
140
0.0625
141
12.0
290
     0
  0
SCALE
  5
294
102
{ACAD_REACTORS
330
27E
102
}
330
27E
100
AcDbScale
 70
     0
300
3/32" = 1'-0"
140
0.09375
141
12.0
290
     0
  0
SCALE
  5
295
102
{ACAD_REACTORS
330
27E
102
}
330
27E
100
AcDbScale
 70
     0
300
1/8" = 1'-0"
140
0.125
141
12.0
290
     0
  0
SCALE
  5
296
102
{ACAD_REACTORS
330
27E
102
}
330
27E
100
AcDbScale
 70
     0
300
3/16" = 1'-0"
140
0.1875
141
12.0
290
     0
  0
SCALE
  5
297
102
{ACAD_REACTORS
330
27E
102
}
330
27E
100
AcDbScale
 70
     0
300
1/4" = 1'-0"
140
0.25
141
12.0
290
     0
  0
SCALE
  5
298
102
{ACAD_REACTORS
330
27E
102
}
330
27E
100
AcDbScale
 70
     0
300
3/8" = 1'-0"
140
0.375
141
12.0
290
     0
  0
SCALE
  5
299
102
{ACAD_REACTORS
330
27E
102
}
330
27E
100
AcDbScale
 70
     0
300
1/2" = 1'-0"
140
0.5
141
12.0
290
     0
  0
SCALE
  5
29A
102
{ACAD_REACTORS
330
27E
102
}
330
27E
100
AcDbScale
 70
     0
300
3/4" = 1'-0"
140
0.75
141
12.0
290
     0
  0
SCALE
  5
29B
102
{ACAD_REACTORS
330
27E
102
}
330
27E
100
AcDbScale
 70
     0
300
1" = 1'-0"
140
1.0
141
12.0
290
     0
  0
SCALE
  5
29C
102
{ACAD_REACTORS
330
27E
102
}
330
27E
100
AcDbScale
 70
     0
300
1-1/2" = 1'-0"
140
1.5
141
12.0
290
     0
  0
SCALE
  5
29D
102
{ACAD_REACTORS
330
27E
102
}
330
27E
100
AcDbScale
 70
     0
300
3" = 1'-0"
140
3.0
141
12.0
290
     0
  0
SCALE
  5
29E
102
{ACAD_REACTORS
330
27E
102
}
330
27E
100
AcDbScale
 70
     0
300
6" = 1'-0"
140
6.0
141
12.0
290
     0
  0
SCALE
  5
29F
102
{ACAD_REACTORS
330
27E
102
}
330
27E
100
AcDbScale
 70
     0
300
1'-0" = 1'-0"
140
12.0
141
12.0
290
     0
  0
DICTIONARYVAR
  5
2A9
102
{ACAD_REACTORS
330
2A1
102
}
330
2A1
100
DictionaryVariables
280
     0
  1
1:1
  0
ENDSEC
  0
SECTION
  2
THUMBNAILIMAGE
 90
    16364
310
28000000B40000005500000001000800000000000000000000000000000000000000000000000000FFFFFF000000FF0000FFFF0000FF0000FFFF0000FF000000FF00FF000000000080808000C0C0C0000000FF007F7FFF000000A5005252A50000007F003F3F7F0000004C0026264C000000260013132600003FFF007F9FFF
310
000029A5005267A500001F7F003F4F7F0000134C00262F4C000009260013172600007FFF007FBFFF000052A500527CA500003F7F003F5F7F0000264C0026394C0000132600131C260000BFFF007FDFFF00007CA5005291A500005F7F003F6F7F0000394C0026424C00001C26001321260000FFFF007FFFFF0000A5A50052A5
310
A500007F7F003F7F7F00004C4C00264C4C00002626001326260000FFBF007FFFDF0000A57C0052A59100007F5F003F7F6F00004C3900264C420000261C001326210000FF7F007FFFBF0000A5520052A57C00007F3F003F7F5F00004C2600264C39000026130013261C0000FF3F007FFF9F0000A5290052A56700007F1F003F
310
7F4F00004C1300264C2F00002609001326170000FF00007FFF7F0000A5000052A55200007F00003F7F3F00004C0000264C260000260000132613003FFF00009FFF7F0029A5000067A552001F7F00004F7F3F00134C00002F4C260009260000172613007FFF0000BFFF7F0052A500007CA552003F7F00005F7F3F00264C0000
310
394C2600132600001C261300BFFF0000DFFF7F007CA5000091A552005F7F00006F7F3F00394C0000424C26001C26000021261300FFFF0000FFFF7F00A5A50000A5A552007F7F00007F7F3F004C4C00004C4C26002626000026261300FFBF0000FFDF7F00A57C0000A59152007F5F00007F6F3F004C3900004C422600261C00
310
0026211300FF7F0000FFBF7F00A5520000A57C52007F3F00007F5F3F004C2600004C39260026130000261C1300FF3F0000FF9F7F00A5290000A56752007F1F00007F4F3F004C1300004C2F26002609000026171300FF000000FF7F7F00A5000000A55252007F0000007F3F3F004C0000004C2626002600000026131300FF00
310
3F00FF7F9F00A5002900A55267007F001F007F3F4F004C0013004C262F002600090026131700FF007F00FF7FBF00A5005200A5527C007F003F007F3F5F004C0026004C2639002600130026131C00FF00BF00FF7FDF00A5007C00A55291007F005F007F3F6F004C0039004C26420026001C0026132100FF00FF00FF7FFF00A5
310
00A500A552A5007F007F007F3F7F004C004C004C264C002600260026132600BF00FF00DF7FFF007C00A5009152A5005F007F006F3F7F0039004C0042264C001C002600211326007F00FF00BF7FFF005200A5007C52A5003F007F005F3F7F0026004C0039264C00130026001C1326003F00FF009F7FFF002900A5006752A500
310
1F007F004F3F7F0013004C002F264C000900260017132600000000002D2D2D005B5B5B0089898900B7B7B700B3B3B30000000000000000000000000000000000000000000000000000000000000000000000000000000000000000000000000000000000000000000000000000000000000000000000000000000000000000
310
00000000000000000000000000000000000000000000000000000000000707070707070707070707070000000000000000000000000000000000000000000000000000000000000000000000000000000000000000000000000000000000000000000000000000000000000000000000000000000000000000000000000000
310
00000000000000000000000000000000000000000000000000000000000000000000000000000000000000000000000000000000000000000000000000000000000000000000000000000000000000000000070000000000000000000007000000000000000000000000000000000000000000000000000000000000000000
310
00000000000000000000000000000000000000000000000000000000000000000000000000000000000000000000000000000000000000000000000000000000000000000000000000000000000000000000000000000000000000000000000000000000000000000000000000000000000000000000000000000000000000
310
00000000000000000700000000000000000000070000000000000000000000000000000000000000000000000000000000000000000000000000000000000000000000000000000000000000000000000000000000000000000000000000000000000000000000000000000000000000000000000000000000000000000000
310
00000000000000000000000000000000000000000000000000000000000000000000000000000000000000000000000000000000000000000000000000070000000000000000000007000000000000000000000000000000000000000000000000000000000000000000000000000000000000000000000000000000000000
310
00000000000000000000000000000000000000000000000000000000000000000000000000000000000000000000000000000000000000000000000000000000000000000000000000000000000000000000000000000000000000000000000000000000000000000000000000000000000007000000000000000000000700
310
00000000000000000000000000000000000000000000000000000000000000000000000000000000000000000000000000000000000000000000000000000000000000000000000000000000000000000000000000000000000000000000000000000000000000000000000000000000000000000000000000000000000000
310
00000000000000000000000000000000000000000000000000000000000000000000000000000000070000000000000000000007000000000000000000000000000000000000000000000000000000000000000000000000000000000000000000000000000000000000000000000000000000000000000000000000000000
310
00000000000000000000000000000000000000000000000000000000000000000000000000000000000000000000000000000000000000000000000000000000000000000000000000000000000000000000000000000000000000000007000000000000000000000700000000000000000000000000000000000000000000
310
00000000000000000000000000000000000000000000000000000000000000000000000000000000000000000000000000000000000000000000000000000000000000000000000000000000000000000000000000000000000000000000000000000000000000000000000000000000000000000000000000000000000000
310
00000000000000000000000000000000000000070000000000000000000007000000000000000000000000000000000000000000000000000000000000000000000000000000000000000000000000000000000000000000000000000000000000000000000000000000000000000000000000000000000000000000000000
310
00000000000000000000000000000000000000000000000000000000000000000000000000000000000000000000000000000000000000000000000000000000000000000000000007000000000000000000000700000000000000000000000000000000000000000000000000000000000000000000000000000000000000
310
00000000000000000000000000000000000000000000000000000000000000000000000000000000000000000000000000000000000000000000000000000000000000000000000000000000000000000000000000000000000000000000000000000000000000000000000000000000000000000000000000000000000700
310
00070707070707000007000000000000000000000000000000000000000000000000000000000000000000000000000000000000000000000000000000000000000000000000000000000000000000000000000000000000000000000000000000000000000000000000000000000000000000000000000000000000000000
310
00000000000000000000000000000000000000000000000000000000000000000000000000000000000000000000000000000007000707000000000707000700000000000000000000000000000000000000000000000000000000000000000000000000000000000000000000000000000000000000000000000000000000
310
00000000000000000000000000000000000000000000000000000000000000000000000000000000000000000000000000000000000000000000000000000000000000000000000000000000000000000000000000000000000000000000000000000000000000000707070000000000000707070000000000000000000000
310
00000000000000000000000000000000000000000000000000000000000000000000000000000000000000000000000000000000000000000000000000000000000000000000000000000000000000000000000000000000000000000000000000000000000000000000000000000000000000000000000000000000000000
310
00000000000000000000000000000000000000000000000000000000000007070000000000000000070700000000000000000000000000000000000000000000000000000000000000000000000000000000000000000000000000000000000000000000000000000000000000000000000000000000000000000000000000
310
00000000000000000000000000000000000000000000000000000000000000000000000000000000000000000000000000000000000000000000000000000000000000000000000000000000000000000000000700000000000000000000070000000000000000000000000000000000000000000000000000000000000000
310
00000000000000000000000000000000000000000000000000000000000000000000000000000000000000000000000000000000000000000000000000000000000000000000000000000000000000000000000000000000000000000000000000000000000000000000000000000000000000000000000000000000000000
310
00000000000000000007000000000000000000000700000000000000000000000000000000000000000000000000000000000000000000000000000000000000000000000000000000000000000000000000000000000000000000000000000000000000000000000000000000000000000000000000000000000000000000
310
00000000000000000000000000000000000000000000000000000000000000000000000000000000000000000000000000000000000000000000000000000700000000000000000000070000000000000000000000000000000000000000000000000000000000000000000000000000000000000000000000000000000000
310
00000000000000000000000000000000000000000000000000000000000000000000000000000000000000000000000000000000000000000000000000000000000000000000000000000000000000000000000000000000000000000000000000000000000000000000000000000000000000070000000000000000000007
310
00000000000000000000000000000000000000000000000000000000000000000000000000000000000000000000000000000000000000000000000000000000000000000000000000000000000000000000000000000000000000000000000000000000000000000000000000000000000000000000000000000000000000
310
00000000000000000000000000000000000000000000000000000000000000000000000000000000000700000000000000000000070000000000000000000000000000000000000000000000000000000000000000000000000000000000000000000000000000000000000000000000000000000000000000000000000000
310
00000000000000000000000000000000000000000000000000000000000000000000000000000000000000000000000000000000000000000000000000000000000000000000000000000000000000000000000000000000000000000000070000000000000000000007000000000000000000000000000000000000000000
310
00000000000000000000000000000000000000000000000000000000000000000000000000000000000000000000000000000000000000000000000000000000000000000000000000000000000000000000000000000000000000000000000000000000000000000000000000000000000000000000000000000000000000
310
00000000000000000000000000000000000000000700000000000000000007070000000000000000000000000000000000000000000000000000000000000000000000000000000000000000000000000000000000000000000000000000000000000000000000000000000000000000000000000000000000000000000000
310
00000000000000000000000000000000000000000000000000000000000000000000000000000000000000000000000000000000000000000000000000000000000000000000000000070000000000000000000707000000000000000000000000000000000000000000000000000000000000000000000000000000000000
310
00000000000000000000000000000000000000000000000000000000000000000000000000000000000000000000000000000000000000000000000000000000000000000000000000000000000000000000000000000000000000000000000000000000000000000000000000000000000000000000000000000000000007
310
07000000000000000007070000000000000000000000000000000000000000000000000000000000000000000000000000000000000000000000000000000000000000000000000000000000000000000000000000000000000000000000000000000000000000000000000000000000000000000000000000000000000000
310
00000000000000000000000000000000000000000000000000000000000000000000000000000000000000000000000000000000070700000000000000000707000000000000000000000000000000000000000000000000000000000000000000000000000000000000000000000000000000000000000000000000000000
310
00000000000000000000000000000000000000000000000000000000000000000000000000000000000000000000000000000000000000000000000000000000000000000000000000000000000000000000000000000000000000000000000000000000000000000000070000000000000000070000000000000000000000
310
00000000000000000000000000000000000000000000000000000000000000000000000000000000000000000000000000000000000000000000000000000000000000000000000000000000000000000000000000000000000000000000000000000000000000000000000000000000000000000000000000000000000000
310
00000000000000000000000000000000000000000000000000000000000000000700000000000000000700000000000000000000000000000000000000000000000000000000000000000000000000000000000000000000000000000000000000000000000000000000000000000000000000000000000000000000000000
310
00000000000000000000000000000000000000000000000000000000000000000000000000000000000000000000000000000000000000000000000000000000000000000000000000000000000000000000000000070000000000000000070000000000000000000000000000000000000000000000000000000000000000
310
00000000000000000000000000000000000000000000000000000000000000000000000000000000000000000000000000000000000000000000000000000000000000000000000000000000000000000000000000000000000000000000000000000000000000000000000000000000000000000000000000000000000000
310
00000000000000000000000700000000000000000700000000000000000000000000000000000000000000000000000000000000000000000000000000000000000000000000000000000000000000000000000000000000000000000000000000000000000000000000000000000000000000000000000000000000000000
310
00000000000000000000000000000000000000000000000000000000000000000000000000000000000000000000000000000000000000000000000000000000070000000000000000070000000000000000000000000000000000000000000000000000000000000000000000000000000000000000000000000000000000
310
00000000000000000000000000000000000000000000000000000000000000000000000000000000000000000000000000000000000000000000000000000000000000000000000000000000000000000000000000000000000000000000000000000000000000000000000000000000000000000007000000000000000007
310
00000000000000000000000000000000000000000000000000000000000000000000000000000000000000000000000000000000000000000000000000000000000000000000000000000000000000000000000000000000000000000000000000000000000000000000000000000000000000000000000000000000000000
310
00000000000000000000000000000000000000000000000000000000000000000000000000000000000000070000000000000000070000000000000000000000000000000000000000000000000000000000000000000000000000000000000000000000000000000000000000000000000000000000000000000000000000
310
00000000000000000000000000000000000000000000000000000000000000000000000000000000000000000000000000000000000000000000000000000000000000000000000000000000000000000000000000000000000000000000000007000000000000000007000000000000000000000000000000000000000000
310
00000000000000000000000000000000000000000000000000000000000000000000000000000000000000000000000000000000000000000000000000000000000000000000000000000000000000000000000000000000000000000000000000000000000000000000000000000000000000000000000000000000000000
310
00000000000000000000000000000000000000000000070000000000000000070000000000000000000000000000000000000000000000000000000000000000000000000000000000000000000000000000000000000000000000000000000000000000000000000000000000000000000000000000000000000000000000
310
00000000000000000000000000000000000000000000000000000000000000000000000000000000000000000000000000000000000000000000000000000000000000000000000000000007000000000000000007000000000000000000000000000000000000000000000000000000000000000000000000000000000000
310
00000000000000000000000000000000000000000000000000000000000000000000000000000000000000000000000000000000000000000000000000000000000000000000000000000000000000000000000000000000000000000000000000000000000000000000000000000000000000000000000000000000000000
310
00070700000000000000070000000000000000000000000000000000000000000000000000000000000000000000000000000000000000000000000000000000000000000000000000000000000000000000000000000000000000000000000000000000000000000000000000000000000000000000000000000000000000
310
00000000000000000000000000000000000000000000000000000000000000000000000000000000000000000000000000000000000000070000000000000700000000000000000000000000000000000000000000000000000000000000000000000000000000000000000000000000000000000000000000000000000000
310
00000000000000000000000000000000000000000000000000000000000000000000000000000000000000000000000000000000000000000000000000000000000000000000000000000000000000000000000000000000000000000000000000000000000000000000000007070000000007070000000000000000000000
310
00000000000000000000000000000000000000000000000000000000000000000000000000000000000000000000000000000000000000000000000000000000000000000000000000000000000000000000000000000000000000000000000000000000000000000000000000000000000000000000000000000000000000
310
00000000000000000000000000000000000000000000000000000000000000000000000707070707070700000000000000000000000000000000000000000000000000000000000000000000000000000000000000000000000000000000000000000000000000000000000000000000000000000000000000000000000000
310
00000000000000000000000000000000000000000000000000000000000000000000000000000000000000000000000000000000000000000000000000000000000000000000000000000000000000000000000000000000070000000000070000000000000000000000000000000000000000000000000000000000000000
310
00000000000000000000000000000000000000000000000000000000000000000000000000000000000000000000000000000000000000000000000000000000000000000000000000000000000000000000000000000000000000000000000000000000000000000000000000000000000000000000000000000000000000
310
00000000000000000000000000000700000000000700000000000000000000000000000000000000000000000000000000000000000000000000000000000000000000000000000000000000000000000000000000000000000000000000000000000000000000000000000000000000000000000000000000000000000000
310
00000000000000000000000000000000000000000000000000000000000000000000000000000000000000000000000000000000000000000000000000000000000000070000000000070000000000000000000000000000000000000000000000000000000000000000000000000000000000000000000000000000000000
310
00000000000000000000000000000000000000000000000000000000000000000000000000000000000000000000000000000000000000000000000000000000000000000000000000000000000000000000000000000000000000000000000000000000000000000000000000000000000000000000000007000000000007
310
00000000000000000000000000000000000000000000000000000000000000000000000000000000000000000000000000000000000000000000000000000000000000000000000000000000000000000000000000000000000000000000000000000000000000000000000000000000000000000000000000000000000000
310
00000000000000000000000000000000000000000000000000000000000000000000000000000000000000000000070000000000070000000000000000000000000000000000000000000000000000000000000000000000000000000000000000000000000000000000000000000000000000000000000000000000000000
310
00000000000000000000000000000000000000000000000000000000000000000000000000000000000000000000000000000000000000000000000000000000000000000000000000000000000000000000000000000000000000000000000000000007000000000007000000000000000000000000000000000000000000
310
00000000000000000000000000000000000000000000000000000000000000000000000000000000000000000000000000000000000000000000000000000000000000000000000000000000000000000000000000000000000000000000000000000000000000000000000000000000000000000000000000000000000000
310
00000000000000000000000000000000000000000000000000070000000000070000000000000000000000000000000000000000000000000000000000000000000000000000000000000000000000000000000000000000000000000000000000000000000000000000000000000000000000000000000000000000000000
310
00000000000000000000000000000000000000000000000000000000000000000000000000000000000000000000000000000000000000000000000000000000000000000000000000000000000007000000000007000000000000000000000000000000000000000000000000000000000000000000000000000000000000
310
00000000000000000000000000000000000000000000000000000000000000000000000000000000000000000000000000000000000000000000000000000000000000000000000000000000000000000000000000000000000000000000000000000000000000000000000000000000000000000000000000000000000000
310
00000000070000000000070000000000000000000000000000000000000000000000000000000000000000000000000000000000000000000000000000000000000000000000000000000000000000000000000000000000000000000000000000000000000000000000000000000000000000000000000000000000000000
310
00000000000000000000000000000000000000000000000000000000000000000000000000000000000000000000000000000000000000000007000000000007000000000000000000000000000000000000000000000000000000000000000000000000000000000000000000000000000000000000000000000000000000
310
00000000000000000000000000000000000000000000000000000000000000000000000000000000000000000000000000000000000000000000000000000000000000000000000000000000000000000000000000000000000000000000000000000000000000000000000000000700000000000700000000000000000000
310
00000000000000000000000000000000000000000000000000000000000000000000000000000000000000000000000000000000000000000000000000000000000000000000000000000000000000000000000000000000000000000000000000000000000000000000000000000000000000000000000000000000000000
310
00000000000000000000000000000000000000000000000000000000000000000000000007000000000007000000000000000000000000000000000000000000000000000000000000000000000000000000000000000000000000000000000000000000000000000000000000000000000000000000000000000000000000
310
00000000000000000000000000000000000000000000000000000000000000000000000000000000000000000000000000000000000000000000000000000000000000000000000000000000000000000000000000000000000700000000000700000000000000000000000000000000000000000000000000000000000000
310
00000000000000000000000000000000000000000000000000000000000000000000000000000000000000000000000000000000000000000000000000000000000000000000000000000000000000000000000000000000000000000000000000000000000000000000000000000000000000000000000000000000000000
310
00000000000000000000000000000007000000000007000000000000000000000000000000000000000000000000000000000000000000000000000000000000000000000000000000000000000000000000000000000000000000000000000000000000000000000000000000000000000000000000000000000000000000
310
00000000000000000000000000000000000000000000000000000000000000000000000000000000000000000000000000000000000000000000000000000000000000000700000000000700000000000000000000000000000000000000000000000000000000000000000000000000000000000000000000000000000000
310
00000000000000000000000000000000000000000000000000000000000000000000000000000000000000000000000000000000000000000000000000000000000000000000000000000000000000000000000000000000000000000000000000000000000000000000000000000000000000000000000000070000000000
310
07000000000000000000000000000000000000000000000000000000000000000000000000000000000000000000000000000000000000000000000000000000000000000000000000000000000000000000000000000000000000000000000000000000000000000000000000000000000000000000000000000000000000
310
00000000000000000000000000000000000000000000000000000000000000000000000000000000000000000000000700000000000700000000000000000000000000000000000000000000000000000000000000000000000000000000000000000000000000000000000000000000000000000000000000000000000000
310
00000000000000000000000000000000000000000000000000000000000000000000000000000000000000000000000000000000000000000000000000000000000000000000000000000000000000000000000000000000000000000000000000000000070000000000070000000000000000000000000000000000000000
310
00000000000000000000000000000000000000000000000000000000000000000000000000000000000000000000000000000000000000000000000000000000000000000000000000000000000000000000000000000000000000000000000000000000000000000000000000000000000000000000000000000000000000
310
00000000000000000000000000000000000000000000000000000700000000000700000000000000000000000000000000000000000000000000000000000000000000000000000000000000000000000000000000000000000000000000000000000000000000000000000000000000000000000000000000000000000000
310
00000000000000000000000000000000000000000000000000000000000000000000000000000000000000000000000000000000000000000000000000000000000000000000000000000000000000070000000000070000000000000000000000000000000000000000000000000000000000000000000000000000000000
310
00000000000000000000000000000000000000000000000000000000000000000000000000000000000000000000000000000000000000000000000000000000000000000000000000000000000000000000000000000000000000000000000000000000000000000000000000000000000000000000000000000000000000
310
00000000000700000000000700000000000000000000000000000000000000000000000000000000000000000000000000000000000000000000000000000000000000000000000000000000000000000000000000000000000000000000000000000000000000000000000000000000000000000000000000000000000000
310
00000000000000000000000000000000000000000000000000000000000000000000000000000000000000000000000000000000000000000000070000000000070000000000000000000000000000000000000000000000000000000000000000000000000000000000000000000000000000000000000000000000000000
310
00000000000000000000000000000000000000000000000000000000000000000000000000000000000000000000000000000000000000000000000000000000000000000000000000000000000000000000000000000000000000000000000000000000000000000000000000000007000000000007000000000000000000
310
00000000000000000000000000000000000000000000000000000000000000000000000000000000000000000000000000000000000000000000000000000000000000000000000000000000000000000000000000000000000000000000000000000000000000000000000000000000000000000000000000000000000000
310
00000000000000000000000000000000000000000000000000000000000000000000000000070000000000070000000000000000000000000000000000000000000000000000000000000000000000000000000000000000000000000000000000000000000000000000000000000000000000000000000000000000000000
310
00000000000000000000000000000000000000000000000000000000000000000000000000000000000000000000000000000000000000000000000000000000000000000000000000000000000000000000000000000000000007000000000007000000000000000000000000000000000000000000000000000000000000
310
00000000000000000000000000000000000000000000000000000000000000000000000000000000000000000000000000000000000000000000000000000000000000000000000000000000000000000000000000000000000000000000000000000000000000000000000000000000000000000000000000000000000000
310
00000000000000000000000000000000070000000000070000000000000000000000000000000000000000000000000000000000000000000000000000000000000000000000000000000000000000000000000000000000000000000000000000000000000000000000000000000000000000000000000000000000000000
310
00000000000000000000000000000000000000000000000000000000000000000000000000000000000000000000000000000000000000000000000000000000000000000007000000000007000000000000000000000000000000000000000000000000000000000000000000000000000000000000000000000000000000
310
00000000000000000000000000000000000000000000000000000000000000000000000000000000000000000000000000000000000000000000000000000000000000000000000000000000000000000000000000000000000000000000000000000000000000000000000000000000000000000000000000000700000000
310
00070000000000000000000000000000000000000000000000000000000000000000000000000000000000000000000000000000000000000000000000000000000000000000000000000000000000000000000000000000000000000000000000000000000000000000000000000000000000000000000000000000000000
310
00000707070000000000000000000000000000000000000000000000000000000000000000000000000000000000000007000000000007000000000000000000000000000000000000000000000000000000000000000000000000000000000000000000000000000000000000000000000000000000000000000000000000
310
00000000000000000000000000000000000000000000000000000000000000000000000000000000000000000000000000000000000707000007000000000000000000000000000000000000000000000000000000000000000000000000000000000000000700000000000700000000000000000000000000000000000000
310
00000000000000000000000000000000000000000000000000000000000000000000000000000000000000000000000000000000000000000000000000000000000000000000000000000000000000000000000000000000000000000000000000000000000000000707000000000700000000000000000000000000000000
310
00000000000000000000000000000000000000000000000000000007000000000007000000000000000000000000000000000000000000000000000000000000000000000000000000000000000000000000000000000000000000000000000000000000000000000000000000000000000000000000000000000000000000
310
00000000000000000000000000000000000000000000000000000000000007000000000000070000000000000000000000000000000000000000000000000000000000000000000000000000000000000700000000000700000000000000000000000000000000000000000000000000000000000000000000000000000000
310
00000000000000000000000000000000000000000000000000000000000000000000000000000000000000000000000000000000000000000000000000000000000000000000000000000000000000000000000700000000000007000000000000000000000000000000000000000000000000000000000000000000000000
310
00000000000000000000000000000000000000000000000000000000000000000000000000000000000000000000000000000000000000000000000000000000000000000000000000000000000000000000000000000000000000000000000000000000000000000000000000000000000000000000000000000000000000
310
00000000000000000000070000000707070000000000000000000000000000000000000000000000000000000000000000000000000000000000070000000000000700000000000000000000000000000000000000000000000000000000000000000000000000000000000000000000000000000000000000000000000000
310
00000000000000000000000000000000000000000000000000000000000000000000000000000000000000000000000000000000000000000000000000000007070707070007000000000000000000000000000000000000000000000000000000000000000000000000000000000007000000000000070000000000000000
310
00000000000000000000000000000000000000000000000000000000000000000000000000000000000000000000000000000000000000000000000000000000000000000000000000000000000000000000000000000000000000000000000000000000000000000000000000000000000000000707000000000007000000
310
00000000000000000000000000000000000000000000000000000000000000000000000000070000000000070000000000000000000000000000000000000000000000000000000000000000000000000000000000000000000000000000000000000000000000000000000000000000000000000000000000000000000000
310
00000000000000000000000000000000000000000000000000000000000000000000000000000000000007000000000000000700000000000000000000000000000000000000000000000000000000000000000000000000000700000000000007000000000000000000000000000000000000000000000000000000000000
310
00000000000000000000000000000000000000000000000000000000000000000000000000000000000000000000000000000000000000000000000000000000000000000000000000000000000000000000000000000000000000000000000007000000000000070000000000000000000000000000000000000000000000
310
00000000000000000000000000000007000000000000070000000000000000000000000000000000000000000000000000000000000000000000000000000000000000000000000000000000000000000000000000000000000000000000000000000000000000000000000000000000000000000000000000000000000000
310
00000000000000000000000000000000000000000000070000000000000007000000000000000000000000000000000000000000000000000000000000000000000000070000000000000700000000000000000000000000000000000000000000000000000000000000000000000000000000000000000000000000000000
310
00000000000000000000000000000000000000000000000000000000000000000000000000000000000000000000000000000000000000000000000000000000000000000000000000000000070000000000000007000000000000000000000000000000000000000000000000000000000000000000000700000000000000
310
07000000000000000000000000000000000000000000000000000000000000000000000000000000000000000000000000000000000000000000000000000000000000000000000000000000000000000000000000000000000000000000000000000000000000000000000000000000000000000000000000000000000000
310
00000700000000000000000707070707070707070707070707070707070707070707070707070707070707070700000000000000070000000000000000000000000000000000000000000000000000000000000000000000000000000000000000000000000000000000000000000000000000000000000000000000000000
310
00000000000000000000000000000000000000000000000000000000000000000000000000000000000000000000000000000000000000000700000000000000000000000000000000000000000000000000000000000000000000000000000000000000000000000007000000000000000000000000000000000000000000
310
00000000000000000000000000000000000000000000000000000000000000000000000000000000000000000000000000000000000000000000000000000000000000000000000000000000000000000000000000000000000000000000000000000000000000000000000000000700000000000000000000000000000000
310
00000000000000000000000000000000000000000000000000000000000007000000000000000000000000000000000000000000000000000000000000000000000000000000000000000000000000000000000000000000000000000000000000000000000000000000000000000000000000000000000000000000000000
310
00000000000000000000000000000000000000000000000000000000000000000000000000070000000000000000000000000000000000000000000000000000000000000000000000000000000000000007070000000000000000000000000000000000000000000000000000000000000000000000000000000000000000
310
00000000000000000000000000000000000000000000000000000000000000000000000000000000000000000000000000000000000000000000000000000000000000000000000000000000000000000000000000000000000000070700000000000000000000000000000000000000000000000000000000000000000000
310
00000000000007000000000000000000000000000000000000000000000000000000000000000000000000000000000000000000000000000000000000000000000000000000000000000000000000000000000000000000000000000000000000000000000000000000000000000000000000000000000000000000000000
310
00000000000000000000000000000000000000070700000000000000000000000000000000000000000000000000000000000000000000000007070000000000000000000000000000000000000000000000000000000000000000000000000000000000000000000000000000000000000000000000000000000000000000
310
00000000000000000000000000000000000000000000000000000000000000000000000000000000000000000000000000000000000000000000000000000000000000000000000000000707070707070707070707070707070707070707070707070707070707070707070707070000000000000000000000000000000000
310
00000000000000000000000000000000000000000000000000000000000000000000000000000000000000000000000000000000000000000000000000000000000000000000000000000000000000000000000000000000000000000000000000000000000000000000000000000000000000000000000000000000000000
310
000000000000000000000000000000000000000000000000000000000000000000000000000000000000000000000000000000000000000000000000000000000000000000000000000000000000000000000000000000000000000000000000000000000000000000000000
  0
ENDSEC
  0
EOF
