  0
SECTION
  2
HEADER
  9
$ACADVER
  1
AC1015
  9
$ACADMAINTVER
 70
     6
  9
$DWGCODEPAGE
  3
ANSI_1252
  9
$INSBASE
 10
0.0
 20
0.0
 30
0.0
  9
$EXTMIN
 10
-18.167811170714
 20
0.0
 30
0.0
  9
$EXTMAX
 10
262.442
 20
237.588283898655
 30
0.0
  9
$LIMMIN
 10
0.0
 20
0.0
  9
$LIMMAX
 10
12.0
 20
9.0
  9
$ORTHOMODE
 70
     0
  9
$REGENMODE
 70
     1
  9
$FILLMODE
 70
     1
  9
$QTEXTMODE
 70
     0
  9
$MIRRTEXT
 70
     1
  9
$LTSCALE
 40
1.0
  9
$ATTMODE
 70
     1
  9
$TEXTSIZE
 40
0.2
  9
$TRACEWID
 40
0.05
  9
$TEXTSTYLE
  7
Standard
  9
$CLAYER
  8
0
  9
$CELTYPE
  6
Continuous
  9
$CECOLOR
 62
   256
  9
$CELTSCALE
 40
1.0
  9
$DISPSILH
 70
     0
  9
$DIMSCALE
 40
1.0
  9
$DIMASZ
 40
0.18
  9
$DIMEXO
 40
0.0625
  9
$DIMDLI
 40
0.38
  9
$DIMRND
 40
0.0
  9
$DIMDLE
 40
0.0
  9
$DIMEXE
 40
0.18
  9
$DIMTP
 40
0.0
  9
$DIMTM
 40
0.0
  9
$DIMTXT
 40
0.18
  9
$DIMCEN
 40
0.09
  9
$DIMTSZ
 40
0.0
  9
$DIMTOL
 70
     0
  9
$DIMLIM
 70
     0
  9
$DIMTIH
 70
     1
  9
$DIMTOH
 70
     1
  9
$DIMSE1
 70
     0
  9
$DIMSE2
 70
     0
  9
$DIMTAD
 70
     0
  9
$DIMZIN
 70
     0
  9
$DIMBLK
  1

  9
$DIMASO
 70
     1
  9
$DIMSHO
 70
     1
  9
$DIMPOST
  1

  9
$DIMAPOST
  1

  9
$DIMALT
 70
     0
  9
$DIMALTD
 70
     2
  9
$DIMALTF
 40
25.4
  9
$DIMLFAC
 40
1.0
  9
$DIMTOFL
 70
     0
  9
$DIMTVP
 40
0.0
  9
$DIMTIX
 70
     0
  9
$DIMSOXD
 70
     0
  9
$DIMSAH
 70
     0
  9
$DIMBLK1
  1

  9
$DIMBLK2
  1

  9
$DIMSTYLE
  2
Standard
  9
$DIMCLRD
 70
     0
  9
$DIMCLRE
 70
     0
  9
$DIMCLRT
 70
     0
  9
$DIMTFAC
 40
1.0
  9
$DIMGAP
 40
0.09
  9
$DIMJUST
 70
     0
  9
$DIMSD1
 70
     0
  9
$DIMSD2
 70
     0
  9
$DIMTOLJ
 70
     1
  9
$DIMTZIN
 70
     0
  9
$DIMALTZ
 70
     0
  9
$DIMALTTZ
 70
     0
  9
$DIMUPT
 70
     0
  9
$DIMDEC
 70
     4
  9
$DIMTDEC
 70
     4
  9
$DIMALTU
 70
     2
  9
$DIMALTTD
 70
     2
  9
$DIMTXSTY
  7
Standard
  9
$DIMAUNIT
 70
     0
  9
$DIMADEC
 70
     0
  9
$DIMALTRND
 40
0.0
  9
$DIMAZIN
 70
     0
  9
$DIMDSEP
 70
    46
  9
$DIMATFIT
 70
     3
  9
$DIMFRAC
 70
     0
  9
$DIMLDRBLK
  1

  9
$DIMLUNIT
 70
     2
  9
$DIMLWD
 70
    -2
  9
$DIMLWE
 70
    -2
  9
$DIMTMOVE
 70
     0
  9
$LUNITS
 70
     2
  9
$LUPREC
 70
     4
  9
$SKETCHINC
 40
0.1
  9
$FILLETRAD
 40
0.0
  9
$AUNITS
 70
     0
  9
$AUPREC
 70
     0
  9
$MENU
  1
.
  9
$ELEVATION
 40
0.0
  9
$PELEVATION
 40
0.0
  9
$THICKNESS
 40
0.0
  9
$LIMCHECK
 70
     0
  9
$CHAMFERA
 40
0.0
  9
$CHAMFERB
 40
0.0
  9
$CHAMFERC
 40
0.0
  9
$CHAMFERD
 40
0.0
  9
$SKPOLY
 70
     0
  9
$TDCREATE
 40
2455654.944186377
  9
$TDUCREATE
 40
2455654.860853044
  9
$TDUPDATE
 40
2456213.890815787
  9
$TDUUPDATE
 40
2456213.807482454
  9
$TDINDWG
 40
0.0114158333
  9
$TDUSRTIMER
 40
0.0114158333
  9
$USRTIMER
 70
     1
  9
$ANGBASE
 50
0.0
  9
$ANGDIR
 70
     0
  9
$PDMODE
 70
     0
  9
$PDSIZE
 40
0.0
  9
$PLINEWID
 40
0.0
  9
$SPLFRAME
 70
     0
  9
$SPLINETYPE
 70
     6
  9
$SPLINESEGS
 70
     8
  9
$HANDSEED
  5
19E5
  9
$SURFTAB1
 70
     6
  9
$SURFTAB2
 70
     6
  9
$SURFTYPE
 70
     6
  9
$SURFU
 70
     6
  9
$SURFV
 70
     6
  9
$UCSBASE
  2

  9
$UCSNAME
  2

  9
$UCSORG
 10
0.0
 20
0.0
 30
0.0
  9
$UCSXDIR
 10
1.0
 20
0.0
 30
0.0
  9
$UCSYDIR
 10
0.0
 20
1.0
 30
0.0
  9
$UCSORTHOREF
  2

  9
$UCSORTHOVIEW
 70
     1
  9
$UCSORGTOP
 10
0.0
 20
0.0
 30
0.0
  9
$UCSORGBOTTOM
 10
0.0
 20
0.0
 30
0.0
  9
$UCSORGLEFT
 10
0.0
 20
0.0
 30
0.0
  9
$UCSORGRIGHT
 10
0.0
 20
0.0
 30
0.0
  9
$UCSORGFRONT
 10
0.0
 20
0.0
 30
0.0
  9
$UCSORGBACK
 10
0.0
 20
0.0
 30
0.0
  9
$PUCSBASE
  2

  9
$PUCSNAME
  2

  9
$PUCSORG
 10
0.0
 20
0.0
 30
0.0
  9
$PUCSXDIR
 10
1.0
 20
0.0
 30
0.0
  9
$PUCSYDIR
 10
0.0
 20
1.0
 30
0.0
  9
$PUCSORTHOREF
  2

  9
$PUCSORTHOVIEW
 70
     0
  9
$PUCSORGTOP
 10
0.0
 20
0.0
 30
0.0
  9
$PUCSORGBOTTOM
 10
0.0
 20
0.0
 30
0.0
  9
$PUCSORGLEFT
 10
0.0
 20
0.0
 30
0.0
  9
$PUCSORGRIGHT
 10
0.0
 20
0.0
 30
0.0
  9
$PUCSORGFRONT
 10
0.0
 20
0.0
 30
0.0
  9
$PUCSORGBACK
 10
0.0
 20
0.0
 30
0.0
  9
$USERI1
 70
     0
  9
$USERI2
 70
     0
  9
$USERI3
 70
     0
  9
$USERI4
 70
     0
  9
$USERI5
 70
     0
  9
$USERR1
 40
0.0
  9
$USERR2
 40
0.0
  9
$USERR3
 40
0.0
  9
$USERR4
 40
0.0
  9
$USERR5
 40
0.0
  9
$WORLDVIEW
 70
     1
  9
$SHADEDGE
 70
     3
  9
$SHADEDIF
 70
    70
  9
$TILEMODE
 70
     1
  9
$MAXACTVP
 70
    64
  9
$PINSBASE
 10
0.0
 20
0.0
 30
0.0
  9
$PLIMCHECK
 70
     0
  9
$PEXTMIN
 10
1.000000000000E+20
 20
1.000000000000E+20
 30
1.000000000000E+20
  9
$PEXTMAX
 10
-1.000000000000E+20
 20
-1.000000000000E+20
 30
-1.000000000000E+20
  9
$PLIMMIN
 10
0.0
 20
0.0
  9
$PLIMMAX
 10
12.0
 20
9.0
  9
$UNITMODE
 70
     0
  9
$VISRETAIN
 70
     1
  9
$PLINEGEN
 70
     0
  9
$PSLTSCALE
 70
     1
  9
$TREEDEPTH
 70
  3020
  9
$CMLSTYLE
  2
Standard
  9
$CMLJUST
 70
     0
  9
$CMLSCALE
 40
1.0
  9
$PROXYGRAPHICS
 70
     1
  9
$MEASUREMENT
 70
     0
  9
$CELWEIGHT
370
    -1
  9
$ENDCAPS
280
     0
  9
$JOINSTYLE
280
     0
  9
$LWDISPLAY
290
     0
  9
$INSUNITS
 70
     0
  9
$HYPERLINKBASE
  1

  9
$STYLESHEET
  1

  9
$XEDIT
290
     1
  9
$CEPSNTYPE
380
     0
  9
$PSTYLEMODE
290
     1
  9
$FINGERPRINTGUID
  2
{9450663A-5183-4DC5-A0CD-7FAF52C88982}
  9
$VERSIONGUID
  2
{69400C27-FDD4-4F7B-8BF9-9588D5179BD6}
  9
$EXTNAMES
290
     1
  9
$PSVPSCALE
 40
0.0
  9
$OLESTARTUP
290
     0
  0
ENDSEC
  0
SECTION
  2
CLASSES
  0
CLASS
  1
ACDBDICTIONARYWDFLT
  2
AcDbDictionaryWithDefault
  3
ObjectDBX Classes
 90
        0
280
     0
281
     0
  0
CLASS
  1
ACDBPLACEHOLDER
  2
AcDbPlaceHolder
  3
ObjectDBX Classes
 90
        0
280
     0
281
     0
  0
CLASS
  1
LAYOUT
  2
AcDbLayout
  3
ObjectDBX Classes
 90
        0
280
     0
281
     0
  0
CLASS
  1
DICTIONARYVAR
  2
AcDbDictionaryVar
  3
ObjectDBX Classes
 90
        0
280
     0
281
     0
  0
CLASS
  1
SCALE
  2
AcDbScale
  3
ObjectDBX Classes
 90
     1153
280
     0
281
     0
  0
ENDSEC
  0
SECTION
  2
TABLES
  0
TABLE
  2
VPORT
  5
8
330
0
100
AcDbSymbolTable
 70
     1
  0
VPORT
  5
6CB
330
8
100
AcDbSymbolTableRecord
100
AcDbViewportTableRecord
  2
*Active
 70
     0
 10
0.0
 20
0.0
 11
1.0
 21
1.0
 12
122.137094414643
 22
118.794141949328
 13
0.0
 23
0.0
 14
1.0
 24
1.0
 15
0.0
 25
0.0
 16
0.0
 26
0.0
 36
1.0
 17
0.0
 27
0.0
 37
0.0
 40
242.340049576629
 41
1.863448275862
 42
50.0
 43
0.0
 44
0.0
 50
0.0
 51
0.0
 71
    16
 72
   100
 73
     1
 74
     3
 75
     0
 76
     0
 77
     0
 78
     0
281
     0
 65
     1
110
0.0
120
0.0
130
0.0
111
1.0
121
0.0
131
0.0
112
0.0
122
1.0
132
0.0
 79
     1
146
0.0
  0
ENDTAB
  0
TABLE
  2
LTYPE
  5
5
330
0
100
AcDbSymbolTable
 70
     1
  0
LTYPE
  5
13
330
5
100
AcDbSymbolTableRecord
100
AcDbLinetypeTableRecord
  2
ByBlock
 70
     0
  3

 72
    65
 73
     0
 40
0.0
  0
LTYPE
  5
14
330
5
100
AcDbSymbolTableRecord
100
AcDbLinetypeTableRecord
  2
ByLayer
 70
     0
  3

 72
    65
 73
     0
 40
0.0
  0
LTYPE
  5
15
330
5
100
AcDbSymbolTableRecord
100
AcDbLinetypeTableRecord
  2
Continuous
 70
     0
  3
Solid line
 72
    65
 73
     0
 40
0.0
  0
ENDTAB
  0
TABLE
  2
LAYER
  5
2
330
0
100
AcDbSymbolTable
 70
     1
  0
LAYER
  5
10
330
2
100
AcDbSymbolTableRecord
100
AcDbLayerTableRecord
  2
0
 70
     0
 62
     7
  6
Continuous
370
    -3
390
F
  0
ENDTAB
  0
TABLE
  2
STYLE
  5
3
330
0
100
AcDbSymbolTable
 70
     1
  0
STYLE
  5
11
330
3
100
AcDbSymbolTableRecord
100
AcDbTextStyleTableRecord
  2
Standard
 70
     0
 40
0.0
 41
1.0
 50
0.0
 71
     0
 42
0.2
  3
txt
  4

  0
ENDTAB
  0
TABLE
  2
VIEW
  5
6
330
0
100
AcDbSymbolTable
 70
     0
  0
ENDTAB
  0
TABLE
  2
UCS
  5
7
330
0
100
AcDbSymbolTable
 70
     0
  0
ENDTAB
  0
TABLE
  2
APPID
  5
9
330
0
100
AcDbSymbolTable
 70
     1
  0
APPID
  5
12
330
9
100
AcDbSymbolTableRecord
100
AcDbRegAppTableRecord
  2
ACAD
 70
     0
  0
ENDTAB
  0
TABLE
  2
DIMSTYLE
  5
A
330
0
100
AcDbSymbolTable
 70
     1
100
AcDbDimStyleTable
  0
DIMSTYLE
105
6BA
330
A
100
AcDbSymbolTableRecord
100
AcDbDimStyleTableRecord
  2
Standard
 70
     0
340
11
  0
ENDTAB
  0
TABLE
  2
BLOCK_RECORD
  5
1
330
0
100
AcDbSymbolTable
 70
     1
  0
BLOCK_RECORD
  5
1E
330
1
100
AcDbSymbolTableRecord
100
AcDbBlockTableRecord
  2
*Model_Space
340
21
  0
BLOCK_RECORD
  5
1A
330
1
100
AcDbSymbolTableRecord
100
AcDbBlockTableRecord
  2
*Paper_Space
340
1D
  0
ENDTAB
  0
ENDSEC
  0
SECTION
  2
BLOCKS
  0
BLOCK
  5
1F
330
1E
100
AcDbEntity
  8
0
100
AcDbBlockBegin
  2
*Model_Space
 70
     0
 10
0.0
 20
0.0
 30
0.0
  3
*Model_Space
  1
*Model_Space
  0
ENDBLK
  5
20
330
1E
100
AcDbEntity
  8
0
100
AcDbBlockEnd
  0
BLOCK
  5
1B
330
1A
100
AcDbEntity
 67
     1
  8
0
100
AcDbBlockBegin
  2
*Paper_Space
 70
     0
 10
0.0
 20
0.0
 30
0.0
  3
*Paper_Space
  1
*Paper_Space
  0
ENDBLK
  5
1C
330
1A
100
AcDbEntity
 67
     1
  8
0
100
AcDbBlockEnd
  0
ENDSEC
  0
SECTION
  2
ENTITIES
  0
LINE
  5
22
330
1E
100
AcDbEntity
  8
0
100
AcDbLine
 10
31.2541
 20
101.564
 30
0.0
 11
31.4157
 21
101.477
 31
0.0
  0
LINE
  5
23
330
1E
100
AcDbEntity
  8
0
100
AcDbLine
 10
31.4157
 20
101.477
 30
0.0
 11
31.4848
 21
101.44
 31
0.0
  0
LINE
  5
28
330
1E
100
AcDbEntity
  8
0
100
AcDbLine
 10
31.6887
 20
101.392
 30
0.0
 11
31.89
 21
101.453
 31
0.0
  0
LINE
  5
29
330
1E
100
AcDbEntity
  8
0
100
AcDbLine
 10
31.4848
 20
101.44
 30
0.0
 11
31.6887
 21
101.392
 31
0.0
  0
LINE
  5
32
330
1E
100
AcDbEntity
  8
0
100
AcDbLine
 10
32.0276
 20
101.611
 30
0.0
 11
33.236118676497
 21
103.856517504956
 31
0.0
  0
LINE
  5
36
330
1E
100
AcDbEntity
  8
0
100
AcDbLine
 10
35.4369
 20
102.282
 30
0.0
 11
37.8698
 21
100.81
 31
0.0
  0
LINE
  5
45
330
1E
100
AcDbEntity
  8
0
100
AcDbLine
 10
33.6276
 20
103.582
 30
0.0
 11
34.5015
 21
102.958
 31
0.0
  0
LINE
  5
46
330
1E
100
AcDbEntity
  8
0
100
AcDbLine
 10
34.5015
 20
102.958
 30
0.0
 11
35.2002
 21
102.453
 31
0.0
  0
LINE
  5
48
330
1E
100
AcDbEntity
  8
0
100
AcDbLine
 10
35.2002
 20
102.453
 30
0.0
 11
35.4369
 21
102.282
 31
0.0
  0
LINE
  5
4A
330
1E
100
AcDbEntity
  8
0
100
AcDbLine
 10
38.3409
 20
100.552
 30
0.0
 11
38.5662
 21
100.475
 31
0.0
  0
LINE
  5
4B
330
1E
100
AcDbEntity
  8
0
100
AcDbLine
 10
38.8894
 20
100.457
 30
0.0
 11
39.1921
 21
100.567
 31
0.0
  0
LINE
  5
4C
330
1E
100
AcDbEntity
  8
0
100
AcDbLine
 10
39.1921
 20
100.567
 30
0.0
 11
39.3832
 21
100.704
 31
0.0
  0
LINE
  5
4F
330
1E
100
AcDbEntity
  8
0
100
AcDbLine
 10
38.5662
 20
100.475
 30
0.0
 11
38.8894
 21
100.457
 31
0.0
  0
LINE
  5
53
330
1E
100
AcDbEntity
  8
0
100
AcDbLine
 10
39.3832
 20
100.704
 30
0.0
 11
39.7497
 21
101.082
 31
0.0
  0
LINE
  5
59
330
1E
100
AcDbEntity
  8
0
100
AcDbLine
 10
39.7497
 20
101.082
 30
0.0
 11
41.9322
 21
103.41
 31
0.0
  0
LINE
  5
5D
330
1E
100
AcDbEntity
  8
0
100
AcDbLine
 10
41.9322
 20
103.41
 30
0.0
 11
44.117
 21
105.464
 31
0.0
  0
LINE
  5
60
330
1E
100
AcDbEntity
  8
0
100
AcDbLine
 10
37.8698
 20
100.81
 30
0.0
 11
38.3409
 21
100.552
 31
0.0
  0
LINE
  5
73
330
1E
100
AcDbEntity
  8
0
100
AcDbLine
 10
32.4953
 20
104.376
 30
0.0
 11
33.6276
 21
103.582
 31
0.0
  0
LINE
  5
74
330
1E
100
AcDbEntity
  8
0
100
AcDbLine
 10
31.131
 20
105.314
 30
0.0
 11
32.4953
 21
104.376
 31
0.0
  0
LINE
  5
9D
330
1E
100
AcDbEntity
  8
0
100
AcDbLine
 10
29.6573
 20
106.303
 30
0.0
 11
31.131
 21
105.314
 31
0.0
  0
LINE
  5
9E
330
1E
100
AcDbEntity
  8
0
100
AcDbLine
 10
28.0335
 20
107.368
 30
0.0
 11
29.6573
 21
106.303
 31
0.0
  0
LINE
  5
B6
330
1E
100
AcDbEntity
  8
0
100
AcDbLine
 10
10.84971
 20
112.776
 30
0.0
 11
10.90927
 21
112.574
 31
0.0
  0
LINE
  5
B7
330
1E
100
AcDbEntity
  8
0
100
AcDbLine
 10
10.84971
 20
112.776
 30
0.0
 11
10.89946
 21
112.981
 31
0.0
  0
LINE
  5
CD
330
1E
100
AcDbEntity
  8
0
100
AcDbLine
 10
10.90927
 20
112.574
 30
0.0
 11
11.06134
 21
112.43
 31
0.0
  0
LINE
  5
D0
330
1E
100
AcDbEntity
  8
0
100
AcDbLine
 10
10.89946
 20
112.981
 30
0.0
 11
12.625364594239
 21
116.187825797702
 31
0.0
  0
LINE
  5
D1
330
1E
100
AcDbEntity
  8
0
100
AcDbLine
 10
20.8372
 20
111.762
 30
0.0
 11
22.2005
 21
110.968
 31
0.0
  0
LINE
  5
D2
330
1E
100
AcDbEntity
  8
0
100
AcDbLine
 10
22.2005
 20
110.968
 30
0.0
 11
23.574
 21
110.15
 31
0.0
  0
LINE
  5
D3
330
1E
100
AcDbEntity
  8
0
100
AcDbLine
 10
18.9107
 20
112.855
 30
0.0
 11
20.8372
 21
111.762
 31
0.0
  0
LINE
  5
D4
330
1E
100
AcDbEntity
  8
0
100
AcDbLine
 10
23.574
 20
110.15
 30
0.0
 11
24.9474
 21
109.315
 31
0.0
  0
LINE
  5
D5
330
1E
100
AcDbEntity
  8
0
100
AcDbLine
 10
24.9474
 20
109.315
 30
0.0
 11
26.2925
 21
108.478
 31
0.0
  0
LINE
  5
D6
330
1E
100
AcDbEntity
  8
0
100
AcDbLine
 10
26.2925
 20
108.478
 30
0.0
 11
28.0335
 21
107.368
 31
0.0
  0
LINE
  5
D7
330
1E
100
AcDbEntity
  8
0
100
AcDbLine
 10
46.992038642185
 20
107.676516949997
 30
0.0
 11
50.4075
 21
109.679
 31
0.0
  0
LINE
  5
D8
330
1E
100
AcDbEntity
  8
0
100
AcDbLine
 10
44.117
 20
105.464
 30
0.0
 11
46.992038642185
 21
107.676516949997
 31
0.0
  0
LINE
  5
DB
330
1E
100
AcDbEntity
  8
0
100
AcDbLine
 10
53.9852
 20
111.125
 30
0.0
 11
56.69208002856
 21
111.870088803865
 31
0.0
  0
LINE
  5
E3
330
1E
100
AcDbEntity
  8
0
100
AcDbLine
 10
60.1401
 20
112.523
 30
0.0
 11
63.474910884344
 21
112.852546003248
 31
0.0
  0
LINE
  5
E8
330
1E
100
AcDbEntity
  8
0
100
AcDbLine
 10
68.5395
 20
113.152
 30
0.0
 11
77.0501
 21
113.221
 31
0.0
  0
LINE
  5
EB
330
1E
100
AcDbEntity
  8
0
100
AcDbLine
 10
50.4075
 20
109.679
 30
0.0
 11
53.9852
 21
111.125
 31
0.0
  0
LINE
  5
EC
330
1E
100
AcDbEntity
  8
0
100
AcDbLine
 10
33.241544062153
 20
103.852713074848
 30
0.0
 11
33.6276
 21
103.582
 31
0.0
  0
LINE
  5
F6
330
1E
100
AcDbEntity
  8
0
100
AcDbLine
 10
77.0501
 20
113.221
 30
0.0
 11
81.0
 21
113.221
 31
0.0
  0
LINE
  5
F8
330
1E
100
AcDbEntity
  8
0
100
AcDbLine
 10
7.29131
 20
119.341
 30
0.0
 11
7.79655
 21
119.004
 31
0.0
  0
LINE
  5
F9
330
1E
100
AcDbEntity
  8
0
100
AcDbLine
 10
7.0
 20
119.878
 30
0.0
 11
7.02845
 21
119.67
 31
0.0
  0
LINE
  5
FA
330
1E
100
AcDbEntity
  8
0
100
AcDbLine
 10
7.0
 20
119.878
 30
0.0
 11
7.08876
 21
120.091
 31
0.0
  0
LINE
  5
106
330
1E
100
AcDbEntity
  8
0
100
AcDbLine
 10
7.08876
 20
120.091
 30
0.0
 11
7.21735
 21
120.263
 31
0.0
  0
LINE
  5
109
330
1E
100
AcDbEntity
  8
0
100
AcDbLine
 10
7.61335
 20
120.61
 30
0.0
 11
7.66797
 21
120.658
 31
0.0
  0
LINE
  5
10E
330
1E
100
AcDbEntity
  8
0
100
AcDbLine
 10
7.21735
 20
120.263
 30
0.0
 11
7.61335
 21
120.61
 31
0.0
  0
LINE
  5
112
330
1E
100
AcDbEntity
  8
0
100
AcDbLine
 10
7.02845
 20
119.67
 30
0.0
 11
7.11607
 21
119.514
 31
0.0
  0
LINE
  5
114
330
1E
100
AcDbEntity
  8
0
100
AcDbLine
 10
7.11607
 20
119.514
 30
0.0
 11
7.29131
 21
119.341
 31
0.0
  0
LINE
  5
118
330
1E
100
AcDbEntity
  8
0
100
AcDbLine
 10
7.79655
 20
119.004
 30
0.0
 11
11.63138
 21
116.684
 31
0.0
  0
LINE
  5
11C
330
1E
100
AcDbEntity
  8
0
100
AcDbLine
 10
7.66797
 20
120.658
 30
0.0
 11
8.28586
 21
121.129
 31
0.0
  0
LINE
  5
123
330
1E
100
AcDbEntity
  8
0
100
AcDbLine
 10
8.28586
 20
121.129
 30
0.0
 11
10.13614
 21
122.537
 31
0.0
  0
LINE
  5
128
330
1E
100
AcDbEntity
  8
0
100
AcDbLine
 10
17.1094
 20
113.845
 30
0.0
 11
18.9107
 21
112.855
 31
0.0
  0
LINE
  5
129
330
1E
100
AcDbEntity
  8
0
100
AcDbLine
 10
13.171
 20
115.913
 30
0.0
 11
14.21562
 21
115.376
 31
0.0
  0
LINE
  5
12A
330
1E
100
AcDbEntity
  8
0
100
AcDbLine
 10
14.21562
 20
115.376
 30
0.0
 11
15.4901
 21
114.712
 31
0.0
  0
LINE
  5
12B
330
1E
100
AcDbEntity
  8
0
100
AcDbLine
 10
15.4901
 20
114.712
 30
0.0
 11
17.1094
 21
113.845
 31
0.0
  0
LINE
  5
12C
330
1E
100
AcDbEntity
  8
0
100
AcDbLine
 10
12.32324
 20
116.34
 30
0.0
 11
12.625364594239
 21
116.187825797702
 31
0.0
  0
LINE
  5
12D
330
1E
100
AcDbEntity
  8
0
100
AcDbLine
 10
12.32324
 20
116.34
 30
0.0
 11
13.171
 21
115.913
 31
0.0
  0
LINE
  5
134
330
1E
100
AcDbEntity
  8
0
100
AcDbLine
 10
11.63138
 20
116.684
 30
0.0
 11
11.80435
 21
116.598
 31
0.0
  0
LINE
  5
136
330
1E
100
AcDbEntity
  8
0
100
AcDbLine
 10
11.80435
 20
116.598
 30
0.0
 11
12.32324
 21
116.34
 31
0.0
  0
LINE
  5
13F
330
1E
100
AcDbEntity
  8
0
100
AcDbLine
 10
10.13614
 20
122.537
 30
0.0
 11
12.709
 21
124.298
 31
0.0
  0
LINE
  5
143
330
1E
100
AcDbEntity
  8
0
100
AcDbLine
 10
81.0
 20
113.221
 30
0.0
 11
120.082694599151
 21
113.203543576694
 31
0.0
  0
LINE
  5
144
330
1E
100
AcDbEntity
  8
0
100
AcDbLine
 10
103.413788829286
 20
140.087283898655
 30
0.0
 11
109.051788829286
 21
132.662283898655
 31
0.0
  0
LINE
  5
145
330
1E
100
AcDbEntity
  8
0
100
AcDbLine
 10
-15.216711170714
 20
228.861283898655
 30
0.0
 11
-12.980511170714
 21
226.137283898655
 31
0.0
  0
LINE
  5
146
330
1E
100
AcDbEntity
  8
0
100
AcDbLine
 10
-12.980511170714
 20
226.137283898655
 30
0.0
 11
-9.807141170714
 21
222.803283898655
 31
0.0
  0
LINE
  5
15A
330
1E
100
AcDbEntity
  8
0
100
AcDbLine
 10
-18.167811170714
 20
234.593283898655
 30
0.0
 11
-17.161311170714
 21
232.032283898655
 31
0.0
  0
LINE
  5
15B
330
1E
100
AcDbEntity
  8
0
100
AcDbLine
 10
-18.167811170714
 20
234.593283898655
 30
0.0
 11
-17.944411170714
 21
236.992283898655
 31
0.0
  0
LINE
  5
15C
330
1E
100
AcDbEntity
  8
0
100
AcDbLine
 10
-17.161311170714
 20
232.032283898655
 30
0.0
 11
-15.216711170714
 21
228.861283898655
 31
0.0
  0
LINE
  5
15D
330
1E
100
AcDbEntity
  8
0
100
AcDbLine
 10
-6.984281170714
 20
218.253283898655
 30
0.0
 11
-6.226871170714
 21
217.513283898655
 31
0.0
  0
LINE
  5
15E
330
1E
100
AcDbEntity
  8
0
100
AcDbLine
 10
-7.151971170714
 20
218.780283898655
 30
0.0
 11
-6.984281170714
 21
218.253283898655
 31
0.0
  0
LINE
  5
15F
330
1E
100
AcDbEntity
  8
0
100
AcDbLine
 10
-7.151971170714
 20
218.780283898655
 30
0.0
 11
-6.457385123883
 21
219.705523811299
 31
0.0
  0
LINE
  5
160
330
1E
100
AcDbEntity
  8
0
100
AcDbLine
 10
-7.151971170714
 20
218.780283898655
 30
0.0
 11
-6.599981170714
 21
218.765283898655
 31
0.0
  0
LINE
  5
161
330
1E
100
AcDbEntity
  8
0
100
AcDbLine
 10
-7.151971170714
 20
218.780283898655
 30
0.0
 11
-6.542979945802
 21
219.591505186945
 31
0.0
  0
LINE
  5
168
330
1E
100
AcDbEntity
  8
0
100
AcDbLine
 10
-9.807141170714
 20
222.803283898655
 30
0.0
 11
-6.542979945802
 21
219.591505186945
 31
0.0
  0
LINE
  5
16F
330
1E
100
AcDbEntity
  8
0
100
AcDbLine
 10
-17.944411170714
 20
236.992283898655
 30
0.0
 11
-17.100011170714
 21
237.588283898655
 31
0.0
  0
LINE
  5
174
330
1E
100
AcDbEntity
  8
0
100
AcDbLine
 10
-17.100011170714
 20
237.588283898655
 30
0.0
 11
-13.656611170714
 21
236.567283898655
 31
0.0
  0
LINE
  5
176
330
1E
100
AcDbEntity
  8
0
100
AcDbLine
 10
-13.656611170714
 20
236.567283898655
 30
0.0
 11
-6.682741170714
 21
233.255283898655
 31
0.0
  0
LINE
  5
177
330
1E
100
AcDbEntity
  8
0
100
AcDbLine
 10
-4.752741170714
 20
216.978283898655
 30
0.0
 11
-4.277878291069
 21
217.611107750367
 31
0.0
  0
LINE
  5
178
330
1E
100
AcDbEntity
  8
0
100
AcDbLine
 10
-5.304741170714
 20
216.993283898655
 30
0.0
 11
-4.752741170714
 21
216.978283898655
 31
0.0
  0
LINE
  5
179
330
1E
100
AcDbEntity
  8
0
100
AcDbLine
 10
12.709
 20
124.298
 30
0.0
 11
15.37859
 21
125.926
 31
0.0
  0
LINE
  5
17A
330
1E
100
AcDbEntity
  8
0
100
AcDbLine
 10
-6.264881170714
 20
219.095283898655
 30
0.0
 11
-5.527011170714
 21
218.303283898655
 31
0.0
  0
LINE
  5
17B
330
1E
100
AcDbEntity
  8
0
100
AcDbLine
 10
-6.309481170714
 20
219.852283898655
 30
0.0
 11
-6.264881170714
 21
219.095283898655
 31
0.0
  0
LINE
  5
17C
330
1E
100
AcDbEntity
  8
0
100
AcDbLine
 10
-6.309481170714
 20
219.852283898655
 30
0.0
 11
-6.028634749864
 21
220.285077247335
 31
0.0
  0
LINE
  5
17D
330
1E
100
AcDbEntity
  8
0
100
AcDbLine
 10
-6.309481170714
 20
219.852283898655
 30
0.0
 11
-5.599301170714
 21
220.120283898655
 31
0.0
  0
LINE
  5
17E
330
1E
100
AcDbEntity
  8
0
100
AcDbLine
 10
-6.599981170714
 20
218.765283898655
 30
0.0
 11
-6.271249090819
 21
219.203367206273
 31
0.0
  0
LINE
  5
17F
330
1E
100
AcDbEntity
  8
0
100
AcDbLine
 10
-6.599981170714
 20
218.765283898655
 30
0.0
 11
-5.677851170714
 21
218.245283898655
 31
0.0
  0
LINE
  5
180
330
1E
100
AcDbEntity
  8
0
100
AcDbLine
 10
-6.599981170714
 20
218.765283898655
 30
0.0
 11
-6.271249090819
 21
219.203367206273
 31
0.0
  0
LINE
  5
181
330
1E
100
AcDbEntity
  8
0
100
AcDbLine
 10
-4.503711170714
 20
217.951283898655
 30
0.0
 11
-3.793531170714
 21
218.218283898655
 31
0.0
  0
LINE
  5
182
330
1E
100
AcDbEntity
  8
0
100
AcDbLine
 10
-5.599301170714
 20
220.120283898655
 30
0.0
 11
-4.575901170714
 21
219.768283898655
 31
0.0
  0
LINE
  5
183
330
1E
100
AcDbEntity
  8
0
100
AcDbLine
 10
-5.599301170714
 20
220.120283898655
 30
0.0
 11
-5.391440682201
 21
220.440336397167
 31
0.0
  0
LINE
  5
184
330
1E
100
AcDbEntity
  8
0
100
AcDbLine
 10
-4.575901170714
 20
219.768283898655
 30
0.0
 11
-4.42908086429
 21
219.994372948817
 31
0.0
  0
LINE
  5
185
330
1E
100
AcDbEntity
  8
0
100
AcDbLine
 10
-4.575901170714
 20
219.768283898655
 30
0.0
 11
-3.838131170714
 21
218.976283898655
 31
0.0
  0
LINE
  5
186
330
1E
100
AcDbEntity
  8
0
100
AcDbLine
 10
-5.527011170714
 20
218.303283898655
 30
0.0
 11
-4.503711170714
 21
217.951283898655
 31
0.0
  0
LINE
  5
187
330
1E
100
AcDbEntity
  8
0
100
AcDbLine
 10
-5.677851170714
 20
218.245283898655
 30
0.0
 11
-5.586430375426
 21
218.367062084693
 31
0.0
  0
LINE
  5
188
330
1E
100
AcDbEntity
  8
0
100
AcDbLine
 10
-5.677851170714
 20
218.245283898655
 30
0.0
 11
-4.920531170714
 21
217.505283898655
 31
0.0
  0
LINE
  5
189
330
1E
100
AcDbEntity
  8
0
100
AcDbLine
 10
-4.920531170714
 20
217.505283898655
 30
0.0
 11
-4.752741170714
 21
216.978283898655
 31
0.0
  0
LINE
  5
18A
330
1E
100
AcDbEntity
  8
0
100
AcDbLine
 10
-4.920531170714
 20
217.505283898655
 30
0.0
 11
-4.588161819247
 21
217.948175671457
 31
0.0
  0
LINE
  5
18B
330
1E
100
AcDbEntity
  8
0
100
AcDbLine
 10
-6.226871170714
 20
217.513283898655
 30
0.0
 11
-5.304741170714
 21
216.993283898655
 31
0.0
  0
LINE
  5
18C
330
1E
100
AcDbEntity
  8
0
100
AcDbLine
 10
-4.385084815454
 20
217.468239464388
 30
0.0
 11
-4.106661170714
 21
217.194283898655
 31
0.0
  0
LINE
  5
191
330
1E
100
AcDbEntity
  8
0
100
AcDbLine
 10
-3.838131170714
 20
218.976283898655
 30
0.0
 11
-3.793531170714
 21
218.218283898655
 31
0.0
  0
LINE
  5
192
330
1E
100
AcDbEntity
  8
0
100
AcDbLine
 10
-3.838131170714
 20
218.976283898655
 30
0.0
 11
-3.653390681799
 21
219.260734243378
 31
0.0
  0
LINE
  5
193
330
1E
100
AcDbEntity
  8
0
100
AcDbLine
 10
-3.793531170714
 20
218.218283898655
 30
0.0
 11
-3.683538141961
 21
218.387767552293
 31
0.0
  0
LINE
  5
195
330
1E
100
AcDbEntity
  8
0
100
AcDbLine
 10
18.1392
 20
127.408
 30
0.0
 11
18.5022
 21
127.579
 31
0.0
  0
LINE
  5
197
330
1E
100
AcDbEntity
  8
0
100
AcDbLine
 10
0.585458829286
 20
211.549283898655
 30
0.0
 11
1.343038829286
 21
210.810283898655
 31
0.0
  0
LINE
  5
198
330
1E
100
AcDbEntity
  8
0
100
AcDbLine
 10
0.417668829286
 20
212.075283898655
 30
0.0
 11
0.585458829286
 21
211.549283898655
 31
0.0
  0
LINE
  5
199
330
1E
100
AcDbEntity
  8
0
100
AcDbLine
 10
0.417668829286
 20
212.075283898655
 30
0.0
 11
0.997285835525
 21
212.847640321731
 31
0.0
  0
LINE
  5
19A
330
1E
100
AcDbEntity
  8
0
100
AcDbLine
 10
0.417668829286
 20
212.075283898655
 30
0.0
 11
0.969668829286
 21
212.061283898655
 31
0.0
  0
LINE
  5
19B
330
1E
100
AcDbEntity
  8
0
100
AcDbLine
 10
0.417668829286
 20
212.075283898655
 30
0.0
 11
0.884388756854
 21
212.697201699469
 31
0.0
  0
LINE
  5
19C
330
1E
100
AcDbEntity
  8
0
100
AcDbLine
 10
1.849368829286
 20
213.229283898655
 30
0.0
 11
2.587498829286
 21
212.438283898655
 31
0.0
  0
LINE
  5
19D
330
1E
100
AcDbEntity
  8
0
100
AcDbLine
 10
1.804768829286
 20
213.986283898655
 30
0.0
 11
1.849368829286
 21
213.229283898655
 31
0.0
  0
LINE
  5
19E
330
1E
100
AcDbEntity
  8
0
100
AcDbLine
 10
1.804768829286
 20
213.986283898655
 30
0.0
 11
2.095147388782
 21
214.433388276444
 31
0.0
  0
LINE
  5
19F
330
1E
100
AcDbEntity
  8
0
100
AcDbLine
 10
1.804768829286
 20
213.986283898655
 30
0.0
 11
2.515308829286
 21
214.255283898655
 31
0.0
  0
LINE
  5
1A0
330
1E
100
AcDbEntity
  8
0
100
AcDbLine
 10
0.969668829286
 20
212.061283898655
 30
0.0
 11
1.380929911928
 21
212.609349105545
 31
0.0
  0
LINE
  5
1A1
330
1E
100
AcDbEntity
  8
0
100
AcDbLine
 10
0.969668829286
 20
212.061283898655
 30
0.0
 11
1.891798829286
 21
211.540283898655
 31
0.0
  0
LINE
  5
1A2
330
1E
100
AcDbEntity
  8
0
100
AcDbLine
 10
1.891798829286
 20
211.540283898655
 30
0.0
 11
2.196000448339
 21
211.945641353417
 31
0.0
  0
LINE
  5
1A3
330
1E
100
AcDbEntity
  8
0
100
AcDbLine
 10
1.891798829286
 20
211.540283898655
 30
0.0
 11
2.649208829286
 21
210.800283898655
 31
0.0
  0
LINE
  5
1A4
330
1E
100
AcDbEntity
  8
0
100
AcDbLine
 10
1.343038829286
 20
210.810283898655
 30
0.0
 11
2.264908829286
 21
210.288283898655
 31
0.0
  0
LINE
  5
1AA
330
1E
100
AcDbEntity
  8
0
100
AcDbLine
 10
18.5022
 20
127.579
 30
0.0
 11
20.9795
 21
128.737
 31
0.0
  0
LINE
  5
1AC
330
1E
100
AcDbEntity
  8
0
100
AcDbLine
 10
15.37859
 20
125.926
 30
0.0
 11
18.1392
 21
127.408
 31
0.0
  0
LINE
  5
1AF
330
1E
100
AcDbEntity
  8
0
100
AcDbLine
 10
2.264908829286
 20
210.288283898655
 30
0.0
 11
2.817158829286
 21
210.275283898655
 31
0.0
  0
LINE
  5
1B2
330
1E
100
AcDbEntity
  8
0
100
AcDbLine
 10
1.066598829286
 20
228.222283898655
 30
0.0
 11
4.475888829286
 21
226.009283898655
 31
0.0
  0
LINE
  5
1B5
330
1E
100
AcDbEntity
  8
0
100
AcDbLine
 10
-4.106661170714
 20
217.194283898655
 30
0.0
 11
0.884388756854
 21
212.697201699469
 31
0.0
  0
LINE
  5
1B8
330
1E
100
AcDbEntity
  8
0
100
AcDbLine
 10
-0.478242170714
 20
229.225283898655
 30
0.0
 11
1.066598829286
 21
228.222283898655
 31
0.0
  0
LINE
  5
1BA
330
1E
100
AcDbEntity
  8
0
100
AcDbLine
 10
2.817158829286
 20
210.275283898655
 30
0.0
 11
3.258306774367
 21
210.862925542238
 31
0.0
  0
LINE
  5
1BB
330
1E
100
AcDbEntity
  8
0
100
AcDbLine
 10
20.9795
 20
128.737
 30
0.0
 11
23.5171
 21
129.757
 31
0.0
  0
LINE
  5
1BD
330
1E
100
AcDbEntity
  8
0
100
AcDbLine
 10
2.515308829286
 20
214.255283898655
 30
0.0
 11
3.538348829286
 21
213.902283898655
 31
0.0
  0
LINE
  5
1BE
330
1E
100
AcDbEntity
  8
0
100
AcDbLine
 10
2.515308829286
 20
214.255283898655
 30
0.0
 11
2.764982468644
 21
214.639588051567
 31
0.0
  0
LINE
  5
1BF
330
1E
100
AcDbEntity
  8
0
100
AcDbLine
 10
2.587498829286
 20
212.438283898655
 30
0.0
 11
3.610638829286
 21
212.085283898655
 31
0.0
  0
LINE
  5
1C0
330
1E
100
AcDbEntity
  8
0
100
AcDbLine
 10
2.649208829286
 20
210.800283898655
 30
0.0
 11
2.817158829286
 21
210.275283898655
 31
0.0
  0
LINE
  5
1C1
330
1E
100
AcDbEntity
  8
0
100
AcDbLine
 10
2.649208829286
 20
210.800283898655
 30
0.0
 11
2.981134828681
 21
211.242619700578
 31
0.0
  0
LINE
  5
1C2
330
1E
100
AcDbEntity
  8
0
100
AcDbLine
 10
3.160912756972
 20
210.733189518088
 30
0.0
 11
6.936028829286
 21
207.480283898655
 31
0.0
  0
LINE
  5
1C8
330
1E
100
AcDbEntity
  8
0
100
AcDbLine
 10
8.470958829286
 20
205.137283898655
 30
0.0
 11
9.276788829286
 21
204.450283898655
 31
0.0
  0
LINE
  5
1C9
330
1E
100
AcDbEntity
  8
0
100
AcDbLine
 10
8.267988829286
 20
205.651283898655
 30
0.0
 11
8.470958829286
 21
205.137283898655
 31
0.0
  0
LINE
  5
1CA
330
1E
100
AcDbEntity
  8
0
100
AcDbLine
 10
8.267988829286
 20
205.651283898655
 30
0.0
 11
8.749183165645
 21
206.39211813674
 31
0.0
  0
LINE
  5
1CB
330
1E
100
AcDbEntity
  8
0
100
AcDbLine
 10
8.267988829286
 20
205.651283898655
 30
0.0
 11
8.819638829286
 21
205.674283898655
 31
0.0
  0
LINE
  5
1CC
330
1E
100
AcDbEntity
  8
0
100
AcDbLine
 10
23.8903
 20
129.907
 30
0.0
 11
26.8603
 21
130.915
 31
0.0
  0
LINE
  5
1CD
330
1E
100
AcDbEntity
  8
0
100
AcDbLine
 10
23.5171
 20
129.757
 30
0.0
 11
23.8903
 21
129.907
 31
0.0
  0
LINE
  5
1D3
330
1E
100
AcDbEntity
  8
0
100
AcDbLine
 10
3.538348829286
 20
213.902283898655
 30
0.0
 11
3.874102382511
 21
214.419253484033
 31
0.0
  0
LINE
  5
1D4
330
1E
100
AcDbEntity
  8
0
100
AcDbLine
 10
3.538348829286
 20
213.902283898655
 30
0.0
 11
4.276478829286
 21
213.111283898655
 31
0.0
  0
LINE
  5
1D5
330
1E
100
AcDbEntity
  8
0
100
AcDbLine
 10
4.276478829286
 20
213.111283898655
 30
0.0
 11
4.320818829286
 21
212.352283898655
 31
0.0
  0
LINE
  5
1D6
330
1E
100
AcDbEntity
  8
0
100
AcDbLine
 10
4.276478829286
 20
213.111283898655
 30
0.0
 11
4.526248716037
 21
213.495736198055
 31
0.0
  0
LINE
  5
1D7
330
1E
100
AcDbEntity
  8
0
100
AcDbLine
 10
4.320818829286
 20
212.352283898655
 30
0.0
 11
4.639173696128
 21
212.842823586464
 31
0.0
  0
LINE
  5
1D8
330
1E
100
AcDbEntity
  8
0
100
AcDbLine
 10
3.610638829286
 20
212.085283898655
 30
0.0
 11
4.320818829286
 21
212.352283898655
 31
0.0
  0
LINE
  5
1D9
330
1E
100
AcDbEntity
  8
0
100
AcDbLine
 10
6.936028829286
 20
207.480283898655
 30
0.0
 11
8.616941744479
 21
206.188522697039
 31
0.0
  0
LINE
  5
1DA
330
1E
100
AcDbEntity
  8
0
100
AcDbLine
 10
6.936028829286
 20
207.480283898655
 30
0.0
 11
8.616941744479
 21
206.188522697039
 31
0.0
  0
LINE
  5
1DB
330
1E
100
AcDbEntity
  8
0
100
AcDbLine
 10
3.160912756972
 20
210.733189518088
 30
0.0
 11
6.936028829286
 21
207.480283898655
 31
0.0
  0
LINE
  5
1EC
330
1E
100
AcDbEntity
  8
0
100
AcDbLine
 10
8.819638829286
 20
205.674283898655
 30
0.0
 11
9.315856577219
 21
206.438284615405
 31
0.0
  0
LINE
  5
1ED
330
1E
100
AcDbEntity
  8
0
100
AcDbLine
 10
8.819638829286
 20
205.674283898655
 30
0.0
 11
9.774988829286
 21
205.218283898655
 31
0.0
  0
LINE
  5
1EE
330
1E
100
AcDbEntity
  8
0
100
AcDbLine
 10
9.774988829286
 20
205.218283898655
 30
0.0
 11
10.302945233121
 21
206.031190162563
 31
0.0
  0
LINE
  5
1EF
330
1E
100
AcDbEntity
  8
0
100
AcDbLine
 10
9.774988829286
 20
205.218283898655
 30
0.0
 11
10.580788829286
 21
204.531283898655
 31
0.0
  0
LINE
  5
1F0
330
1E
100
AcDbEntity
  8
0
100
AcDbLine
 10
9.276788829286
 20
204.450283898655
 30
0.0
 11
10.232088829286
 21
203.994283898655
 31
0.0
  0
LINE
  5
1F1
330
1E
100
AcDbEntity
  8
0
100
AcDbLine
 10
10.580788829286
 20
204.531283898655
 30
0.0
 11
10.784088829286
 21
204.018283898655
 31
0.0
  0
LINE
  5
1F2
330
1E
100
AcDbEntity
  8
0
100
AcDbLine
 10
10.580788829286
 20
204.531283898655
 30
0.0
 11
11.032878222417
 21
205.227543391931
 31
0.0
  0
LINE
  5
1F3
330
1E
100
AcDbEntity
  8
0
100
AcDbLine
 10
10.232088829286
 20
203.994283898655
 30
0.0
 11
10.784088829286
 21
204.018283898655
 31
0.0
  0
LINE
  5
1F4
330
1E
100
AcDbEntity
  8
0
100
AcDbLine
 10
10.784088829286
 20
204.018283898655
 30
0.0
 11
11.223465650602
 21
204.694802201434
 31
0.0
  0
LINE
  5
1F5
330
1E
100
AcDbEntity
  8
0
100
AcDbLine
 10
10.739788829286
 20
206.630283898655
 30
0.0
 11
11.763188829286
 21
206.278283898655
 31
0.0
  0
LINE
  5
1F6
330
1E
100
AcDbEntity
  8
0
100
AcDbLine
 10
10.667888829286
 20
208.448283898655
 30
0.0
 11
11.690888829286
 21
208.095283898655
 31
0.0
  0
LINE
  5
1F7
330
1E
100
AcDbEntity
  8
0
100
AcDbLine
 10
10.667888829286
 20
208.448283898655
 30
0.0
 11
11.151689055271
 21
209.192970186648
 31
0.0
  0
LINE
  5
1F8
330
1E
100
AcDbEntity
  8
0
100
AcDbLine
 10
10.001888829286
 20
207.422283898655
 30
0.0
 11
10.739788829286
 21
206.630283898655
 31
0.0
  0
LINE
  5
1F9
330
1E
100
AcDbEntity
  8
0
100
AcDbLine
 10
9.957288829286
 20
208.179283898655
 30
0.0
 11
10.001888829286
 21
207.422283898655
 31
0.0
  0
LINE
  5
1FA
330
1E
100
AcDbEntity
  8
0
100
AcDbLine
 10
9.957288829286
 20
208.179283898655
 30
0.0
 11
10.383906264107
 21
208.836618584884
 31
0.0
  0
LINE
  5
1FB
330
1E
100
AcDbEntity
  8
0
100
AcDbLine
 10
9.957288829286
 20
208.179283898655
 30
0.0
 11
10.667888829286
 21
208.448283898655
 31
0.0
  0
LINE
  5
1FC
330
1E
100
AcDbEntity
  8
0
100
AcDbLine
 10
26.8603
 20
130.915
 30
0.0
 11
29.8747
 21
131.76
 31
0.0
  0
LINE
  5
1FD
330
1E
100
AcDbEntity
  8
0
100
AcDbLine
 10
29.8747
 20
131.76
 30
0.0
 11
33.9405
 21
132.649
 31
0.0
  0
LINE
  5
20D
330
1E
100
AcDbEntity
  8
0
100
AcDbLine
 10
46.9311
 20
133.93
 30
0.0
 11
53.5983
 21
133.999
 31
0.0
  0
LINE
  5
20E
330
1E
100
AcDbEntity
  8
0
100
AcDbLine
 10
43.4149
 20
133.775
 30
0.0
 11
46.9311
 21
133.93
 31
0.0
  0
LINE
  5
20F
330
1E
100
AcDbEntity
  8
0
100
AcDbLine
 10
38.0211
 20
133.28
 30
0.0
 11
43.4149
 21
133.775
 31
0.0
  0
LINE
  5
211
330
1E
100
AcDbEntity
  8
0
100
AcDbLine
 10
33.9405
 20
132.649
 30
0.0
 11
38.0211
 21
133.28
 31
0.0
  0
LINE
  5
213
330
1E
100
AcDbEntity
  8
0
100
AcDbLine
 10
53.5983
 20
133.999
 30
0.0
 11
80.9655
 21
133.999
 31
0.0
  0
LINE
  5
219
330
1E
100
AcDbEntity
  8
0
100
AcDbLine
 10
80.9655
 20
133.999
 30
0.0
 11
107.826957927154
 21
133.948730272752
 31
0.0
  0
LINE
  5
21A
330
1E
100
AcDbEntity
  8
0
100
AcDbLine
 10
85.163588829286
 20
157.550283898655
 30
0.0
 11
90.394888829286
 21
153.374283898655
 31
0.0
  0
LINE
  5
21B
330
1E
100
AcDbEntity
  8
0
100
AcDbLine
 10
67.056788829286
 20
166.928283898655
 30
0.0
 11
68.012088829286
 21
166.472283898655
 31
0.0
  0
LINE
  5
21C
330
1E
100
AcDbEntity
  8
0
100
AcDbLine
 10
68.360688829286
 20
167.008283898655
 30
0.0
 11
68.856825896961
 21
167.772822986547
 31
0.0
  0
LINE
  5
21D
330
1E
100
AcDbEntity
  8
0
100
AcDbLine
 10
68.360688829286
 20
167.008283898655
 30
0.0
 11
68.563888829286
 21
166.495283898655
 31
0.0
  0
LINE
  5
21E
330
1E
100
AcDbEntity
  8
0
100
AcDbLine
 10
68.563888829286
 20
166.495283898655
 30
0.0
 11
69.049136552632
 21
167.241926748817
 31
0.0
  0
LINE
  5
21F
330
1E
100
AcDbEntity
  8
0
100
AcDbLine
 10
68.012088829286
 20
166.472283898655
 30
0.0
 11
68.563888829286
 21
166.495283898655
 31
0.0
  0
LINE
  5
220
330
1E
100
AcDbEntity
  8
0
100
AcDbLine
 10
60.176688829286
 20
171.941283898655
 30
0.0
 11
60.616973102451
 21
172.619166419628
 31
0.0
  0
LINE
  5
221
330
1E
100
AcDbEntity
  8
0
100
AcDbLine
 10
59.624888829286
 20
171.918283898655
 30
0.0
 11
60.176688829286
 21
171.941283898655
 31
0.0
  0
LINE
  5
222
330
1E
100
AcDbEntity
  8
0
100
AcDbLine
 10
41.439488829286
 20
184.491283898655
 30
0.0
 11
41.909630203653
 21
185.214892008585
 31
0.0
  0
LINE
  5
223
330
1E
100
AcDbEntity
  8
0
100
AcDbLine
 10
41.439488829286
 20
184.491283898655
 30
0.0
 11
42.394788829286
 21
184.034283898655
 31
0.0
  0
LINE
  5
224
330
1E
100
AcDbEntity
  8
0
100
AcDbLine
 10
40.887488829286
 20
184.467283898655
 30
0.0
 11
41.090588829286
 21
183.954283898655
 31
0.0
  0
LINE
  5
225
330
1E
100
AcDbEntity
  8
0
100
AcDbLine
 10
40.887488829286
 20
184.467283898655
 30
0.0
 11
41.327971625994
 21
185.145472075878
 31
0.0
  0
LINE
  5
226
330
1E
100
AcDbEntity
  8
0
100
AcDbLine
 10
40.887488829286
 20
184.467283898655
 30
0.0
 11
41.439488829286
 21
184.491283898655
 31
0.0
  0
LINE
  5
227
330
1E
100
AcDbEntity
  8
0
100
AcDbLine
 10
41.090588829286
 20
183.954283898655
 30
0.0
 11
41.896288829286
 21
183.267283898655
 31
0.0
  0
LINE
  5
228
330
1E
100
AcDbEntity
  8
0
100
AcDbLine
 10
43.200388829286
 20
183.347283898655
 30
0.0
 11
43.796934232542
 21
184.26535560435
 31
0.0
  0
LINE
  5
229
330
1E
100
AcDbEntity
  8
0
100
AcDbLine
 10
43.200388829286
 20
183.347283898655
 30
0.0
 11
43.403288829286
 21
182.833283898655
 31
0.0
  0
LINE
  5
22A
330
1E
100
AcDbEntity
  8
0
100
AcDbLine
 10
42.394788829286
 20
184.034283898655
 30
0.0
 11
42.853360341586
 21
184.740084501144
 31
0.0
  0
LINE
  5
22B
330
1E
100
AcDbEntity
  8
0
100
AcDbLine
 10
42.394788829286
 20
184.034283898655
 30
0.0
 11
43.200388829286
 21
183.347283898655
 31
0.0
  0
LINE
  5
22C
330
1E
100
AcDbEntity
  8
0
100
AcDbLine
 10
41.896288829286
 20
183.267283898655
 30
0.0
 11
42.851588829286
 21
182.810283898655
 31
0.0
  0
LINE
  5
22D
330
1E
100
AcDbEntity
  8
0
100
AcDbLine
 10
42.851588829286
 20
182.810283898655
 30
0.0
 11
43.403288829286
 21
182.833283898655
 31
0.0
  0
LINE
  5
22E
330
1E
100
AcDbEntity
  8
0
100
AcDbLine
 10
43.403288829286
 20
182.833283898655
 30
0.0
 11
43.768651344643
 21
183.395813332647
 31
0.0
  0
LINE
  5
22F
330
1E
100
AcDbEntity
  8
0
100
AcDbLine
 10
43.293288829286
 20
185.490283898655
 30
0.0
 11
44.316088829286
 21
185.139283898655
 31
0.0
  0
LINE
  5
230
330
1E
100
AcDbEntity
  8
0
100
AcDbLine
 10
35.944088829286
 20
187.678283898655
 30
0.0
 11
36.384141585609
 21
188.356071180201
 31
0.0
  0
LINE
  5
231
330
1E
100
AcDbEntity
  8
0
100
AcDbLine
 10
35.392388829286
 20
187.655283898655
 30
0.0
 11
35.944088829286
 21
187.678283898655
 31
0.0
  0
LINE
  5
232
330
1E
100
AcDbEntity
  8
0
100
AcDbLine
 10
42.510588829286
 20
187.040283898655
 30
0.0
 11
42.555088829286
 21
186.282283898655
 31
0.0
  0
LINE
  5
233
330
1E
100
AcDbEntity
  8
0
100
AcDbLine
 10
42.510588829286
 20
187.040283898655
 30
0.0
 11
42.654694786312
 21
187.262310923825
 31
0.0
  0
LINE
  5
234
330
1E
100
AcDbEntity
  8
0
100
AcDbLine
 10
42.510588829286
 20
187.040283898655
 30
0.0
 11
43.220988829286
 21
187.307283898655
 31
0.0
  0
LINE
  5
235
330
1E
100
AcDbEntity
  8
0
100
AcDbLine
 10
43.220988829286
 20
187.307283898655
 30
0.0
 11
43.704885883726
 21
188.052834087581
 31
0.0
  0
LINE
  5
236
330
1E
100
AcDbEntity
  8
0
100
AcDbLine
 10
43.220988829286
 20
187.307283898655
 30
0.0
 11
44.243788829286
 21
186.955283898655
 31
0.0
  0
LINE
  5
237
330
1E
100
AcDbEntity
  8
0
100
AcDbLine
 10
42.555088829286
 20
186.282283898655
 30
0.0
 11
43.293288829286
 21
185.490283898655
 31
0.0
  0
LINE
  5
238
330
1E
100
AcDbEntity
  8
0
100
AcDbLine
 10
38.420088829286
 20
186.080283898655
 30
0.0
 11
40.906020544877
 21
184.495816205732
 31
0.0
  0
LINE
  5
239
330
1E
100
AcDbEntity
  8
0
100
AcDbLine
 10
38.420088829286
 20
186.080283898655
 30
0.0
 11
40.906020544877
 21
184.495816205732
 31
0.0
  0
LINE
  5
23A
330
1E
100
AcDbEntity
  8
0
100
AcDbLine
 10
58.212588829286
 20
173.598283898655
 30
0.0
 11
58.601541641988
 21
174.196759321996
 31
0.0
  0
LINE
  5
23B
330
1E
100
AcDbEntity
  8
0
100
AcDbLine
 10
58.212588829286
 20
173.598283898655
 30
0.0
 11
59.167888829286
 21
173.141283898655
 31
0.0
  0
LINE
  5
23C
330
1E
100
AcDbEntity
  8
0
100
AcDbLine
 10
57.660788829286
 20
173.575283898655
 30
0.0
 11
57.863988829286
 21
173.062283898655
 31
0.0
  0
LINE
  5
23D
330
1E
100
AcDbEntity
  8
0
100
AcDbLine
 10
57.660788829286
 20
173.575283898655
 30
0.0
 11
58.100990721803
 21
174.252615455019
 31
0.0
  0
LINE
  5
23E
330
1E
100
AcDbEntity
  8
0
100
AcDbLine
 10
57.660788829286
 20
173.575283898655
 30
0.0
 11
58.212588829286
 21
173.598283898655
 31
0.0
  0
LINE
  5
23F
330
1E
100
AcDbEntity
  8
0
100
AcDbLine
 10
57.660788829286
 20
173.575283898655
 30
0.0
 11
57.774652823291
 21
173.750484590847
 31
0.0
  0
LINE
  5
240
330
1E
100
AcDbEntity
  8
0
100
AcDbLine
 10
57.863988829286
 20
173.062283898655
 30
0.0
 11
58.669588829286
 21
172.375283898655
 31
0.0
  0
LINE
  5
241
330
1E
100
AcDbEntity
  8
0
100
AcDbLine
 10
59.973788829286
 20
172.455283898655
 30
0.0
 11
60.48467833687
 21
173.241532856554
 31
0.0
  0
LINE
  5
242
330
1E
100
AcDbEntity
  8
0
100
AcDbLine
 10
59.973788829286
 20
172.455283898655
 30
0.0
 11
60.176688829286
 21
171.941283898655
 31
0.0
  0
LINE
  5
243
330
1E
100
AcDbEntity
  8
0
100
AcDbLine
 10
59.283988829286
 20
176.147283898655
 30
0.0
 11
59.328188829286
 21
175.389283898655
 31
0.0
  0
LINE
  5
244
330
1E
100
AcDbEntity
  8
0
100
AcDbLine
 10
59.283988829286
 20
176.147283898655
 30
0.0
 11
59.833994742883
 21
176.993399090791
 31
0.0
  0
LINE
  5
245
330
1E
100
AcDbEntity
  8
0
100
AcDbLine
 10
59.283988829286
 20
176.147283898655
 30
0.0
 11
59.994288829286
 21
176.414283898655
 31
0.0
  0
LINE
  5
246
330
1E
100
AcDbEntity
  8
0
100
AcDbLine
 10
61.755288829286
 20
175.271283898655
 30
0.0
 11
62.239283518482
 21
176.01584909208
 31
0.0
  0
LINE
  5
247
330
1E
100
AcDbEntity
  8
0
100
AcDbLine
 10
61.755288829286
 20
175.271283898655
 30
0.0
 11
61.799588829286
 21
174.512283898655
 31
0.0
  0
LINE
  5
248
330
1E
100
AcDbEntity
  8
0
100
AcDbLine
 10
61.016888829286
 20
176.062283898655
 30
0.0
 11
61.358385669898
 21
176.58784148705
 31
0.0
  0
LINE
  5
249
330
1E
100
AcDbEntity
  8
0
100
AcDbLine
 10
61.016888829286
 20
176.062283898655
 30
0.0
 11
61.755288829286
 21
175.271283898655
 31
0.0
  0
LINE
  5
24A
330
1E
100
AcDbEntity
  8
0
100
AcDbLine
 10
59.994288829286
 20
176.414283898655
 30
0.0
 11
60.337714987908
 21
176.943527238798
 31
0.0
  0
LINE
  5
24B
330
1E
100
AcDbEntity
  8
0
100
AcDbLine
 10
59.994288829286
 20
176.414283898655
 30
0.0
 11
61.016888829286
 21
176.062283898655
 31
0.0
  0
LINE
  5
24C
330
1E
100
AcDbEntity
  8
0
100
AcDbLine
 10
59.328188829286
 20
175.389283898655
 30
0.0
 11
60.066588829286
 21
174.598283898655
 31
0.0
  0
LINE
  5
24D
330
1E
100
AcDbEntity
  8
0
100
AcDbLine
 10
60.066588829286
 20
174.598283898655
 30
0.0
 11
61.089188829286
 21
174.245283898655
 31
0.0
  0
LINE
  5
24E
330
1E
100
AcDbEntity
  8
0
100
AcDbLine
 10
61.799588829286
 20
174.512283898655
 30
0.0
 11
62.089420477213
 21
174.958707053045
 31
0.0
  0
LINE
  5
24F
330
1E
100
AcDbEntity
  8
0
100
AcDbLine
 10
61.089188829286
 20
174.245283898655
 30
0.0
 11
61.799588829286
 21
174.512283898655
 31
0.0
  0
LINE
  5
250
330
1E
100
AcDbEntity
  8
0
100
AcDbLine
 10
59.167888829286
 20
173.141283898655
 30
0.0
 11
59.543185186139
 21
173.71910794553
 31
0.0
  0
LINE
  5
251
330
1E
100
AcDbEntity
  8
0
100
AcDbLine
 10
59.167888829286
 20
173.141283898655
 30
0.0
 11
59.973788829286
 21
172.455283898655
 31
0.0
  0
LINE
  5
252
330
1E
100
AcDbEntity
  8
0
100
AcDbLine
 10
59.167888829286
 20
173.141283898655
 30
0.0
 11
59.543185186139
 21
173.71910794553
 31
0.0
  0
LINE
  5
253
330
1E
100
AcDbEntity
  8
0
100
AcDbLine
 10
58.669588829286
 20
172.375283898655
 30
0.0
 11
59.624888829286
 21
171.918283898655
 31
0.0
  0
LINE
  5
254
330
1E
100
AcDbEntity
  8
0
100
AcDbLine
 10
51.790488829286
 20
177.387283898655
 30
0.0
 11
52.230463626809
 21
178.065343235564
 31
0.0
  0
LINE
  5
255
330
1E
100
AcDbEntity
  8
0
100
AcDbLine
 10
51.238688829286
 20
177.364283898655
 30
0.0
 11
51.790488829286
 21
177.387283898655
 31
0.0
  0
LINE
  5
256
330
1E
100
AcDbEntity
  8
0
100
AcDbLine
 10
49.825688829286
 20
179.045283898655
 30
0.0
 11
50.400797669911
 21
179.930450454629
 31
0.0
  0
LINE
  5
257
330
1E
100
AcDbEntity
  8
0
100
AcDbLine
 10
49.825688829286
 20
179.045283898655
 30
0.0
 11
50.780988829286
 21
178.588283898655
 31
0.0
  0
LINE
  5
258
330
1E
100
AcDbEntity
  8
0
100
AcDbLine
 10
49.274588829286
 20
179.021283898655
 30
0.0
 11
49.477788829286
 21
178.508283898655
 31
0.0
  0
LINE
  5
259
330
1E
100
AcDbEntity
  8
0
100
AcDbLine
 10
49.274588829286
 20
179.021283898655
 30
0.0
 11
49.64308480481
 21
179.589130156019
 31
0.0
  0
LINE
  5
25A
330
1E
100
AcDbEntity
  8
0
100
AcDbLine
 10
49.274588829286
 20
179.021283898655
 30
0.0
 11
49.825688829286
 21
179.045283898655
 31
0.0
  0
LINE
  5
25B
330
1E
100
AcDbEntity
  8
0
100
AcDbLine
 10
49.274588829286
 20
179.021283898655
 30
0.0
 11
49.341710609144
 21
179.124717461059
 31
0.0
  0
LINE
  5
25C
330
1E
100
AcDbEntity
  8
0
100
AcDbLine
 10
49.477788829286
 20
178.508283898655
 30
0.0
 11
50.283388829286
 21
177.821283898655
 31
0.0
  0
LINE
  5
25D
330
1E
100
AcDbEntity
  8
0
100
AcDbLine
 10
51.587588829286
 20
177.901283898655
 30
0.0
 11
51.942752040295
 21
178.448400372063
 31
0.0
  0
LINE
  5
25E
330
1E
100
AcDbEntity
  8
0
100
AcDbLine
 10
51.587588829286
 20
177.901283898655
 30
0.0
 11
51.790488829286
 21
177.387283898655
 31
0.0
  0
LINE
  5
25F
330
1E
100
AcDbEntity
  8
0
100
AcDbLine
 10
50.780988829286
 20
178.588283898655
 30
0.0
 11
51.341916826269
 21
179.451624310357
 31
0.0
  0
LINE
  5
260
330
1E
100
AcDbEntity
  8
0
100
AcDbLine
 10
50.780988829286
 20
178.588283898655
 30
0.0
 11
51.587588829286
 21
177.901283898655
 31
0.0
  0
LINE
  5
261
330
1E
100
AcDbEntity
  8
0
100
AcDbLine
 10
50.283388829286
 20
177.821283898655
 30
0.0
 11
51.238688829286
 21
177.364283898655
 31
0.0
  0
LINE
  5
262
330
1E
100
AcDbEntity
  8
0
100
AcDbLine
 10
44.243788829286
 20
186.955283898655
 30
0.0
 11
44.585527491346
 21
187.481006016474
 31
0.0
  0
LINE
  5
263
330
1E
100
AcDbEntity
  8
0
100
AcDbLine
 10
44.243788829286
 20
186.955283898655
 30
0.0
 11
44.981988829286
 21
186.163283898655
 31
0.0
  0
LINE
  5
264
330
1E
100
AcDbEntity
  8
0
100
AcDbLine
 10
44.981988829286
 20
186.163283898655
 30
0.0
 11
45.465838826806
 21
186.909392401384
 31
0.0
  0
LINE
  5
265
330
1E
100
AcDbEntity
  8
0
100
AcDbLine
 10
44.981988829286
 20
186.163283898655
 30
0.0
 11
45.026488829286
 21
185.406283898655
 31
0.0
  0
LINE
  5
266
330
1E
100
AcDbEntity
  8
0
100
AcDbLine
 10
45.026488829286
 20
185.406283898655
 30
0.0
 11
45.376322771746
 21
185.944459591175
 31
0.0
  0
LINE
  5
267
330
1E
100
AcDbEntity
  8
0
100
AcDbLine
 10
44.316088829286
 20
185.139283898655
 30
0.0
 11
45.026488829286
 21
185.406283898655
 31
0.0
  0
LINE
  5
268
330
1E
100
AcDbEntity
  8
0
100
AcDbLine
 10
50.896788829286
 20
181.594283898655
 30
0.0
 11
50.941988829286
 21
180.835283898655
 31
0.0
  0
LINE
  5
269
330
1E
100
AcDbEntity
  8
0
100
AcDbLine
 10
50.896788829286
 20
181.594283898655
 30
0.0
 11
50.966294926568
 21
181.701210321449
 31
0.0
  0
LINE
  5
26A
330
1E
100
AcDbEntity
  8
0
100
AcDbLine
 10
50.896788829286
 20
181.594283898655
 30
0.0
 11
51.607188829286
 21
181.861283898655
 31
0.0
  0
LINE
  5
26B
330
1E
100
AcDbEntity
  8
0
100
AcDbLine
 10
53.369088829286
 20
180.717283898655
 30
0.0
 11
53.852998018776
 21
181.462852784303
 31
0.0
  0
LINE
  5
26C
330
1E
100
AcDbEntity
  8
0
100
AcDbLine
 10
53.369088829286
 20
180.717283898655
 30
0.0
 11
53.413588829286
 21
179.959283898655
 31
0.0
  0
LINE
  5
26D
330
1E
100
AcDbEntity
  8
0
100
AcDbLine
 10
52.630988829286
 20
181.509283898655
 30
0.0
 11
52.972284996657
 21
182.034918560945
 31
0.0
  0
LINE
  5
26E
330
1E
100
AcDbEntity
  8
0
100
AcDbLine
 10
52.630988829286
 20
181.509283898655
 30
0.0
 11
53.369088829286
 21
180.717283898655
 31
0.0
  0
LINE
  5
26F
330
1E
100
AcDbEntity
  8
0
100
AcDbLine
 10
51.607188829286
 20
181.861283898655
 30
0.0
 11
52.0916447301
 21
182.606937079326
 31
0.0
  0
LINE
  5
270
330
1E
100
AcDbEntity
  8
0
100
AcDbLine
 10
51.607188829286
 20
181.861283898655
 30
0.0
 11
52.630988829286
 21
181.509283898655
 31
0.0
  0
LINE
  5
271
330
1E
100
AcDbEntity
  8
0
100
AcDbLine
 10
50.941988829286
 20
180.835283898655
 30
0.0
 11
51.679488829286
 21
180.044283898655
 31
0.0
  0
LINE
  5
272
330
1E
100
AcDbEntity
  8
0
100
AcDbLine
 10
51.679488829286
 20
180.044283898655
 30
0.0
 11
52.702988829286
 21
179.691283898655
 31
0.0
  0
LINE
  5
273
330
1E
100
AcDbEntity
  8
0
100
AcDbLine
 10
53.413588829286
 20
179.959283898655
 30
0.0
 11
53.687895636678
 21
180.382009562741
 31
0.0
  0
LINE
  5
274
330
1E
100
AcDbEntity
  8
0
100
AcDbLine
 10
52.702988829286
 20
179.691283898655
 30
0.0
 11
53.413588829286
 21
179.959283898655
 31
0.0
  0
LINE
  5
277
330
1E
100
AcDbEntity
  8
0
100
AcDbLine
 10
51.86900943916
 20
177.508294540548
 30
0.0
 11
57.771761220735
 21
173.746035328604
 31
0.0
  0
LINE
  5
278
330
1E
100
AcDbEntity
  8
0
100
AcDbLine
 10
43.435828238757
 20
182.883383114702
 30
0.0
 11
49.339144954142
 21
179.12076382876
 31
0.0
  0
LINE
  5
279
330
1E
100
AcDbEntity
  8
0
100
AcDbLine
 10
43.435828238757
 20
182.883383114702
 30
0.0
 11
49.339144954142
 21
179.12076382876
 31
0.0
  0
LINE
  5
27A
330
1E
100
AcDbEntity
  8
0
100
AcDbLine
 10
60.301590524243
 20
172.133588464163
 30
0.0
 11
64.851988829286
 21
169.233283898655
 31
0.0
  0
LINE
  5
27B
330
1E
100
AcDbEntity
  8
0
100
AcDbLine
 10
66.047988829286
 20
168.128283898655
 30
0.0
 11
66.251088829286
 21
167.615283898655
 31
0.0
  0
LINE
  5
27C
330
1E
100
AcDbEntity
  8
0
100
AcDbLine
 10
66.047988829286
 20
168.128283898655
 30
0.0
 11
66.487934992528
 21
168.806233723979
 31
0.0
  0
LINE
  5
27D
330
1E
100
AcDbEntity
  8
0
100
AcDbLine
 10
66.047988829286
 20
168.128283898655
 30
0.0
 11
66.599788829286
 21
168.151283898655
 31
0.0
  0
LINE
  5
27E
330
1E
100
AcDbEntity
  8
0
100
AcDbLine
 10
66.047988829286
 20
168.128283898655
 30
0.0
 11
66.267118924304
 21
168.465959782782
 31
0.0
  0
LINE
  5
27F
330
1E
100
AcDbEntity
  8
0
100
AcDbLine
 10
67.555088829286
 20
167.694283898655
 30
0.0
 11
68.082786283873
 21
168.508044367248
 31
0.0
  0
LINE
  5
280
330
1E
100
AcDbEntity
  8
0
100
AcDbLine
 10
67.555088829286
 20
167.694283898655
 30
0.0
 11
68.360688829286
 21
167.008283898655
 31
0.0
  0
LINE
  5
281
330
1E
100
AcDbEntity
  8
0
100
AcDbLine
 10
68.452588829286
 20
169.151283898655
 30
0.0
 11
69.476388829286
 21
168.799283898655
 31
0.0
  0
LINE
  5
282
330
1E
100
AcDbEntity
  8
0
100
AcDbLine
 10
69.476388829286
 20
168.799283898655
 30
0.0
 11
70.186688829286
 21
169.066283898655
 31
0.0
  0
LINE
  5
283
330
1E
100
AcDbEntity
  8
0
100
AcDbLine
 10
66.599788829286
 20
168.151283898655
 30
0.0
 11
67.052259156297
 21
168.848600498678
 31
0.0
  0
LINE
  5
284
330
1E
100
AcDbEntity
  8
0
100
AcDbLine
 10
66.599788829286
 20
168.151283898655
 30
0.0
 11
67.555088829286
 21
167.694283898655
 31
0.0
  0
LINE
  5
285
330
1E
100
AcDbEntity
  8
0
100
AcDbLine
 10
66.251088829286
 20
167.615283898655
 30
0.0
 11
67.056788829286
 21
166.928283898655
 31
0.0
  0
LINE
  5
286
330
1E
100
AcDbEntity
  8
0
100
AcDbLine
 10
67.670888829286
 20
170.700283898655
 30
0.0
 11
67.715388829286
 21
169.943283898655
 31
0.0
  0
LINE
  5
287
330
1E
100
AcDbEntity
  8
0
100
AcDbLine
 10
67.670888829286
 20
170.700283898655
 30
0.0
 11
67.874638366635
 21
171.014205020246
 31
0.0
  0
LINE
  5
288
330
1E
100
AcDbEntity
  8
0
100
AcDbLine
 10
67.670888829286
 20
170.700283898655
 30
0.0
 11
68.380488829286
 21
170.968283898655
 31
0.0
  0
LINE
  5
289
330
1E
100
AcDbEntity
  8
0
100
AcDbLine
 10
69.404088829286
 20
170.615283898655
 30
0.0
 11
69.745783760764
 21
171.141591257567
 31
0.0
  0
LINE
  5
28A
330
1E
100
AcDbEntity
  8
0
100
AcDbLine
 10
69.404088829286
 20
170.615283898655
 30
0.0
 11
70.142488829286
 21
169.824283898655
 31
0.0
  0
LINE
  5
28B
330
1E
100
AcDbEntity
  8
0
100
AcDbLine
 10
68.380488829286
 20
170.968283898655
 30
0.0
 11
68.77576396957
 21
171.576811315525
 31
0.0
  0
LINE
  5
28C
330
1E
100
AcDbEntity
  8
0
100
AcDbLine
 10
68.380488829286
 20
170.968283898655
 30
0.0
 11
69.404088829286
 21
170.615283898655
 31
0.0
  0
LINE
  5
28D
330
1E
100
AcDbEntity
  8
0
100
AcDbLine
 10
67.715388829286
 20
169.943283898655
 30
0.0
 11
68.452588829286
 21
169.151283898655
 31
0.0
  0
LINE
  5
28E
330
1E
100
AcDbEntity
  8
0
100
AcDbLine
 10
70.142488829286
 20
169.824283898655
 30
0.0
 11
70.626194727348
 21
170.569792198041
 31
0.0
  0
LINE
  5
28F
330
1E
100
AcDbEntity
  8
0
100
AcDbLine
 10
70.142488829286
 20
169.824283898655
 30
0.0
 11
70.186688829286
 21
169.066283898655
 31
0.0
  0
LINE
  5
290
330
1E
100
AcDbEntity
  8
0
100
AcDbLine
 10
70.186688829286
 20
169.066283898655
 30
0.0
 11
70.61298801568
 21
169.723091862331
 31
0.0
  0
LINE
  5
294
330
1E
100
AcDbEntity
  8
0
100
AcDbLine
 10
64.851988829286
 20
169.233283898655
 30
0.0
 11
66.267118924304
 21
168.465959782782
 31
0.0
  0
LINE
  5
295
330
1E
100
AcDbEntity
  8
0
100
AcDbLine
 10
68.912438498345
 20
167.031591656134
 30
0.0
 11
70.775688829286
 21
166.021283898655
 31
0.0
  0
LINE
  5
296
330
1E
100
AcDbEntity
  8
0
100
AcDbLine
 10
75.004088829286
 20
163.395283898655
 30
0.0
 11
75.242188829286
 21
162.896283898655
 31
0.0
  0
LINE
  5
297
330
1E
100
AcDbEntity
  8
0
100
AcDbLine
 10
75.004088829286
 20
163.395283898655
 30
0.0
 11
75.366962968205
 21
164.046696773372
 31
0.0
  0
LINE
  5
298
330
1E
100
AcDbEntity
  8
0
100
AcDbLine
 10
75.004088829286
 20
163.395283898655
 30
0.0
 11
75.553588829286
 21
163.456283898655
 31
0.0
  0
LINE
  5
299
330
1E
100
AcDbEntity
  8
0
100
AcDbLine
 10
75.004088829286
 20
163.395283898655
 30
0.0
 11
75.283215809151
 21
163.896358207522
 31
0.0
  0
LINE
  5
29A
330
1E
100
AcDbEntity
  8
0
100
AcDbLine
 10
77.387688829286
 20
162.434283898655
 30
0.0
 11
77.721239950789
 21
163.033122174806
 31
0.0
  0
LINE
  5
29B
330
1E
100
AcDbEntity
  8
0
100
AcDbLine
 10
77.387688829286
 20
162.434283898655
 30
0.0
 11
77.625788829286
 21
161.936283898655
 31
0.0
  0
LINE
  5
29C
330
1E
100
AcDbEntity
  8
0
100
AcDbLine
 10
76.536888829286
 20
163.065283898655
 30
0.0
 11
76.78337601445
 21
163.50776493725
 31
0.0
  0
LINE
  5
29D
330
1E
100
AcDbEntity
  8
0
100
AcDbLine
 10
76.536888829286
 20
163.065283898655
 30
0.0
 11
77.387688829286
 21
162.434283898655
 31
0.0
  0
LINE
  5
29E
330
1E
100
AcDbEntity
  8
0
100
AcDbLine
 10
77.001788829286
 20
165.882283898655
 30
0.0
 11
77.251671089205
 21
166.267282658995
 31
0.0
  0
LINE
  5
29F
330
1E
100
AcDbEntity
  8
0
100
AcDbLine
 10
77.001788829286
 20
165.882283898655
 30
0.0
 11
78.024588829286
 21
165.530283898655
 31
0.0
  0
LINE
  5
2A0
330
1E
100
AcDbEntity
  8
0
100
AcDbLine
 10
76.291388829286
 20
165.614283898655
 30
0.0
 11
76.335888829286
 21
164.857283898655
 31
0.0
  0
LINE
  5
2A1
330
1E
100
AcDbEntity
  8
0
100
AcDbLine
 10
76.291388829286
 20
165.614283898655
 30
0.0
 11
76.609839100318
 21
166.104732527741
 31
0.0
  0
LINE
  5
2A2
330
1E
100
AcDbEntity
  8
0
100
AcDbLine
 10
76.291388829286
 20
165.614283898655
 30
0.0
 11
77.001788829286
 21
165.882283898655
 31
0.0
  0
LINE
  5
2A3
330
1E
100
AcDbEntity
  8
0
100
AcDbLine
 10
76.335888829286
 20
164.857283898655
 30
0.0
 11
77.074088829286
 21
164.065283898655
 31
0.0
  0
LINE
  5
2A4
330
1E
100
AcDbEntity
  8
0
100
AcDbLine
 10
77.074088829286
 20
164.065283898655
 30
0.0
 11
78.096888829286
 21
163.713283898655
 31
0.0
  0
LINE
  5
2A5
330
1E
100
AcDbEntity
  8
0
100
AcDbLine
 10
75.553588829286
 20
163.456283898655
 30
0.0
 11
75.822181657765
 21
163.938834607562
 31
0.0
  0
LINE
  5
2A6
330
1E
100
AcDbEntity
  8
0
100
AcDbLine
 10
75.553588829286
 20
163.456283898655
 30
0.0
 11
76.536888829286
 21
163.065283898655
 31
0.0
  0
LINE
  5
2A7
330
1E
100
AcDbEntity
  8
0
100
AcDbLine
 10
75.242188829286
 20
162.896283898655
 30
0.0
 11
76.092888829286
 21
162.266283898655
 31
0.0
  0
LINE
  5
2A8
330
1E
100
AcDbEntity
  8
0
100
AcDbLine
 10
76.092888829286
 20
162.266283898655
 30
0.0
 11
77.076288829286
 21
161.875283898655
 31
0.0
  0
LINE
  5
2A9
330
1E
100
AcDbEntity
  8
0
100
AcDbLine
 10
77.625788829286
 20
161.936283898655
 30
0.0
 11
78.095081128625
 21
162.779733465148
 31
0.0
  0
LINE
  5
2AA
330
1E
100
AcDbEntity
  8
0
100
AcDbLine
 10
77.625788829286
 20
161.936283898655
 30
0.0
 11
77.983193077744
 21
162.578639332251
 31
0.0
  0
LINE
  5
2AB
330
1E
100
AcDbEntity
  8
0
100
AcDbLine
 10
77.076288829286
 20
161.875283898655
 30
0.0
 11
77.625788829286
 21
161.936283898655
 31
0.0
  0
LINE
  5
2AC
330
1E
100
AcDbEntity
  8
0
100
AcDbLine
 10
78.024588829286
 20
165.530283898655
 30
0.0
 11
78.360468878467
 21
166.047197344535
 31
0.0
  0
LINE
  5
2AD
330
1E
100
AcDbEntity
  8
0
100
AcDbLine
 10
78.024588829286
 20
165.530283898655
 30
0.0
 11
78.762788829286
 21
164.738283898655
 31
0.0
  0
LINE
  5
2AE
330
1E
100
AcDbEntity
  8
0
100
AcDbLine
 10
78.762788829286
 20
164.738283898655
 30
0.0
 11
79.013212208539
 21
165.123724532034
 31
0.0
  0
LINE
  5
2AF
330
1E
100
AcDbEntity
  8
0
100
AcDbLine
 10
78.762788829286
 20
164.738283898655
 30
0.0
 11
78.807288829286
 21
163.981283898655
 31
0.0
  0
LINE
  5
2B0
330
1E
100
AcDbEntity
  8
0
100
AcDbLine
 10
78.807288829286
 20
163.981283898655
 30
0.0
 11
79.097231668191
 21
164.42755114337
 31
0.0
  0
LINE
  5
2B1
330
1E
100
AcDbEntity
  8
0
100
AcDbLine
 10
78.096888829286
 20
163.713283898655
 30
0.0
 11
78.807288829286
 21
163.981283898655
 31
0.0
  0
LINE
  5
2B2
330
1E
100
AcDbEntity
  8
0
100
AcDbLine
 10
77.983193077744
 20
162.578639332251
 30
0.0
 11
85.163588829286
 21
157.550283898655
 31
0.0
  0
LINE
  5
2B7
330
1E
100
AcDbEntity
  8
0
100
AcDbLine
 10
70.775688829286
 20
166.021283898655
 30
0.0
 11
75.283215809151
 21
163.896358207522
 31
0.0
  0
LINE
  5
2B8
330
1E
100
AcDbEntity
  8
0
100
AcDbLine
 10
90.394888829286
 20
153.374283898655
 30
0.0
 11
95.367188829286
 21
149.012283898655
 31
0.0
  0
LINE
  5
2B9
330
1E
100
AcDbEntity
  8
0
100
AcDbLine
 10
95.367188829286
 20
149.012283898655
 30
0.0
 11
97.424488829286
 21
146.953283898655
 31
0.0
  0
LINE
  5
2C6
330
1E
100
AcDbEntity
  8
0
100
AcDbLine
 10
98.443488829286
 20
164.986283898655
 30
0.0
 11
99.861788829286
 21
164.064283898655
 31
0.0
  0
LINE
  5
2D7
330
1E
100
AcDbEntity
  8
0
100
AcDbLine
 10
99.861788829286
 20
164.064283898655
 30
0.0
 11
104.653788829286
 21
160.542283898655
 31
0.0
  0
LINE
  5
2D8
330
1E
100
AcDbEntity
  8
0
100
AcDbLine
 10
11.690888829286
 20
208.095283898655
 30
0.0
 11
12.032360864693
 21
208.621040593875
 31
0.0
  0
LINE
  5
2D9
330
1E
100
AcDbEntity
  8
0
100
AcDbLine
 10
11.690888829286
 20
208.095283898655
 30
0.0
 11
12.428988829286
 21
207.304283898655
 31
0.0
  0
LINE
  5
2DA
330
1E
100
AcDbEntity
  8
0
100
AcDbLine
 10
11.690888829286
 20
208.095283898655
 30
0.0
 11
12.032360864693
 21
208.621040593875
 31
0.0
  0
LINE
  5
2DB
330
1E
100
AcDbEntity
  8
0
100
AcDbLine
 10
11.763188829286
 20
206.278283898655
 30
0.0
 11
12.473388829286
 21
206.546283898655
 31
0.0
  0
LINE
  5
2DC
330
1E
100
AcDbEntity
  8
0
100
AcDbLine
 10
26.548188829286
 20
194.324283898655
 30
0.0
 11
27.109297818939
 21
195.188526949706
 31
0.0
  0
LINE
  5
2DD
330
1E
100
AcDbEntity
  8
0
100
AcDbLine
 10
26.548188829286
 20
194.324283898655
 30
0.0
 11
27.354288829286
 21
193.638283898655
 31
0.0
  0
LINE
  5
2DE
330
1E
100
AcDbEntity
  8
0
100
AcDbLine
 10
26.050388829286
 20
193.558283898655
 30
0.0
 11
27.005588829286
 21
193.101283898655
 31
0.0
  0
LINE
  5
2DF
330
1E
100
AcDbEntity
  8
0
100
AcDbLine
 10
25.244388829286
 20
194.245283898655
 30
0.0
 11
26.050388829286
 21
193.558283898655
 31
0.0
  0
LINE
  5
2E0
330
1E
100
AcDbEntity
  8
0
100
AcDbLine
 10
25.593088829286
 20
194.782283898655
 30
0.0
 11
25.948362377539
 21
195.329253778689
 31
0.0
  0
LINE
  5
2E1
330
1E
100
AcDbEntity
  8
0
100
AcDbLine
 10
25.593088829286
 20
194.782283898655
 30
0.0
 11
26.548188829286
 21
194.324283898655
 31
0.0
  0
LINE
  5
2E2
330
1E
100
AcDbEntity
  8
0
100
AcDbLine
 10
25.041188829286
 20
194.758283898655
 30
0.0
 11
25.244388829286
 21
194.245283898655
 31
0.0
  0
LINE
  5
2E3
330
1E
100
AcDbEntity
  8
0
100
AcDbLine
 10
25.041188829286
 20
194.758283898655
 30
0.0
 11
25.48142999808
 21
195.436296030241
 31
0.0
  0
LINE
  5
2E4
330
1E
100
AcDbEntity
  8
0
100
AcDbLine
 10
25.041188829286
 20
194.758283898655
 30
0.0
 11
25.593088829286
 21
194.782283898655
 31
0.0
  0
LINE
  5
2E5
330
1E
100
AcDbEntity
  8
0
100
AcDbLine
 10
25.041188829286
 20
194.758283898655
 30
0.0
 11
25.122488265855
 21
194.883492552893
 31
0.0
  0
LINE
  5
2E6
330
1E
100
AcDbEntity
  8
0
100
AcDbLine
 10
27.354288829286
 20
193.638283898655
 30
0.0
 11
27.557288829286
 21
193.124283898655
 31
0.0
  0
LINE
  5
2E7
330
1E
100
AcDbEntity
  8
0
100
AcDbLine
 10
27.354288829286
 20
193.638283898655
 30
0.0
 11
27.929404586139
 21
194.523631752611
 31
0.0
  0
LINE
  5
2E8
330
1E
100
AcDbEntity
  8
0
100
AcDbLine
 10
27.005588829286
 20
193.101283898655
 30
0.0
 11
27.557288829286
 21
193.124283898655
 31
0.0
  0
LINE
  5
2E9
330
1E
100
AcDbEntity
  8
0
100
AcDbLine
 10
27.557288829286
 20
193.124283898655
 30
0.0
 11
27.926009314052
 21
193.692202293504
 31
0.0
  0
LINE
  5
2EA
330
1E
100
AcDbEntity
  8
0
100
AcDbLine
 10
27.513288829286
 20
195.738283898655
 30
0.0
 11
28.536688829286
 21
195.386283898655
 31
0.0
  0
LINE
  5
2EB
330
1E
100
AcDbEntity
  8
0
100
AcDbLine
 10
27.441088829286
 20
197.554283898655
 30
0.0
 11
28.464388829286
 21
197.202283898655
 31
0.0
  0
LINE
  5
2EC
330
1E
100
AcDbEntity
  8
0
100
AcDbLine
 10
27.441088829286
 20
197.554283898655
 30
0.0
 11
27.925399993822
 21
198.300050921039
 31
0.0
  0
LINE
  5
2ED
330
1E
100
AcDbEntity
  8
0
100
AcDbLine
 10
26.775488829286
 20
196.530283898655
 30
0.0
 11
27.513288829286
 21
195.738283898655
 31
0.0
  0
LINE
  5
2EE
330
1E
100
AcDbEntity
  8
0
100
AcDbLine
 10
26.730888829286
 20
197.287283898655
 30
0.0
 11
26.775488829286
 21
196.530283898655
 31
0.0
  0
LINE
  5
2EF
330
1E
100
AcDbEntity
  8
0
100
AcDbLine
 10
26.730888829286
 20
197.287283898655
 30
0.0
 11
27.005099581913
 21
197.709527595407
 31
0.0
  0
LINE
  5
2F0
330
1E
100
AcDbEntity
  8
0
100
AcDbLine
 10
26.730888829286
 20
197.287283898655
 30
0.0
 11
27.441088829286
 21
197.554283898655
 31
0.0
  0
LINE
  5
2F1
330
1E
100
AcDbEntity
  8
0
100
AcDbLine
 10
19.170488829286
 20
198.570283898655
 30
0.0
 11
19.610997983181
 21
199.24870875209
 31
0.0
  0
LINE
  5
2F2
330
1E
100
AcDbEntity
  8
0
100
AcDbLine
 10
18.618888829286
 20
198.547283898655
 30
0.0
 11
19.170488829286
 21
198.570283898655
 31
0.0
  0
LINE
  5
2F3
330
1E
100
AcDbEntity
  8
0
100
AcDbLine
 10
35.740788829286
 20
188.191283898655
 30
0.0
 11
35.944088829286
 21
187.678283898655
 31
0.0
  0
LINE
  5
2F4
330
1E
100
AcDbEntity
  8
0
100
AcDbLine
 10
35.740788829286
 20
188.191283898655
 30
0.0
 11
36.211097878674
 21
188.915673162194
 31
0.0
  0
LINE
  5
2F5
330
1E
100
AcDbEntity
  8
0
100
AcDbLine
 10
34.437088829286
 20
188.112283898655
 30
0.0
 11
35.392388829286
 21
187.655283898655
 31
0.0
  0
LINE
  5
2F6
330
1E
100
AcDbEntity
  8
0
100
AcDbLine
 10
34.934988829286
 20
188.878283898655
 30
0.0
 11
35.393610405054
 21
189.584671636562
 31
0.0
  0
LINE
  5
2F7
330
1E
100
AcDbEntity
  8
0
100
AcDbLine
 10
34.934988829286
 20
188.878283898655
 30
0.0
 11
35.740788829286
 21
188.191283898655
 31
0.0
  0
LINE
  5
2F8
330
1E
100
AcDbEntity
  8
0
100
AcDbLine
 10
33.631188829286
 20
188.799283898655
 30
0.0
 11
34.437088829286
 21
188.112283898655
 31
0.0
  0
LINE
  5
2F9
330
1E
100
AcDbEntity
  8
0
100
AcDbLine
 10
33.979588829286
 20
189.335283898655
 30
0.0
 11
34.57598237436
 21
190.253785137118
 31
0.0
  0
LINE
  5
2FA
330
1E
100
AcDbEntity
  8
0
100
AcDbLine
 10
33.979588829286
 20
189.335283898655
 30
0.0
 11
34.934988829286
 21
188.878283898655
 31
0.0
  0
LINE
  5
2FB
330
1E
100
AcDbEntity
  8
0
100
AcDbLine
 10
33.427988829286
 20
189.312283898655
 30
0.0
 11
33.631188829286
 21
188.799283898655
 31
0.0
  0
LINE
  5
2FC
330
1E
100
AcDbEntity
  8
0
100
AcDbLine
 10
33.427988829286
 20
189.312283898655
 30
0.0
 11
33.792847845919
 21
189.874254702106
 31
0.0
  0
LINE
  5
2FD
330
1E
100
AcDbEntity
  8
0
100
AcDbLine
 10
33.427988829286
 20
189.312283898655
 30
0.0
 11
33.979588829286
 21
189.335283898655
 31
0.0
  0
LINE
  5
2FE
330
1E
100
AcDbEntity
  8
0
100
AcDbLine
 10
33.427988829286
 20
189.312283898655
 30
0.0
 11
33.461065907564
 21
189.363230569584
 31
0.0
  0
LINE
  5
2FF
330
1E
100
AcDbEntity
  8
0
100
AcDbLine
 10
37.588988829286
 20
190.964283898655
 30
0.0
 11
37.633588829286
 21
190.207283898655
 31
0.0
  0
LINE
  5
300
330
1E
100
AcDbEntity
  8
0
100
AcDbLine
 10
37.588988829286
 20
190.964283898655
 30
0.0
 11
38.073229367458
 21
191.709942166963
 31
0.0
  0
LINE
  5
301
330
1E
100
AcDbEntity
  8
0
100
AcDbLine
 10
37.633588829286
 20
190.207283898655
 30
0.0
 11
37.777850471142
 21
190.42931259993
 31
0.0
  0
LINE
  5
302
330
1E
100
AcDbEntity
  8
0
100
AcDbLine
 10
36.923488829286
 20
189.940283898655
 30
0.0
 11
37.633588829286
 21
190.207283898655
 31
0.0
  0
LINE
  5
303
330
1E
100
AcDbEntity
  8
0
100
AcDbLine
 10
35.900088829286
 20
190.291283898655
 30
0.0
 11
36.923488829286
 21
189.940283898655
 31
0.0
  0
LINE
  5
304
330
1E
100
AcDbEntity
  8
0
100
AcDbLine
 10
35.827888829286
 20
192.108283898655
 30
0.0
 11
36.851188829286
 21
191.756283898655
 31
0.0
  0
LINE
  5
305
330
1E
100
AcDbEntity
  8
0
100
AcDbLine
 10
35.827888829286
 20
192.108283898655
 30
0.0
 11
36.311964598087
 21
192.85377260662
 31
0.0
  0
LINE
  5
306
330
1E
100
AcDbEntity
  8
0
100
AcDbLine
 10
36.851188829286
 20
191.756283898655
 30
0.0
 11
37.19265299927
 21
192.281821007607
 31
0.0
  0
LINE
  5
307
330
1E
100
AcDbEntity
  8
0
100
AcDbLine
 10
36.851188829286
 20
191.756283898655
 30
0.0
 11
37.588988829286
 21
190.964283898655
 31
0.0
  0
LINE
  5
308
330
1E
100
AcDbEntity
  8
0
100
AcDbLine
 10
35.162188829286
 20
191.083283898655
 30
0.0
 11
35.900088829286
 21
190.291283898655
 31
0.0
  0
LINE
  5
309
330
1E
100
AcDbEntity
  8
0
100
AcDbLine
 10
35.117588829286
 20
191.841283898655
 30
0.0
 11
35.162188829286
 21
191.083283898655
 31
0.0
  0
LINE
  5
30A
330
1E
100
AcDbEntity
  8
0
100
AcDbLine
 10
35.117588829286
 20
191.841283898655
 30
0.0
 11
35.467072511668
 21
192.379375943772
 31
0.0
  0
LINE
  5
30B
330
1E
100
AcDbEntity
  8
0
100
AcDbLine
 10
35.117588829286
 20
191.841283898655
 30
0.0
 11
35.827888829286
 21
192.108283898655
 31
0.0
  0
LINE
  5
30C
330
1E
100
AcDbEntity
  8
0
100
AcDbLine
 10
29.202288829286
 20
196.410283898655
 30
0.0
 11
29.246888829286
 21
195.653283898655
 31
0.0
  0
LINE
  5
30D
330
1E
100
AcDbEntity
  8
0
100
AcDbLine
 10
29.202288829286
 20
196.410283898655
 30
0.0
 11
29.686541032452
 21
197.156506812769
 31
0.0
  0
LINE
  5
30E
330
1E
100
AcDbEntity
  8
0
100
AcDbLine
 10
29.246888829286
 20
195.653283898655
 30
0.0
 11
29.316374819819
 21
195.760281969424
 31
0.0
  0
LINE
  5
30F
330
1E
100
AcDbEntity
  8
0
100
AcDbLine
 10
28.536688829286
 20
195.386283898655
 30
0.0
 11
29.246888829286
 21
195.653283898655
 31
0.0
  0
LINE
  5
312
330
1E
100
AcDbEntity
  8
0
100
AcDbLine
 10
28.464388829286
 20
197.202283898655
 30
0.0
 11
28.805826171636
 21
197.728372590728
 31
0.0
  0
LINE
  5
313
330
1E
100
AcDbEntity
  8
0
100
AcDbLine
 10
28.464388829286
 20
197.202283898655
 30
0.0
 11
29.202288829286
 21
196.410283898655
 31
0.0
  0
LINE
  5
319
330
1E
100
AcDbEntity
  8
0
100
AcDbLine
 10
27.62197803191
 20
193.223920858455
 30
0.0
 11
33.460049624428
 21
189.361665248667
 31
0.0
  0
LINE
  5
31A
330
1E
100
AcDbEntity
  8
0
100
AcDbLine
 10
27.62197803191
 20
193.223920858455
 30
0.0
 11
33.460049624428
 21
189.361665248667
 31
0.0
  0
LINE
  5
31B
330
1E
100
AcDbEntity
  8
0
100
AcDbLine
 10
17.663588829286
 20
199.004283898655
 30
0.0
 11
18.618888829286
 21
198.547283898655
 31
0.0
  0
LINE
  5
31C
330
1E
100
AcDbEntity
  8
0
100
AcDbLine
 10
16.857788829286
 20
199.691283898655
 30
0.0
 11
17.663588829286
 21
199.004283898655
 31
0.0
  0
LINE
  5
31D
330
1E
100
AcDbEntity
  8
0
100
AcDbLine
 10
17.206288829286
 20
200.228283898655
 30
0.0
 11
17.717593912651
 21
201.015399975514
 31
0.0
  0
LINE
  5
31E
330
1E
100
AcDbEntity
  8
0
100
AcDbLine
 10
17.206288829286
 20
200.228283898655
 30
0.0
 11
18.161688829286
 21
199.771283898655
 31
0.0
  0
LINE
  5
31F
330
1E
100
AcDbEntity
  8
0
100
AcDbLine
 10
16.654488829286
 20
200.204283898655
 30
0.0
 11
16.857788829286
 21
199.691283898655
 31
0.0
  0
LINE
  5
320
330
1E
100
AcDbEntity
  8
0
100
AcDbLine
 10
16.654488829286
 20
200.204283898655
 30
0.0
 11
17.094736159065
 21
200.882370870208
 31
0.0
  0
LINE
  5
321
330
1E
100
AcDbEntity
  8
0
100
AcDbLine
 10
16.654488829286
 20
200.204283898655
 30
0.0
 11
17.206288829286
 21
200.228283898655
 31
0.0
  0
LINE
  5
322
330
1E
100
AcDbEntity
  8
0
100
AcDbLine
 10
16.654488829286
 20
200.204283898655
 30
0.0
 11
16.782688439614
 21
200.401742190033
 31
0.0
  0
LINE
  5
323
330
1E
100
AcDbEntity
  8
0
100
AcDbLine
 10
18.967588829286
 20
199.084283898655
 30
0.0
 11
19.170488829286
 21
198.570283898655
 31
0.0
  0
LINE
  5
324
330
1E
100
AcDbEntity
  8
0
100
AcDbLine
 10
18.967588829286
 20
199.084283898655
 30
0.0
 11
19.356686310961
 21
199.683328223571
 31
0.0
  0
LINE
  5
325
330
1E
100
AcDbEntity
  8
0
100
AcDbLine
 10
20.815588829286
 20
201.857283898655
 30
0.0
 11
20.860188829286
 21
201.099283898655
 31
0.0
  0
LINE
  5
326
330
1E
100
AcDbEntity
  8
0
100
AcDbLine
 10
20.815588829286
 20
201.857283898655
 30
0.0
 11
21.159251279053
 21
202.386532607566
 31
0.0
  0
LINE
  5
327
330
1E
100
AcDbEntity
  8
0
100
AcDbLine
 10
20.860188829286
 20
201.099283898655
 30
0.0
 11
21.409764584729
 21
201.946264711774
 31
0.0
  0
LINE
  5
328
330
1E
100
AcDbEntity
  8
0
100
AcDbLine
 10
20.149888829286
 20
200.832283898655
 30
0.0
 11
20.860188829286
 21
201.099283898655
 31
0.0
  0
LINE
  5
329
330
1E
100
AcDbEntity
  8
0
100
AcDbLine
 10
19.126588829286
 20
201.184283898655
 30
0.0
 11
20.149888829286
 21
200.832283898655
 31
0.0
  0
LINE
  5
32A
330
1E
100
AcDbEntity
  8
0
100
AcDbLine
 10
19.054288829286
 20
203.000283898655
 30
0.0
 11
20.077688829286
 21
202.649283898655
 31
0.0
  0
LINE
  5
32B
330
1E
100
AcDbEntity
  8
0
100
AcDbLine
 10
19.054288829286
 20
203.000283898655
 30
0.0
 11
19.538352912305
 21
203.746132722812
 31
0.0
  0
LINE
  5
32C
330
1E
100
AcDbEntity
  8
0
100
AcDbLine
 10
20.077688829286
 20
202.649283898655
 30
0.0
 11
20.418691597538
 21
203.174377346268
 31
0.0
  0
LINE
  5
32D
330
1E
100
AcDbEntity
  8
0
100
AcDbLine
 10
20.077688829286
 20
202.649283898655
 30
0.0
 11
20.815588829286
 21
201.857283898655
 31
0.0
  0
LINE
  5
32E
330
1E
100
AcDbEntity
  8
0
100
AcDbLine
 10
18.388688829286
 20
201.976283898655
 30
0.0
 11
19.126588829286
 21
201.184283898655
 31
0.0
  0
LINE
  5
32F
330
1E
100
AcDbEntity
  8
0
100
AcDbLine
 10
18.344088829286
 20
202.733283898655
 30
0.0
 11
18.388688829286
 21
201.976283898655
 31
0.0
  0
LINE
  5
330
330
1E
100
AcDbEntity
  8
0
100
AcDbLine
 10
18.344088829286
 20
202.733283898655
 30
0.0
 11
18.633370484321
 21
203.178734539282
 31
0.0
  0
LINE
  5
331
330
1E
100
AcDbEntity
  8
0
100
AcDbLine
 10
18.344088829286
 20
202.733283898655
 30
0.0
 11
19.054288829286
 21
203.000283898655
 31
0.0
  0
LINE
  5
332
330
1E
100
AcDbEntity
  8
0
100
AcDbLine
 10
18.161688829286
 20
199.771283898655
 30
0.0
 11
18.537159330724
 21
200.349348480547
 31
0.0
  0
LINE
  5
333
330
1E
100
AcDbEntity
  8
0
100
AcDbLine
 10
18.161688829286
 20
199.771283898655
 30
0.0
 11
18.967588829286
 21
199.084283898655
 31
0.0
  0
LINE
  5
334
330
1E
100
AcDbEntity
  8
0
100
AcDbLine
 10
12.428988829286
 20
207.304283898655
 30
0.0
 11
12.473388829286
 21
206.546283898655
 31
0.0
  0
LINE
  5
335
330
1E
100
AcDbEntity
  8
0
100
AcDbLine
 10
12.428988829286
 20
207.304283898655
 30
0.0
 11
12.824150530317
 21
207.912465242947
 31
0.0
  0
LINE
  5
336
330
1E
100
AcDbEntity
  8
0
100
AcDbLine
 10
12.473388829286
 20
206.546283898655
 30
0.0
 11
12.677201114331
 21
206.860124445958
 31
0.0
  0
LINE
  5
33E
330
1E
100
AcDbEntity
  8
0
100
AcDbLine
 10
19.281693530255
 20
198.74154942694
 30
0.0
 11
25.119762922863
 21
194.879295272533
 31
0.0
  0
LINE
  5
33F
330
1E
100
AcDbEntity
  8
0
100
AcDbLine
 10
12.278988829286
 20
203.374283898655
 30
0.0
 11
16.779535580155
 21
200.39688602674
 31
0.0
  0
LINE
  5
340
330
1E
100
AcDbEntity
  8
0
100
AcDbLine
 10
35.962270030833
 20
187.70628733005
 30
0.0
 11
38.420088829286
 21
186.080283898655
 31
0.0
  0
LINE
  5
341
330
1E
100
AcDbEntity
  8
0
100
AcDbLine
 10
11.002791843844
 20
204.355025813666
 30
0.0
 11
12.278988829286
 21
203.374283898655
 31
0.0
  0
LINE
  5
346
330
1E
100
AcDbEntity
  8
0
100
AcDbLine
 10
12.183188829286
 20
221.003283898655
 30
0.0
 11
21.895788829286
 21
214.696283898655
 31
0.0
  0
LINE
  5
34E
330
1E
100
AcDbEntity
  8
0
100
AcDbLine
 10
-6.682741170714
 20
233.255283898655
 30
0.0
 11
-6.558481170714
 21
233.175283898655
 31
0.0
  0
LINE
  5
34F
330
1E
100
AcDbEntity
  8
0
100
AcDbLine
 10
97.424488829286
 20
146.953283898655
 30
0.0
 11
103.413788829286
 21
140.087283898655
 31
0.0
  0
LINE
  5
36F
330
1E
100
AcDbEntity
  8
0
100
AcDbLine
 10
183.235
 20
0.0
 30
0.0
 11
186.735
 21
0.0
 31
0.0
  0
LINE
  5
371
330
1E
100
AcDbEntity
  8
0
100
AcDbLine
 10
182.0
 20
0.0
 30
0.0
 11
183.3
 21
0.0
 31
0.0
  0
LINE
  5
372
330
1E
100
AcDbEntity
  8
0
100
AcDbLine
 10
182.0
 20
0.0
 30
0.0
 11
183.235
 21
0.0
 31
0.0
  0
LINE
  5
377
330
1E
100
AcDbEntity
  8
0
100
AcDbLine
 10
183.3
 20
0.0
 30
0.0
 11
186.7
 21
0.0
 31
0.0
  0
LINE
  5
380
330
1E
100
AcDbEntity
  8
0
100
AcDbLine
 10
186.8377
 20
0.0
 30
0.0
 11
187.8898
 21
0.0
 31
0.0
  0
LINE
  5
39E
330
1E
100
AcDbEntity
  8
0
100
AcDbLine
 10
187.8898
 20
0.0
 30
0.0
 11
190.871
 21
0.0
 31
0.0
  0
LINE
  5
3A3
330
1E
100
AcDbEntity
  8
0
100
AcDbLine
 10
186.735
 20
0.0
 30
0.0
 11
186.8377
 21
0.0
 31
0.0
  0
LINE
  5
3A4
330
1E
100
AcDbEntity
  8
0
100
AcDbLine
 10
186.7
 20
0.0
 30
0.0
 11
192.0
 21
0.0
 31
0.0
  0
LINE
  5
3A5
330
1E
100
AcDbEntity
  8
0
100
AcDbLine
 10
186.7
 20
0.0
 30
0.0
 11
192.3
 21
0.0
 31
0.0
  0
LINE
  5
3DA
330
1E
100
AcDbEntity
  8
0
100
AcDbLine
 10
192.0
 20
0.0
 30
0.0
 11
192.9
 21
0.0
 31
0.0
  0
LINE
  5
3DC
330
1E
100
AcDbEntity
  8
0
100
AcDbLine
 10
192.9
 20
0.0
 30
0.0
 11
195.3
 21
0.0
 31
0.0
  0
LINE
  5
3DD
330
1E
100
AcDbEntity
  8
0
100
AcDbLine
 10
190.871
 20
0.0
 30
0.0
 11
192.0
 21
0.0
 31
0.0
  0
LINE
  5
3F6
330
1E
100
AcDbEntity
  8
0
100
AcDbLine
 10
195.3
 20
0.0
 30
0.0
 11
199.3
 21
0.0
 31
0.0
  0
LINE
  5
3F7
330
1E
100
AcDbEntity
  8
0
100
AcDbLine
 10
199.3
 20
0.0
 30
0.0
 11
204.6
 21
0.0
 31
0.0
  0
LINE
  5
3FB
330
1E
100
AcDbEntity
  8
0
100
AcDbLine
 10
192.3
 20
0.0
 30
0.0
 11
199.6
 21
0.0
 31
0.0
  0
LINE
  5
3FC
330
1E
100
AcDbEntity
  8
0
100
AcDbLine
 10
199.6
 20
0.0
 30
0.0
 11
208.0
 21
0.0
 31
0.0
  0
LINE
  5
412
330
1E
100
AcDbEntity
  8
0
100
AcDbLine
 10
204.6
 20
0.0
 30
0.0
 11
210.6
 21
0.0
 31
0.0
  0
LINE
  5
46B
330
1E
100
AcDbEntity
  8
0
100
AcDbLine
 10
210.6
 20
0.0
 30
0.0
 11
217.0
 21
0.0
 31
0.0
  0
LINE
  5
4DF
330
1E
100
AcDbEntity
  8
0
100
AcDbLine
 10
241.1
 20
0.0
 30
0.0
 11
242.0
 21
0.0
 31
0.0
  0
LINE
  5
4E0
330
1E
100
AcDbEntity
  8
0
100
AcDbLine
 10
238.7
 20
0.0
 30
0.0
 11
241.1
 21
0.0
 31
0.0
  0
LINE
  5
536
330
1E
100
AcDbEntity
  8
0
100
AcDbLine
 10
243.129
 20
0.0
 30
0.0
 11
246.11
 21
0.0
 31
0.0
  0
LINE
  5
539
330
1E
100
AcDbEntity
  8
0
100
AcDbLine
 10
246.11
 20
0.0
 30
0.0
 11
247.162
 21
0.0
 31
0.0
  0
LINE
  5
53D
330
1E
100
AcDbEntity
  8
0
100
AcDbLine
 10
247.162
 20
0.0
 30
0.0
 11
247.265
 21
0.0
 31
0.0
  0
LINE
  5
53F
330
1E
100
AcDbEntity
  8
0
100
AcDbLine
 10
247.265
 20
0.0
 30
0.0
 11
250.765
 21
0.0
 31
0.0
  0
LINE
  5
540
330
1E
100
AcDbEntity
  8
0
100
AcDbLine
 10
241.7
 20
0.0
 30
0.0
 11
247.3
 21
0.0
 31
0.0
  0
LINE
  5
544
330
1E
100
AcDbEntity
  8
0
100
AcDbLine
 10
217.0
 20
0.0
 30
0.0
 11
238.7
 21
0.0
 31
0.0
  0
LINE
  5
54B
330
1E
100
AcDbEntity
  8
0
100
AcDbLine
 10
250.765
 20
0.0
 30
0.0
 11
252.0
 21
0.0
 31
0.0
  0
LINE
  5
551
330
1E
100
AcDbEntity
  8
0
100
AcDbLine
 10
250.7
 20
0.0
 30
0.0
 11
252.0
 21
0.0
 31
0.0
  0
LINE
  5
552
330
1E
100
AcDbEntity
  8
0
100
AcDbLine
 10
247.3
 20
0.0
 30
0.0
 11
250.7
 21
0.0
 31
0.0
  0
LINE
  5
55A
330
1E
100
AcDbEntity
  8
0
100
AcDbLine
 10
242.0
 20
0.0
 30
0.0
 11
247.3
 21
0.0
 31
0.0
  0
LINE
  5
55B
330
1E
100
AcDbEntity
  8
0
100
AcDbLine
 10
242.0
 20
0.0
 30
0.0
 11
243.129
 21
0.0
 31
0.0
  0
LINE
  5
55D
330
1E
100
AcDbEntity
  8
0
100
AcDbLine
 10
208.0
 20
0.0
 30
0.0
 11
217.0
 21
0.0
 31
0.0
  0
LINE
  5
56F
330
1E
100
AcDbEntity
  8
0
100
AcDbLine
 10
225.49916086919
 20
22.7
 30
0.0
 11
232.588
 21
22.7
 31
0.0
  0
LINE
  5
570
330
1E
100
AcDbEntity
  8
0
100
AcDbLine
 10
232.588
 20
22.7
 30
0.0
 11
236.101
 21
22.7
 31
0.0
  0
LINE
  5
571
330
1E
100
AcDbEntity
  8
0
100
AcDbLine
 10
225.247464944525
 20
23.0
 30
0.0
 11
232.149
 21
23.0
 31
0.0
  0
LINE
  5
572
330
1E
100
AcDbEntity
  8
0
100
AcDbLine
 10
232.149
 20
23.0
 30
0.0
 11
235.574
 21
23.0
 31
0.0
  0
LINE
  5
573
330
1E
100
AcDbEntity
  8
0
100
AcDbLine
 10
235.574
 20
23.0
 30
0.0
 11
237.682
 21
23.0
 31
0.0
  0
LINE
  5
578
330
1E
100
AcDbEntity
  8
0
100
AcDbLine
 10
223.352556448021
 20
25.374708837643
 30
0.0
 11
226.364
 21
26.2961
 31
0.0
  0
LINE
  5
579
330
1E
100
AcDbEntity
  8
0
100
AcDbLine
 10
226.364
 20
26.2961
 30
0.0
 11
228.613
 21
26.9789
 31
0.0
  0
LINE
  5
583
330
1E
100
AcDbEntity
  8
0
100
AcDbLine
 10
228.613
 20
26.9789
 30
0.0
 11
229.53047706392
 21
27.25707549139
 31
0.0
  0
LINE
  5
584
330
1E
100
AcDbEntity
  8
0
100
AcDbLine
 10
228.613
 20
26.9789
 30
0.0
 11
236.854
 21
29.4794
 31
0.0
  0
LINE
  5
592
330
1E
100
AcDbEntity
  8
0
100
AcDbLine
 10
235.226709629526
 20
28.985993941552
 30
0.0
 11
235.682
 21
28.0781
 31
0.0
  0
LINE
  5
594
330
1E
100
AcDbEntity
  8
0
100
AcDbLine
 10
235.682
 20
28.0781
 30
0.0
 11
236.417
 21
26.1351
 31
0.0
  0
LINE
  5
597
330
1E
100
AcDbEntity
  8
0
100
AcDbLine
 10
240.939429627009
 20
17.819724465969
 30
0.0
 11
245.308
 21
29.3259
 31
0.0
  0
LINE
  5
59A
330
1E
100
AcDbEntity
  8
0
100
AcDbLine
 10
237.682
 20
23.0
 30
0.0
 11
238.473
 21
23.0
 31
0.0
  0
LINE
  5
59B
330
1E
100
AcDbEntity
  8
0
100
AcDbLine
 10
236.101
 20
22.7
 30
0.0
 11
238.209
 21
22.7
 31
0.0
  0
LINE
  5
59C
330
1E
100
AcDbEntity
  8
0
100
AcDbLine
 10
239.0
 20
22.7
 30
0.0
 11
239.0
 21
18.0
 31
0.0
  0
LINE
  5
59D
330
1E
100
AcDbEntity
  8
0
100
AcDbLine
 10
238.473
 20
23.0
 30
0.0
 11
239.0
 21
22.7
 31
0.0
  0
LINE
  5
59E
330
1E
100
AcDbEntity
  8
0
100
AcDbLine
 10
238.209
 20
22.7
 30
0.0
 11
239.0
 21
22.7
 31
0.0
  0
LINE
  5
59F
330
1E
100
AcDbEntity
  8
0
100
AcDbLine
 10
239.0
 20
9.702136327566
 30
0.0
 11
239.0
 21
22.7
 31
0.0
  0
LINE
  5
5A1
330
1E
100
AcDbEntity
  8
0
100
AcDbLine
 10
236.948
 20
24.1255
 30
0.0
 11
237.124125140155
 21
23.0
 31
0.0
  0
LINE
  5
5A2
330
1E
100
AcDbEntity
  8
0
100
AcDbLine
 10
236.854
 20
29.4794
 30
0.0
 11
237.717
 21
29.7418
 31
0.0
  0
LINE
  5
5A4
330
1E
100
AcDbEntity
  8
0
100
AcDbLine
 10
237.717
 20
29.7418
 30
0.0
 11
238.247
 21
29.9028
 31
0.0
  0
LINE
  5
5A5
330
1E
100
AcDbEntity
  8
0
100
AcDbLine
 10
238.448
 20
29.9634
 30
0.0
 11
238.634
 21
30.0688
 31
0.0
  0
LINE
  5
5A6
330
1E
100
AcDbEntity
  8
0
100
AcDbLine
 10
238.446
 20
29.9625
 30
0.0
 11
238.634
 21
30.0688
 31
0.0
  0
LINE
  5
5A9
330
1E
100
AcDbEntity
  8
0
100
AcDbLine
 10
238.634
 20
30.0688
 30
0.0
 11
238.706
 21
30.1483
 31
0.0
  0
LINE
  5
5AB
330
1E
100
AcDbEntity
  8
0
100
AcDbLine
 10
238.247
 20
29.9028
 30
0.0
 11
238.446
 21
29.9625
 31
0.0
  0
LINE
  5
5AC
330
1E
100
AcDbEntity
  8
0
100
AcDbLine
 10
236.417
 20
26.1351
 30
0.0
 11
236.948
 21
24.1255
 31
0.0
  0
LINE
  5
5AE
330
1E
100
AcDbEntity
  8
0
100
AcDbLine
 10
240.870709236408
 20
29.159200151406
 30
0.0
 11
241.513
 21
30.8509
 31
0.0
  0
LINE
  5
5AF
330
1E
100
AcDbEntity
  8
0
100
AcDbLine
 10
240.792647452953
 20
28.953596840977
 30
0.0
 11
240.826126856925
 21
29.041776690106
 31
0.0
  0
LINE
  5
5B0
330
1E
100
AcDbEntity
  8
0
100
AcDbLine
 10
240.792647452953
 20
28.953596840977
 30
0.0
 11
241.513
 21
30.8509
 31
0.0
  0
LINE
  5
5B2
330
1E
100
AcDbEntity
  8
0
100
AcDbLine
 10
245.308
 20
29.3259
 30
0.0
 11
246.105
 21
30.6559
 31
0.0
  0
LINE
  5
5B4
330
1E
100
AcDbEntity
  8
0
100
AcDbLine
 10
238.76
 20
30.2427
 30
0.0
 11
238.8
 21
30.4514
 31
0.0
  0
LINE
  5
5B5
330
1E
100
AcDbEntity
  8
0
100
AcDbLine
 10
238.706
 20
30.1483
 30
0.0
 11
238.76
 21
30.2427
 31
0.0
  0
LINE
  5
5B8
330
1E
100
AcDbEntity
  8
0
100
AcDbLine
 10
241.513
 20
30.8509
 30
0.0
 11
242.969
 21
33.2819
 31
0.0
  0
LINE
  5
5BB
330
1E
100
AcDbEntity
  8
0
100
AcDbLine
 10
246.105
 20
30.6559
 30
0.0
 11
247.275
 21
31.6749
 31
0.0
  0
LINE
  5
5BF
330
1E
100
AcDbEntity
  8
0
100
AcDbLine
 10
248.704
 20
32.2829
 30
0.0
 11
250.25
 21
32.4179
 31
0.0
  0
LINE
  5
5C0
330
1E
100
AcDbEntity
  8
0
100
AcDbLine
 10
247.275
 20
31.6749
 30
0.0
 11
248.704
 21
32.2829
 31
0.0
  0
LINE
  5
5C1
330
1E
100
AcDbEntity
  8
0
100
AcDbLine
 10
250.25
 20
32.4179
 30
0.0
 11
262.157
 21
31.5859
 31
0.0
  0
LINE
  5
5C2
330
1E
100
AcDbEntity
  8
0
100
AcDbLine
 10
262.212
 20
32.3649
 30
0.0
 11
262.3
 21
33.6249
 31
0.0
  0
LINE
  5
5C3
330
1E
100
AcDbEntity
  8
0
100
AcDbLine
 10
262.157
 20
31.5859
 30
0.0
 11
262.212
 21
32.3649
 31
0.0
  0
LINE
  5
5C4
330
1E
100
AcDbEntity
  8
0
100
AcDbLine
 10
240.939429627009
 20
17.819724465969
 30
0.0
 11
240.947780699406
 21
9.223820761279
 31
0.0
  0
LINE
  5
5C8
330
1E
100
AcDbEntity
  8
0
100
AcDbLine
 10
133.369
 20
61.5553
 30
0.0
 11
133.949
 21
61.0703
 31
0.0
  0
LINE
  5
5C9
330
1E
100
AcDbEntity
  8
0
100
AcDbLine
 10
133.949
 20
61.0703
 30
0.0
 11
135.367
 21
60.0794
 31
0.0
  0
LINE
  5
5CB
330
1E
100
AcDbEntity
  8
0
100
AcDbLine
 10
144.55
 20
55.5235
 30
0.0
 11
146.488
 21
54.8944
 31
0.0
  0
LINE
  5
5CC
330
1E
100
AcDbEntity
  8
0
100
AcDbLine
 10
142.607
 20
56.255
 30
0.0
 11
144.55
 21
55.5235
 31
0.0
  0
LINE
  5
5CD
330
1E
100
AcDbEntity
  8
0
100
AcDbLine
 10
139.69
 20
57.5709
 30
0.0
 11
142.607
 21
56.255
 31
0.0
  0
LINE
  5
5CE
330
1E
100
AcDbEntity
  8
0
100
AcDbLine
 10
136.797
 20
59.168
 30
0.0
 11
139.69
 21
57.5709
 31
0.0
  0
LINE
  5
5CF
330
1E
100
AcDbEntity
  8
0
100
AcDbLine
 10
135.367
 20
60.0794
 30
0.0
 11
136.797
 21
59.168
 31
0.0
  0
LINE
  5
5D3
330
1E
100
AcDbEntity
  8
0
100
AcDbLine
 10
133.093
 20
63.0212
 30
0.0
 11
133.449
 21
63.6921
 31
0.0
  0
LINE
  5
5D4
330
1E
100
AcDbEntity
  8
0
100
AcDbLine
 10
133.002
 20
62.7032
 30
0.0
 11
133.093
 21
63.0212
 31
0.0
  0
LINE
  5
5D5
330
1E
100
AcDbEntity
  8
0
100
AcDbLine
 10
133.0
 20
62.242
 30
0.0
 11
133.168
 21
61.8147
 31
0.0
  0
LINE
  5
5D6
330
1E
100
AcDbEntity
  8
0
100
AcDbLine
 10
133.0
 20
62.242
 30
0.0
 11
133.002
 21
62.7032
 31
0.0
  0
LINE
  5
5D7
330
1E
100
AcDbEntity
  8
0
100
AcDbLine
 10
133.168
 20
61.8147
 30
0.0
 11
133.369
 21
61.5553
 31
0.0
  0
LINE
  5
5D8
330
1E
100
AcDbEntity
  8
0
100
AcDbLine
 10
154.091
 20
53.2168
 30
0.0
 11
156.798
 21
52.8511
 31
0.0
  0
LINE
  5
5D9
330
1E
100
AcDbEntity
  8
0
100
AcDbLine
 10
151.295
 20
53.7068
 30
0.0
 11
154.091
 21
53.2168
 31
0.0
  0
LINE
  5
5DA
330
1E
100
AcDbEntity
  8
0
100
AcDbLine
 10
148.907
 20
54.2365
 30
0.0
 11
151.295
 21
53.7068
 31
0.0
  0
LINE
  5
5DD
330
1E
100
AcDbEntity
  8
0
100
AcDbLine
 10
153.852
 20
61.8544
 30
0.0
 11
155.319
 21
61.7252
 31
0.0
  0
LINE
  5
5DE
330
1E
100
AcDbEntity
  8
0
100
AcDbLine
 10
156.798
 20
52.8511
 30
0.0
 11
160.224
 21
52.5062
 31
0.0
  0
LINE
  5
5DF
330
1E
100
AcDbEntity
  8
0
100
AcDbLine
 10
160.224
 20
52.5062
 30
0.0
 11
161.577050169775
 21
52.41176416697
 31
0.0
  0
LINE
  5
5E0
330
1E
100
AcDbEntity
  8
0
100
AcDbLine
 10
155.319
 20
61.7252
 30
0.0
 11
155.743137611737
 21
61.699786196869
 31
0.0
  0
LINE
  5
5E2
330
1E
100
AcDbEntity
  8
0
100
AcDbLine
 10
147.498
 20
62.5163
 30
0.0
 11
150.755
 21
62.1258
 31
0.0
  0
LINE
  5
5E4
330
1E
100
AcDbEntity
  8
0
100
AcDbLine
 10
150.755
 20
62.1258
 30
0.0
 11
153.852
 21
61.8544
 31
0.0
  0
LINE
  5
5E6
330
1E
100
AcDbEntity
  8
0
100
AcDbLine
 10
146.488
 20
54.8944
 30
0.0
 11
148.907
 21
54.2365
 31
0.0
  0
LINE
  5
5E7
330
1E
100
AcDbEntity
  8
0
100
AcDbLine
 10
133.449
 20
63.6921
 30
0.0
 11
133.799
 21
64.2735
 31
0.0
  0
LINE
  5
5E9
330
1E
100
AcDbEntity
  8
0
100
AcDbLine
 10
134.063
 20
64.673
 30
0.0
 11
134.423
 21
64.9583
 31
0.0
  0
LINE
  5
5ED
330
1E
100
AcDbEntity
  8
0
100
AcDbLine
 10
133.799
 20
64.2735
 30
0.0
 11
134.063
 21
64.673
 31
0.0
  0
LINE
  5
5EE
330
1E
100
AcDbEntity
  8
0
100
AcDbLine
 10
134.423
 20
64.9583
 30
0.0
 11
134.881
 21
65.0
 31
0.0
  0
LINE
  5
5F3
330
1E
100
AcDbEntity
  8
0
100
AcDbLine
 10
134.881
 20
65.0
 30
0.0
 11
135.033
 21
64.9662
 31
0.0
  0
LINE
  5
5F5
330
1E
100
AcDbEntity
  8
0
100
AcDbLine
 10
135.033
 20
64.9662
 30
0.0
 11
135.352
 21
64.8947
 31
0.0
  0
LINE
  5
5F7
330
1E
100
AcDbEntity
  8
0
100
AcDbLine
 10
141.215
 20
63.5738
 30
0.0
 11
144.132
 21
63.0222
 31
0.0
  0
LINE
  5
5F8
330
1E
100
AcDbEntity
  8
0
100
AcDbLine
 10
139.834
 20
63.8352
 30
0.0
 11
144.132
 21
63.0222
 31
0.0
  0
LINE
  5
5F9
330
1E
100
AcDbEntity
  8
0
100
AcDbLine
 10
139.834
 20
63.8352
 30
0.0
 11
141.215
 21
63.5738
 31
0.0
  0
LINE
  5
5FF
330
1E
100
AcDbEntity
  8
0
100
AcDbLine
 10
135.352
 20
64.8947
 30
0.0
 11
139.834
 21
63.8352
 31
0.0
  0
LINE
  5
600
330
1E
100
AcDbEntity
  8
0
100
AcDbLine
 10
144.132
 20
63.0222
 30
0.0
 11
147.498
 21
62.5163
 31
0.0
  0
LINE
  5
607
330
1E
100
AcDbEntity
  8
0
100
AcDbLine
 10
242.969
 20
33.2819
 30
0.0
 11
245.106
 21
35.1419
 31
0.0
  0
LINE
  5
60D
330
1E
100
AcDbEntity
  8
0
100
AcDbLine
 10
262.3
 20
33.6249
 30
0.0
 11
262.388
 21
34.8859
 31
0.0
  0
LINE
  5
60E
330
1E
100
AcDbEntity
  8
0
100
AcDbLine
 10
245.106
 20
35.1419
 30
0.0
 11
247.713
 21
36.2499
 31
0.0
  0
LINE
  5
610
330
1E
100
AcDbEntity
  8
0
100
AcDbLine
 10
247.713
 20
36.2499
 30
0.0
 11
250.535
 21
36.4979
 31
0.0
  0
LINE
  5
612
330
1E
100
AcDbEntity
  8
0
100
AcDbLine
 10
250.535
 20
36.4979
 30
0.0
 11
262.442
 21
35.6649
 31
0.0
  0
LINE
  5
613
330
1E
100
AcDbEntity
  8
0
100
AcDbLine
 10
262.388
 20
34.8859
 30
0.0
 11
262.442
 21
35.6649
 31
0.0
  0
LINE
  5
617
330
1E
100
AcDbEntity
  8
0
100
AcDbLine
 10
193.159159424563
 20
61.2313
 30
0.0
 11
236.598
 21
61.2313
 31
0.0
  0
LINE
  5
618
330
1E
100
AcDbEntity
  8
0
100
AcDbLine
 10
194.09992867244
 20
61.2313
 30
0.0
 11
194.259
 21
85.5425
 31
0.0
  0
LINE
  5
621
330
1E
100
AcDbEntity
  8
0
100
AcDbLine
 10
236.196
 20
61.2223
 30
0.0
 11
236.418
 21
61.2273
 31
0.0
  0
LINE
  5
622
330
1E
100
AcDbEntity
  8
0
100
AcDbLine
 10
237.888
 20
60.5008
 30
0.0
 11
237.934
 21
59.9423
 31
0.0
  0
LINE
  5
623
330
1E
100
AcDbEntity
  8
0
100
AcDbLine
 10
237.16
 20
61.2025
 30
0.0
 11
237.384
 21
61.1438
 31
0.0
  0
LINE
  5
624
330
1E
100
AcDbEntity
  8
0
100
AcDbLine
 10
237.384
 20
61.1438
 30
0.0
 11
237.65
 21
60.9798
 31
0.0
  0
LINE
  5
625
330
1E
100
AcDbEntity
  8
0
100
AcDbLine
 10
237.65
 20
60.9798
 30
0.0
 11
237.823
 21
60.7214
 31
0.0
  0
LINE
  5
626
330
1E
100
AcDbEntity
  8
0
100
AcDbLine
 10
237.823
 20
60.7214
 30
0.0
 11
237.888
 21
60.5008
 31
0.0
  0
LINE
  5
627
330
1E
100
AcDbEntity
  8
0
100
AcDbLine
 10
236.418
 20
61.2273
 30
0.0
 11
236.553
 21
61.2303
 31
0.0
  0
LINE
  5
628
330
1E
100
AcDbEntity
  8
0
100
AcDbLine
 10
236.598
 20
61.2313
 30
0.0
 11
237.16
 21
61.2025
 31
0.0
  0
LINE
  5
629
330
1E
100
AcDbEntity
  8
0
100
AcDbLine
 10
237.934
 20
59.9423
 30
0.0
 11
238.8
 21
30.4514
 31
0.0
  0
LINE
  5
62B
330
1E
100
AcDbEntity
  8
0
100
AcDbLine
 10
142.771788829286
 20
78.641983898655
 30
0.0
 11
162.263788829286
 21
53.220683898655
 31
0.0
  0
LINE
  5
62C
330
1E
100
AcDbEntity
  8
0
100
AcDbLine
 10
114.684788829286
 20
122.466483898655
 30
0.0
 11
120.913788829286
 21
112.023683898655
 31
0.0
  0
LINE
  5
62D
330
1E
100
AcDbEntity
  8
0
100
AcDbLine
 10
120.913788829286
 20
112.023683898655
 30
0.0
 11
129.920788829286
 21
97.773683898655
 31
0.0
  0
LINE
  5
62F
330
1E
100
AcDbEntity
  8
0
100
AcDbLine
 10
129.920788829286
 20
97.773683898655
 30
0.0
 11
142.771788829286
 21
78.641983898655
 31
0.0
  0
LINE
  5
631
330
1E
100
AcDbEntity
  8
0
100
AcDbLine
 10
109.051788829286
 20
132.662283898655
 30
0.0
 11
114.684788829286
 21
122.466483898655
 31
0.0
  0
LINE
  5
643
330
1E
100
AcDbEntity
  8
0
100
AcDbLine
 10
109.043788829286
 20
156.684283898655
 30
0.0
 11
113.914788829286
 21
151.332283898655
 31
0.0
  0
LINE
  5
644
330
1E
100
AcDbEntity
  8
0
100
AcDbLine
 10
113.914788829286
 20
151.332283898655
 30
0.0
 11
121.118788829286
 21
143.237283898655
 31
0.0
  0
LINE
  5
64A
330
1E
100
AcDbEntity
  8
0
100
AcDbLine
 10
146.514191266014
 20
113.166416640561
 30
0.0
 11
160.94
 21
113.221
 31
0.0
  0
LINE
  5
64B
330
1E
100
AcDbEntity
  8
0
100
AcDbLine
 10
121.118788829286
 20
143.237283898655
 30
0.0
 11
128.582788829286
 21
134.461283898655
 31
0.0
  0
LINE
  5
64C
330
1E
100
AcDbEntity
  8
0
100
AcDbLine
 10
128.582788829286
 20
134.461283898655
 30
0.0
 11
136.046788829286
 21
125.685283898655
 31
0.0
  0
LINE
  5
64D
330
1E
100
AcDbEntity
  8
0
100
AcDbLine
 10
160.94
 20
113.221
 30
0.0
 11
167.011
 21
113.088
 31
0.0
  0
LINE
  5
64E
330
1E
100
AcDbEntity
  8
0
100
AcDbLine
 10
136.046788829286
 20
125.685283898655
 30
0.0
 11
147.703788829286
 21
111.796183898655
 31
0.0
  0
LINE
  5
650
330
1E
100
AcDbEntity
  8
0
100
AcDbLine
 10
193.432
 20
94.1035
 30
0.0
 11
194.012
 21
90.9172
 31
0.0
  0
LINE
  5
651
330
1E
100
AcDbEntity
  8
0
100
AcDbLine
 10
192.704
 20
96.563
 30
0.0
 11
193.432
 21
94.1035
 31
0.0
  0
LINE
  5
652
330
1E
100
AcDbEntity
  8
0
100
AcDbLine
 10
191.698
 20
99.002
 30
0.0
 11
192.704
 21
96.563
 31
0.0
  0
LINE
  5
653
330
1E
100
AcDbEntity
  8
0
100
AcDbLine
 10
190.752
 20
100.784
 30
0.0
 11
191.698
 21
99.002
 31
0.0
  0
LINE
  5
654
330
1E
100
AcDbEntity
  8
0
100
AcDbLine
 10
189.643
 20
102.496
 30
0.0
 11
190.752
 21
100.784
 31
0.0
  0
LINE
  5
655
330
1E
100
AcDbEntity
  8
0
100
AcDbLine
 10
188.373
 20
104.12
 30
0.0
 11
189.643
 21
102.496
 31
0.0
  0
LINE
  5
656
330
1E
100
AcDbEntity
  8
0
100
AcDbLine
 10
181.804
 20
109.4
 30
0.0
 11
183.652
 21
108.286
 31
0.0
  0
LINE
  5
657
330
1E
100
AcDbEntity
  8
0
100
AcDbLine
 10
183.652
 20
108.286
 30
0.0
 11
185.368
 21
107.028
 31
0.0
  0
LINE
  5
658
330
1E
100
AcDbEntity
  8
0
100
AcDbLine
 10
185.368
 20
107.028
 30
0.0
 11
186.945
 21
105.636
 31
0.0
  0
LINE
  5
659
330
1E
100
AcDbEntity
  8
0
100
AcDbLine
 10
186.945
 20
105.636
 30
0.0
 11
188.373
 21
104.12
 31
0.0
  0
LINE
  5
65A
330
1E
100
AcDbEntity
  8
0
100
AcDbLine
 10
194.192
 20
88.9297
 30
0.0
 11
194.259
 21
85.5425
 31
0.0
  0
LINE
  5
65B
330
1E
100
AcDbEntity
  8
0
100
AcDbLine
 10
194.012
 20
90.9172
 30
0.0
 11
194.192
 21
88.9297
 31
0.0
  0
LINE
  5
65C
330
1E
100
AcDbEntity
  8
0
100
AcDbLine
 10
169.914
 20
112.854
 30
0.0
 11
174.084
 21
112.192
 31
0.0
  0
LINE
  5
65D
330
1E
100
AcDbEntity
  8
0
100
AcDbLine
 10
167.011
 20
113.088
 30
0.0
 11
169.914
 21
112.854
 31
0.0
  0
LINE
  5
663
330
1E
100
AcDbEntity
  8
0
100
AcDbLine
 10
177.044
 20
111.409
 30
0.0
 11
179.836
 21
110.362
 31
0.0
  0
LINE
  5
664
330
1E
100
AcDbEntity
  8
0
100
AcDbLine
 10
174.084
 20
112.192
 30
0.0
 11
177.044
 21
111.409
 31
0.0
  0
LINE
  5
665
330
1E
100
AcDbEntity
  8
0
100
AcDbLine
 10
179.836
 20
110.362
 30
0.0
 11
181.804
 21
109.4
 31
0.0
  0
LINE
  5
667
330
1E
100
AcDbEntity
  8
0
100
AcDbLine
 10
219.882
 20
133.992
 30
0.0
 11
222.434233828008
 21
133.992950097681
 31
0.0
  0
LINE
  5
668
330
1E
100
AcDbEntity
  8
0
100
AcDbLine
 10
219.882
 20
133.992
 30
0.0
 11
222.434
 21
133.993
 31
0.0
  0
LINE
  5
673
330
1E
100
AcDbEntity
  8
0
100
AcDbLine
 10
240.264
 20
133.426
 30
0.0
 11
240.351
 21
133.192
 31
0.0
  0
LINE
  5
674
330
1E
100
AcDbEntity
  8
0
100
AcDbLine
 10
240.03
 20
133.709
 30
0.0
 11
240.264
 21
133.426
 31
0.0
  0
LINE
  5
675
330
1E
100
AcDbEntity
  8
0
100
AcDbLine
 10
239.678
 20
133.896
 30
0.0
 11
240.03
 21
133.709
 31
0.0
  0
LINE
  5
676
330
1E
100
AcDbEntity
  8
0
100
AcDbLine
 10
239.388
 20
133.965
 30
0.0
 11
239.678
 21
133.896
 31
0.0
  0
LINE
  5
677
330
1E
100
AcDbEntity
  8
0
100
AcDbLine
 10
240.351
 20
133.192
 30
0.0
 11
240.397
 21
132.625
 31
0.0
  0
LINE
  5
679
330
1E
100
AcDbEntity
  8
0
100
AcDbLine
 10
128.613628522091
 20
134.493536329366
 30
0.0
 11
226.233602757291
 21
133.994925453153
 31
0.0
  0
LINE
  5
67B
330
1E
100
AcDbEntity
  8
0
100
AcDbLine
 10
240.397
 20
132.625
 30
0.0
 11
240.88566696369
 21
29.198596615456
 31
0.0
  0
LINE
  5
67C
330
1E
100
AcDbEntity
  8
0
100
AcDbLine
 10
222.434
 20
133.993
 30
0.0
 11
224.45315880152
 21
133.993745443811
 31
0.0
  0
LINE
  5
67D
330
1E
100
AcDbEntity
  8
0
100
AcDbLine
 10
222.434
 20
133.993
 30
0.0
 11
224.441
 21
133.994
 31
0.0
  0
LINE
  5
67E
330
1E
100
AcDbEntity
  8
0
100
AcDbLine
 10
224.441
 20
133.994
 30
0.0
 11
226.378
 21
133.995
 31
0.0
  0
LINE
  5
67F
330
1E
100
AcDbEntity
  8
0
100
AcDbLine
 10
224.441
 20
133.994
 30
0.0
 11
226.375128267037
 21
133.994678879701
 31
0.0
  0
LINE
  5
680
330
1E
100
AcDbEntity
  8
0
100
AcDbLine
 10
228.23
 20
133.996
 30
0.0
 11
230.075785060517
 21
133.996529586379
 31
0.0
  0
LINE
  5
681
330
1E
100
AcDbEntity
  8
0
100
AcDbLine
 10
228.23
 20
133.996
 30
0.0
 11
229.977
 21
133.998
 31
0.0
  0
LINE
  5
682
330
1E
100
AcDbEntity
  8
0
100
AcDbLine
 10
228.23
 20
133.996
 30
0.0
 11
230.075785060517
 21
133.996529586379
 31
0.0
  0
LINE
  5
686
330
1E
100
AcDbEntity
  8
0
100
AcDbLine
 10
229.977
 20
133.998
 30
0.0
 11
231.446
 21
133.999
 31
0.0
  0
LINE
  5
687
330
1E
100
AcDbEntity
  8
0
100
AcDbLine
 10
229.977
 20
133.998
 30
0.0
 11
231.464243042034
 21
133.998170770816
 31
0.0
  0
LINE
  5
688
330
1E
100
AcDbEntity
  8
0
100
AcDbLine
 10
226.378
 20
133.995
 30
0.0
 11
228.23
 21
133.996
 31
0.0
  0
LINE
  5
689
330
1E
100
AcDbEntity
  8
0
100
AcDbLine
 10
226.378
 20
133.995
 30
0.0
 11
228.278876206583
 21
133.995617769323
 31
0.0
  0
LINE
  5
696
330
1E
100
AcDbEntity
  8
0
100
AcDbLine
 10
231.446
 20
133.999
 30
0.0
 11
234.11917647059
 21
133.999
 31
0.0
  0
LINE
  5
697
330
1E
100
AcDbEntity
  8
0
100
AcDbLine
 10
231.446
 20
133.999
 30
0.0
 11
232.804
 21
133.999
 31
0.0
  0
LINE
  5
69B
330
1E
100
AcDbEntity
  8
0
100
AcDbLine
 10
236.118
 20
134.0
 30
0.0
 11
236.941
 21
134.0
 31
0.0
  0
LINE
  5
69C
330
1E
100
AcDbEntity
  8
0
100
AcDbLine
 10
236.941
 20
134.0
 30
0.0
 11
237.905
 21
134.0
 31
0.0
  0
LINE
  5
6A0
330
1E
100
AcDbEntity
  8
0
100
AcDbLine
 10
235.148
 20
134.0
 30
0.0
 11
236.118
 21
134.0
 31
0.0
  0
LINE
  5
6A1
330
1E
100
AcDbEntity
  8
0
100
AcDbLine
 10
234.041
 20
134.0
 30
0.0
 11
235.148
 21
134.0
 31
0.0
  0
LINE
  5
6A2
330
1E
100
AcDbEntity
  8
0
100
AcDbLine
 10
234.041
 20
134.0
 30
0.0
 11
236.145463427622
 21
133.999546940059
 31
0.0
  0
LINE
  5
6A4
330
1E
100
AcDbEntity
  8
0
100
AcDbLine
 10
237.905
 20
134.0
 30
0.0
 11
238.49
 21
134.0
 31
0.0
  0
LINE
  5
6A5
330
1E
100
AcDbEntity
  8
0
100
AcDbLine
 10
232.804
 20
133.999
 30
0.0
 11
234.041
 21
134.0
 31
0.0
  0
LINE
  5
6A6
330
1E
100
AcDbEntity
  8
0
100
AcDbLine
 10
232.804
 20
133.999
 30
0.0
 11
234.11917647059
 21
133.999
 31
0.0
  0
LINE
  5
6AD
330
1E
100
AcDbEntity
  8
0
100
AcDbLine
 10
238.686
 20
133.999
 30
0.0
 11
239.388
 21
133.965
 31
0.0
  0
LINE
  5
6AF
330
1E
100
AcDbEntity
  8
0
100
AcDbLine
 10
238.49
 20
134.0
 30
0.0
 11
238.686
 21
133.999
 31
0.0
  0
LINE
  5
6B6
330
1E
100
AcDbEntity
  8
0
100
AcDbLine
 10
147.703788829286
 20
111.796183898655
 30
0.0
 11
161.950788829286
 21
94.003383898655
 31
0.0
  0
LINE
  5
6B7
330
1E
100
AcDbEntity
  8
0
100
AcDbLine
 10
161.950788829286
 20
94.003383898655
 30
0.0
 11
181.941788829286
 21
68.988983898655
 31
0.0
  0
LINE
  5
6B8
330
1E
100
AcDbEntity
  8
0
100
AcDbLine
 10
107.305788829286
 20
158.323283898655
 30
0.0
 11
109.043788829286
 21
156.684283898655
 31
0.0
  0
LINE
  5
6B9
330
1E
100
AcDbEntity
  8
0
100
AcDbLine
 10
104.653788829286
 20
160.542283898655
 30
0.0
 11
107.305788829286
 21
158.323283898655
 31
0.0
  0
LINE
  5
6BE
330
1E
100
AcDbEntity
  8
0
100
AcDbLine
 10
63.474910884344
 20
112.852546003248
 30
0.0
 11
68.5395
 21
113.152
 31
0.0
  0
LINE
  5
6BF
330
1E
100
AcDbEntity
  8
0
100
AcDbLine
 10
56.69208002856
 20
111.870088803865
 30
0.0
 11
60.1401
 21
112.523
 31
0.0
  0
LINE
  5
6C0
330
1E
100
AcDbEntity
  8
0
100
AcDbLine
 10
31.89
 20
101.453
 30
0.0
 11
32.0276
 21
101.611
 31
0.0
  0
LINE
  5
6C1
330
1E
100
AcDbEntity
  8
0
100
AcDbLine
 10
11.06134
 20
112.43
 30
0.0
 11
31.2541
 21
101.564
 31
0.0
  0
LINE
  5
6C2
330
1E
100
AcDbEntity
  8
0
100
AcDbLine
 10
98.443488829286
 20
164.986283898655
 30
0.0
 11
60.273388829286
 21
189.773283898655
 31
0.0
  0
LINE
  5
6C3
330
1E
100
AcDbEntity
  8
0
100
AcDbLine
 10
60.273388829286
 20
189.773283898655
 30
0.0
 11
21.895788829286
 21
214.696283898655
 31
0.0
  0
LINE
  5
6C4
330
1E
100
AcDbEntity
  8
0
100
AcDbLine
 10
12.183188829286
 20
221.003283898655
 30
0.0
 11
4.475888829286
 21
226.009283898655
 31
0.0
  0
LINE
  5
6C5
330
1E
100
AcDbEntity
  8
0
100
AcDbLine
 10
-0.478242170714
 20
229.225283898655
 30
0.0
 11
-1.770705170714
 21
230.065283898655
 31
0.0
  0
LINE
  5
6C6
330
1E
100
AcDbEntity
  8
0
100
AcDbLine
 10
-6.558481170714
 20
233.175283898655
 30
0.0
 11
-1.770705170714
 21
230.065283898655
 31
0.0
  0
LINE
  5
13AE
330
1E
100
AcDbEntity
  8
0
100
AcDbLine
 10
182.0
 20
0.0
 30
0.0
 11
182.281
 21
6.945168
 31
0.0
  0
LINE
  5
140D
330
1E
100
AcDbEntity
  8
0
100
AcDbLine
 10
182.412
 20
7.654248
 30
0.0
 11
183.087
 21
8.513718
 31
0.0
  0
LINE
  5
140E
330
1E
100
AcDbEntity
  8
0
100
AcDbLine
 10
182.281
 20
6.945168
 30
0.0
 11
182.412
 21
7.654248
 31
0.0
  0
LINE
  5
141E
330
1E
100
AcDbEntity
  8
0
100
AcDbLine
 10
183.087
 20
8.513718
 30
0.0
 11
184.165
 21
8.837758
 31
0.0
  0
LINE
  5
1420
330
1E
100
AcDbEntity
  8
0
100
AcDbLine
 10
184.293
 20
8.837758
 30
0.0
 11
188.45
 21
9.062388
 31
0.0
  0
LINE
  5
1421
330
1E
100
AcDbEntity
  8
0
100
AcDbLine
 10
184.165
 20
8.837758
 30
0.0
 11
184.294
 21
8.837758
 31
0.0
  0
LINE
  5
1422
330
1E
100
AcDbEntity
  8
0
100
AcDbLine
 10
184.165
 20
8.837758
 30
0.0
 11
184.293
 21
8.837758
 31
0.0
  0
LINE
  5
1429
330
1E
100
AcDbEntity
  8
0
100
AcDbLine
 10
188.45
 20
9.062388
 30
0.0
 11
188.592
 21
9.062388
 31
0.0
  0
LINE
  5
142C
330
1E
100
AcDbEntity
  8
0
100
AcDbLine
 10
188.867
 20
9.062388
 30
0.0
 11
189.016
 21
9.062388
 31
0.0
  0
LINE
  5
142D
330
1E
100
AcDbEntity
  8
0
100
AcDbLine
 10
188.604
 20
9.062388
 30
0.0
 11
188.753
 21
9.062388
 31
0.0
  0
LINE
  5
142E
330
1E
100
AcDbEntity
  8
0
100
AcDbLine
 10
188.604
 20
9.062388
 30
0.0
 11
188.867
 21
9.062388
 31
0.0
  0
LINE
  5
142F
330
1E
100
AcDbEntity
  8
0
100
AcDbLine
 10
188.753
 20
9.062388
 30
0.0
 11
189.313
 21
9.062388
 31
0.0
  0
LINE
  5
1430
330
1E
100
AcDbEntity
  8
0
100
AcDbLine
 10
189.88703157751
 20
9.062388
 30
0.0
 11
190.631656785869
 21
9.240884777647
 31
0.0
  0
LINE
  5
1431
330
1E
100
AcDbEntity
  8
0
100
AcDbLine
 10
189.313
 20
9.062388
 30
0.0
 11
189.88703157751
 21
9.062388
 31
0.0
  0
LINE
  5
1435
330
1E
100
AcDbEntity
  8
0
100
AcDbLine
 10
189.016
 20
9.062388
 30
0.0
 11
189.721
 21
9.062388
 31
0.0
  0
LINE
  5
1436
330
1E
100
AcDbEntity
  8
0
100
AcDbLine
 10
190.631656785869
 20
9.240884777647
 30
0.0
 11
191.282
 21
9.934688
 31
0.0
  0
LINE
  5
143C
330
1E
100
AcDbEntity
  8
0
100
AcDbLine
 10
190.983
 20
14.062388
 30
0.0
 11
191.495
 21
13.375888
 31
0.0
  0
LINE
  5
143D
330
1E
100
AcDbEntity
  8
0
100
AcDbLine
 10
191.495
 20
13.375888
 30
0.0
 11
191.89
 21
12.113488
 31
0.0
  0
LINE
  5
143E
330
1E
100
AcDbEntity
  8
0
100
AcDbLine
 10
191.282
 20
9.934688
 30
0.0
 11
191.751624425727
 21
10.831885990044
 31
0.0
  0
LINE
  5
144B
330
1E
100
AcDbEntity
  8
0
100
AcDbLine
 10
191.751624425727
 20
10.831885990044
 30
0.0
 11
191.89
 21
12.113488
 31
0.0
  0
LINE
  5
1451
330
1E
100
AcDbEntity
  8
0
100
AcDbLine
 10
188.592
 20
9.062388
 30
0.0
 11
189.016
 21
9.062388
 31
0.0
  0
LINE
  5
15EB
330
1E
100
AcDbEntity
  8
0
100
AcDbLine
 10
234.684
 20
12.047588
 30
0.0
 11
235.306
 21
11.580288
 31
0.0
  0
LINE
  5
15EC
330
1E
100
AcDbEntity
  8
0
100
AcDbLine
 10
237.34067058259
 20
10.341676717557
 30
0.0
 11
239.673
 21
9.442748
 31
0.0
  0
LINE
  5
15ED
330
1E
100
AcDbEntity
  8
0
100
AcDbLine
 10
235.306
 20
11.580288
 30
0.0
 11
237.34067058259
 21
10.341676717557
 31
0.0
  0
LINE
  5
15EE
330
1E
100
AcDbEntity
  8
0
100
AcDbLine
 10
235.306
 20
11.580288
 30
0.0
 11
237.34067058259
 21
10.341676717557
 31
0.0
  0
LINE
  5
15F2
330
1E
100
AcDbEntity
  8
0
100
AcDbLine
 10
232.746
 20
14.062388
 30
0.0
 11
233.165227285216
 21
13.519407420048
 31
0.0
  0
LINE
  5
15FE
330
1E
100
AcDbEntity
  8
0
100
AcDbLine
 10
173.789
 20
34.548088
 30
0.0
 11
190.983
 21
14.062388
 31
0.0
  0
LINE
  5
1675
330
1E
100
AcDbEntity
  8
0
100
AcDbLine
 10
161.221
 20
49.462188
 30
0.0
 11
173.285
 21
35.168788
 31
0.0
  0
LINE
  5
167A
330
1E
100
AcDbEntity
  8
0
100
AcDbLine
 10
160.823
 20
50.669688
 30
0.0
 11
161.221
 21
49.462188
 31
0.0
  0
LINE
  5
167B
330
1E
100
AcDbEntity
  8
0
100
AcDbLine
 10
160.823
 20
50.669688
 30
0.0
 11
160.87
 21
51.518788
 31
0.0
  0
LINE
  5
167C
330
1E
100
AcDbEntity
  8
0
100
AcDbLine
 10
160.87
 20
51.518788
 30
0.0
 11
161.488305979496
 21
52.257143374124
 31
0.0
  0
LINE
  5
180F
330
1E
100
AcDbEntity
  8
0
100
AcDbLine
 10
251.518
 20
6.945168
 30
0.0
 11
251.86
 21
0.059734
 31
0.0
  0
LINE
  5
1816
330
1E
100
AcDbEntity
  8
0
100
AcDbLine
 10
251.308
 20
7.656268
 30
0.0
 11
251.518
 21
6.945168
 31
0.0
  0
LINE
  5
182A
330
1E
100
AcDbEntity
  8
0
100
AcDbLine
 10
239.673
 20
9.442748
 30
0.0
 11
241.887779621112
 21
9.062388
 31
0.0
  0
LINE
  5
1830
330
1E
100
AcDbEntity
  8
0
100
AcDbLine
 10
250.896
 20
8.255288
 30
0.0
 11
251.308
 21
7.656268
 31
0.0
  0
LINE
  5
1841
330
1E
100
AcDbEntity
  8
0
100
AcDbLine
 10
249.468
 20
8.924758
 30
0.0
 11
250.896
 21
8.255288
 31
0.0
  0
LINE
  5
192A
330
1E
100
AcDbEntity
  8
0
100
AcDbLine
 10
198.302
 20
55.116688
 30
0.0
 11
232.746
 21
14.062388
 31
0.0
  0
LINE
  5
1970
330
1E
100
AcDbEntity
  8
0
100
AcDbLine
 10
184.875
 20
70.716088
 30
0.0
 11
185.74
 21
70.032788
 31
0.0
  0
LINE
  5
19CC
330
1E
100
AcDbEntity
  8
0
100
AcDbLine
 10
185.74
 20
70.032788
 30
0.0
 11
197.793
 21
55.734088
 31
0.0
  0
LINE
  5
19CF
330
1E
100
AcDbEntity
  8
0
100
AcDbLine
 10
183.609
 20
70.697388
 30
0.0
 11
184.875
 21
70.716088
 31
0.0
  0
LINE
  5
19D1
330
1E
100
AcDbEntity
  8
0
100
AcDbLine
 10
198.302
 20
55.116688
 30
0.0
 11
197.793
 21
55.734088
 31
0.0
  0
LINE
  5
19D2
330
1E
100
AcDbEntity
  8
0
100
AcDbLine
 10
197.793
 20
55.734088
 30
0.0
 11
173.285
 21
35.168788
 31
0.0
  0
LINE
  5
19D3
330
1E
100
AcDbEntity
  8
0
100
AcDbLine
 10
173.285
 20
35.168788
 30
0.0
 11
173.789
 21
34.548088
 31
0.0
  0
LINE
  5
19D4
330
1E
100
AcDbEntity
  8
0
100
AcDbLine
 10
233.165227285216
 20
13.519407420048
 30
0.0
 11
234.684
 21
12.047588
 31
0.0
  0
LINE
  5
19D5
330
1E
100
AcDbEntity
  8
0
100
AcDbLine
 10
241.887779621112
 20
9.062388
 30
0.0
 11
249.468
 21
8.924758
 31
0.0
  0
LINE
  5
19D8
330
1E
100
AcDbEntity
  8
0
100
AcDbLine
 10
161.488305979496
 20
52.257143374124
 30
0.0
 11
162.263788829286
 21
53.220683898655
 31
0.0
  0
LINE
  5
19D9
330
1E
100
AcDbEntity
  8
0
100
AcDbLine
 10
162.263788829286
 20
53.220683898655
 30
0.0
 11
181.941788829286
 21
68.988983898655
 31
0.0
  0
LINE
  5
19DA
330
1E
100
AcDbEntity
  8
0
100
AcDbLine
 10
181.941788829286
 20
68.988983898655
 30
0.0
 11
183.609
 21
70.697388
 31
0.0
  0
LINE
  5
19E1
330
1E
100
AcDbEntity
  8
0
100
AcDbLine
 10
189.88703157751
 20
9.062388
 30
0.0
 11
241.887779621112
 21
9.062388
 31
0.0
  0
ENDSEC
  0
SECTION
  2
OBJECTS
  0
DICTIONARY
  5
C
330
0
100
AcDbDictionary
281
     1
  3
ACAD_GROUP
350
D
  3
ACAD_LAYOUT
350
19
  3
ACAD_MLEADERSTYLE
350
19DD
  3
ACAD_MLINESTYLE
350
16
  3
ACAD_PLOTSETTINGS
350
18
  3
ACAD_PLOTSTYLENAME
350
E
  3
ACAD_SCALELIST
350
6CC
  3
AcDbVariableDictionary
350
6C8
  3
DWGPROPS
350
19E4
  0
DICTIONARY
  5
D
102
{ACAD_REACTORS
330
C
102
}
330
C
100
AcDbDictionary
281
     1
  0
DICTIONARY
  5
19
102
{ACAD_REACTORS
330
C
102
}
330
C
100
AcDbDictionary
281
     1
  3
Layout1
350
1D
  3
Model
350
21
  0
DICTIONARY
  5
19DD
102
{ACAD_REACTORS
330
C
102
}
330
C
100
AcDbDictionary
281
     1
  0
DICTIONARY
  5
16
102
{ACAD_REACTORS
330
C
102
}
330
C
100
AcDbDictionary
281
     1
  3
Standard
350
17
  0
DICTIONARY
  5
18
102
{ACAD_REACTORS
330
C
102
}
330
C
100
AcDbDictionary
281
     1
  0
ACDBDICTIONARYWDFLT
  5
E
102
{ACAD_REACTORS
330
C
102
}
330
C
100
AcDbDictionary
281
     1
  3
Normal
350
F
100
AcDbDictionaryWithDefault
340
F
  0
DICTIONARY
  5
6CC
102
{ACAD_REACTORS
330
C
102
}
330
C
100
AcDbDictionary
281
     1
  3
A0
350
6CD
  3
A1
350
6CE
  3
A2
350
6CF
  3
A3
350
6D0
  3
A4
350
6D1
  3
A5
350
6D2
  3
A6
350
6D3
  3
A7
350
6D4
  3
A8
350
6D5
  3
A9
350
6D6
  3
B0
350
6D7
  3
B1
350
6D8
  3
B2
350
6D9
  3
B3
350
6DA
  3
B4
350
6DB
  3
B5
350
6DC
  3
B6
350
6DD
  3
B7
350
6DE
  3
B8
350
6DF
  3
B9
350
6E0
  3
C0
350
6E1
  3
C1
350
6E2
  3
C2
350
6E3
  3
C3
350
6E4
  3
C4
350
6E5
  3
C5
350
6E6
  3
C6
350
6E7
  3
C7
350
6E8
  3
C8
350
6E9
  3
C9
350
6EA
  3
D0
350
6EB
  3
D1
350
6EC
  3
D2
350
6ED
  0
DICTIONARY
  5
6C8
102
{ACAD_REACTORS
330
C
102
}
330
C
100
AcDbDictionary
281
     1
  3
CANNOSCALE
350
19DE
  3
DIMASSOC
350
6C9
  0
XRECORD
  5
19E4
102
{ACAD_REACTORS
330
C
102
}
330
C
100
AcDbXrecord
280
     1
  1
DWGPROPS COOKIE
  2

  3

  4

  6

  7

  8
MARTIN
  9

300
=
301
=
302
=
303
=
304
=
305
=
306
=
307
=
308
=
309
=
 40
0.0
 41
2455654.860853044
 42
2456213.807482454
  1

 90
        0
  0
LAYOUT
  5
1D
102
{ACAD_REACTORS
330
19
102
}
330
19
100
AcDbPlotSettings
  1

  2
C:\Programme\AutoCAD LT 2002 Deu\plotters\DWF ePlot (optimized for plotting).pc3
  4

  6

 40
0.0
 41
0.0
 42
0.0
 43
0.0
 44
0.0
 45
0.0
 46
0.0
 47
0.0
 48
0.0
 49
0.0
140
0.0
141
0.0
142
1.0
143
1.0
 70
   688
 72
     0
 73
     0
 74
     5
  7

 75
    16
147
1.0
148
0.0
149
0.0
100
AcDbLayout
  1
Layout1
 70
     1
 71
     1
 10
0.0
 20
0.0
 11
12.0
 21
9.0
 12
0.0
 22
0.0
 32
0.0
 14
1.000000000000E+20
 24
1.000000000000E+20
 34
1.000000000000E+20
 15
-1.000000000000E+20
 25
-1.000000000000E+20
 35
-1.000000000000E+20
146
0.0
 13
0.0
 23
0.0
 33
0.0
 16
1.0
 26
0.0
 36
0.0
 17
0.0
 27
1.0
 37
0.0
 76
     0
330
1A
  0
LAYOUT
  5
21
102
{ACAD_REACTORS
330
19
102
}
330
19
100
AcDbPlotSettings
  1

  2
C:\Programme\AutoCAD LT 2002 Deu\plotters\DWF ePlot (optimized for plotting).pc3
  4

  6

 40
0.0
 41
0.0
 42
0.0
 43
0.0
 44
0.0
 45
0.0
 46
0.0
 47
0.0
 48
0.0
 49
0.0
140
0.0
141
0.0
142
1.0
143
1.0
 70
  1712
 72
     0
 73
     0
 74
     0
  7

 75
     0
147
1.0
148
0.0
149
0.0
100
AcDbLayout
  1
Model
 70
     1
 71
     0
 10
0.0
 20
0.0
 11
12.0
 21
9.0
 12
0.0
 22
0.0
 32
0.0
 14
-18.167811170714
 24
0.0
 34
0.0
 15
262.442
 25
237.588283898655
 35
0.0
146
0.0
 13
0.0
 23
0.0
 33
0.0
 16
1.0
 26
0.0
 36
0.0
 17
0.0
 27
1.0
 37
0.0
 76
     0
330
1E
331
6CB
  0
MLINESTYLE
  5
17
102
{ACAD_REACTORS
330
16
102
}
330
16
100
AcDbMlineStyle
  2
STANDARD
 70
     0
  3

 62
   256
 51
90.0
 52
90.0
 71
     2
 49
0.5
 62
   256
  6
BYLAYER
 49
-0.5
 62
   256
  6
BYLAYER
  0
ACDBPLACEHOLDER
  5
F
102
{ACAD_REACTORS
330
E
102
}
330
E
  0
SCALE
  5
6CD
102
{ACAD_REACTORS
330
6CC
102
}
330
6CC
100
AcDbScale
 70
     0
300
1:1
140
1.0
141
1.0
290
     1
  0
SCALE
  5
6CE
102
{ACAD_REACTORS
330
6CC
102
}
330
6CC
100
AcDbScale
 70
     0
300
1:2
140
1.0
141
2.0
290
     0
  0
SCALE
  5
6CF
102
{ACAD_REACTORS
330
6CC
102
}
330
6CC
100
AcDbScale
 70
     0
300
1:4
140
1.0
141
4.0
290
     0
  0
SCALE
  5
6D0
102
{ACAD_REACTORS
330
6CC
102
}
330
6CC
100
AcDbScale
 70
     0
300
1:5
140
1.0
141
5.0
290
     0
  0
SCALE
  5
6D1
102
{ACAD_REACTORS
330
6CC
102
}
330
6CC
100
AcDbScale
 70
     0
300
1:8
140
1.0
141
8.0
290
     0
  0
SCALE
  5
6D2
102
{ACAD_REACTORS
330
6CC
102
}
330
6CC
100
AcDbScale
 70
     0
300
1:10
140
1.0
141
10.0
290
     0
  0
SCALE
  5
6D3
102
{ACAD_REACTORS
330
6CC
102
}
330
6CC
100
AcDbScale
 70
     0
300
1:16
140
1.0
141
16.0
290
     0
  0
SCALE
  5
6D4
102
{ACAD_REACTORS
330
6CC
102
}
330
6CC
100
AcDbScale
 70
     0
300
1:20
140
1.0
141
20.0
290
     0
  0
SCALE
  5
6D5
102
{ACAD_REACTORS
330
6CC
102
}
330
6CC
100
AcDbScale
 70
     0
300
1:30
140
1.0
141
30.0
290
     0
  0
SCALE
  5
6D6
102
{ACAD_REACTORS
330
6CC
102
}
330
6CC
100
AcDbScale
 70
     0
300
1:40
140
1.0
141
40.0
290
     0
  0
SCALE
  5
6D7
102
{ACAD_REACTORS
330
6CC
102
}
330
6CC
100
AcDbScale
 70
     0
300
1:50
140
1.0
141
50.0
290
     0
  0
SCALE
  5
6D8
102
{ACAD_REACTORS
330
6CC
102
}
330
6CC
100
AcDbScale
 70
     0
300
1:100
140
1.0
141
100.0
290
     0
  0
SCALE
  5
6D9
102
{ACAD_REACTORS
330
6CC
102
}
330
6CC
100
AcDbScale
 70
     0
300
2:1
140
2.0
141
1.0
290
     0
  0
SCALE
  5
6DA
102
{ACAD_REACTORS
330
6CC
102
}
330
6CC
100
AcDbScale
 70
     0
300
4:1
140
4.0
141
1.0
290
     0
  0
SCALE
  5
6DB
102
{ACAD_REACTORS
330
6CC
102
}
330
6CC
100
AcDbScale
 70
     0
300
8:1
140
8.0
141
1.0
290
     0
  0
SCALE
  5
6DC
102
{ACAD_REACTORS
330
6CC
102
}
330
6CC
100
AcDbScale
 70
     0
300
10:1
140
10.0
141
1.0
290
     0
  0
SCALE
  5
6DD
102
{ACAD_REACTORS
330
6CC
102
}
330
6CC
100
AcDbScale
 70
     0
300
100:1
140
100.0
141
1.0
290
     0
  0
SCALE
  5
6DE
102
{ACAD_REACTORS
330
6CC
102
}
330
6CC
100
AcDbScale
 70
     0
300
1/128" = 1'-0"
140
0.0078125
141
12.0
290
     0
  0
SCALE
  5
6DF
102
{ACAD_REACTORS
330
6CC
102
}
330
6CC
100
AcDbScale
 70
     0
300
1/64" = 1'-0"
140
0.015625
141
12.0
290
     0
  0
SCALE
  5
6E0
102
{ACAD_REACTORS
330
6CC
102
}
330
6CC
100
AcDbScale
 70
     0
300
1/32" = 1'-0"
140
0.03125
141
12.0
290
     0
  0
SCALE
  5
6E1
102
{ACAD_REACTORS
330
6CC
102
}
330
6CC
100
AcDbScale
 70
     0
300
1/16" = 1'-0"
140
0.0625
141
12.0
290
     0
  0
SCALE
  5
6E2
102
{ACAD_REACTORS
330
6CC
102
}
330
6CC
100
AcDbScale
 70
     0
300
3/32" = 1'-0"
140
0.09375
141
12.0
290
     0
  0
SCALE
  5
6E3
102
{ACAD_REACTORS
330
6CC
102
}
330
6CC
100
AcDbScale
 70
     0
300
1/8" = 1'-0"
140
0.125
141
12.0
290
     0
  0
SCALE
  5
6E4
102
{ACAD_REACTORS
330
6CC
102
}
330
6CC
100
AcDbScale
 70
     0
300
3/16" = 1'-0"
140
0.1875
141
12.0
290
     0
  0
SCALE
  5
6E5
102
{ACAD_REACTORS
330
6CC
102
}
330
6CC
100
AcDbScale
 70
     0
300
1/4" = 1'-0"
140
0.25
141
12.0
290
     0
  0
SCALE
  5
6E6
102
{ACAD_REACTORS
330
6CC
102
}
330
6CC
100
AcDbScale
 70
     0
300
3/8" = 1'-0"
140
0.375
141
12.0
290
     0
  0
SCALE
  5
6E7
102
{ACAD_REACTORS
330
6CC
102
}
330
6CC
100
AcDbScale
 70
     0
300
1/2" = 1'-0"
140
0.5
141
12.0
290
     0
  0
SCALE
  5
6E8
102
{ACAD_REACTORS
330
6CC
102
}
330
6CC
100
AcDbScale
 70
     0
300
3/4" = 1'-0"
140
0.75
141
12.0
290
     0
  0
SCALE
  5
6E9
102
{ACAD_REACTORS
330
6CC
102
}
330
6CC
100
AcDbScale
 70
     0
300
1" = 1'-0"
140
1.0
141
12.0
290
     0
  0
SCALE
  5
6EA
102
{ACAD_REACTORS
330
6CC
102
}
330
6CC
100
AcDbScale
 70
     0
300
1-1/2" = 1'-0"
140
1.5
141
12.0
290
     0
  0
SCALE
  5
6EB
102
{ACAD_REACTORS
330
6CC
102
}
330
6CC
100
AcDbScale
 70
     0
300
3" = 1'-0"
140
3.0
141
12.0
290
     0
  0
SCALE
  5
6EC
102
{ACAD_REACTORS
330
6CC
102
}
330
6CC
100
AcDbScale
 70
     0
300
6" = 1'-0"
140
6.0
141
12.0
290
     0
  0
SCALE
  5
6ED
102
{ACAD_REACTORS
330
6CC
102
}
330
6CC
100
AcDbScale
 70
     0
300
1'-0" = 1'-0"
140
12.0
141
12.0
290
     0
  0
DICTIONARYVAR
  5
19DE
102
{ACAD_REACTORS
330
6C8
102
}
330
6C8
100
DictionaryVariables
280
     0
  1
1:1
  0
DICTIONARYVAR
  5
6C9
102
{ACAD_REACTORS
330
6C8
102
}
330
6C8
100
DictionaryVariables
280
     0
  1
1
  0
ENDSEC
  0
SECTION
  2
THUMBNAILIMAGE
 90
    16364
310
28000000B40000005500000001000800000000000000000000000000000000000000000000000000FFFFFF000000FF0000FFFF0000FF0000FFFF0000FF000000FF00FF000000000080808000C0C0C0000000FF007F7FFF000000A5005252A50000007F003F3F7F0000004C0026264C000000260013132600003FFF007F9FFF
310
000029A5005267A500001F7F003F4F7F0000134C00262F4C000009260013172600007FFF007FBFFF000052A500527CA500003F7F003F5F7F0000264C0026394C0000132600131C260000BFFF007FDFFF00007CA5005291A500005F7F003F6F7F0000394C0026424C00001C26001321260000FFFF007FFFFF0000A5A50052A5
310
A500007F7F003F7F7F00004C4C00264C4C00002626001326260000FFBF007FFFDF0000A57C0052A59100007F5F003F7F6F00004C3900264C420000261C001326210000FF7F007FFFBF0000A5520052A57C00007F3F003F7F5F00004C2600264C39000026130013261C0000FF3F007FFF9F0000A5290052A56700007F1F003F
310
7F4F00004C1300264C2F00002609001326170000FF00007FFF7F0000A5000052A55200007F00003F7F3F00004C0000264C260000260000132613003FFF00009FFF7F0029A5000067A552001F7F00004F7F3F00134C00002F4C260009260000172613007FFF0000BFFF7F0052A500007CA552003F7F00005F7F3F00264C0000
310
394C2600132600001C261300BFFF0000DFFF7F007CA5000091A552005F7F00006F7F3F00394C0000424C26001C26000021261300FFFF0000FFFF7F00A5A50000A5A552007F7F00007F7F3F004C4C00004C4C26002626000026261300FFBF0000FFDF7F00A57C0000A59152007F5F00007F6F3F004C3900004C422600261C00
310
0026211300FF7F0000FFBF7F00A5520000A57C52007F3F00007F5F3F004C2600004C39260026130000261C1300FF3F0000FF9F7F00A5290000A56752007F1F00007F4F3F004C1300004C2F26002609000026171300FF000000FF7F7F00A5000000A55252007F0000007F3F3F004C0000004C2626002600000026131300FF00
310
3F00FF7F9F00A5002900A55267007F001F007F3F4F004C0013004C262F002600090026131700FF007F00FF7FBF00A5005200A5527C007F003F007F3F5F004C0026004C2639002600130026131C00FF00BF00FF7FDF00A5007C00A55291007F005F007F3F6F004C0039004C26420026001C0026132100FF00FF00FF7FFF00A5
310
00A500A552A5007F007F007F3F7F004C004C004C264C002600260026132600BF00FF00DF7FFF007C00A5009152A5005F007F006F3F7F0039004C0042264C001C002600211326007F00FF00BF7FFF005200A5007C52A5003F007F005F3F7F0026004C0039264C00130026001C1326003F00FF009F7FFF002900A5006752A500
310
1F007F004F3F7F0013004C002F264C000900260017132600000000002D2D2D005B5B5B0089898900B7B7B700B3B3B30000000000000000000000000000000000000000000000000000000000000000000000000000000000000000000000000000000000000000000000000000000000000000000000000000000000000000
310
00000000000000000707070707070707070707070707070707070707070000000000000000000000000000000000000000000000000000000000000000000000000000000000000000000000000000000000000000000000000000000000000000000000000000000000000000000000000000000000000000000000000000
310
00000000000000000000000000000000000000000000000000000000000000000000000000000000000000000000000000000000000000000000000000070000000000000000000000000000000000000007000000000000000000000000000000000000000000000000000000000000000000000000000000000000000000
310
00000000000000000000000000000000000000000000000000000000000000000000000000000000000000000000000000000000000000000000000000000000000000000000000000000000000000000000000000000000000000000000000000000000000000000000000000000000000007000000000000000000000000
310
00000000000000070000000000000000000000000000000000000000000000000000000000000000000000000000000000000000000000000000000000000000000000000000000000000000000000000000000000000000000000000000000000000000000000000000000000000000000000000000000000000000000000
310
00000000000000000000000000000000000000000000000000000000000000000000000000000000070000000000000000000000000000000000000007000000000000000000000000000000000000000000000000000000000000000000000000000000000000000000000000000000000000000000000000000000000000
310
00000000000000000000000000000000000000000000000000000000000000000000000000000000000000000000000000000000000000000000000000000000000000000000000000000000000000000000000000000000000000000007000000000000000000000000000000000000000700000000000000000000000000
310
00000000000000000000000000000000000000000000000000000000000000000000000000000000000000000000000000000000000000000000000000000000000000000000000000000000000000000000000000000000000000000000000000000000000000000000000000000000000000000000000000000000000000
310
00000000000000000000000000000000000000070707070707070707070707070707070707070707000000000000000000000000000000000000000000000000000000000000000000000000000000000000000000000000000000000000000000000000000000000000000000000000000000000000000000000000000000
310
00000000000000000000000000000000000000000000000000000000000000000000000000000000000000000000000000000000000000000000000000000000000000000000000007000000000000000000000000000000000000000700000000000000000000000000000000000000000000000000000000000000000000
310
00000000000000000000000000000000000000000000000000000000000000000000000000000000000000000000000000000000000000000000000000000000000000000000000000000000000000000000000000000000000000000000000000000000000000000000000000000000000000000000000000000000000700
310
00000000000000000000000000000000000700000000000000000000000000000000000000000000000000000000000000000000000000000000000000000000000000000000000000000000000000000000000000000000000000000000000000000000000000000000000000000000000000000000000000000000000000
310
00000000000000000000000000000000000000000000000000000000000000000000000000000000000000000000000000000000070000000000000000000000000000000000070000000000000000000000000000000000000000000000000000000000000000000000000000000000000000000000000000000000000000
310
00000000000000000000000000000000000000000000000000000000000000000000000000000000000000000000000000000000000000000000000000000000000000000000000000000000000000000000000000000000000000000000000000000000000000000007000000000000000000000000000000000007000000
310
00000000000000000000000000000000000000000000000000000000000000000000000000000000000000000000000000000000000000000000000000000000000000000000000000000000000000000000000000000000000000000000000000000000000000000000000000000000000000000000000000000000000000
310
00000000000000000000000000000000000000000000000000000000000000070000000000000000000000000000000000070000000000000000000000000000000000000000000000000000000000000000000000000000000000000000000000000000000000000000000000000000000000000000000000000000000000
310
00000000000000000000000000000000000000000000000000000000000000000000000000000000000000000000000000000000000000000000000000000000000000000000000000000000000000000000000007000000000000000000000000000000000700000000000000000000000000000000000000000000000000
310
00000000000000000000000000000000000000000000000000000000000000000000000000000000000000000000000000000000000000000000000000000000000000000000000000000000000000000000000000000000000000000000000000000000000000000000000000000000000000000000000000000000000000
310
00000000000000000000000700000000000000000000000000000007000000000000000000000000000000000000000000000000000000000000000000000000000000000000000000000000000000000000000000000000000000000000000000000000000000000000000000000000000000000000000000000000000000
310
00000000000000000000000000000000000000000000000000000000000000000000000000000000000000000000000000000000000000000000000000000000070000000000000000000000000000000700000000000000000000000000000000000000000000000000000000000000000000000000000000000000000000
310
00000000000000000000000000000000000000000000000000000000000000000000000000000000000000000000000000000000000000000000000000000000000000000000000000000000000000000000000000000000000000000000000000000000000000000000000000000000000000000007000000000000000000
310
00000000000007000000000000000000000000000000000000000000000000000000000000000000000000000000000000000000000000000000000000000000000000000000000000000000000000000000000000000000000000000000000000000000000000000000000000000000000000000000000000000000000000
310
00000000000000000000000000000000000000000000000000000000000000000000000000000000000000070000000000000000000000000000070000000000000000000000000000000000000000000000000000000000000000000000000000000000000000000000000000000000000000000000000000000000000000
310
00000000000000000000000000000000000000000000000000000000000000000000000000000000000000000000000000000000000000000000000000000000000000000000000000000000000000000000000000000000000000000000000000070000000000000000000000000007000000000000000000000000000000
310
00000000000000000000000000000000000000000000000000000000000000000000000000000000000000000000000000000000000000000000000000000000000000000000000000000000000000000000000000000000000000000000000000000000000000000000000000000000000000000000000000000000000000
310
00000000000000000000000000000000000000000000000700000000000000000000000000070000000000000000000000000000000000000000000000000000000000000000000000000000000000000000000000000000000000000000000000000000000000000000000000000000000000000000000000000000000000
310
00000000000000000000000000000000000000000000000000000000000000000000000000000000000000000000000000000000000000000000000000000000000000000000000000000000070000000000000000000000000007000000000000000000000000000000000000000000000000000000000000000000000000
310
00000000000000000000000000000000000000000000000000000000000000000000000000000000000000000000000000000000000000000000000000000000000000000000000000000000000000000000000000000000000000000000000000000000000000000000000000000000000000000000000000000000000000
310
00000700000000000000000000000007000000000000000000000000000000000000000000000000000000000000000000000000000000000000000000000000000000000000000000000000000000000000000000000000000000000000000000000000000000000000000000000000000000000000000000000000000000
310
00000000000000000000000000000000000000000000000000000000000000000000000000000000000000000000000000000000000000000700000000000000000000000700000000000000000000000000000000000000000000000000000000000000000000000000000000000000000000000000000000000000000000
310
00000000000000000000000000000000000000000000000000000000000000000000000000000000000000000000000000000000000000000000000000000000000000000000000000000000000000000000000000000000000000000000000000000000000000000000000000070000000000000000000000070000000000
310
00000000000000000000000000000000000000000000000000000000000000000000000000000000000000000000000000000000000000000000000000000000000000000000000000000000000000000000000000000000000000000000000000000000000000000000000000000000000000000000000000000000000000
310
00000000000000000000000000000000000000000000000000000000000000000000000700000000000000000000000700000000000000000000000000000000000000000000000000000000000000000000000000000000000000000000000000000000000000000000000000000000000000000000000000000000000000
310
00000000000000000000000000000000000000000000000000000000000000000000000000000000000000000000000000000000000000000000000000000000000000000000000000000000000000000000000000000000070000000000000000000007000000000000000000000000000000000000000000000000000000
310
00000000000000000000000000000000000000000000000000000000000000000000000000000000000000000000000000000000000000000000000000000000000000000000000000000000000000000000000000000000000000000000000000000000000000000000000000000000000000000000000000000000000000
310
00000000000000000000000000000007000000000000000000070000000000000000000000000000000000000000000000000000000000000000000000000000000000000000000000000000000000000000000000000000000000000000000000000000000000000000000000000000000000000000000000000000000000
310
00000000000000000000000000000000000000000000000000000000000000000000000000000000000000000000000000000000000000000000000000000000000000000707070707070707070707000000000000000000000000000000000000000000000000000000000000000000000000000000000000000000000000
310
00000000000000000000000000000000000000000000000000000000000000000000000000000000000000000000000000000000000000000000000000000000000000000000000000000000000000000000000000000000000000000000000000000000000000000000000000000000000000000000000000070000000000
310
00000000070000000000000000000000000000000000000000000000000000000000000000000000000000000000000000000000000000000000000000000000000000000000000000000000000000000000000000000000000000000000000000000000000000000000000000000000000000000000000000000000000000
310
00000000000000000000000000000000000000000000000000000000000000000000000000000000000000000000000700000000000000000007000000000000000000000000000000000000000000000000000000000000000000000000000000000000000000000000000000000000000000000000000000000000000000
310
00000000000000000000000000000000000000000000000000000000000000000000000000000000000000000000000000000000000000000000000000000000000000000000000000000000000000000000000000000000000000000000000000000000070000000000000000000700000000000000000000000000000000
310
00000000000000000000000000000000000000000000000000000000000000000000000000000000000000000000000000000000000000000000000000000000000000000000000000000000000000000000000000000000000000000000000000000000000000000000000000000000000000000000000000000000000000
310
00000000000000000000000000000000000000000000000000000700000000000000000007000000000000000000000000000000000000000000000000000000000000000000000000000000000000000000000000000000000000000000000000000000000000000000000000000000000000000000000000000000000000
310
00000000000000000000000000000000000000000000000000000000000000000000000000000000000000000000000000000000000000000000000000000000000000000000000000000000000000070000000000000000000700000000000000000000000000000000000000000000000000000000000000000000000000
310
00000000000000000000000000000000000000000000000000000000000000000000000000000000000000000000000000000000000000000000000000000000000000000000000000000000000000000000000000000000000000000000000000000000000000000000000000000000000000000000000000000000000000
310
00000000000700000000000000000007000000000000000000000000000000000000000000000000000000000000000000000000000000000000000000000000000000000000000000000000000000000000000000000000000000000000000000000000000000000000000000000000000000000000000000000000000000
310
00000000000000000000000000000000000000000000000000000000000000000000000000000000000000000000000000000000000000000000070000000000000000000700000000000000000000000000000000000000000000000000000000000000000000000000000000000000000000000000000000000000000000
310
00000000000000000000000000000000000000000000000000000000000000000000000000000000000000000000000000000000000000000000000000000000000000000000000000000000000000000000000000000000000000000000000000000000000000000000000000000007000000000000000000070000000000
310
00000000000000000000000000000000000000000000000000000000000000000000000000000000000000000000000000000000000000000000000000000000000000000000000000000000000000000000000000000000000000000000000000000000000000000000000000000000000000000000000000000000000000
310
00000000000000000000000000000000000000000000000000000000000000000000000000070000000000000000000700000000000000000000000000000000000000000000000000000000000000000000000000000000000000000000000000000000000000000000000000000000000000000000000000000000000000
310
00000000000000000000000000000000000000000000000000000000000000000000000000000000000000000000000000000000000000000000000000000000000000000000000000000000000000000000000000000000000007000000000000000000070000000000000000000000000000000000000000000000000000
310
00000000000000000000000000000000000000000000000000000000000000000000000000000000000000000000000000000000000000000000000000000000000000000000000000000000000000000000000000000000000000000000000000000000000000000000000000000000000000000000000000000000000000
310
00000000000000000000000000000000070000000000000000000700000000000000000000000000000000000000000000000000000000000000000000000000000000000000000000000000000000000000000000000000000000000000000000000000000000000000000000000000000000000000000000000000000000
310
00000000000000000000000000000000000000000000000000000000000000000000000000000000000000000000000000000000000000000000000000000000000000000007000000000000000000070000000000000000000000000000000000000000000000000000000000000000000000000000000000000000000000
310
00000000000000000000000000000000000000000000000000000000000000000000000000000000000000000000000000000000000000000000000000000000000000000000000000000000000000000000000000000000000000000000000000000000000000000000000000000000000000000000000000000700000000
310
00000000000700000000000000000000000000000000000000000000000000000000000000000000000000000000000000000000000000000000000000000000000000000000000000000000000000000000000000000000000000000000000000000000000000000000000000000000000000000000000000000000000000
310
00000000000000000000000000000000000000000000000000000000000000000000000000000000000000000000000007000000000000000000070000000000000000000000000000000000000000000000000000000000000000000000000000000000000000000000000000000000000000000000000000000000000000
310
00000000000000000000000000000000000000000000000000000000000000000000000000000000000000000000000000000000000000000000000000000000000000000000000000000000000000000000000000000000000000000000000000000000000700000000000000000007000000000000000000000000000000
310
00000000000000000000000000000000000000000000000000000000000000000000000000000000000000000000000000000000000000000000000000000000000000000000000000000000000000000000000000000000000000000000000000000000000000000000000000000000000000000000000000000000000000
310
00000000000000000000000000000000000000000000000000000007000000000000000000070000000000000000000000000000000000000000000000000000000000000000000000000000000000000000000000000000000000000000000000000000000000000000000000000000000000000000000000000000000000
310
00000000000000000000000000000000000000000000000000000000000000000000000000000000000000000000000000000000000000000000000000000000000000000000000000000000000000000700000000000000000007000000000000000000000000000000000000000000000000000000000000000000000000
310
00000000000000000000000000000000000000000000000000000000000000000000000000000000000000000000000000000000000000000000000000000000000000000000000000000000000000000000000000000000000000000000000000000000000000000000000000000000000000000000000000000000000000
310
00000000000007000000000000000000070000000000000000000000000000000000000000000000000000000000000000000000000000000000000000000000000000000000000000000000000000000000000000000000000000000000000000000000000000000000000000000000000000000000000000000000000000
310
00000000000000000000000000000000000000000000000000000000000000000000000000000000000000000000000000000000000000000000000700000000000000000007000000000000000000000000000000000000000000000000000000000000000000000000000000000000000000000000000000000000000000
310
00000000000000000000000000000000000000000000000000000000000000000000000000000000000000000000000000000000000000000000000000000000000000000000000000000000000000000000000000000000000000000000000000000000000000000000000000000000070000000000000000000700000000
310
00000000000000000000000000000000000000000000000000000000000000000000000000000000000000000000000000000000000000000000000000000000000000000000000000000000000000000000000000000000000000000000000000000000000000000000000000000000000000000000000000000000000000
310
00000000000000000000000000000000000000000000000000000000000000000000000000000700000000000000000007000000000000000000000000000000000000000000000000000000000000000000000000000000000000000000000000000000000000000000000000000000000000000000000000000000000000
310
00000000000000000000000000000000000000000000000000000000000000000000000000000000000000000000000000000000000000000000000000000000000000000000000000000000000000000000000000000000000000070000000000000000000700000000000000000000000000000000000000000000000000
310
00000000000000000000000000000000000000000000000000000000000000000000000000000000000000000000000000000000000000000000000000000000000000000000000000000000000000000000000000000000000000000000000000000000000000000000000000000000000000000000000000000000000000
310
00000000000000000000000000000000000700000000000000000007000000000000000000000000000000000000000000000000000000000000000000000000000000000000000000000000000000000000000000000000000000000000000000000000000000000000000000000000000000000000000000000000000000
310
00000000000000000000000000000000000000000000000000000000000000000000000000000000000000000000000000000000000000000000000000000000000000000000070000000000000000000700000000000000000000000000000000000000000000000000000000000000000000000000000000000000000000
310
00000000000000000000000000000000000000000000000000000000000000000000000000000000000000000000000000000000000000000000000000000000000000000000000000000000000000000000000000000000000000000000000000000000000000000000000000000000000000000000000000000007000000
310
00000000000007000000000000000000000000000000000000000000000000000000000000000000000000000000000000000000000000000000000000000000000000000000000000000000000000000000000000000000000000000000000000000000000000000000000000000000000000000000000000000000000000
310
00000000000000000000000000000000000000000000000000000000000000000000000000000000000000000000000000070000000000000000000700000000000000000000000000000000000000000000000000000000000000000000000000000000000000000000000000000000000000000000000000000000000000
310
00000000000000000000000000000000000000000000000000000000000000000000000000000000000000000000000000000000000000000000000000000000000000000000000000000000000000000000000000000000000000000000000000000000000007000000000000000000070000000000000000000000000000
310
00000000000000000000000000000000000000000000000000000000000000000000000000000000000000000000000000000000000000000000000000000000000000000000000000000000000000000000000000000000000000000000000000000000000000000000000000000000000000000000000000000000000000
310
00000000000000000000000000000000000000000000000000000000070000000000000000000700000000000000000000000000000000000000000000000000000000000000000000000000000000000000000000000000000000000000000000000000000000000000000000000000000000000000000000000000000000
310
00000000000000000000000000000000000000000000000000000000000000000000000000000000000000000000000000000000000000000000000000000000000000000000000000000000000000000007000000000000000000070000000000000000000000000000000000000000000000000000000000000000000000
310
00000000000000000000000000000000000000000000000000000000000000000000000000000000000000000000000000000000000000000000000000000000000000000000000000000000000000000000000000000000000000000000000000000000000000000000000000000000000000000000000000000000000000
310
00000000000000070707070707070707070000000000000000000000000000000000000000000000000000000000000000000000000000000000000000000000000000000000000000000000000000000000000000000000000000000000000000000000000000000000000000000000000000000000000000000000000000
310
00000000000000000000000000000000000000000000000000000000000000000000000000000000000000000000000000000000000000000000000000000707000007070000000000000000000000000000000000000000000000000000000000000000000000000000000000000000000000000000000000000000000000
310
00000000000000000000000000000000000000000000000000000000000000000000000000000000000000000000000000000000000000000000000000000000000000000000000000000000000000000000000000000000000000000000000000000000000000000000000000000000000000070707070707070000000000
310
00000000000000000000000000000000000000000000000000000000000000000000000000000000000000000000000000000000000000000000000000000000000000000000000000000000000000000000000000000000000000000000000000000000000000000000000000000000000000000000000000000000000000
310
00000000000000000000000000000000000000000000000000000000000000000000000000000000000707070707070000000000000000000000000000000000000000000000000000000000000000000000000000000000000000000000000000000000000000000000000000000000000000000000000000000000000000
310
00000000000000000000000000000000000000000000000000000000000000000000000000000000000000000000000000000000000000000000000000000000000000000000000000000000000000000000000000000000000000000000070707070707070000000000000000000000000000000000000000000000000000
310
00000000000000000000000000000000000000000000000000000000000000000000000000000000000000000000000000000000000000000000000000000000000000000000000000000000000000000000000000000000000000000000000000000000000000000000000000000000000000000000000000000000000000
310
00000000000000000000000000000000000000070707070707070700000000000000000000000000000000000000000000000000000000000000000000000000000000000000000000000000000000000000000000000000000000000000000000000000000000000000000000000000000000000000000000000000000000
310
00000000000000000000000000000000000000000000000000000000000000000000000000000000000000000000000000000000000000000000000000000000000000000000000000070000000707000000000000000000000000000000000000000000000000000000000000000000000000000000000000000000000000
310
00000000000000000000000000000000000000000000000000000000000000000000000000000000000000000000000000000000000000000000000000000000000000000000000000000000000000000000000000000000000000000000000000000000000000000000000000000000000000000000000000000000000700
310
00000707070700000000000000000000000000000000000000000000000000000000000000000000000000000000000000000000000000000000000000000000000000000000000000000000000000000000000000000000000000000000000000000000000000000000000000000000000000000000000000000000000000
310
00000000000000000000000000000000000000000000000000000000000000000000000000000000000000000000000000000700000007000007070700000000000000000000000000000000000000000000000000000000000000000000000000000000000000000000000000000000000000000000000000000000000000
310
00000000000000000000000000000000000000000000000000000000000000000000000000000000000000000000000000000000000000000000000000000000000000000000000000000000000000000000000000000000000000000000000000000000000007000707000700000700000000000000000000000000000000
310
00000000000000000000000000000000000000000000000000000000000000000000000000000000000000000000000000000000000000000000000000000000000000000000000000000000000000000000000000000000000000000000000000000000000000000000000000000000000000000000000000000000000000
310
00000000000000000000000000000000000000000000000000000707070000000700000007000000000000000000000000000000000000000000000000000000000000000000000000000000000000000000000000000000000000000000000000000000000000000000000000000000000000000000000000000000000000
310
00000000000000000000000000000000000000000000000000000000000000000000000000000000000000000000000000000000000000000000000000000000000000000000000000000000000007070707070707070707070700000000000000000000000000000000000000000000000000000000000000000000000000
310
00000000000000000000000000000000000000000000000000000000000000000000000000000000000000000000000000000000000000000000000000000000000000000000000000000000000000000000000000000000000000000000000000000000000000000000000000000000000000000000000000000000000000
310
00000000000700000707070000000007000000000000000000000000000000000000000000000000000000000000000000000000000000000000000000000000000000000000000000000000000000000000000000000000000000000000000000000000000000000000000000000000000000000000000000000000000000
310
00000000000000000000000000000000000000000000000000000000000000000000000000000000000000000000000000000000000000000007000000070007000000000700000000000000000000000000000000000000000000000000000000000000000000000000000000000000000000000000000000000000000000
310
00000000000000000000000000000000000000000000000000000000000000000000000000000000000000000000000000000000000000000000000000000000000000000000000000000000000000000000000000000000000000000000000000000000000000000000000000000700000700000700000000070000000000
310
00000000000000000000000000000000000000000000000000000000000000000000000000000000000000000000000000000000000000000000000000000000000000000000000000000000000000000000000000000000000000000000000000000000000000000000000000000000000000000000000000000000000000
310
00000000000000000000000000000000000000000000000000070707070000000000000700000700000707000000000700000000000000000000000000000000000000000000000000000000000000000000000000000000000000000000000000000000000000000000000000000000000000000000000000000000000000
310
00000000000000000000000000000000000000000000000000000000000000000000000000000000000000000000000000000000000000000000000000000000000000000000000000000000000707000000070707070707070000070707070000000000070000000000000000000000000000000000000000000000000000
310
00000000000000000000000000000000000000000000000000000000000000000000000000000000000000000000000000000000000000000000000000000000000000000000000000000000000000000000000000000000000000000000000000000000000000000000000000000000000000000000000000000000000000
310
00000007070700000000000000000700070000000000000000000700000000000000000000000000000000000000000000000000000000000000000000000000000000000000000000000000000000000000000000000000000000000000000000000000000000000000000000000000000000000000000000000000000000
310
00000000000000000000000000000000000000000000000000000000000000000000000000000000000000000000000000000000000000000000070707070707070707000707070707070707070707070000000000000000000000000000000000000000000000000000000000000000000000000000000000000000000000
310
00000000000000000000000000000000000000000000000000000000000000000000000000000000000000000000000000000000000000000000000000000000000000000000000000000000000000000000000000000000000000000000000000000000000000000000000000000000000000000000070007000000000000
310
00000000000000000000000000000000000000000000000000000000000000000000000000000000000000000000000000000000000000000000000000000000000000000000000000000000000000000000000000000000000000000000000000000000000000000000000000000000000000000000000000000000000000
310
00000000000000000000000000000000000000000000000000000000000000000000000000000000000000070007000000000000000000000000000000000000000000000000000000000000000000000000000000000000000000000000000000000000000000000000000000000000000000000000000000000000000000
310
00000000000000000000000000000000000000000000000000000000000000000000000000000000000000000000000000000000000000000000000000000000000000000000000000000000000000000000000000000000000000000000070700070700000000000000000000000000000000000000000000000000000000
310
00000000000000000000000000000000000000000000000000000000000000000000000000000000000000000000000000000000000000000000000000000000000000000000000000000000000000000000000000000000000000000000000000000000000000000000000000000000000000000000000000000000000000
310
00000000000000000000000000000000000007070707070000000000000000000000000000000000000000000000000000000000000000000000000000000000000000000000000000000000000000000000000000000000000000000000000000000000000000000000000000000000000000000000000000000000000000
310
00000000000000000000000000000000000000000000000000000000000000000000000000000000000000000000000000000000000000000000000000000000000000000007070707070000000000000000000000000000000000000000000000000000000000000000000000000000000000000000000000000000000000
310
00000000000000000000000000000000000000000000000000000000000000000000000000000000000000000000000000000000000000000000000000000000000000000000000000000000000000000000000000000000000000000000000000000000000000000000000000000000000000000000000000070707070000
310
00000000000000000000000000000000000000000000000000000000000000000000000000000000000000000000000000000000000000000000000000000000000000000000000000000000000000000000000000000000000000000000000000000000000000000000000000000000000000000000000000000000000000
310
00000000000000000000000000000000000000000000000000000000000000000000000000000000000000000007070707070000000000000000000000000000000000000000000000000000000000000000000000000000000000000000000000000000000000000000000000000000000000000000000000000000000000
310
00000000000000000000000000000000000000000000000000000000000000000000000000000000000000000000000000000000000000000000000000000000000000000000000000000000000000000000000000000000000000000000000000070707000000000000000000000000000000000000000000000000000000
310
00000000000000000000000000000000000000000000000000000000000000000000000000000000000000000000000000000000000000000000000000000000000000000000000000000000000000000000000000000000000000000000000000000000000000000000000000000000000000000000000000000000000000
310
00000000000000000000000000000000000000000000000707070000000000000000000000000000000000000000000000000000000000000000000000000000000000000000000000000000000000000000000000000000000000000000000000000000000000000000000000000000000000000000000000000000000000
310
00000000000000000000000000000000000000000000000000000000000000000000000000000000000000000000000000000000000000000000000000000000000000000000000000000007070000000000000000000000000000000000000000000000000000000000000000000000000000000000000000000000000000
310
00000000000000000000000000000000000000000000000000000000000000000000000000000000000000000000000000000000000000000000000000000000000000000000000000000000000000000000000000000000000000000000000000000000000000000000000000000000000000000000000000000000000000
310
000000000000000000000000000000000000000000000000000000000000000000000000000000000000000000000000000000000000000000000000000000000000000000000000000000000000000000000000000000000000000000000000000000000000000000000000
  0
ENDSEC
  0
EOF
