  0
SECTION
  2
HEADER
  9
$ACADVER
  1
AC1015
  9
$ACADMAINTVER
 70
    13
  9
$DWGCODEPAGE
  3
ANSI_1252
  9
$INSBASE
 10
0.0
 20
0.0
 30
0.0
  9
$EXTMIN
 10
0.0
 20
-0.1755
 30
0.0
  9
$EXTMAX
 10
380.0
 20
360.1755
 30
0.0
  9
$LIMMIN
 10
0.0
 20
0.0
  9
$LIMMAX
 10
12.0
 20
9.0
  9
$ORTHOMODE
 70
     0
  9
$REGENMODE
 70
     1
  9
$FILLMODE
 70
     1
  9
$QTEXTMODE
 70
     0
  9
$MIRRTEXT
 70
     1
  9
$LTSCALE
 40
1.0
  9
$ATTMODE
 70
     1
  9
$TEXTSIZE
 40
0.2
  9
$TRACEWID
 40
0.05
  9
$TEXTSTYLE
  7
Standard
  9
$CLAYER
  8
0
  9
$CELTYPE
  6
ByBlock
  9
$CECOLOR
 62
   256
  9
$CELTSCALE
 40
1.0
  9
$DISPSILH
 70
     0
  9
$DIMSCALE
 40
1.0
  9
$DIMASZ
 40
0.18
  9
$DIMEXO
 40
0.0625
  9
$DIMDLI
 40
0.38
  9
$DIMRND
 40
0.0
  9
$DIMDLE
 40
0.0
  9
$DIMEXE
 40
0.18
  9
$DIMTP
 40
0.0
  9
$DIMTM
 40
0.0
  9
$DIMTXT
 40
0.18
  9
$DIMCEN
 40
0.09
  9
$DIMTSZ
 40
0.0
  9
$DIMTOL
 70
     0
  9
$DIMLIM
 70
     0
  9
$DIMTIH
 70
     1
  9
$DIMTOH
 70
     1
  9
$DIMSE1
 70
     0
  9
$DIMSE2
 70
     0
  9
$DIMTAD
 70
     0
  9
$DIMZIN
 70
     0
  9
$DIMBLK
  1

  9
$DIMASO
 70
     1
  9
$DIMSHO
 70
     1
  9
$DIMPOST
  1

  9
$DIMAPOST
  1

  9
$DIMALT
 70
     0
  9
$DIMALTD
 70
     2
  9
$DIMALTF
 40
25.4
  9
$DIMLFAC
 40
1.0
  9
$DIMTOFL
 70
     0
  9
$DIMTVP
 40
0.0
  9
$DIMTIX
 70
     0
  9
$DIMSOXD
 70
     0
  9
$DIMSAH
 70
     0
  9
$DIMBLK1
  1

  9
$DIMBLK2
  1

  9
$DIMSTYLE
  2
Standard
  9
$DIMCLRD
 70
     0
  9
$DIMCLRE
 70
     0
  9
$DIMCLRT
 70
     0
  9
$DIMTFAC
 40
1.0
  9
$DIMGAP
 40
0.09
  9
$DIMJUST
 70
     0
  9
$DIMSD1
 70
     0
  9
$DIMSD2
 70
     0
  9
$DIMTOLJ
 70
     1
  9
$DIMTZIN
 70
     0
  9
$DIMALTZ
 70
     0
  9
$DIMALTTZ
 70
     0
  9
$DIMUPT
 70
     0
  9
$DIMDEC
 70
     4
  9
$DIMTDEC
 70
     4
  9
$DIMALTU
 70
     2
  9
$DIMALTTD
 70
     2
  9
$DIMTXSTY
  7
Standard
  9
$DIMAUNIT
 70
     0
  9
$DIMADEC
 70
     0
  9
$DIMALTRND
 40
0.0
  9
$DIMAZIN
 70
     0
  9
$DIMDSEP
 70
    46
  9
$DIMATFIT
 70
     3
  9
$DIMFRAC
 70
     0
  9
$DIMLDRBLK
  1

  9
$DIMLUNIT
 70
     2
  9
$DIMLWD
 70
    -2
  9
$DIMLWE
 70
    -2
  9
$DIMTMOVE
 70
     2
  9
$LUNITS
 70
     2
  9
$LUPREC
 70
     4
  9
$SKETCHINC
 40
0.1
  9
$FILLETRAD
 40
0.5
  9
$AUNITS
 70
     0
  9
$AUPREC
 70
     0
  9
$MENU
  1
.
  9
$ELEVATION
 40
0.0
  9
$PELEVATION
 40
0.0
  9
$THICKNESS
 40
0.0
  9
$LIMCHECK
 70
     0
  9
$CHAMFERA
 40
0.5
  9
$CHAMFERB
 40
0.5
  9
$CHAMFERC
 40
1.0
  9
$CHAMFERD
 40
0.0
  9
$SKPOLY
 70
     0
  9
$TDCREATE
 40
2455870.970214189
  9
$TDUCREATE
 40
2455870.886880856
  9
$TDUPDATE
 40
2456021.850932117
  9
$TDUUPDATE
 40
2456021.767598784
  9
$TDINDWG
 40
0.0131389352
  9
$TDUSRTIMER
 40
0.0131389352
  9
$USRTIMER
 70
     1
  9
$ANGBASE
 50
0.0
  9
$ANGDIR
 70
     0
  9
$PDMODE
 70
     0
  9
$PDSIZE
 40
0.0
  9
$PLINEWID
 40
0.0
  9
$SPLFRAME
 70
     0
  9
$SPLINETYPE
 70
     6
  9
$SPLINESEGS
 70
     8
  9
$HANDSEED
  5
88E
  9
$SURFTAB1
 70
     6
  9
$SURFTAB2
 70
     6
  9
$SURFTYPE
 70
     6
  9
$SURFU
 70
     6
  9
$SURFV
 70
     6
  9
$UCSBASE
  2

  9
$UCSNAME
  2

  9
$UCSORG
 10
0.0
 20
0.0
 30
0.0
  9
$UCSXDIR
 10
1.0
 20
0.0
 30
0.0
  9
$UCSYDIR
 10
0.0
 20
1.0
 30
0.0
  9
$UCSORTHOREF
  2

  9
$UCSORTHOVIEW
 70
     0
  9
$UCSORGTOP
 10
0.0
 20
0.0
 30
0.0
  9
$UCSORGBOTTOM
 10
0.0
 20
0.0
 30
0.0
  9
$UCSORGLEFT
 10
0.0
 20
0.0
 30
0.0
  9
$UCSORGRIGHT
 10
0.0
 20
0.0
 30
0.0
  9
$UCSORGFRONT
 10
0.0
 20
0.0
 30
0.0
  9
$UCSORGBACK
 10
0.0
 20
0.0
 30
0.0
  9
$PUCSBASE
  2

  9
$PUCSNAME
  2

  9
$PUCSORG
 10
0.0
 20
0.0
 30
0.0
  9
$PUCSXDIR
 10
1.0
 20
0.0
 30
0.0
  9
$PUCSYDIR
 10
0.0
 20
1.0
 30
0.0
  9
$PUCSORTHOREF
  2

  9
$PUCSORTHOVIEW
 70
     0
  9
$PUCSORGTOP
 10
0.0
 20
0.0
 30
0.0
  9
$PUCSORGBOTTOM
 10
0.0
 20
0.0
 30
0.0
  9
$PUCSORGLEFT
 10
0.0
 20
0.0
 30
0.0
  9
$PUCSORGRIGHT
 10
0.0
 20
0.0
 30
0.0
  9
$PUCSORGFRONT
 10
0.0
 20
0.0
 30
0.0
  9
$PUCSORGBACK
 10
0.0
 20
0.0
 30
0.0
  9
$USERI1
 70
     0
  9
$USERI2
 70
     0
  9
$USERI3
 70
     0
  9
$USERI4
 70
     0
  9
$USERI5
 70
     0
  9
$USERR1
 40
0.0
  9
$USERR2
 40
0.0
  9
$USERR3
 40
0.0
  9
$USERR4
 40
0.0
  9
$USERR5
 40
0.0
  9
$WORLDVIEW
 70
     1
  9
$SHADEDGE
 70
     3
  9
$SHADEDIF
 70
    70
  9
$TILEMODE
 70
     1
  9
$MAXACTVP
 70
    64
  9
$PINSBASE
 10
0.0
 20
0.0
 30
0.0
  9
$PLIMCHECK
 70
     0
  9
$PEXTMIN
 10
1.000000000000000E+20
 20
1.000000000000000E+20
 30
1.000000000000000E+20
  9
$PEXTMAX
 10
-1.000000000000000E+20
 20
-1.000000000000000E+20
 30
-1.000000000000000E+20
  9
$PLIMMIN
 10
0.0
 20
0.0
  9
$PLIMMAX
 10
12.0
 20
9.0
  9
$UNITMODE
 70
     0
  9
$VISRETAIN
 70
     1
  9
$PLINEGEN
 70
     0
  9
$PSLTSCALE
 70
     1
  9
$TREEDEPTH
 70
  3020
  9
$CMLSTYLE
  2
Standard
  9
$CMLJUST
 70
     0
  9
$CMLSCALE
 40
1.0
  9
$PROXYGRAPHICS
 70
     1
  9
$MEASUREMENT
 70
     0
  9
$CELWEIGHT
370
    -1
  9
$ENDCAPS
280
     0
  9
$JOINSTYLE
280
     0
  9
$LWDISPLAY
290
     0
  9
$INSUNITS
 70
     0
  9
$HYPERLINKBASE
  1

  9
$STYLESHEET
  1

  9
$XEDIT
290
     1
  9
$CEPSNTYPE
380
     0
  9
$PSTYLEMODE
290
     1
  9
$FINGERPRINTGUID
  2
{ACB0D8BD-5C93-4DBC-B7DC-C8586F6608EA}
  9
$VERSIONGUID
  2
{FAEB1C32-E019-11D5-929B-00C0DF256EC4}
  9
$EXTNAMES
290
     1
  9
$PSVPSCALE
 40
0.0
  9
$OLESTARTUP
290
     0
  0
ENDSEC
  0
SECTION
  2
CLASSES
  0
CLASS
  1
ACDBDICTIONARYWDFLT
  2
AcDbDictionaryWithDefault
  3
AutoCAD 2000
 90
        0
280
     0
281
     0
  0
CLASS
  1
SCALE
  2
AcDbScale
  3
ObjectDBX Classes
 90
     1153
280
     0
281
     0
  0
CLASS
  1
DICTIONARYVAR
  2
AcDbDictionaryVar
  3
AutoCAD 2000
 90
        0
280
     0
281
     0
  0
CLASS
  1
ACDBPLACEHOLDER
  2
AcDbPlaceHolder
  3
AutoCAD 2000
 90
        0
280
     0
281
     0
  0
CLASS
  1
LAYOUT
  2
AcDbLayout
  3
AutoCAD 2000
 90
        0
280
     0
281
     0
  0
ENDSEC
  0
SECTION
  2
TABLES
  0
TABLE
  2
VPORT
  5
8
330
0
100
AcDbSymbolTable
 70
     3
  0
VPORT
  5
88D
330
8
100
AcDbSymbolTableRecord
100
AcDbViewportTableRecord
  2
*Active
 70
     0
 10
0.0
 20
0.0
 11
1.0
 21
1.0
 12
190.0
 22
194.7921507126435
 13
0.0
 23
0.0
 14
0.5
 24
0.5
 15
0.5
 25
0.5
 16
0.0
 26
0.0
 36
1.0
 17
0.0
 27
0.0
 37
0.0
 40
397.142321425287
 41
2.102496714848883
 42
50.0
 43
0.0
 44
0.0
 50
0.0
 51
0.0
 71
    16
 72
   100
 73
     1
 74
     3
 75
     0
 76
     0
 77
     0
 78
     0
281
     0
 65
     1
110
0.0
120
0.0
130
0.0
111
1.0
121
0.0
131
0.0
112
0.0
122
1.0
132
0.0
 79
     0
146
0.0
  0
ENDTAB
  0
TABLE
  2
LTYPE
  5
5
330
0
100
AcDbSymbolTable
 70
     1
  0
LTYPE
  5
14
330
5
100
AcDbSymbolTableRecord
100
AcDbLinetypeTableRecord
  2
ByBlock
 70
     0
  3

 72
    65
 73
     0
 40
0.0
  0
LTYPE
  5
15
330
5
100
AcDbSymbolTableRecord
100
AcDbLinetypeTableRecord
  2
ByLayer
 70
     0
  3

 72
    65
 73
     0
 40
0.0
  0
LTYPE
  5
16
330
5
100
AcDbSymbolTableRecord
100
AcDbLinetypeTableRecord
  2
Continuous
 70
     0
  3
Solid line
 72
    65
 73
     0
 40
0.0
  0
ENDTAB
  0
TABLE
  2
LAYER
  5
2
330
0
100
AcDbSymbolTable
 70
     1
  0
LAYER
  5
10
330
2
100
AcDbSymbolTableRecord
100
AcDbLayerTableRecord
  2
0
 70
     0
 62
     7
  6
Continuous
370
    -3
390
F
  0
ENDTAB
  0
TABLE
  2
STYLE
  5
3
330
0
100
AcDbSymbolTable
 70
     1
  0
STYLE
  5
11
330
3
100
AcDbSymbolTableRecord
100
AcDbTextStyleTableRecord
  2
Standard
 70
     0
 40
0.0
 41
1.0
 50
0.0
 71
     0
 42
0.2
  3
txt
  4

  0
ENDTAB
  0
TABLE
  2
VIEW
  5
6
330
0
100
AcDbSymbolTable
 70
     0
  0
ENDTAB
  0
TABLE
  2
UCS
  5
7
330
0
100
AcDbSymbolTable
 70
     0
  0
ENDTAB
  0
TABLE
  2
APPID
  5
9
330
0
100
AcDbSymbolTable
 70
     1
  0
APPID
  5
12
330
9
100
AcDbSymbolTableRecord
100
AcDbRegAppTableRecord
  2
ACAD
 70
     0
  0
ENDTAB
  0
TABLE
  2
DIMSTYLE
  5
A
330
0
100
AcDbSymbolTable
 70
     1
100
AcDbDimStyleTable
 71
     0
  0
DIMSTYLE
105
20
330
A
100
AcDbSymbolTableRecord
100
AcDbDimStyleTableRecord
  2
Standard
 70
     0
340
11
  0
ENDTAB
  0
TABLE
  2
BLOCK_RECORD
  5
1
330
0
100
AcDbSymbolTable
 70
     0
  0
BLOCK_RECORD
  5
1D
330
1
100
AcDbSymbolTableRecord
100
AcDbBlockTableRecord
  2
*Model_Space
340
1E
  0
BLOCK_RECORD
  5
1B
330
1
100
AcDbSymbolTableRecord
100
AcDbBlockTableRecord
  2
*Paper_Space
340
1C
  0
ENDTAB
  0
ENDSEC
  0
SECTION
  2
BLOCKS
  0
BLOCK
  5
72A
330
1D
100
AcDbEntity
  8
0
100
AcDbBlockBegin
  2
*Model_Space
 70
     0
 10
0.0
 20
0.0
 30
0.0
  3
*Model_Space
  1
*Model_Space
  0
ENDBLK
  5
72B
330
1D
100
AcDbEntity
  8
0
100
AcDbBlockEnd
  0
BLOCK
  5
728
330
1B
100
AcDbEntity
 67
     1
  8
0
100
AcDbBlockBegin
  2
*Paper_Space
 70
     0
 10
0.0
 20
0.0
 30
0.0
  3
*Paper_Space
  1
*Paper_Space
  0
ENDBLK
  5
729
330
1B
100
AcDbEntity
 67
     1
  8
0
100
AcDbBlockEnd
  0
ENDSEC
  0
SECTION
  2
ENTITIES
  0
LINE
  5
21
330
1D
100
AcDbEntity
  8
0
100
AcDbLine
 10
44.4759
 20
265.2615
 30
0.0
 11
45.49199999999999
 21
265.6544999999999
 31
0.0
  0
LINE
  5
22
330
1D
100
AcDbEntity
  8
0
100
AcDbLine
 10
23.0
 20
265.2615
 30
0.0
 11
44.4759
 21
265.2615
 31
0.0
  0
LINE
  5
23
330
1D
100
AcDbEntity
  8
0
100
AcDbLine
 10
1.524059999999999
 20
265.2615
 30
0.0
 11
23.0
 21
265.2615
 31
0.0
  0
LINE
  5
24
330
1D
100
AcDbEntity
  8
0
100
AcDbLine
 10
45.49199999999999
 20
265.6544999999999
 30
0.0
 11
45.49199999999999
 21
266.2865
 31
0.0
  0
LINE
  5
25
330
1D
100
AcDbEntity
  8
0
100
AcDbLine
 10
45.49199999999999
 20
265.6544999999999
 30
0.0
 11
45.78047997930299
 21
266.218966731155
 31
0.0
  0
LINE
  5
26
330
1D
100
AcDbEntity
  8
0
100
AcDbLine
 10
0.0
 20
267.2375
 30
0.0
 11
0.0
 21
266.6485
 31
0.0
  0
LINE
  5
27
330
1D
100
AcDbEntity
  8
0
100
AcDbLine
 10
0.0
 20
267.2375
 30
0.0
 11
0.0
 21
269.0785
 31
0.0
  0
LINE
  5
28
330
1D
100
AcDbEntity
  8
0
100
AcDbLine
 10
0.0
 20
266.6485
 30
0.0
 11
0.5080200000000001
 21
265.6544999999999
 31
0.0
  0
LINE
  5
29
330
1D
100
AcDbEntity
  8
0
100
AcDbLine
 10
0.0
 20
266.6485
 30
0.0
 11
0.0
 21
267.2375
 31
0.0
  0
LINE
  5
2A
330
1D
100
AcDbEntity
  8
0
100
AcDbLine
 10
0.0
 20
272.0864999999999
 30
0.0
 11
0.0
 21
269.0785
 31
0.0
  0
LINE
  5
2B
330
1D
100
AcDbEntity
  8
0
100
AcDbLine
 10
0.0
 20
272.0864999999999
 30
0.0
 11
0.0
 21
275.9415
 31
0.0
  0
LINE
  5
2C
330
1D
100
AcDbEntity
  8
0
100
AcDbLine
 10
0.0
 20
275.9415
 30
0.0
 11
0.0
 21
272.0864999999999
 31
0.0
  0
LINE
  5
2D
330
1D
100
AcDbEntity
  8
0
100
AcDbLine
 10
0.0
 20
275.9415
 30
0.0
 11
0.0
 21
280.3684999999999
 31
0.0
  0
LINE
  5
2E
330
1D
100
AcDbEntity
  8
0
100
AcDbLine
 10
0.5080200000000001
 20
271.4045
 30
0.0
 11
0.5080200000000001
 21
268.2624999999999
 31
0.0
  0
LINE
  5
2F
330
1D
100
AcDbEntity
  8
0
100
AcDbLine
 10
0.5080200000000001
 20
271.4045
 30
0.0
 11
0.5080200000000001
 21
275.241613715995
 31
0.0
  0
LINE
  5
30
330
1D
100
AcDbEntity
  8
0
100
AcDbLine
 10
0.1
 20
276.2234999999999
 30
0.0
 11
0.1
 21
275.7724999999999
 31
0.0
  0
LINE
  5
31
330
1D
100
AcDbEntity
  8
0
100
AcDbLine
 10
0.1
 20
276.2234999999999
 30
0.0
 11
0.1
 21
276.8025
 31
0.0
  0
LINE
  5
32
330
1D
100
AcDbEntity
  8
0
100
AcDbLine
 10
0.1
 20
276.8025
 30
0.0
 11
0.1
 21
276.2234999999999
 31
0.0
  0
LINE
  5
33
330
1D
100
AcDbEntity
  8
0
100
AcDbLine
 10
0.1
 20
276.8025
 30
0.0
 11
0.1
 21
277.4665
 31
0.0
  0
LINE
  5
34
330
1D
100
AcDbEntity
  8
0
100
AcDbLine
 10
0.1
 20
277.4665
 30
0.0
 11
0.1
 21
276.8025
 31
0.0
  0
LINE
  5
35
330
1D
100
AcDbEntity
  8
0
100
AcDbLine
 10
0.1
 20
277.4665
 30
0.0
 11
0.1
 21
278.1824999999999
 31
0.0
  0
LINE
  5
36
330
1D
100
AcDbEntity
  8
0
100
AcDbLine
 10
0.1
 20
275.7724999999999
 30
0.0
 11
0.1
 21
275.4965
 31
0.0
  0
LINE
  5
37
330
1D
100
AcDbEntity
  8
0
100
AcDbLine
 10
0.1
 20
275.7724999999999
 30
0.0
 11
0.1
 21
276.2234999999999
 31
0.0
  0
LINE
  5
38
330
1D
100
AcDbEntity
  8
0
100
AcDbLine
 10
0.1
 20
275.4965
 30
0.0
 11
0.1
 21
275.4084999999999
 31
0.0
  0
LINE
  5
39
330
1D
100
AcDbEntity
  8
0
100
AcDbLine
 10
0.1
 20
275.4965
 30
0.0
 11
0.1
 21
275.7724999999999
 31
0.0
  0
LINE
  5
3A
330
1D
100
AcDbEntity
  8
0
100
AcDbLine
 10
0.1
 20
275.4965
 30
0.0
 11
0.1
 21
277.8254999999999
 31
0.0
  0
LINE
  5
3B
330
1D
100
AcDbEntity
  8
0
100
AcDbLine
 10
0.1
 20
275.4084999999999
 30
0.0
 11
0.35401
 21
275.2594999999999
 31
0.0
  0
LINE
  5
3C
330
1D
100
AcDbEntity
  8
0
100
AcDbLine
 10
0.1
 20
275.4084999999999
 30
0.0
 11
0.1
 21
275.4965
 31
0.0
  0
LINE
  5
3D
330
1D
100
AcDbEntity
  8
0
100
AcDbLine
 10
0.35401
 20
275.2594999999999
 30
0.0
 11
0.86203
 21
275.2005
 31
0.0
  0
LINE
  5
3E
330
1D
100
AcDbEntity
  8
0
100
AcDbLine
 10
0.5080200000000001
 20
275.241613715995
 30
0.0
 11
0.5080200000000001
 21
271.4045
 31
0.0
  0
LINE
  5
3F
330
1D
100
AcDbEntity
  8
0
100
AcDbLine
 10
0.0
 20
269.0785
 30
0.0
 11
0.0
 21
267.2375
 31
0.0
  0
LINE
  5
40
330
1D
100
AcDbEntity
  8
0
100
AcDbLine
 10
0.0
 20
269.0785
 30
0.0
 11
0.0
 21
272.0864999999999
 31
0.0
  0
LINE
  5
41
330
1D
100
AcDbEntity
  8
0
100
AcDbLine
 10
0.5080200000000001
 20
268.2624999999999
 30
0.0
 11
0.5080200000000001
 21
266.2865
 31
0.0
  0
LINE
  5
42
330
1D
100
AcDbEntity
  8
0
100
AcDbLine
 10
0.5080200000000001
 20
268.2624999999999
 30
0.0
 11
0.5080200000000001
 21
271.4045
 31
0.0
  0
LINE
  5
43
330
1D
100
AcDbEntity
  8
0
100
AcDbLine
 10
45.758265593561
 20
266.1754999999999
 30
0.0
 11
57.228679958027
 21
266.1754999999999
 31
0.0
  0
LINE
  5
44
330
1D
100
AcDbEntity
  8
0
100
AcDbLine
 10
45.758265593561
 20
266.1754999999999
 30
0.0
 11
57.228679958027
 21
266.1754999999999
 31
0.0
  0
LINE
  5
45
330
1D
100
AcDbEntity
  8
0
100
AcDbLine
 10
19.338
 20
275.2005
 30
0.0
 11
19.846
 21
275.2594999999999
 31
0.0
  0
LINE
  5
46
330
1D
100
AcDbEntity
  8
0
100
AcDbLine
 10
10.1
 20
275.2005
 30
0.0
 11
19.338
 21
275.2005
 31
0.0
  0
LINE
  5
47
330
1D
100
AcDbEntity
  8
0
100
AcDbLine
 10
20.1
 20
275.4084999999999
 30
0.0
 11
20.1
 21
275.4965
 31
0.0
  0
LINE
  5
48
330
1D
100
AcDbEntity
  8
0
100
AcDbLine
 10
19.846
 20
275.2594999999999
 30
0.0
 11
20.1
 21
275.4084999999999
 31
0.0
  0
LINE
  5
49
330
1D
100
AcDbEntity
  8
0
100
AcDbLine
 10
0.86203
 20
275.2005
 30
0.0
 11
10.1
 21
275.2005
 31
0.0
  0
LINE
  5
4A
330
1D
100
AcDbEntity
  8
0
100
AcDbLine
 10
45.49199999999999
 20
271.4045
 30
0.0
 11
45.49199999999999
 21
275.4195
 31
0.0
  0
LINE
  5
4B
330
1D
100
AcDbEntity
  8
0
100
AcDbLine
 10
45.49199999999999
 20
271.4045
 30
0.0
 11
45.49199999999999
 21
268.2624999999999
 31
0.0
  0
LINE
  5
4C
330
1D
100
AcDbEntity
  8
0
100
AcDbLine
 10
20.1
 20
276.2234999999999
 30
0.0
 11
20.1
 21
276.8025
 31
0.0
  0
LINE
  5
4D
330
1D
100
AcDbEntity
  8
0
100
AcDbLine
 10
20.1
 20
276.2234999999999
 30
0.0
 11
20.1
 21
275.7724999999999
 31
0.0
  0
LINE
  5
4E
330
1D
100
AcDbEntity
  8
0
100
AcDbLine
 10
20.1
 20
276.8025
 30
0.0
 11
20.1
 21
277.4665
 31
0.0
  0
LINE
  5
4F
330
1D
100
AcDbEntity
  8
0
100
AcDbLine
 10
20.1
 20
276.8025
 30
0.0
 11
20.1
 21
276.2234999999999
 31
0.0
  0
LINE
  5
50
330
1D
100
AcDbEntity
  8
0
100
AcDbLine
 10
20.1
 20
275.7724999999999
 30
0.0
 11
20.1
 21
275.4965
 31
0.0
  0
LINE
  5
51
330
1D
100
AcDbEntity
  8
0
100
AcDbLine
 10
20.1
 20
275.7724999999999
 30
0.0
 11
20.1
 21
276.2234999999999
 31
0.0
  0
LINE
  5
52
330
1D
100
AcDbEntity
  8
0
100
AcDbLine
 10
20.1
 20
275.4965
 30
0.0
 11
20.1
 21
275.7724999999999
 31
0.0
  0
LINE
  5
53
330
1D
100
AcDbEntity
  8
0
100
AcDbLine
 10
20.1
 20
275.4965
 30
0.0
 11
20.1
 21
275.4084999999999
 31
0.0
  0
LINE
  5
54
330
1D
100
AcDbEntity
  8
0
100
AcDbLine
 10
20.1
 20
277.4665
 30
0.0
 11
20.1
 21
278.1824999999999
 31
0.0
  0
LINE
  5
55
330
1D
100
AcDbEntity
  8
0
100
AcDbLine
 10
20.1
 20
277.4665
 30
0.0
 11
20.1
 21
276.8025
 31
0.0
  0
LINE
  5
56
330
1D
100
AcDbEntity
  8
0
100
AcDbLine
 10
45.49199999999999
 20
275.4195
 30
0.0
 11
45.49199999999999
 21
280.1225
 31
0.0
  0
LINE
  5
57
330
1D
100
AcDbEntity
  8
0
100
AcDbLine
 10
45.49199999999999
 20
275.4195
 30
0.0
 11
45.49199999999999
 21
271.4045
 31
0.0
  0
LINE
  5
58
330
1D
100
AcDbEntity
  8
0
100
AcDbLine
 10
45.49199999999999
 20
268.2624999999999
 30
0.0
 11
45.49199999999999
 21
266.2865
 31
0.0
  0
LINE
  5
59
330
1D
100
AcDbEntity
  8
0
100
AcDbLine
 10
45.49199999999999
 20
268.2624999999999
 30
0.0
 11
45.49199999999999
 21
271.4045
 31
0.0
  0
LINE
  5
5A
330
1D
100
AcDbEntity
  8
0
100
AcDbLine
 10
45.49199999999999
 20
266.2865
 30
0.0
 11
45.49199999999999
 21
268.2624999999999
 31
0.0
  0
LINE
  5
5B
330
1D
100
AcDbEntity
  8
0
100
AcDbLine
 10
45.49199999999999
 20
266.2865
 30
0.0
 11
45.49199999999999
 21
265.6544999999999
 31
0.0
  0
LINE
  5
5C
330
1D
100
AcDbEntity
  8
0
100
AcDbLine
 10
0.5080200000000001
 20
266.2865
 30
0.0
 11
0.5080200000000001
 21
265.6544999999999
 31
0.0
  0
LINE
  5
5D
330
1D
100
AcDbEntity
  8
0
100
AcDbLine
 10
0.5080200000000001
 20
266.2865
 30
0.0
 11
0.5080200000000001
 21
268.2624999999999
 31
0.0
  0
LINE
  5
5E
330
1D
100
AcDbEntity
  8
0
100
AcDbLine
 10
0.5080200000000001
 20
265.6544999999999
 30
0.0
 11
1.524059999999999
 21
265.2615
 31
0.0
  0
LINE
  5
5F
330
1D
100
AcDbEntity
  8
0
100
AcDbLine
 10
0.5080200000000001
 20
265.6544999999999
 30
0.0
 11
0.5080200000000001
 21
266.2865
 31
0.0
  0
LINE
  5
60
330
1D
100
AcDbEntity
  8
0
100
AcDbLine
 10
57.508
 20
275.4615
 30
0.0
 11
57.508
 21
271.3655
 31
0.0
  0
LINE
  5
61
330
1D
100
AcDbEntity
  8
0
100
AcDbLine
 10
57.508
 20
275.4615
 30
0.0
 11
57.508
 21
280.1275
 31
0.0
  0
LINE
  5
62
330
1D
100
AcDbEntity
  8
0
100
AcDbLine
 10
57.508
 20
271.3655
 30
0.0
 11
57.508
 21
268.2234999999999
 31
0.0
  0
LINE
  5
63
330
1D
100
AcDbEntity
  8
0
100
AcDbLine
 10
57.508
 20
271.3655
 30
0.0
 11
57.508
 21
275.4615
 31
0.0
  0
LINE
  5
64
330
1D
100
AcDbEntity
  8
0
100
AcDbLine
 10
57.508
 20
268.2234999999999
 30
0.0
 11
57.508
 21
266.3184999999999
 31
0.0
  0
LINE
  5
65
330
1D
100
AcDbEntity
  8
0
100
AcDbLine
 10
57.508
 20
268.2234999999999
 30
0.0
 11
57.508
 21
271.3655
 31
0.0
  0
LINE
  5
66
330
1D
100
AcDbEntity
  8
0
100
AcDbLine
 10
57.508
 20
266.3184999999999
 30
0.0
 11
57.508
 21
265.6515
 31
0.0
  0
LINE
  5
67
330
1D
100
AcDbEntity
  8
0
100
AcDbLine
 10
57.508
 20
266.3184999999999
 30
0.0
 11
57.508
 21
268.2234999999999
 31
0.0
  0
LINE
  5
68
330
1D
100
AcDbEntity
  8
0
100
AcDbLine
 10
57.228679958027
 20
266.1754999999999
 30
0.0
 11
57.508
 21
265.6515
 31
0.0
  0
LINE
  5
69
330
1D
100
AcDbEntity
  8
0
100
AcDbLine
 10
57.508
 20
265.6515
 30
0.0
 11
58.52409999999999
 21
265.1755
 31
0.0
  0
LINE
  5
6A
330
1D
100
AcDbEntity
  8
0
100
AcDbLine
 10
57.508
 20
265.6515
 30
0.0
 11
57.508
 21
266.3184999999999
 31
0.0
  0
LINE
  5
6B
330
1D
100
AcDbEntity
  8
0
100
AcDbLine
 10
72.8
 20
68.98950000000001
 30
0.0
 11
74.90000000000001
 21
59.4045
 31
0.0
  0
LINE
  5
6C
330
1D
100
AcDbEntity
  8
0
100
AcDbLine
 10
82.70000000000001
 20
41.36249999999999
 30
0.0
 11
88.59999999999999
 21
33.0935
 31
0.0
  0
LINE
  5
6D
330
1D
100
AcDbEntity
  8
0
100
AcDbLine
 10
96.2
 20
26.66949999999999
 30
0.0
 11
104.0
 21
20.2795
 31
0.0
  0
LINE
  5
6E
330
1D
100
AcDbEntity
  8
0
100
AcDbLine
 10
95.5
 20
25.6695
 30
0.0
 11
103.4
 21
19.1855
 31
0.0
  0
LINE
  5
6F
330
1D
100
AcDbEntity
  8
0
100
AcDbLine
 10
95.5
 20
21.90749999999999
 30
0.0
 11
103.4
 21
15.4235
 31
0.0
  0
LINE
  5
70
330
1D
100
AcDbEntity
  8
0
100
AcDbLine
 10
83.59999999999999
 20
42.1745
 30
0.0
 11
89.40000000000001
 21
33.9985
 31
0.0
  0
LINE
  5
71
330
1D
100
AcDbEntity
  8
0
100
AcDbLine
 10
89.40000000000001
 20
33.9985
 30
0.0
 11
96.2
 21
26.66949999999999
 31
0.0
  0
LINE
  5
72
330
1D
100
AcDbEntity
  8
0
100
AcDbLine
 10
88.59999999999999
 20
33.0935
 30
0.0
 11
95.5
 21
25.6695
 31
0.0
  0
LINE
  5
73
330
1D
100
AcDbEntity
  8
0
100
AcDbLine
 10
88.59999999999999
 20
29.3305
 30
0.0
 11
95.5
 21
21.90749999999999
 31
0.0
  0
LINE
  5
74
330
1D
100
AcDbEntity
  8
0
100
AcDbLine
 10
82.70000000000001
 20
37.60049999999999
 30
0.0
 11
88.59999999999999
 21
29.3305
 31
0.0
  0
LINE
  5
75
330
1D
100
AcDbEntity
  8
0
100
AcDbLine
 10
79.2
 20
50.72549999999999
 30
0.0
 11
83.59999999999999
 21
42.1745
 31
0.0
  0
LINE
  5
76
330
1D
100
AcDbEntity
  8
0
100
AcDbLine
 10
78.2
 20
50.0075
 30
0.0
 11
82.70000000000001
 21
41.36249999999999
 31
0.0
  0
LINE
  5
77
330
1D
100
AcDbEntity
  8
0
100
AcDbLine
 10
78.2
 20
46.2455
 30
0.0
 11
82.70000000000001
 21
37.60049999999999
 31
0.0
  0
LINE
  5
78
330
1D
100
AcDbEntity
  8
0
100
AcDbLine
 10
74.90000000000001
 20
55.6425
 30
0.0
 11
78.2
 21
46.2455
 31
0.0
  0
LINE
  5
79
330
1D
100
AcDbEntity
  8
0
100
AcDbLine
 10
73.79999999999999
 20
69.4255
 30
0.0
 11
75.8
 21
59.9345
 31
0.0
  0
LINE
  5
7A
330
1D
100
AcDbEntity
  8
0
100
AcDbLine
 10
75.8
 20
59.9345
 30
0.0
 11
79.2
 21
50.72549999999999
 31
0.0
  0
LINE
  5
7B
330
1D
100
AcDbEntity
  8
0
100
AcDbLine
 10
74.90000000000001
 20
59.4045
 30
0.0
 11
78.2
 21
50.0075
 31
0.0
  0
LINE
  5
7C
330
1D
100
AcDbEntity
  8
0
100
AcDbLine
 10
72.8
 20
65.22750000000001
 30
0.0
 11
74.90000000000001
 21
55.6425
 31
0.0
  0
LINE
  5
7D
330
1D
100
AcDbEntity
  8
0
100
AcDbLine
 10
73.79999999999999
 20
88.78350000000001
 30
0.0
 11
75.8
 21
98.2735
 31
0.0
  0
LINE
  5
7E
330
1D
100
AcDbEntity
  8
0
100
AcDbLine
 10
75.8
 20
98.2735
 30
0.0
 11
79.2
 21
107.4825
 31
0.0
  0
LINE
  5
7F
330
1D
100
AcDbEntity
  8
0
100
AcDbLine
 10
74.90000000000001
 20
98.11950000000001
 30
0.0
 11
78.2
 21
107.5164999999999
 31
0.0
  0
LINE
  5
80
330
1D
100
AcDbEntity
  8
0
100
AcDbLine
 10
72.8
 20
88.5345
 30
0.0
 11
74.90000000000001
 21
98.11950000000001
 31
0.0
  0
LINE
  5
81
330
1D
100
AcDbEntity
  8
0
100
AcDbLine
 10
79.2
 20
107.4825
 30
0.0
 11
83.59999999999999
 21
116.0344999999999
 31
0.0
  0
LINE
  5
82
330
1D
100
AcDbEntity
  8
0
100
AcDbLine
 10
83.59999999999999
 20
116.0344999999999
 30
0.0
 11
89.40000000000001
 21
124.2095
 31
0.0
  0
LINE
  5
83
330
1D
100
AcDbEntity
  8
0
100
AcDbLine
 10
82.70000000000001
 20
116.1615
 30
0.0
 11
88.59999999999999
 21
124.4315
 31
0.0
  0
LINE
  5
84
330
1D
100
AcDbEntity
  8
0
100
AcDbLine
 10
78.2
 20
107.5164999999999
 30
0.0
 11
82.70000000000001
 21
116.1615
 31
0.0
  0
LINE
  5
85
330
1D
100
AcDbEntity
  8
0
100
AcDbLine
 10
89.40000000000001
 20
124.2095
 30
0.0
 11
96.2
 21
131.5395
 31
0.0
  0
LINE
  5
86
330
1D
100
AcDbEntity
  8
0
100
AcDbLine
 10
88.59999999999999
 20
124.4315
 30
0.0
 11
95.5
 21
131.8545
 31
0.0
  0
LINE
  5
87
330
1D
100
AcDbEntity
  8
0
100
AcDbLine
 10
96.2
 20
131.5395
 30
0.0
 11
104.0
 21
137.9285
 31
0.0
  0
LINE
  5
88
330
1D
100
AcDbEntity
  8
0
100
AcDbLine
 10
95.5
 20
131.8545
 30
0.0
 11
103.4
 21
138.3385
 31
0.0
  0
LINE
  5
89
330
1D
100
AcDbEntity
  8
0
100
AcDbLine
 10
73.0
 20
79.1045
 30
0.0
 11
73.79999999999999
 21
69.4255
 31
0.0
  0
LINE
  5
8A
330
1D
100
AcDbEntity
  8
0
100
AcDbLine
 10
73.0
 20
79.1045
 30
0.0
 11
73.79999999999999
 21
88.78350000000001
 31
0.0
  0
LINE
  5
8B
330
1D
100
AcDbEntity
  8
0
100
AcDbLine
 10
72.0
 20
78.7625
 30
0.0
 11
72.0
 21
74.9995
 31
0.0
  0
LINE
  5
8C
330
1D
100
AcDbEntity
  8
0
100
AcDbLine
 10
72.0
 20
78.7625
 30
0.0
 11
72.8
 21
68.98950000000001
 31
0.0
  0
LINE
  5
8D
330
1D
100
AcDbEntity
  8
0
100
AcDbLine
 10
72.0
 20
78.7625
 30
0.0
 11
72.8
 21
88.5345
 31
0.0
  0
LINE
  5
8E
330
1D
100
AcDbEntity
  8
0
100
AcDbLine
 10
72.0
 20
74.9995
 30
0.0
 11
72.8
 21
65.22750000000001
 31
0.0
  0
LINE
  5
8F
330
1D
100
AcDbEntity
  8
0
100
AcDbLine
 10
72.0
 20
74.9995
 30
0.0
 11
72.0
 21
78.7625
 31
0.0
  0
LINE
  5
90
330
1D
100
AcDbEntity
  8
0
100
AcDbLine
 10
58.52409999999999
 20
265.1755
 30
0.0
 11
141.0
 21
265.1755
 31
0.0
  0
LINE
  5
91
330
1D
100
AcDbEntity
  8
0
100
AcDbLine
 10
0.1
 20
278.1824999999999
 30
0.0
 11
0.1
 21
277.4665
 31
0.0
  0
LINE
  5
92
330
1D
100
AcDbEntity
  8
0
100
AcDbLine
 10
0.1
 20
278.1824999999999
 30
0.0
 11
0.1
 21
278.9015
 31
0.0
  0
LINE
  5
93
330
1D
100
AcDbEntity
  8
0
100
AcDbLine
 10
20.1
 20
278.1824999999999
 30
0.0
 11
20.1
 21
278.9015
 31
0.0
  0
LINE
  5
94
330
1D
100
AcDbEntity
  8
0
100
AcDbLine
 10
20.1
 20
278.1824999999999
 30
0.0
 11
20.1
 21
277.4665
 31
0.0
  0
LINE
  5
95
330
1D
100
AcDbEntity
  8
0
100
AcDbLine
 10
0.1
 20
277.8254999999999
 30
0.0
 11
0.1
 21
275.4965
 31
0.0
  0
LINE
  5
96
330
1D
100
AcDbEntity
  8
0
100
AcDbLine
 10
0.1
 20
278.9015
 30
0.0
 11
0.1
 21
278.1824999999999
 31
0.0
  0
LINE
  5
97
330
1D
100
AcDbEntity
  8
0
100
AcDbLine
 10
0.1
 20
278.9015
 30
0.0
 11
0.1
 21
279.5815
 31
0.0
  0
LINE
  5
98
330
1D
100
AcDbEntity
  8
0
100
AcDbLine
 10
20.1
 20
278.9015
 30
0.0
 11
20.1
 21
279.5815
 31
0.0
  0
LINE
  5
99
330
1D
100
AcDbEntity
  8
0
100
AcDbLine
 10
20.1
 20
278.9015
 30
0.0
 11
20.1
 21
278.1824999999999
 31
0.0
  0
LINE
  5
9A
330
1D
100
AcDbEntity
  8
0
100
AcDbLine
 10
20.1
 20
279.5815
 30
0.0
 11
20.1
 21
280.1605
 31
0.0
  0
LINE
  5
9B
330
1D
100
AcDbEntity
  8
0
100
AcDbLine
 10
20.1
 20
279.5815
 30
0.0
 11
20.1
 21
278.9015
 31
0.0
  0
LINE
  5
9C
330
1D
100
AcDbEntity
  8
0
100
AcDbLine
 10
20.1
 20
280.1605
 30
0.0
 11
20.1
 21
280.5965
 31
0.0
  0
LINE
  5
9D
330
1D
100
AcDbEntity
  8
0
100
AcDbLine
 10
20.1
 20
280.1605
 30
0.0
 11
20.1
 21
279.5815
 31
0.0
  0
LINE
  5
9E
330
1D
100
AcDbEntity
  8
0
100
AcDbLine
 10
0.1
 20
279.5815
 30
0.0
 11
0.1
 21
280.1605
 31
0.0
  0
LINE
  5
9F
330
1D
100
AcDbEntity
  8
0
100
AcDbLine
 10
0.1
 20
279.5815
 30
0.0
 11
0.1
 21
278.9015
 31
0.0
  0
LINE
  5
A0
330
1D
100
AcDbEntity
  8
0
100
AcDbLine
 10
0.1
 20
280.1605
 30
0.0
 11
0.1
 21
279.5815
 31
0.0
  0
LINE
  5
A1
330
1D
100
AcDbEntity
  8
0
100
AcDbLine
 10
0.1
 20
280.1605
 30
0.0
 11
0.1
 21
280.5965
 31
0.0
  0
LINE
  5
A2
330
1D
100
AcDbEntity
  8
0
100
AcDbLine
 10
45.49199999999999
 20
280.1225
 30
0.0
 11
45.49199999999999
 21
275.4195
 31
0.0
  0
LINE
  5
A3
330
1D
100
AcDbEntity
  8
0
100
AcDbLine
 10
45.49199999999999
 20
280.1225
 30
0.0
 11
45.49199999999999
 21
285.1704999999999
 31
0.0
  0
LINE
  5
A4
330
1D
100
AcDbEntity
  8
0
100
AcDbLine
 10
0.1
 20
280.5965
 30
0.0
 11
0.1
 21
280.1605
 31
0.0
  0
LINE
  5
A5
330
1D
100
AcDbEntity
  8
0
100
AcDbLine
 10
0.1
 20
280.5965
 30
0.0
 11
0.1
 21
280.8784999999999
 31
0.0
  0
LINE
  5
A6
330
1D
100
AcDbEntity
  8
0
100
AcDbLine
 10
20.1
 20
280.5965
 30
0.0
 11
20.1
 21
280.8784999999999
 31
0.0
  0
LINE
  5
A7
330
1D
100
AcDbEntity
  8
0
100
AcDbLine
 10
20.1
 20
280.5965
 30
0.0
 11
20.1
 21
280.1605
 31
0.0
  0
LINE
  5
A8
330
1D
100
AcDbEntity
  8
0
100
AcDbLine
 10
20.1
 20
280.8784999999999
 30
0.0
 11
20.1
 21
283.2074999999999
 31
0.0
  0
LINE
  5
A9
330
1D
100
AcDbEntity
  8
0
100
AcDbLine
 10
20.1
 20
280.8784999999999
 30
0.0
 11
20.1
 21
280.5965
 31
0.0
  0
LINE
  5
AA
330
1D
100
AcDbEntity
  8
0
100
AcDbLine
 10
0.1
 20
280.8784999999999
 30
0.0
 11
0.1
 21
283.2074999999999
 31
0.0
  0
LINE
  5
AB
330
1D
100
AcDbEntity
  8
0
100
AcDbLine
 10
0.1
 20
280.8784999999999
 30
0.0
 11
0.1
 21
280.5965
 31
0.0
  0
LINE
  5
AC
330
1D
100
AcDbEntity
  8
0
100
AcDbLine
 10
0.0
 20
280.3684999999999
 30
0.0
 11
0.0
 21
275.9415
 31
0.0
  0
LINE
  5
AD
330
1D
100
AcDbEntity
  8
0
100
AcDbLine
 10
0.0
 20
280.3684999999999
 30
0.0
 11
0.0
 21
285.1415
 31
0.0
  0
LINE
  5
AE
330
1D
100
AcDbEntity
  8
0
100
AcDbLine
 10
57.508
 20
280.1275
 30
0.0
 11
57.508
 21
275.4615
 31
0.0
  0
LINE
  5
AF
330
1D
100
AcDbEntity
  8
0
100
AcDbLine
 10
57.508
 20
280.1275
 30
0.0
 11
57.508
 21
285.1755
 31
0.0
  0
LINE
  5
B0
330
1D
100
AcDbEntity
  8
0
100
AcDbLine
 10
102.0
 20
278.2545
 30
0.0
 11
102.0
 21
279.9615
 31
0.0
  0
LINE
  5
B1
330
1D
100
AcDbEntity
  8
0
100
AcDbLine
 10
102.0
 20
278.2545
 30
0.0
 11
102.0
 21
277.6625
 31
0.0
  0
LINE
  5
B2
330
1D
100
AcDbEntity
  8
0
100
AcDbLine
 10
102.0
 20
278.2585
 30
0.0
 11
102.0
 21
277.6625
 31
0.0
  0
LINE
  5
B3
330
1D
100
AcDbEntity
  8
0
100
AcDbLine
 10
102.0
 20
278.2585
 30
0.0
 11
102.0
 21
280.0344999999999
 31
0.0
  0
LINE
  5
B4
330
1D
100
AcDbEntity
  8
0
100
AcDbLine
 10
102.0
 20
277.6625
 30
0.0
 11
102.7538
 21
277.1805
 31
0.0
  0
LINE
  5
B5
330
1D
100
AcDbEntity
  8
0
100
AcDbLine
 10
102.0
 20
277.6625
 30
0.0
 11
102.0
 21
278.2545
 31
0.0
  0
LINE
  5
B6
330
1D
100
AcDbEntity
  8
0
100
AcDbLine
 10
102.0
 20
277.6625
 30
0.0
 11
102.0
 21
278.2585
 31
0.0
  0
LINE
  5
B7
330
1D
100
AcDbEntity
  8
0
100
AcDbLine
 10
102.0
 20
280.0344999999999
 30
0.0
 11
102.0
 21
278.2585
 31
0.0
  0
LINE
  5
B8
330
1D
100
AcDbEntity
  8
0
100
AcDbLine
 10
102.0
 20
280.0344999999999
 30
0.0
 11
102.0
 21
282.7875
 31
0.0
  0
LINE
  5
B9
330
1D
100
AcDbEntity
  8
0
100
AcDbLine
 10
102.0
 20
282.7875
 30
0.0
 11
102.0
 21
280.0344999999999
 31
0.0
  0
LINE
  5
BA
330
1D
100
AcDbEntity
  8
0
100
AcDbLine
 10
102.0
 20
282.7875
 30
0.0
 11
102.0
 21
286.3915
 31
0.0
  0
LINE
  5
BB
330
1D
100
AcDbEntity
  8
0
100
AcDbLine
 10
102.0
 20
279.9615
 30
0.0
 11
102.0
 21
282.7905
 31
0.0
  0
LINE
  5
BC
330
1D
100
AcDbEntity
  8
0
100
AcDbLine
 10
102.0
 20
279.9615
 30
0.0
 11
102.0
 21
278.2545
 31
0.0
  0
LINE
  5
BD
330
1D
100
AcDbEntity
  8
0
100
AcDbLine
 10
0.1
 20
283.2074999999999
 30
0.0
 11
0.1
 21
280.8784999999999
 31
0.0
  0
LINE
  5
BE
330
1D
100
AcDbEntity
  8
0
100
AcDbLine
 10
0.5080200000000001
 20
283.366417857565
 30
0.0
 11
0.5080200000000001
 21
285.1704999999999
 31
0.0
  0
LINE
  5
BF
330
1D
100
AcDbEntity
  8
0
100
AcDbLine
 10
0.0
 20
285.1415
 30
0.0
 11
0.0
 21
280.3684999999999
 31
0.0
  0
LINE
  5
C0
330
1D
100
AcDbEntity
  8
0
100
AcDbLine
 10
0.0
 20
285.1415
 30
0.0
 11
0.0
 21
289.9334999999999
 31
0.0
  0
LINE
  5
C1
330
1D
100
AcDbEntity
  8
0
100
AcDbLine
 10
20.1
 20
283.2074999999999
 30
0.0
 11
20.1
 21
280.8784999999999
 31
0.0
  0
LINE
  5
C2
330
1D
100
AcDbEntity
  8
0
100
AcDbLine
 10
45.49199999999999
 20
285.1704999999999
 30
0.0
 11
45.49199999999999
 21
290.1714999999999
 31
0.0
  0
LINE
  5
C3
330
1D
100
AcDbEntity
  8
0
100
AcDbLine
 10
45.49199999999999
 20
285.1704999999999
 30
0.0
 11
45.49199999999999
 21
280.1225
 31
0.0
  0
LINE
  5
C4
330
1D
100
AcDbEntity
  8
0
100
AcDbLine
 10
0.5080200000000001
 20
285.1704999999999
 30
0.0
 11
0.5080200000000001
 21
283.366417857565
 31
0.0
  0
LINE
  5
C5
330
1D
100
AcDbEntity
  8
0
100
AcDbLine
 10
0.5080200000000001
 20
285.1704999999999
 30
0.0
 11
0.5080200000000001
 21
290.1714999999999
 31
0.0
  0
LINE
  5
C6
330
1D
100
AcDbEntity
  8
0
100
AcDbLine
 10
45.49199999999999
 20
290.1714999999999
 30
0.0
 11
45.49199999999999
 21
294.9405
 31
0.0
  0
LINE
  5
C7
330
1D
100
AcDbEntity
  8
0
100
AcDbLine
 10
45.49199999999999
 20
290.1714999999999
 30
0.0
 11
45.49199999999999
 21
285.1704999999999
 31
0.0
  0
LINE
  5
C8
330
1D
100
AcDbEntity
  8
0
100
AcDbLine
 10
0.0
 20
289.9334999999999
 30
0.0
 11
0.0
 21
285.1415
 31
0.0
  0
LINE
  5
C9
330
1D
100
AcDbEntity
  8
0
100
AcDbLine
 10
0.0
 20
289.9334999999999
 30
0.0
 11
0.0
 21
294.4685
 31
0.0
  0
LINE
  5
CA
330
1D
100
AcDbEntity
  8
0
100
AcDbLine
 10
0.5080200000000001
 20
290.1714999999999
 30
0.0
 11
0.5080200000000001
 21
285.1704999999999
 31
0.0
  0
LINE
  5
CB
330
1D
100
AcDbEntity
  8
0
100
AcDbLine
 10
0.5080200000000001
 20
290.1714999999999
 30
0.0
 11
0.5080200000000001
 21
294.9405
 31
0.0
  0
LINE
  5
CC
330
1D
100
AcDbEntity
  8
0
100
AcDbLine
 10
57.508
 20
290.2235
 30
0.0
 11
57.508
 21
285.1755
 31
0.0
  0
LINE
  5
CD
330
1D
100
AcDbEntity
  8
0
100
AcDbLine
 10
57.508
 20
290.2235
 30
0.0
 11
57.508
 21
294.8894999999999
 31
0.0
  0
LINE
  5
CE
330
1D
100
AcDbEntity
  8
0
100
AcDbLine
 10
57.508
 20
285.1755
 30
0.0
 11
57.508
 21
280.1275
 31
0.0
  0
LINE
  5
CF
330
1D
100
AcDbEntity
  8
0
100
AcDbLine
 10
57.508
 20
285.1755
 30
0.0
 11
57.508
 21
290.2235
 31
0.0
  0
LINE
  5
D0
330
1D
100
AcDbEntity
  8
0
100
AcDbLine
 10
102.0
 20
286.3915
 30
0.0
 11
102.0
 21
282.7875
 31
0.0
  0
LINE
  5
D1
330
1D
100
AcDbEntity
  8
0
100
AcDbLine
 10
102.0
 20
286.3915
 30
0.0
 11
102.0
 21
290.6435
 31
0.0
  0
LINE
  5
D2
330
1D
100
AcDbEntity
  8
0
100
AcDbLine
 10
102.0
 20
282.7905
 30
0.0
 11
102.0
 21
286.3745
 31
0.0
  0
LINE
  5
D3
330
1D
100
AcDbEntity
  8
0
100
AcDbLine
 10
102.0
 20
282.7905
 30
0.0
 11
102.0
 21
279.9615
 31
0.0
  0
LINE
  5
D4
330
1D
100
AcDbEntity
  8
0
100
AcDbLine
 10
102.0
 20
286.3745
 30
0.0
 11
102.0
 21
290.6425
 31
0.0
  0
LINE
  5
D5
330
1D
100
AcDbEntity
  8
0
100
AcDbLine
 10
102.0
 20
286.3745
 30
0.0
 11
102.0
 21
282.7905
 31
0.0
  0
LINE
  5
D6
330
1D
100
AcDbEntity
  8
0
100
AcDbLine
 10
98.19450000000001
 20
292.3554999999999
 30
0.0
 11
98.3885
 21
292.2835
 31
0.0
  0
LINE
  5
D7
330
1D
100
AcDbEntity
  8
0
100
AcDbLine
 10
98.19450000000001
 20
292.3554999999999
 30
0.0
 11
98.90489999999999
 21
292.2475
 31
0.0
  0
LINE
  5
D8
330
1D
100
AcDbEntity
  8
0
100
AcDbLine
 10
97.54049999999999
 20
292.6435
 30
0.0
 11
98.19450000000001
 21
292.3554999999999
 31
0.0
  0
LINE
  5
D9
330
1D
100
AcDbEntity
  8
0
100
AcDbLine
 10
96.9654
 20
293.1114999999999
 30
0.0
 11
97.54049999999999
 21
292.6435
 31
0.0
  0
LINE
  5
DA
330
1D
100
AcDbEntity
  8
0
100
AcDbLine
 10
96.52560000000001
 20
293.7235
 30
0.0
 11
96.9654
 21
293.1114999999999
 31
0.0
  0
LINE
  5
DB
330
1D
100
AcDbEntity
  8
0
100
AcDbLine
 10
45.49199999999999
 20
294.9405
 30
0.0
 11
45.49199999999999
 21
290.1714999999999
 31
0.0
  0
LINE
  5
DC
330
1D
100
AcDbEntity
  8
0
100
AcDbLine
 10
45.49199999999999
 20
294.9405
 30
0.0
 11
45.49199999999999
 21
299.0365
 31
0.0
  0
LINE
  5
DD
330
1D
100
AcDbEntity
  8
0
100
AcDbLine
 10
0.0
 20
294.4685
 30
0.0
 11
0.0
 21
289.9334999999999
 31
0.0
  0
LINE
  5
DE
330
1D
100
AcDbEntity
  8
0
100
AcDbLine
 10
0.0
 20
294.4685
 30
0.0
 11
0.0
 21
298.3315
 31
0.0
  0
LINE
  5
DF
330
1D
100
AcDbEntity
  8
0
100
AcDbLine
 10
0.5080200000000001
 20
294.9405
 30
0.0
 11
0.5080200000000001
 21
290.1714999999999
 31
0.0
  0
LINE
  5
E0
330
1D
100
AcDbEntity
  8
0
100
AcDbLine
 10
0.5080200000000001
 20
294.9405
 30
0.0
 11
0.5080200000000001
 21
299.0365
 31
0.0
  0
LINE
  5
E1
330
1D
100
AcDbEntity
  8
0
100
AcDbLine
 10
57.508
 20
294.8894999999999
 30
0.0
 11
57.508
 21
290.2235
 31
0.0
  0
LINE
  5
E2
330
1D
100
AcDbEntity
  8
0
100
AcDbLine
 10
57.508
 20
294.8894999999999
 30
0.0
 11
57.508
 21
298.9855
 31
0.0
  0
LINE
  5
E3
330
1D
100
AcDbEntity
  8
0
100
AcDbLine
 10
96.255
 20
294.4195
 30
0.0
 11
96.52560000000001
 21
293.7235
 31
0.0
  0
LINE
  5
E4
330
1D
100
AcDbEntity
  8
0
100
AcDbLine
 10
98.3885
 20
292.2835
 30
0.0
 11
99.1102
 21
292.1755
 31
0.0
  0
LINE
  5
E5
330
1D
100
AcDbEntity
  8
0
100
AcDbLine
 10
97.54049999999999
 20
297.7074999999999
 30
0.0
 11
98.19450000000001
 21
297.9954999999999
 31
0.0
  0
LINE
  5
E6
330
1D
100
AcDbEntity
  8
0
100
AcDbLine
 10
98.19450000000001
 20
297.9954999999999
 30
0.0
 11
98.3885
 21
298.0675
 31
0.0
  0
LINE
  5
E7
330
1D
100
AcDbEntity
  8
0
100
AcDbLine
 10
98.19450000000001
 20
297.9954999999999
 30
0.0
 11
98.90489999999999
 21
298.1034999999999
 31
0.0
  0
LINE
  5
E8
330
1D
100
AcDbEntity
  8
0
100
AcDbLine
 10
96.9654
 20
297.2395
 30
0.0
 11
97.54049999999999
 21
297.7074999999999
 31
0.0
  0
LINE
  5
E9
330
1D
100
AcDbEntity
  8
0
100
AcDbLine
 10
96.52560000000001
 20
296.6274999999999
 30
0.0
 11
96.9654
 21
297.2395
 31
0.0
  0
LINE
  5
EA
330
1D
100
AcDbEntity
  8
0
100
AcDbLine
 10
96.255
 20
295.9315
 30
0.0
 11
96.52560000000001
 21
296.6274999999999
 31
0.0
  0
LINE
  5
EB
330
1D
100
AcDbEntity
  8
0
100
AcDbLine
 10
96.15349999999999
 20
295.1754999999999
 30
0.0
 11
96.255
 21
295.9315
 31
0.0
  0
LINE
  5
EC
330
1D
100
AcDbEntity
  8
0
100
AcDbLine
 10
96.15349999999999
 20
295.1754999999999
 30
0.0
 11
96.255
 21
294.4195
 31
0.0
  0
LINE
  5
ED
330
1D
100
AcDbEntity
  8
0
100
AcDbLine
 10
98.90489999999999
 20
292.2475
 30
0.0
 11
99.61539999999999
 21
292.3554999999999
 31
0.0
  0
LINE
  5
EE
330
1D
100
AcDbEntity
  8
0
100
AcDbLine
 10
99.1102
 20
292.1755
 30
0.0
 11
102.7538
 21
292.1755
 31
0.0
  0
LINE
  5
EF
330
1D
100
AcDbEntity
  8
0
100
AcDbLine
 10
98.3885
 20
298.0675
 30
0.0
 11
99.1102
 21
298.1755
 31
0.0
  0
LINE
  5
F0
330
1D
100
AcDbEntity
  8
0
100
AcDbLine
 10
45.49199999999999
 20
299.0365
 30
0.0
 11
45.49199999999999
 21
302.0835
 31
0.0
  0
LINE
  5
F1
330
1D
100
AcDbEntity
  8
0
100
AcDbLine
 10
45.49199999999999
 20
299.0365
 30
0.0
 11
45.49199999999999
 21
294.9405
 31
0.0
  0
LINE
  5
F2
330
1D
100
AcDbEntity
  8
0
100
AcDbLine
 10
0.0
 20
298.3315
 30
0.0
 11
0.0
 21
294.4685
 31
0.0
  0
LINE
  5
F3
330
1D
100
AcDbEntity
  8
0
100
AcDbLine
 10
0.0
 20
298.3315
 30
0.0
 11
0.0
 21
301.2375
 31
0.0
  0
LINE
  5
F4
330
1D
100
AcDbEntity
  8
0
100
AcDbLine
 10
0.5080200000000001
 20
299.0365
 30
0.0
 11
0.5080200000000001
 21
294.9405
 31
0.0
  0
LINE
  5
F5
330
1D
100
AcDbEntity
  8
0
100
AcDbLine
 10
0.5080200000000001
 20
299.0365
 30
0.0
 11
0.5080200000000001
 21
302.0835
 31
0.0
  0
LINE
  5
F6
330
1D
100
AcDbEntity
  8
0
100
AcDbLine
 10
57.508
 20
298.9855
 30
0.0
 11
57.508
 21
294.8894999999999
 31
0.0
  0
LINE
  5
F7
330
1D
100
AcDbEntity
  8
0
100
AcDbLine
 10
57.508
 20
298.9855
 30
0.0
 11
57.508
 21
302.1275
 31
0.0
  0
LINE
  5
F8
330
1D
100
AcDbEntity
  8
0
100
AcDbLine
 10
98.90489999999999
 20
298.1034999999999
 30
0.0
 11
99.61539999999999
 21
297.9954999999999
 31
0.0
  0
LINE
  5
F9
330
1D
100
AcDbEntity
  8
0
100
AcDbLine
 10
99.61539999999999
 20
292.3554999999999
 30
0.0
 11
100.2693999999999
 21
292.6435
 31
0.0
  0
LINE
  5
FA
330
1D
100
AcDbEntity
  8
0
100
AcDbLine
 10
100.2693999999999
 20
292.6435
 30
0.0
 11
100.8445
 21
293.1114999999999
 31
0.0
  0
LINE
  5
FB
330
1D
100
AcDbEntity
  8
0
100
AcDbLine
 10
100.8445
 20
293.1114999999999
 30
0.0
 11
101.2842
 21
293.7235
 31
0.0
  0
LINE
  5
FC
330
1D
100
AcDbEntity
  8
0
100
AcDbLine
 10
101.2842
 20
293.7235
 30
0.0
 11
101.5549
 21
294.4195
 31
0.0
  0
LINE
  5
FD
330
1D
100
AcDbEntity
  8
0
100
AcDbLine
 10
101.5549
 20
294.4195
 30
0.0
 11
101.6564
 21
295.1754999999999
 31
0.0
  0
LINE
  5
FE
330
1D
100
AcDbEntity
  8
0
100
AcDbLine
 10
99.61539999999999
 20
297.9954999999999
 30
0.0
 11
100.2693999999999
 21
297.7074999999999
 31
0.0
  0
LINE
  5
FF
330
1D
100
AcDbEntity
  8
0
100
AcDbLine
 10
100.2693999999999
 20
297.7074999999999
 30
0.0
 11
100.8445
 21
297.2395
 31
0.0
  0
LINE
  5
100
330
1D
100
AcDbEntity
  8
0
100
AcDbLine
 10
100.8445
 20
297.2395
 30
0.0
 11
101.2842
 21
296.6274999999999
 31
0.0
  0
LINE
  5
101
330
1D
100
AcDbEntity
  8
0
100
AcDbLine
 10
101.2842
 20
296.6274999999999
 30
0.0
 11
101.5549
 21
295.9315
 31
0.0
  0
LINE
  5
102
330
1D
100
AcDbEntity
  8
0
100
AcDbLine
 10
101.5549
 20
295.9315
 30
0.0
 11
101.6564
 21
295.1754999999999
 31
0.0
  0
LINE
  5
103
330
1D
100
AcDbEntity
  8
0
100
AcDbLine
 10
99.1102
 20
298.1755
 30
0.0
 11
102.7538
 21
298.1755
 31
0.0
  0
LINE
  5
104
330
1D
100
AcDbEntity
  8
0
100
AcDbLine
 10
102.0
 20
290.6435
 30
0.0
 11
102.0
 21
286.3915
 31
0.0
  0
LINE
  5
105
330
1D
100
AcDbEntity
  8
0
100
AcDbLine
 10
102.0
 20
290.6435
 30
0.0
 11
102.0
 21
292.1755
 31
0.0
  0
LINE
  5
106
330
1D
100
AcDbEntity
  8
0
100
AcDbLine
 10
102.0
 20
292.1755
 30
0.0
 11
102.0
 21
290.6425
 31
0.0
  0
LINE
  5
107
330
1D
100
AcDbEntity
  8
0
100
AcDbLine
 10
102.0
 20
292.1755
 30
0.0
 11
102.0
 21
290.6435
 31
0.0
  0
LINE
  5
108
330
1D
100
AcDbEntity
  8
0
100
AcDbLine
 10
102.0
 20
290.6425
 30
0.0
 11
102.0
 21
292.1755
 31
0.0
  0
LINE
  5
109
330
1D
100
AcDbEntity
  8
0
100
AcDbLine
 10
102.0
 20
290.6425
 30
0.0
 11
102.0
 21
286.3745
 31
0.0
  0
LINE
  5
10A
330
1D
100
AcDbEntity
  8
0
100
AcDbLine
 10
121.4
 20
9.412499999999999
 30
0.0
 11
131.4
 21
6.311499999999999
 31
0.0
  0
LINE
  5
10B
330
1D
100
AcDbEntity
  8
0
100
AcDbLine
 10
103.4
 20
138.3385
 30
0.0
 11
112.2
 21
143.8825
 31
0.0
  0
LINE
  5
10C
330
1D
100
AcDbEntity
  8
0
100
AcDbLine
 10
103.4
 20
19.1855
 30
0.0
 11
112.2
 21
13.6415
 31
0.0
  0
LINE
  5
10D
330
1D
100
AcDbEntity
  8
0
100
AcDbLine
 10
104.0
 20
137.9285
 30
0.0
 11
112.7
 21
143.3795
 31
0.0
  0
LINE
  5
10E
330
1D
100
AcDbEntity
  8
0
100
AcDbLine
 10
112.7
 20
143.3795
 30
0.0
 11
121.7999999999999
 21
147.5134999999999
 31
0.0
  0
LINE
  5
10F
330
1D
100
AcDbEntity
  8
0
100
AcDbLine
 10
112.2
 20
143.8825
 30
0.0
 11
121.4
 21
148.1115
 31
0.0
  0
LINE
  5
110
330
1D
100
AcDbEntity
  8
0
100
AcDbLine
 10
104.0
 20
20.2795
 30
0.0
 11
112.7
 21
14.82949999999999
 31
0.0
  0
LINE
  5
111
330
1D
100
AcDbEntity
  8
0
100
AcDbLine
 10
121.4
 20
148.1115
 30
0.0
 11
131.4
 21
151.2125
 31
0.0
  0
LINE
  5
112
330
1D
100
AcDbEntity
  8
0
100
AcDbLine
 10
112.7
 20
14.82949999999999
 30
0.0
 11
121.7999999999999
 21
10.6945
 31
0.0
  0
LINE
  5
113
330
1D
100
AcDbEntity
  8
0
100
AcDbLine
 10
112.2
 20
13.6415
 30
0.0
 11
121.4
 21
9.412499999999999
 31
0.0
  0
LINE
  5
114
330
1D
100
AcDbEntity
  8
0
100
AcDbLine
 10
103.4
 20
15.4235
 30
0.0
 11
112.2
 21
9.8795
 31
0.0
  0
LINE
  5
115
330
1D
100
AcDbEntity
  8
0
100
AcDbLine
 10
112.2
 20
9.8795
 30
0.0
 11
121.4
 21
5.6505
 31
0.0
  0
LINE
  5
116
330
1D
100
AcDbEntity
  8
0
100
AcDbLine
 10
121.7999999999999
 20
147.5134999999999
 30
0.0
 11
131.6
 21
150.7085
 31
0.0
  0
LINE
  5
117
330
1D
100
AcDbEntity
  8
0
100
AcDbLine
 10
131.6
 20
150.7085
 30
0.0
 11
141.0
 21
152.4582029702969
 31
0.0
  0
LINE
  5
118
330
1D
100
AcDbEntity
  8
0
100
AcDbLine
 10
131.4
 20
151.2125
 30
0.0
 11
141.0
 21
153.069441176471
 31
0.0
  0
LINE
  5
119
330
1D
100
AcDbEntity
  8
0
100
AcDbLine
 10
121.7999999999999
 20
10.6945
 30
0.0
 11
131.6
 21
7.4995
 31
0.0
  0
LINE
  5
11A
330
1D
100
AcDbEntity
  8
0
100
AcDbLine
 10
131.6
 20
7.4995
 30
0.0
 11
141.6999999999999
 21
5.620499999999999
 31
0.0
  0
LINE
  5
11B
330
1D
100
AcDbEntity
  8
0
100
AcDbLine
 10
131.4
 20
6.311499999999999
 30
0.0
 11
141.5999999999999
 21
4.338499999999999
 31
0.0
  0
LINE
  5
11C
330
1D
100
AcDbEntity
  8
0
100
AcDbLine
 10
121.4
 20
5.6505
 30
0.0
 11
131.4
 21
2.5495
 31
0.0
  0
LINE
  5
11D
330
1D
100
AcDbEntity
  8
0
100
AcDbLine
 10
131.4
 20
2.5495
 30
0.0
 11
141.5999999999999
 21
0.5765000000000001
 31
0.0
  0
LINE
  5
11E
330
1D
100
AcDbEntity
  8
0
100
AcDbLine
 10
133.9129999999999
 20
277.1805
 30
0.0
 11
134.667
 21
277.6625
 31
0.0
  0
LINE
  5
11F
330
1D
100
AcDbEntity
  8
0
100
AcDbLine
 10
102.7538
 20
277.1805
 30
0.0
 11
133.9129999999999
 21
277.1805
 31
0.0
  0
LINE
  5
120
330
1D
100
AcDbEntity
  8
0
100
AcDbLine
 10
102.0
 20
298.1755
 30
0.0
 11
102.0
 21
299.7074999999999
 31
0.0
  0
LINE
  5
121
330
1D
100
AcDbEntity
  8
0
100
AcDbLine
 10
102.0
 20
298.1755
 30
0.0
 11
102.0
 21
299.7085
 31
0.0
  0
LINE
  5
122
330
1D
100
AcDbEntity
  8
0
100
AcDbLine
 10
0.0
 20
301.2375
 30
0.0
 11
0.0
 21
298.3315
 31
0.0
  0
LINE
  5
123
330
1D
100
AcDbEntity
  8
0
100
AcDbLine
 10
0.0
 20
301.2375
 30
0.0
 11
0.0
 21
303.1145
 31
0.0
  0
LINE
  5
124
330
1D
100
AcDbEntity
  8
0
100
AcDbLine
 10
45.49199999999999
 20
302.0835
 30
0.0
 11
45.49199999999999
 21
304.0344999999999
 31
0.0
  0
LINE
  5
125
330
1D
100
AcDbEntity
  8
0
100
AcDbLine
 10
45.49199999999999
 20
302.0835
 30
0.0
 11
45.49199999999999
 21
299.0365
 31
0.0
  0
LINE
  5
126
330
1D
100
AcDbEntity
  8
0
100
AcDbLine
 10
0.5080200000000001
 20
302.0835
 30
0.0
 11
0.5080200000000001
 21
299.0365
 31
0.0
  0
LINE
  5
127
330
1D
100
AcDbEntity
  8
0
100
AcDbLine
 10
0.5080200000000001
 20
302.0835
 30
0.0
 11
0.5080200000000001
 21
304.0344999999999
 31
0.0
  0
LINE
  5
128
330
1D
100
AcDbEntity
  8
0
100
AcDbLine
 10
0.0
 20
303.1145
 30
0.0
 11
0.0
 21
303.7024999999999
 31
0.0
  0
LINE
  5
129
330
1D
100
AcDbEntity
  8
0
100
AcDbLine
 10
0.0
 20
303.1145
 30
0.0
 11
0.0
 21
301.2375
 31
0.0
  0
LINE
  5
12A
330
1D
100
AcDbEntity
  8
0
100
AcDbLine
 10
0.0
 20
303.7024999999999
 30
0.0
 11
0.0
 21
303.1145
 31
0.0
  0
LINE
  5
12B
330
1D
100
AcDbEntity
  8
0
100
AcDbLine
 10
0.0
 20
303.7024999999999
 30
0.0
 11
0.5080200000000001
 21
304.6965
 31
0.0
  0
LINE
  5
12C
330
1D
100
AcDbEntity
  8
0
100
AcDbLine
 10
57.508
 20
302.1275
 30
0.0
 11
57.508
 21
298.9855
 31
0.0
  0
LINE
  5
12D
330
1D
100
AcDbEntity
  8
0
100
AcDbLine
 10
57.508
 20
302.1275
 30
0.0
 11
57.508
 21
304.0325
 31
0.0
  0
LINE
  5
12E
330
1D
100
AcDbEntity
  8
0
100
AcDbLine
 10
45.49199999999999
 20
304.0344999999999
 30
0.0
 11
45.49199999999999
 21
304.6965
 31
0.0
  0
LINE
  5
12F
330
1D
100
AcDbEntity
  8
0
100
AcDbLine
 10
45.49199999999999
 20
304.0344999999999
 30
0.0
 11
45.49199999999999
 21
302.0835
 31
0.0
  0
LINE
  5
130
330
1D
100
AcDbEntity
  8
0
100
AcDbLine
 10
0.5080200000000001
 20
304.0344999999999
 30
0.0
 11
0.5080200000000001
 21
304.6965
 31
0.0
  0
LINE
  5
131
330
1D
100
AcDbEntity
  8
0
100
AcDbLine
 10
0.5080200000000001
 20
304.0344999999999
 30
0.0
 11
0.5080200000000001
 21
302.0835
 31
0.0
  0
LINE
  5
132
330
1D
100
AcDbEntity
  8
0
100
AcDbLine
 10
57.508
 20
304.0325
 30
0.0
 11
57.508
 21
302.1275
 31
0.0
  0
LINE
  5
133
330
1D
100
AcDbEntity
  8
0
100
AcDbLine
 10
57.508
 20
304.0325
 30
0.0
 11
57.508
 21
304.6994999999999
 31
0.0
  0
LINE
  5
134
330
1D
100
AcDbEntity
  8
0
100
AcDbLine
 10
0.5080200000000001
 20
304.6965
 30
0.0
 11
0.5080200000000001
 21
304.0344999999999
 31
0.0
  0
LINE
  5
135
330
1D
100
AcDbEntity
  8
0
100
AcDbLine
 10
0.5080200000000001
 20
304.6965
 30
0.0
 11
1.524059999999999
 21
305.0895
 31
0.0
  0
LINE
  5
136
330
1D
100
AcDbEntity
  8
0
100
AcDbLine
 10
45.758265593561
 20
304.1755
 30
0.0
 11
57.228679958027
 21
304.1755
 31
0.0
  0
LINE
  5
137
330
1D
100
AcDbEntity
  8
0
100
AcDbLine
 10
45.49199999999999
 20
304.6965
 30
0.0
 11
45.49199999999999
 21
304.0344999999999
 31
0.0
  0
LINE
  5
138
330
1D
100
AcDbEntity
  8
0
100
AcDbLine
 10
45.49199999999999
 20
304.6965
 30
0.0
 11
45.758265593561
 21
304.1755
 31
0.0
  0
LINE
  5
139
330
1D
100
AcDbEntity
  8
0
100
AcDbLine
 10
44.4759
 20
305.0895
 30
0.0
 11
45.49199999999999
 21
304.6965
 31
0.0
  0
LINE
  5
13A
330
1D
100
AcDbEntity
  8
0
100
AcDbLine
 10
23.0
 20
305.0895
 30
0.0
 11
44.4759
 21
305.0895
 31
0.0
  0
LINE
  5
13B
330
1D
100
AcDbEntity
  8
0
100
AcDbLine
 10
1.524059999999999
 20
305.0895
 30
0.0
 11
23.0
 21
305.0895
 31
0.0
  0
LINE
  5
13C
330
1D
100
AcDbEntity
  8
0
100
AcDbLine
 10
57.20508121979101
 20
304.1312291387019
 30
0.0
 11
57.508
 21
304.6994999999999
 31
0.0
  0
LINE
  5
13D
330
1D
100
AcDbEntity
  8
0
100
AcDbLine
 10
57.508
 20
304.6994999999999
 30
0.0
 11
58.52409999999999
 21
305.1754999999999
 31
0.0
  0
LINE
  5
13E
330
1D
100
AcDbEntity
  8
0
100
AcDbLine
 10
57.508
 20
304.6994999999999
 30
0.0
 11
57.508
 21
304.0325
 31
0.0
  0
LINE
  5
13F
330
1D
100
AcDbEntity
  8
0
100
AcDbLine
 10
58.52409999999999
 20
305.1754999999999
 30
0.0
 11
60.0
 21
305.1754999999999
 31
0.0
  0
LINE
  5
140
330
1D
100
AcDbEntity
  8
0
100
AcDbLine
 10
58.52409999999999
 20
305.1754999999999
 30
0.0
 11
60.0
 21
305.1754999999999
 31
0.0
  0
LINE
  5
141
330
1D
100
AcDbEntity
  8
0
100
AcDbLine
 10
60.0
 20
305.1754999999999
 30
0.0
 11
102.0
 21
305.1754999999999
 31
0.0
  0
LINE
  5
142
330
1D
100
AcDbEntity
  8
0
100
AcDbLine
 10
94.0
 20
305.1754999999999
 30
0.0
 11
94.0
 21
317.5754999999999
 31
0.0
  0
LINE
  5
143
330
1D
100
AcDbEntity
  8
0
100
AcDbLine
 10
60.0
 20
305.1754999999999
 30
0.0
 11
102.0
 21
305.1754999999999
 31
0.0
  0
LINE
  5
144
330
1D
100
AcDbEntity
  8
0
100
AcDbLine
 10
60.0
 20
305.1754999999999
 30
0.0
 11
60.0
 21
317.5754999999999
 31
0.0
  0
LINE
  5
145
330
1D
100
AcDbEntity
  8
0
100
AcDbLine
 10
102.0
 20
307.5604999999999
 30
0.0
 11
102.0
 21
303.9765
 31
0.0
  0
LINE
  5
146
330
1D
100
AcDbEntity
  8
0
100
AcDbLine
 10
102.0
 20
307.5604999999999
 30
0.0
 11
102.0
 21
310.3895
 31
0.0
  0
LINE
  5
147
330
1D
100
AcDbEntity
  8
0
100
AcDbLine
 10
102.0
 20
303.9765
 30
0.0
 11
102.0
 21
299.7085
 31
0.0
  0
LINE
  5
148
330
1D
100
AcDbEntity
  8
0
100
AcDbLine
 10
102.0
 20
303.9765
 30
0.0
 11
102.0
 21
307.5604999999999
 31
0.0
  0
LINE
  5
149
330
1D
100
AcDbEntity
  8
0
100
AcDbLine
 10
102.0
 20
299.7085
 30
0.0
 11
102.0
 21
298.1755
 31
0.0
  0
LINE
  5
14A
330
1D
100
AcDbEntity
  8
0
100
AcDbLine
 10
102.0
 20
299.7085
 30
0.0
 11
102.0
 21
303.9765
 31
0.0
  0
LINE
  5
14B
330
1D
100
AcDbEntity
  8
0
100
AcDbLine
 10
102.0
 20
310.3895
 30
0.0
 11
102.0
 21
312.0964999999999
 31
0.0
  0
LINE
  5
14C
330
1D
100
AcDbEntity
  8
0
100
AcDbLine
 10
102.0
 20
310.3895
 30
0.0
 11
102.0
 21
307.5604999999999
 31
0.0
  0
LINE
  5
14D
330
1D
100
AcDbEntity
  8
0
100
AcDbLine
 10
102.0
 20
312.0964999999999
 30
0.0
 11
102.0
 21
310.3895
 31
0.0
  0
LINE
  5
14E
330
1D
100
AcDbEntity
  8
0
100
AcDbLine
 10
102.0
 20
312.0964999999999
 30
0.0
 11
102.0
 21
312.6884999999999
 31
0.0
  0
LINE
  5
14F
330
1D
100
AcDbEntity
  8
0
100
AcDbLine
 10
102.0
 20
312.0924999999999
 30
0.0
 11
102.0
 21
312.6884999999999
 31
0.0
  0
LINE
  5
150
330
1D
100
AcDbEntity
  8
0
100
AcDbLine
 10
102.0
 20
312.0924999999999
 30
0.0
 11
102.0
 21
310.3165
 31
0.0
  0
LINE
  5
152
330
1D
100
AcDbEntity
  8
0
100
AcDbLine
 10
60.408
 20
318.1754999999999
 30
0.0
 11
61.02
 21
318.1754999999999
 31
0.0
  0
LINE
  5
153
330
1D
100
AcDbEntity
  8
0
100
AcDbLine
 10
60.0
 20
317.5754999999999
 30
0.0
 11
60.408
 21
318.1754999999999
 31
0.0
  0
LINE
  5
154
330
1D
100
AcDbEntity
  8
0
100
AcDbLine
 10
60.0
 20
317.5754999999999
 30
0.0
 11
60.0
 21
305.1754999999999
 31
0.0
  0
LINE
  5
155
330
1D
100
AcDbEntity
  8
0
100
AcDbLine
 10
61.0
 20
322.1754999999999
 30
0.0
 11
61.0
 21
332.1755
 31
0.0
  0
LINE
  5
156
330
1D
100
AcDbEntity
  8
0
100
AcDbLine
 10
61.0
 20
322.1754999999999
 30
0.0
 11
61.0
 21
320.2755
 31
0.0
  0
LINE
  5
157
330
1D
100
AcDbEntity
  8
0
100
AcDbLine
 10
61.0
 20
332.1755
 30
0.0
 11
61.0
 21
333.1755
 31
0.0
  0
LINE
  5
158
330
1D
100
AcDbEntity
  8
0
100
AcDbLine
 10
61.0
 20
332.1755
 30
0.0
 11
61.0
 21
322.1754999999999
 31
0.0
  0
LINE
  5
15B
330
1D
100
AcDbEntity
  8
0
100
AcDbLine
 10
61.0
 20
332.1755
 30
0.0
 11
62.3713
 21
333.1755
 31
0.0
  0
LINE
  5
15C
330
1D
100
AcDbEntity
  8
0
100
AcDbLine
 10
61.0
 20
320.2755
 30
0.0
 11
61.0
 21
322.1754999999999
 31
0.0
  0
LINE
  5
15D
330
1D
100
AcDbEntity
  8
0
100
AcDbLine
 10
61.0
 20
321.1755
 30
0.0
 11
61.3368
 21
321.1755
 31
0.0
  0
LINE
  5
15F
330
1D
100
AcDbEntity
  8
0
100
AcDbLine
 10
61.0
 20
333.1755
 30
0.0
 11
61.0
 21
333.9354999999999
 31
0.0
  0
LINE
  5
161
330
1D
100
AcDbEntity
  8
0
100
AcDbLine
 10
61.0
 20
333.1755
 30
0.0
 11
61.0
 21
332.1755
 31
0.0
  0
LINE
  5
163
330
1D
100
AcDbEntity
  8
0
100
AcDbLine
 10
61.0
 20
320.4155
 30
0.0
 11
61.0
 21
320.2755
 31
0.0
  0
LINE
  5
164
330
1D
100
AcDbEntity
  8
0
100
AcDbLine
 10
54.0
 20
334.1755
 30
0.0
 11
60.8
 21
334.1755
 31
0.0
  0
LINE
  5
165
330
1D
100
AcDbEntity
  8
0
100
AcDbLine
 10
60.8
 20
334.1755
 30
0.0
 11
61.4211
 21
334.1755
 31
0.0
  0
LINE
  5
166
330
1D
100
AcDbEntity
  8
0
100
AcDbLine
 10
48.9
 20
334.1755
 30
0.0
 11
54.0
 21
334.1755
 31
0.0
  0
LINE
  5
167
330
1D
100
AcDbEntity
  8
0
100
AcDbLine
 10
45.7
 20
334.1755
 30
0.0
 11
48.9
 21
334.1755
 31
0.0
  0
LINE
  5
168
330
1D
100
AcDbEntity
  8
0
100
AcDbLine
 10
44.7
 20
334.6754999999999
 30
0.0
 11
48.0
 21
334.6754999999999
 31
0.0
  0
LINE
  5
169
330
1D
100
AcDbEntity
  8
0
100
AcDbLine
 10
48.0
 20
334.6754999999999
 30
0.0
 11
53.3
 21
334.6754999999999
 31
0.0
  0
LINE
  5
16A
330
1D
100
AcDbEntity
  8
0
100
AcDbLine
 10
47.6
 20
360.1755
 30
0.0
 11
53.0
 21
360.1755
 31
0.0
  0
LINE
  5
16B
330
1D
100
AcDbEntity
  8
0
100
AcDbLine
 10
44.2
 20
360.1755
 30
0.0
 11
47.6
 21
360.1755
 31
0.0
  0
LINE
  5
16C
330
1D
100
AcDbEntity
  8
0
100
AcDbLine
 10
53.3
 20
334.6754999999999
 30
0.0
 11
60.3
 21
334.6754999999999
 31
0.0
  0
LINE
  5
16D
330
1D
100
AcDbEntity
  8
0
100
AcDbLine
 10
60.3
 20
334.6754999999999
 30
0.0
 11
68.4
 21
334.6754999999999
 31
0.0
  0
LINE
  5
16E
330
1D
100
AcDbEntity
  8
0
100
AcDbLine
 10
53.0
 20
360.1755
 30
0.0
 11
60.1
 21
360.1755
 31
0.0
  0
LINE
  5
16F
330
1D
100
AcDbEntity
  8
0
100
AcDbLine
 10
60.1
 20
360.1755
 30
0.0
 11
68.3
 21
360.1755
 31
0.0
  0
LINE
  5
170
330
1D
100
AcDbEntity
  8
0
100
AcDbLine
 10
43.5
 20
334.6754999999999
 30
0.0
 11
44.5
 21
334.1755
 31
0.0
  0
LINE
  5
171
330
1D
100
AcDbEntity
  8
0
100
AcDbLine
 10
43.5
 20
334.6754999999999
 30
0.0
 11
44.7
 21
334.6754999999999
 31
0.0
  0
LINE
  5
172
330
1D
100
AcDbEntity
  8
0
100
AcDbLine
 10
44.5
 20
334.1755
 30
0.0
 11
45.7
 21
334.1755
 31
0.0
  0
LINE
  5
173
330
1D
100
AcDbEntity
  8
0
100
AcDbLine
 10
43.0
 20
335.6755
 30
0.0
 11
43.5
 21
334.6754999999999
 31
0.0
  0
LINE
  5
174
330
1D
100
AcDbEntity
  8
0
100
AcDbLine
 10
43.0
 20
335.6755
 30
0.0
 11
43.0
 21
360.1755
 31
0.0
  0
LINE
  5
175
330
1D
100
AcDbEntity
  8
0
100
AcDbLine
 10
43.0
 20
360.1755
 30
0.0
 11
43.0
 21
335.6755
 31
0.0
  0
LINE
  5
176
330
1D
100
AcDbEntity
  8
0
100
AcDbLine
 10
43.0
 20
360.1755
 30
0.0
 11
44.2
 21
360.1755
 31
0.0
  0
LINE
  5
177
330
1D
100
AcDbEntity
  8
0
100
AcDbLine
 10
61.0
 20
334.0754999999999
 30
0.0
 11
61.0
 21
333.9354999999999
 31
0.0
  0
LINE
  5
178
330
1D
100
AcDbEntity
  8
0
100
AcDbLine
 10
61.0
 20
334.0754999999999
 30
0.0
 11
61.4211
 21
334.1755
 31
0.0
  0
LINE
  5
179
330
1D
100
AcDbEntity
  8
0
100
AcDbLine
 10
61.0
 20
333.9354999999999
 30
0.0
 11
61.0
 21
334.0754999999999
 31
0.0
  0
LINE
  5
17D
330
1D
100
AcDbEntity
  8
0
100
AcDbLine
 10
61.0
 20
333.9354999999999
 30
0.0
 11
61.0
 21
333.1755
 31
0.0
  0
LINE
  5
17E
330
1D
100
AcDbEntity
  8
0
100
AcDbLine
 10
61.02
 20
318.1754999999999
 30
0.0
 11
62.652
 21
318.1754999999999
 31
0.0
  0
LINE
  5
17F
330
1D
100
AcDbEntity
  8
0
100
AcDbLine
 10
62.652
 20
318.1754999999999
 30
0.0
 11
65.304
 21
318.1754999999999
 31
0.0
  0
LINE
  5
181
330
1D
100
AcDbEntity
  8
0
100
AcDbLine
 10
63.0
 20
320.1754999999999
 30
0.0
 11
63.0
 21
318.1754999999999
 31
0.0
  0
LINE
  5
182
330
1D
100
AcDbEntity
  8
0
100
AcDbLine
 10
63.0
 20
318.1754999999999
 30
0.0
 11
63.0
 21
320.1754999999999
 31
0.0
  0
LINE
  5
183
330
1D
100
AcDbEntity
  8
0
100
AcDbLine
 10
61.4211
 20
320.1754999999999
 30
0.0
 11
62.0105
 21
320.1754999999999
 31
0.0
  0
LINE
  5
184
330
1D
100
AcDbEntity
  8
0
100
AcDbLine
 10
62.0105
 20
320.1754999999999
 30
0.0
 11
91.0
 21
320.1754999999999
 31
0.0
  0
LINE
  5
186
330
1D
100
AcDbEntity
  8
0
100
AcDbLine
 10
65.304
 20
318.1754999999999
 30
0.0
 11
68.77199999999999
 21
318.1754999999999
 31
0.0
  0
LINE
  5
187
330
1D
100
AcDbEntity
  8
0
100
AcDbLine
 10
68.77199999999999
 20
318.1754999999999
 30
0.0
 11
72.71600000000001
 21
318.1754999999999
 31
0.0
  0
LINE
  5
18D
330
1D
100
AcDbEntity
  8
0
100
AcDbLine
 10
61.3368
 20
321.1755
 30
0.0
 11
62.3713
 21
321.1755
 31
0.0
  0
LINE
  5
18E
330
1D
100
AcDbEntity
  8
0
100
AcDbLine
 10
65.0421
 20
320.5394999999999
 30
0.0
 11
68.85550000000001
 21
320.3775
 31
0.0
  0
LINE
  5
18F
330
1D
100
AcDbEntity
  8
0
100
AcDbLine
 10
62.0105
 20
334.1755
 30
0.0
 11
63.5263
 21
334.1755
 31
0.0
  0
LINE
  5
190
330
1D
100
AcDbEntity
  8
0
100
AcDbLine
 10
63.5263
 20
334.1755
 30
0.0
 11
65.9684
 21
334.1755
 31
0.0
  0
LINE
  5
194
330
1D
100
AcDbEntity
  8
0
100
AcDbLine
 10
65.9684
 20
334.1755
 30
0.0
 11
69.2526
 21
334.1755
 31
0.0
  0
LINE
  5
196
330
1D
100
AcDbEntity
  8
0
100
AcDbLine
 10
65.0421
 20
333.8115
 30
0.0
 11
68.85550000000001
 21
333.9735
 31
0.0
  0
LINE
  5
198
330
1D
100
AcDbEntity
  8
0
100
AcDbLine
 10
62.3713
 20
333.1755
 30
0.0
 11
65.0421
 21
333.8115
 31
0.0
  0
LINE
  5
199
330
1D
100
AcDbEntity
  8
0
100
AcDbLine
 10
62.3713
 20
321.1755
 30
0.0
 11
65.0421
 21
320.5394999999999
 31
0.0
  0
LINE
  5
19D
330
1D
100
AcDbEntity
  8
0
100
AcDbLine
 10
68.85550000000001
 20
320.3775
 30
0.0
 11
72.6481
 21
320.5944999999999
 31
0.0
  0
LINE
  5
19F
330
1D
100
AcDbEntity
  8
0
100
AcDbLine
 10
72.6481
 20
320.5944999999999
 30
0.0
 11
75.0225
 21
321.1755
 31
0.0
  0
LINE
  5
1A1
330
1D
100
AcDbEntity
  8
0
100
AcDbLine
 10
68.85550000000001
 20
333.9735
 30
0.0
 11
72.6481
 21
333.7565
 31
0.0
  0
LINE
  5
1A2
330
1D
100
AcDbEntity
  8
0
100
AcDbLine
 10
69.2526
 20
334.1755
 30
0.0
 11
72.9579
 21
334.1755
 31
0.0
  0
LINE
  5
1A4
330
1D
100
AcDbEntity
  8
0
100
AcDbLine
 10
72.71600000000001
 20
318.1754999999999
 30
0.0
 11
77.0
 21
318.1754999999999
 31
0.0
  0
LINE
  5
1A5
330
1D
100
AcDbEntity
  8
0
100
AcDbLine
 10
77.0
 20
318.1754999999999
 30
0.0
 11
81.28399999999999
 21
318.1754999999999
 31
0.0
  0
LINE
  5
1A8
330
1D
100
AcDbEntity
  8
0
100
AcDbLine
 10
88.696
 20
318.1754999999999
 30
0.0
 11
91.348
 21
318.1754999999999
 31
0.0
  0
LINE
  5
1A9
330
1D
100
AcDbEntity
  8
0
100
AcDbLine
 10
85.228
 20
318.1754999999999
 30
0.0
 11
88.696
 21
318.1754999999999
 31
0.0
  0
LINE
  5
1AA
330
1D
100
AcDbEntity
  8
0
100
AcDbLine
 10
81.28399999999999
 20
318.1754999999999
 30
0.0
 11
85.228
 21
318.1754999999999
 31
0.0
  0
LINE
  5
1AC
330
1D
100
AcDbEntity
  8
0
100
AcDbLine
 10
91.348
 20
318.1754999999999
 30
0.0
 11
92.98
 21
318.1754999999999
 31
0.0
  0
LINE
  5
1AE
330
1D
100
AcDbEntity
  8
0
100
AcDbLine
 10
91.0
 20
318.1754999999999
 30
0.0
 11
91.0
 21
320.1754999999999
 31
0.0
  0
LINE
  5
1AF
330
1D
100
AcDbEntity
  8
0
100
AcDbLine
 10
91.0
 20
320.1754999999999
 30
0.0
 11
91.98950000000001
 21
320.1754999999999
 31
0.0
  0
LINE
  5
1B0
330
1D
100
AcDbEntity
  8
0
100
AcDbLine
 10
91.0
 20
320.1754999999999
 30
0.0
 11
91.0
 21
318.1754999999999
 31
0.0
  0
LINE
  5
1B1
330
1D
100
AcDbEntity
  8
0
100
AcDbLine
 10
92.98
 20
318.1754999999999
 30
0.0
 11
93.59200000000001
 21
318.1754999999999
 31
0.0
  0
LINE
  5
1B2
330
1D
100
AcDbEntity
  8
0
100
AcDbLine
 10
93.59200000000001
 20
318.1754999999999
 30
0.0
 11
94.0
 21
317.5754999999999
 31
0.0
  0
LINE
  5
1B3
330
1D
100
AcDbEntity
  8
0
100
AcDbLine
 10
94.0
 20
317.5754999999999
 30
0.0
 11
94.0
 21
305.1754999999999
 31
0.0
  0
LINE
  5
1B4
330
1D
100
AcDbEntity
  8
0
100
AcDbLine
 10
92.57899999999999
 20
320.1754999999999
 30
0.0
 11
93.0
 21
320.2755
 31
0.0
  0
LINE
  5
1B5
330
1D
100
AcDbEntity
  8
0
100
AcDbLine
 10
91.98950000000001
 20
320.1754999999999
 30
0.0
 11
92.57899999999999
 21
320.1754999999999
 31
0.0
  0
LINE
  5
1B6
330
1D
100
AcDbEntity
  8
0
100
AcDbLine
 10
93.0
 20
320.2755
 30
0.0
 11
93.0
 21
320.4155
 31
0.0
  0
LINE
  5
1BD
330
1D
100
AcDbEntity
  8
0
100
AcDbLine
 10
93.0
 20
320.4155
 30
0.0
 11
93.0
 21
320.2755
 31
0.0
  0
LINE
  5
1BE
330
1D
100
AcDbEntity
  8
0
100
AcDbLine
 10
93.0
 20
320.4155
 30
0.0
 11
93.0
 21
321.1755
 31
0.0
  0
LINE
  5
1BF
330
1D
100
AcDbEntity
  8
0
100
AcDbLine
 10
85.1445
 20
320.3775
 30
0.0
 11
88.95789999999999
 21
320.5394999999999
 31
0.0
  0
LINE
  5
1C2
330
1D
100
AcDbEntity
  8
0
100
AcDbLine
 10
75.0225
 20
333.1755
 30
0.0
 11
77.0
 21
333.1755
 31
0.0
  0
LINE
  5
1C3
330
1D
100
AcDbEntity
  8
0
100
AcDbLine
 10
72.9579
 20
334.1755
 30
0.0
 11
77.0
 21
334.1755
 31
0.0
  0
LINE
  5
1C4
330
1D
100
AcDbEntity
  8
0
100
AcDbLine
 10
77.0
 20
321.1755
 30
0.0
 11
78.97750000000001
 21
321.1755
 31
0.0
  0
LINE
  5
1C6
330
1D
100
AcDbEntity
  8
0
100
AcDbLine
 10
78.97750000000001
 20
333.1755
 30
0.0
 11
81.35189999999999
 21
333.7565
 31
0.0
  0
LINE
  5
1C7
330
1D
100
AcDbEntity
  8
0
100
AcDbLine
 10
78.97750000000001
 20
321.1755
 30
0.0
 11
81.35189999999999
 21
320.5944999999999
 31
0.0
  0
LINE
  5
1C8
330
1D
100
AcDbEntity
  8
0
100
AcDbLine
 10
91.62869999999999
 20
321.1755
 30
0.0
 11
92.6632
 21
321.1755
 31
0.0
  0
LINE
  5
1C9
330
1D
100
AcDbEntity
  8
0
100
AcDbLine
 10
81.35189999999999
 20
320.5944999999999
 30
0.0
 11
85.1445
 21
320.3775
 31
0.0
  0
LINE
  5
1CA
330
1D
100
AcDbEntity
  8
0
100
AcDbLine
 10
88.95789999999999
 20
320.5394999999999
 30
0.0
 11
91.62869999999999
 21
321.1755
 31
0.0
  0
LINE
  5
1CB
330
1D
100
AcDbEntity
  8
0
100
AcDbLine
 10
92.6632
 20
321.1755
 30
0.0
 11
93.0
 21
321.1755
 31
0.0
  0
LINE
  5
1CF
330
1D
100
AcDbEntity
  8
0
100
AcDbLine
 10
93.0
 20
333.1755
 30
0.0
 11
93.0
 21
332.1755
 31
0.0
  0
LINE
  5
1D0
330
1D
100
AcDbEntity
  8
0
100
AcDbLine
 10
93.0
 20
333.1755
 30
0.0
 11
93.0
 21
333.9354999999999
 31
0.0
  0
LINE
  5
1D1
330
1D
100
AcDbEntity
  8
0
100
AcDbLine
 10
93.0
 20
332.1755
 30
0.0
 11
93.0
 21
322.1754999999999
 31
0.0
  0
LINE
  5
1D2
330
1D
100
AcDbEntity
  8
0
100
AcDbLine
 10
93.0
 20
332.1755
 30
0.0
 11
93.0
 21
333.1755
 31
0.0
  0
LINE
  5
1D3
330
1D
100
AcDbEntity
  8
0
100
AcDbLine
 10
93.0
 20
322.1754999999999
 30
0.0
 11
93.0
 21
321.1755
 31
0.0
  0
LINE
  5
1D4
330
1D
100
AcDbEntity
  8
0
100
AcDbLine
 10
93.0
 20
322.1754999999999
 30
0.0
 11
93.0
 21
332.1755
 31
0.0
  0
LINE
  5
1D5
330
1D
100
AcDbEntity
  8
0
100
AcDbLine
 10
93.0
 20
321.1755
 30
0.0
 11
93.0
 21
320.4155
 31
0.0
  0
LINE
  5
1D6
330
1D
100
AcDbEntity
  8
0
100
AcDbLine
 10
93.0
 20
321.1755
 30
0.0
 11
93.0
 21
322.1754999999999
 31
0.0
  0
LINE
  5
1D9
330
1D
100
AcDbEntity
  8
0
100
AcDbLine
 10
91.62869999999999
 20
333.1755
 30
0.0
 11
93.0
 21
332.1755
 31
0.0
  0
LINE
  5
1DA
330
1D
100
AcDbEntity
  8
0
100
AcDbLine
 10
77.0
 20
334.1755
 30
0.0
 11
81.0421
 21
334.1755
 31
0.0
  0
LINE
  5
1DC
330
1D
100
AcDbEntity
  8
0
100
AcDbLine
 10
81.35189999999999
 20
333.7565
 30
0.0
 11
85.1445
 21
333.9735
 31
0.0
  0
LINE
  5
1DE
330
1D
100
AcDbEntity
  8
0
100
AcDbLine
 10
84.74729999999999
 20
334.1755
 30
0.0
 11
88.0315
 21
334.1755
 31
0.0
  0
LINE
  5
1E1
330
1D
100
AcDbEntity
  8
0
100
AcDbLine
 10
81.0421
 20
334.1755
 30
0.0
 11
84.74729999999999
 21
334.1755
 31
0.0
  0
LINE
  5
1E4
330
1D
100
AcDbEntity
  8
0
100
AcDbLine
 10
93.0
 20
333.9354999999999
 30
0.0
 11
93.0
 21
333.1755
 31
0.0
  0
LINE
  5
1E5
330
1D
100
AcDbEntity
  8
0
100
AcDbLine
 10
100.0
 20
334.1755
 30
0.0
 11
105.0999999999999
 21
334.1755
 31
0.0
  0
LINE
  5
1E6
330
1D
100
AcDbEntity
  8
0
100
AcDbLine
 10
93.2
 20
334.1755
 30
0.0
 11
100.0
 21
334.1755
 31
0.0
  0
LINE
  5
1E7
330
1D
100
AcDbEntity
  8
0
100
AcDbLine
 10
92.57899999999999
 20
334.1755
 30
0.0
 11
93.0
 21
334.0754999999999
 31
0.0
  0
LINE
  5
1E8
330
1D
100
AcDbEntity
  8
0
100
AcDbLine
 10
92.57899999999999
 20
334.1755
 30
0.0
 11
93.2
 21
334.1755
 31
0.0
  0
LINE
  5
1EA
330
1D
100
AcDbEntity
  8
0
100
AcDbLine
 10
91.98950000000001
 20
334.1755
 30
0.0
 11
92.57899999999999
 21
334.1755
 31
0.0
  0
LINE
  5
1EB
330
1D
100
AcDbEntity
  8
0
100
AcDbLine
 10
93.0
 20
334.0754999999999
 30
0.0
 11
93.0
 21
333.9354999999999
 31
0.0
  0
LINE
  5
1EC
330
1D
100
AcDbEntity
  8
0
100
AcDbLine
 10
88.0315
 20
334.1755
 30
0.0
 11
90.47369999999999
 21
334.1755
 31
0.0
  0
LINE
  5
1EE
330
1D
100
AcDbEntity
  8
0
100
AcDbLine
 10
90.47369999999999
 20
334.1755
 30
0.0
 11
91.98950000000001
 21
334.1755
 31
0.0
  0
LINE
  5
1F1
330
1D
100
AcDbEntity
  8
0
100
AcDbLine
 10
85.1445
 20
333.9735
 30
0.0
 11
88.95789999999999
 21
333.8115
 31
0.0
  0
LINE
  5
1F3
330
1D
100
AcDbEntity
  8
0
100
AcDbLine
 10
88.95789999999999
 20
333.8115
 30
0.0
 11
91.62869999999999
 21
333.1755
 31
0.0
  0
LINE
  5
1FB
330
1D
100
AcDbEntity
  8
0
100
AcDbLine
 10
77.0
 20
333.1755
 30
0.0
 11
78.97750000000001
 21
333.1755
 31
0.0
  0
LINE
  5
1FC
330
1D
100
AcDbEntity
  8
0
100
AcDbLine
 10
75.0225
 20
321.1755
 30
0.0
 11
77.0
 21
321.1755
 31
0.0
  0
LINE
  5
201
330
1D
100
AcDbEntity
  8
0
100
AcDbLine
 10
72.6481
 20
333.7565
 30
0.0
 11
75.0225
 21
333.1755
 31
0.0
  0
LINE
  5
204
330
1D
100
AcDbEntity
  8
0
100
AcDbLine
 10
68.4
 20
334.6754999999999
 30
0.0
 11
77.0
 21
334.6754999999999
 31
0.0
  0
LINE
  5
205
330
1D
100
AcDbEntity
  8
0
100
AcDbLine
 10
68.3
 20
360.1755
 30
0.0
 11
77.0
 21
360.1755
 31
0.0
  0
LINE
  5
206
330
1D
100
AcDbEntity
  8
0
100
AcDbLine
 10
77.0
 20
334.6754999999999
 30
0.0
 11
85.6
 21
334.6754999999999
 31
0.0
  0
LINE
  5
207
330
1D
100
AcDbEntity
  8
0
100
AcDbLine
 10
93.7
 20
334.6754999999999
 30
0.0
 11
100.7
 21
334.6754999999999
 31
0.0
  0
LINE
  5
208
330
1D
100
AcDbEntity
  8
0
100
AcDbLine
 10
85.6
 20
334.6754999999999
 30
0.0
 11
93.7
 21
334.6754999999999
 31
0.0
  0
LINE
  5
209
330
1D
100
AcDbEntity
  8
0
100
AcDbLine
 10
100.7
 20
334.6754999999999
 30
0.0
 11
106.0
 21
334.6754999999999
 31
0.0
  0
LINE
  5
20A
330
1D
100
AcDbEntity
  8
0
100
AcDbLine
 10
101.0
 20
360.1755
 30
0.0
 11
106.4
 21
360.1755
 31
0.0
  0
LINE
  5
20B
330
1D
100
AcDbEntity
  8
0
100
AcDbLine
 10
93.9
 20
360.1755
 30
0.0
 11
101.0
 21
360.1755
 31
0.0
  0
LINE
  5
20C
330
1D
100
AcDbEntity
  8
0
100
AcDbLine
 10
85.7
 20
360.1755
 30
0.0
 11
93.9
 21
360.1755
 31
0.0
  0
LINE
  5
20D
330
1D
100
AcDbEntity
  8
0
100
AcDbLine
 10
77.0
 20
360.1755
 30
0.0
 11
85.7
 21
360.1755
 31
0.0
  0
LINE
  5
20E
330
1D
100
AcDbEntity
  8
0
100
AcDbLine
 10
61.4211
 20
334.1755
 30
0.0
 11
62.0105
 21
334.1755
 31
0.0
  0
LINE
  5
20F
330
1D
100
AcDbEntity
  8
0
100
AcDbLine
 10
61.0
 20
320.2755
 30
0.0
 11
61.0
 21
320.4155
 31
0.0
  0
LINE
  5
210
330
1D
100
AcDbEntity
  8
0
100
AcDbLine
 10
61.0
 20
320.2755
 30
0.0
 11
61.4211
 21
320.1754999999999
 31
0.0
  0
LINE
  5
211
330
1D
100
AcDbEntity
  8
0
100
AcDbLine
 10
102.0
 20
312.6884999999999
 30
0.0
 11
102.7538
 21
313.1705
 31
0.0
  0
LINE
  5
212
330
1D
100
AcDbEntity
  8
0
100
AcDbLine
 10
102.0
 20
312.6884999999999
 30
0.0
 11
102.0
 21
312.0964999999999
 31
0.0
  0
LINE
  5
213
330
1D
100
AcDbEntity
  8
0
100
AcDbLine
 10
102.0
 20
312.6884999999999
 30
0.0
 11
102.0
 21
312.0924999999999
 31
0.0
  0
LINE
  5
214
330
1D
100
AcDbEntity
  8
0
100
AcDbLine
 10
102.0
 20
310.3165
 30
0.0
 11
102.0
 21
312.0924999999999
 31
0.0
  0
LINE
  5
215
330
1D
100
AcDbEntity
  8
0
100
AcDbLine
 10
102.0
 20
310.3165
 30
0.0
 11
102.0
 21
307.5634999999999
 31
0.0
  0
LINE
  5
216
330
1D
100
AcDbEntity
  8
0
100
AcDbLine
 10
102.0
 20
307.5634999999999
 30
0.0
 11
102.0
 21
310.3165
 31
0.0
  0
LINE
  5
217
330
1D
100
AcDbEntity
  8
0
100
AcDbLine
 10
102.0
 20
307.5634999999999
 30
0.0
 11
102.0
 21
303.9594999999999
 31
0.0
  0
LINE
  5
218
330
1D
100
AcDbEntity
  8
0
100
AcDbLine
 10
105.0999999999999
 20
334.1755
 30
0.0
 11
108.2999999999999
 21
334.1755
 31
0.0
  0
LINE
  5
219
330
1D
100
AcDbEntity
  8
0
100
AcDbLine
 10
106.0
 20
334.6754999999999
 30
0.0
 11
109.2999999999999
 21
334.6754999999999
 31
0.0
  0
LINE
  5
21A
330
1D
100
AcDbEntity
  8
0
100
AcDbLine
 10
109.2999999999999
 20
334.6754999999999
 30
0.0
 11
110.4999999999999
 21
334.6754999999999
 31
0.0
  0
LINE
  5
21B
330
1D
100
AcDbEntity
  8
0
100
AcDbLine
 10
108.2999999999999
 20
334.1755
 30
0.0
 11
109.4999999999999
 21
334.1755
 31
0.0
  0
LINE
  5
21C
330
1D
100
AcDbEntity
  8
0
100
AcDbLine
 10
109.4999999999999
 20
334.1755
 30
0.0
 11
110.4999999999999
 21
334.6754999999999
 31
0.0
  0
LINE
  5
21D
330
1D
100
AcDbEntity
  8
0
100
AcDbLine
 10
106.4
 20
360.1755
 30
0.0
 11
109.8
 21
360.1755
 31
0.0
  0
LINE
  5
21E
330
1D
100
AcDbEntity
  8
0
100
AcDbLine
 10
111.0
 20
360.1755
 30
0.0
 11
111.0
 21
335.6755
 31
0.0
  0
LINE
  5
21F
330
1D
100
AcDbEntity
  8
0
100
AcDbLine
 10
109.8
 20
360.1755
 30
0.0
 11
111.0
 21
360.1755
 31
0.0
  0
LINE
  5
220
330
1D
100
AcDbEntity
  8
0
100
AcDbLine
 10
110.4999999999999
 20
334.6754999999999
 30
0.0
 11
111.0
 21
335.6755
 31
0.0
  0
LINE
  5
221
330
1D
100
AcDbEntity
  8
0
100
AcDbLine
 10
122.0
 20
350.7755
 30
0.0
 11
122.72
 21
350.1755
 31
0.0
  0
LINE
  5
222
330
1D
100
AcDbEntity
  8
0
100
AcDbLine
 10
122.0
 20
350.7755
 30
0.0
 11
122.0
 21
360.1755
 31
0.0
  0
LINE
  5
223
330
1D
100
AcDbEntity
  8
0
100
AcDbLine
 10
122.0
 20
350.7755
 30
0.0
 11
123.08
 21
350.7755
 31
0.0
  0
LINE
  5
224
330
1D
100
AcDbEntity
  8
0
100
AcDbLine
 10
131.36
 20
350.1755
 30
0.0
 11
137.48
 21
350.1755
 31
0.0
  0
LINE
  5
225
330
1D
100
AcDbEntity
  8
0
100
AcDbLine
 10
126.68
 20
350.1755
 30
0.0
 11
131.36
 21
350.1755
 31
0.0
  0
LINE
  5
226
330
1D
100
AcDbEntity
  8
0
100
AcDbLine
 10
123.08
 20
350.7755
 30
0.0
 11
125.96
 21
350.7755
 31
0.0
  0
LINE
  5
227
330
1D
100
AcDbEntity
  8
0
100
AcDbLine
 10
130.7599999999999
 20
350.7755
 30
0.0
 11
137.1199999999999
 21
350.7755
 31
0.0
  0
LINE
  5
228
330
1D
100
AcDbEntity
  8
0
100
AcDbLine
 10
125.96
 20
350.7755
 30
0.0
 11
130.7599999999999
 21
350.7755
 31
0.0
  0
LINE
  5
229
330
1D
100
AcDbEntity
  8
0
100
AcDbLine
 10
130.7599999999999
 20
360.1755
 30
0.0
 11
137.1199999999999
 21
360.1755
 31
0.0
  0
LINE
  5
22A
330
1D
100
AcDbEntity
  8
0
100
AcDbLine
 10
125.96
 20
360.1755
 30
0.0
 11
130.7599999999999
 21
360.1755
 31
0.0
  0
LINE
  5
22B
330
1D
100
AcDbEntity
  8
0
100
AcDbLine
 10
123.08
 20
360.1755
 30
0.0
 11
125.96
 21
360.1755
 31
0.0
  0
LINE
  5
22C
330
1D
100
AcDbEntity
  8
0
100
AcDbLine
 10
123.7999999999999
 20
350.1755
 30
0.0
 11
126.68
 21
350.1755
 31
0.0
  0
LINE
  5
22D
330
1D
100
AcDbEntity
  8
0
100
AcDbLine
 10
122.72
 20
350.1755
 30
0.0
 11
123.7999999999999
 21
350.1755
 31
0.0
  0
LINE
  5
22E
330
1D
100
AcDbEntity
  8
0
100
AcDbLine
 10
122.0
 20
360.1755
 30
0.0
 11
122.0
 21
350.7755
 31
0.0
  0
LINE
  5
22F
330
1D
100
AcDbEntity
  8
0
100
AcDbLine
 10
122.0
 20
360.1755
 30
0.0
 11
123.08
 21
360.1755
 31
0.0
  0
LINE
  5
230
330
1D
100
AcDbEntity
  8
0
100
AcDbLine
 10
111.0
 20
335.6755
 30
0.0
 11
111.0
 21
360.1755
 31
0.0
  0
LINE
  5
231
330
1D
100
AcDbEntity
  8
0
100
AcDbLine
 10
102.7538
 20
313.1705
 30
0.0
 11
133.9129999999999
 21
313.1705
 31
0.0
  0
LINE
  5
232
330
1D
100
AcDbEntity
  8
0
100
AcDbLine
 10
102.0
 20
303.9594999999999
 30
0.0
 11
102.0
 21
299.7074999999999
 31
0.0
  0
LINE
  5
233
330
1D
100
AcDbEntity
  8
0
100
AcDbLine
 10
102.0
 20
303.9594999999999
 30
0.0
 11
102.0
 21
307.5634999999999
 31
0.0
  0
LINE
  5
234
330
1D
100
AcDbEntity
  8
0
100
AcDbLine
 10
102.0
 20
299.7074999999999
 30
0.0
 11
102.0
 21
303.9594999999999
 31
0.0
  0
LINE
  5
235
330
1D
100
AcDbEntity
  8
0
100
AcDbLine
 10
102.0
 20
299.7074999999999
 30
0.0
 11
102.0
 21
298.1755
 31
0.0
  0
LINE
  5
236
330
1D
100
AcDbEntity
  8
0
100
AcDbLine
 10
134.667
 20
277.6625
 30
0.0
 11
134.667
 21
278.2585
 31
0.0
  0
LINE
  5
237
330
1D
100
AcDbEntity
  8
0
100
AcDbLine
 10
134.667
 20
277.6625
 30
0.0
 11
135.4209999999999
 21
277.1805
 31
0.0
  0
LINE
  5
238
330
1D
100
AcDbEntity
  8
0
100
AcDbLine
 10
134.667
 20
278.2585
 30
0.0
 11
134.667
 21
280.0344999999999
 31
0.0
  0
LINE
  5
239
330
1D
100
AcDbEntity
  8
0
100
AcDbLine
 10
134.667
 20
278.2585
 30
0.0
 11
134.667
 21
277.6625
 31
0.0
  0
LINE
  5
23A
330
1D
100
AcDbEntity
  8
0
100
AcDbLine
 10
134.667
 20
280.0344999999999
 30
0.0
 11
134.667
 21
282.7875
 31
0.0
  0
LINE
  5
23B
330
1D
100
AcDbEntity
  8
0
100
AcDbLine
 10
134.667
 20
280.0344999999999
 30
0.0
 11
134.667
 21
278.2585
 31
0.0
  0
LINE
  5
23C
330
1D
100
AcDbEntity
  8
0
100
AcDbLine
 10
134.667
 20
307.5604999999999
 30
0.0
 11
134.667
 21
310.3895
 31
0.0
  0
LINE
  5
23D
330
1D
100
AcDbEntity
  8
0
100
AcDbLine
 10
134.667
 20
307.5604999999999
 30
0.0
 11
134.667
 21
303.9765
 31
0.0
  0
LINE
  5
23E
330
1D
100
AcDbEntity
  8
0
100
AcDbLine
 10
134.667
 20
303.9765
 30
0.0
 11
134.667
 21
307.5604999999999
 31
0.0
  0
LINE
  5
23F
330
1D
100
AcDbEntity
  8
0
100
AcDbLine
 10
134.667
 20
303.9765
 30
0.0
 11
134.667
 21
299.7085
 31
0.0
  0
LINE
  5
240
330
1D
100
AcDbEntity
  8
0
100
AcDbLine
 10
134.667
 20
299.7085
 30
0.0
 11
134.667
 21
303.9765
 31
0.0
  0
LINE
  5
241
330
1D
100
AcDbEntity
  8
0
100
AcDbLine
 10
134.667
 20
299.7085
 30
0.0
 11
134.667
 21
295.1245
 31
0.0
  0
LINE
  5
242
330
1D
100
AcDbEntity
  8
0
100
AcDbLine
 10
134.667
 20
295.1245
 30
0.0
 11
134.667
 21
299.7085
 31
0.0
  0
LINE
  5
243
330
1D
100
AcDbEntity
  8
0
100
AcDbLine
 10
134.667
 20
295.1245
 30
0.0
 11
134.667
 21
290.6435
 31
0.0
  0
LINE
  5
244
330
1D
100
AcDbEntity
  8
0
100
AcDbLine
 10
134.667
 20
290.6435
 30
0.0
 11
134.667
 21
295.1245
 31
0.0
  0
LINE
  5
245
330
1D
100
AcDbEntity
  8
0
100
AcDbLine
 10
134.667
 20
290.6435
 30
0.0
 11
134.667
 21
286.3915
 31
0.0
  0
LINE
  5
246
330
1D
100
AcDbEntity
  8
0
100
AcDbLine
 10
134.667
 20
286.3915
 30
0.0
 11
134.667
 21
290.6435
 31
0.0
  0
LINE
  5
247
330
1D
100
AcDbEntity
  8
0
100
AcDbLine
 10
134.667
 20
286.3915
 30
0.0
 11
134.667
 21
282.7875
 31
0.0
  0
LINE
  5
248
330
1D
100
AcDbEntity
  8
0
100
AcDbLine
 10
134.667
 20
282.7875
 30
0.0
 11
134.667
 21
286.3915
 31
0.0
  0
LINE
  5
249
330
1D
100
AcDbEntity
  8
0
100
AcDbLine
 10
134.667
 20
282.7875
 30
0.0
 11
134.667
 21
280.0344999999999
 31
0.0
  0
LINE
  5
24A
330
1D
100
AcDbEntity
  8
0
100
AcDbLine
 10
141.6999999999999
 20
5.620499999999999
 30
0.0
 11
152.0
 21
4.8685
 31
0.0
  0
LINE
  5
24B
330
1D
100
AcDbEntity
  8
0
100
AcDbLine
 10
141.5999999999999
 20
4.338499999999999
 30
0.0
 11
152.0
 21
3.5865
 31
0.0
  0
LINE
  5
24C
330
1D
100
AcDbEntity
  8
0
100
AcDbLine
 10
141.5999999999999
 20
0.5765000000000001
 30
0.0
 11
152.0
 21
-0.1755
 31
0.0
  0
LINE
  5
24D
330
1D
100
AcDbEntity
  8
0
100
AcDbLine
 10
147.177
 20
65.9285
 30
0.0
 11
148.5829999999999
 21
65.5485
 31
0.0
  0
LINE
  5
24E
330
1D
100
AcDbEntity
  8
0
100
AcDbLine
 10
145.8179999999999
 20
66.4365
 30
0.0
 11
147.177
 21
65.9285
 31
0.0
  0
LINE
  5
24F
330
1D
100
AcDbEntity
  8
0
100
AcDbLine
 10
144.517
 20
67.06749999999999
 30
0.0
 11
145.8179999999999
 21
66.4365
 31
0.0
  0
LINE
  5
250
330
1D
100
AcDbEntity
  8
0
100
AcDbLine
 10
143.2899999999999
 20
67.8155
 30
0.0
 11
144.517
 21
67.06749999999999
 31
0.0
  0
LINE
  5
251
330
1D
100
AcDbEntity
  8
0
100
AcDbLine
 10
147.144
 20
69.54049999999999
 30
0.0
 11
148.559
 21
69.1575
 31
0.0
  0
LINE
  5
252
330
1D
100
AcDbEntity
  8
0
100
AcDbLine
 10
145.776
 20
70.0515
 30
0.0
 11
147.144
 21
69.54049999999999
 31
0.0
  0
LINE
  5
253
330
1D
100
AcDbEntity
  8
0
100
AcDbLine
 10
142.146
 20
68.6725
 30
0.0
 11
143.2899999999999
 21
67.8155
 31
0.0
  0
LINE
  5
254
330
1D
100
AcDbEntity
  8
0
100
AcDbLine
 10
141.096
 20
69.63049999999999
 30
0.0
 11
142.146
 21
68.6725
 31
0.0
  0
LINE
  5
255
330
1D
100
AcDbEntity
  8
0
100
AcDbLine
 10
144.467
 20
70.68649999999999
 30
0.0
 11
145.776
 21
70.0515
 31
0.0
  0
LINE
  5
256
330
1D
100
AcDbEntity
  8
0
100
AcDbLine
 10
143.2319999999999
 20
71.4395
 30
0.0
 11
144.467
 21
70.68649999999999
 31
0.0
  0
LINE
  5
257
330
1D
100
AcDbEntity
  8
0
100
AcDbLine
 10
145.776
 20
72.7245
 30
0.0
 11
147.144
 21
72.2135
 31
0.0
  0
LINE
  5
258
330
1D
100
AcDbEntity
  8
0
100
AcDbLine
 10
142.079
 20
72.30249999999999
 30
0.0
 11
143.2319999999999
 21
71.4395
 31
0.0
  0
LINE
  5
259
330
1D
100
AcDbEntity
  8
0
100
AcDbLine
 10
147.144
 20
72.2135
 30
0.0
 11
148.5599999999999
 21
71.82949999999999
 31
0.0
  0
LINE
  5
25B
330
1D
100
AcDbEntity
  8
0
100
AcDbLine
 10
140.1529999999999
 20
70.68049999999999
 30
0.0
 11
141.096
 21
69.63049999999999
 31
0.0
  0
LINE
  5
25C
330
1D
100
AcDbEntity
  8
0
100
AcDbLine
 10
139.3229999999999
 20
71.81350000000001
 30
0.0
 11
140.1529999999999
 21
70.68049999999999
 31
0.0
  0
LINE
  5
25D
330
1D
100
AcDbEntity
  8
0
100
AcDbLine
 10
144.467
 20
73.3595
 30
0.0
 11
145.776
 21
72.7245
 31
0.0
  0
LINE
  5
25E
330
1D
100
AcDbEntity
  8
0
100
AcDbLine
 10
141.0239999999999
 20
73.2675
 30
0.0
 11
142.079
 21
72.30249999999999
 31
0.0
  0
LINE
  5
260
330
1D
100
AcDbEntity
  8
0
100
AcDbLine
 10
143.231
 20
74.11249999999999
 30
0.0
 11
144.467
 21
73.3595
 31
0.0
  0
LINE
  5
262
330
1D
100
AcDbEntity
  8
0
100
AcDbLine
 10
142.079
 20
74.9755
 30
0.0
 11
143.231
 21
74.11249999999999
 31
0.0
  0
LINE
  5
263
330
1D
100
AcDbEntity
  8
0
100
AcDbLine
 10
140.0719999999999
 20
74.3245
 30
0.0
 11
141.0239999999999
 21
73.2675
 31
0.0
  0
LINE
  5
265
330
1D
100
AcDbEntity
  8
0
100
AcDbLine
 10
139.2369999999999
 20
75.4645
 30
0.0
 11
140.0719999999999
 21
74.3245
 31
0.0
  0
LINE
  5
267
330
1D
100
AcDbEntity
  8
0
100
AcDbLine
 10
144.556
 20
74.89449999999999
 30
0.0
 11
145.793
 21
74.2445
 31
0.0
  0
LINE
  5
269
330
1D
100
AcDbEntity
  8
0
100
AcDbLine
 10
145.793
 20
74.2445
 30
0.0
 11
147.095
 21
73.7145
 31
0.0
  0
LINE
  5
26C
330
1D
100
AcDbEntity
  8
0
100
AcDbLine
 10
147.095
 20
73.7145
 30
0.0
 11
148.4469999999999
 21
73.3115
 31
0.0
  0
LINE
  5
26E
330
1D
100
AcDbEntity
  8
0
100
AcDbLine
 10
138.615
 20
73.01649999999999
 30
0.0
 11
139.3229999999999
 21
71.81350000000001
 31
0.0
  0
LINE
  5
26F
330
1D
100
AcDbEntity
  8
0
100
AcDbLine
 10
138.036
 20
74.2795
 30
0.0
 11
138.615
 21
73.01649999999999
 31
0.0
  0
LINE
  5
270
330
1D
100
AcDbEntity
  8
0
100
AcDbLine
 10
141.023
 20
75.93949999999999
 30
0.0
 11
142.079
 21
74.9755
 31
0.0
  0
LINE
  5
276
330
1D
100
AcDbEntity
  8
0
100
AcDbLine
 10
143.3939999999999
 20
75.65949999999999
 30
0.0
 11
144.556
 21
74.89449999999999
 31
0.0
  0
LINE
  5
277
330
1D
100
AcDbEntity
  8
0
100
AcDbLine
 10
137.592
 20
75.58849999999999
 30
0.0
 11
138.036
 21
74.2795
 31
0.0
  0
LINE
  5
278
330
1D
100
AcDbEntity
  8
0
100
AcDbLine
 10
150.022
 20
65.29949999999999
 30
0.0
 11
151.4799999999999
 21
65.18349999999999
 31
0.0
  0
LINE
  5
279
330
1D
100
AcDbEntity
  8
0
100
AcDbLine
 10
148.5599999999999
 20
71.82949999999999
 30
0.0
 11
150.0089999999999
 21
71.5785
 31
0.0
  0
LINE
  5
27A
330
1D
100
AcDbEntity
  8
0
100
AcDbLine
 10
148.559
 20
69.1575
 30
0.0
 11
150.0089999999999
 21
68.90649999999999
 31
0.0
  0
LINE
  5
27E
330
1D
100
AcDbEntity
  8
0
100
AcDbLine
 10
148.4469999999999
 20
73.3115
 30
0.0
 11
149.835
 21
73.0385
 31
0.0
  0
LINE
  5
280
330
1D
100
AcDbEntity
  8
0
100
AcDbLine
 10
150.0089999999999
 20
71.5785
 30
0.0
 11
151.476
 21
71.46250000000001
 31
0.0
  0
LINE
  5
281
330
1D
100
AcDbEntity
  8
0
100
AcDbLine
 10
150.0089999999999
 20
68.90649999999999
 30
0.0
 11
151.476
 21
68.7895
 31
0.0
  0
LINE
  5
285
330
1D
100
AcDbEntity
  8
0
100
AcDbLine
 10
149.835
 20
73.0385
 30
0.0
 11
151.246
 21
72.89950000000001
 31
0.0
  0
LINE
  5
287
330
1D
100
AcDbEntity
  8
0
100
AcDbLine
 10
148.5829999999999
 20
65.5485
 30
0.0
 11
150.022
 21
65.29949999999999
 31
0.0
  0
LINE
  5
288
330
1D
100
AcDbEntity
  8
0
100
AcDbLine
 10
152.0
 20
4.8685
 30
0.0
 11
162.3
 21
5.620499999999999
 31
0.0
  0
LINE
  5
289
330
1D
100
AcDbEntity
  8
0
100
AcDbLine
 10
152.0
 20
3.5865
 30
0.0
 11
162.4
 21
4.338499999999999
 31
0.0
  0
LINE
  5
28A
330
1D
100
AcDbEntity
  8
0
100
AcDbLine
 10
152.0
 20
-0.1755
 30
0.0
 11
162.4
 21
0.5765000000000001
 31
0.0
  0
LINE
  5
28B
330
1D
100
AcDbEntity
  8
0
100
AcDbLine
 10
162.3
 20
5.620499999999999
 30
0.0
 11
172.4
 21
7.4995
 31
0.0
  0
LINE
  5
28C
330
1D
100
AcDbEntity
  8
0
100
AcDbLine
 10
162.4
 20
4.338499999999999
 30
0.0
 11
172.5999999999999
 21
6.311499999999999
 31
0.0
  0
LINE
  5
28D
330
1D
100
AcDbEntity
  8
0
100
AcDbLine
 10
162.4
 20
0.5765000000000001
 30
0.0
 11
172.5999999999999
 21
2.5495
 31
0.0
  0
LINE
  5
290
330
1D
100
AcDbEntity
  8
0
100
AcDbLine
 10
151.476
 20
71.46250000000001
 30
0.0
 11
152.0
 21
71.4695
 31
0.0
  0
LINE
  5
2B4
330
1D
100
AcDbEntity
  8
0
100
AcDbLine
 10
151.476
 20
68.7895
 30
0.0
 11
152.0
 21
68.79649999999999
 31
0.0
  0
LINE
  5
2D1
330
1D
100
AcDbEntity
  8
0
100
AcDbLine
 10
151.246
 20
72.89950000000001
 30
0.0
 11
152.0
 21
72.89749999999999
 31
0.0
  0
LINE
  5
2D3
330
1D
100
AcDbEntity
  8
0
100
AcDbLine
 10
151.4799999999999
 20
65.18349999999999
 30
0.0
 11
152.0
 21
65.1905
 31
0.0
  0
LINE
  5
2E8
330
1D
100
AcDbEntity
  8
0
100
AcDbLine
 10
138.525
 20
76.6755
 30
0.0
 11
139.2369999999999
 21
75.4645
 31
0.0
  0
LINE
  5
2E9
330
1D
100
AcDbEntity
  8
0
100
AcDbLine
 10
137.942
 20
77.9475
 30
0.0
 11
138.525
 21
76.6755
 31
0.0
  0
LINE
  5
2EA
330
1D
100
AcDbEntity
  8
0
100
AcDbLine
 10
140.0729999999999
 20
76.9975
 30
0.0
 11
141.023
 21
75.93949999999999
 31
0.0
  0
LINE
  5
2EC
330
1D
100
AcDbEntity
  8
0
100
AcDbLine
 10
139.2369999999999
 20
78.1375
 30
0.0
 11
140.0729999999999
 21
76.9975
 31
0.0
  0
LINE
  5
2F1
330
1D
100
AcDbEntity
  8
0
100
AcDbLine
 10
141.346
 20
77.4995
 30
0.0
 11
142.321
 21
76.5315
 31
0.0
  0
LINE
  5
2F3
330
1D
100
AcDbEntity
  8
0
100
AcDbLine
 10
142.321
 20
76.5315
 30
0.0
 11
143.3939999999999
 21
75.65949999999999
 31
0.0
  0
LINE
  5
2F4
330
1D
100
AcDbEntity
  8
0
100
AcDbLine
 10
137.2859999999999
 20
76.9345
 30
0.0
 11
137.592
 21
75.58849999999999
 31
0.0
  0
LINE
  5
2F6
330
1D
100
AcDbEntity
  8
0
100
AcDbLine
 10
140.4819999999999
 20
78.5565
 30
0.0
 11
141.346
 21
77.4995
 31
0.0
  0
LINE
  5
2F7
330
1D
100
AcDbEntity
  8
0
100
AcDbLine
 10
137.122
 20
78.2995
 30
0.0
 11
137.2859999999999
 21
76.9345
 31
0.0
  0
LINE
  5
2F8
330
1D
100
AcDbEntity
  8
0
100
AcDbLine
 10
137.0079999999999
 20
85.5545
 30
0.0
 11
137.0079999999999
 21
82.88149999999999
 31
0.0
  0
LINE
  5
2F9
330
1D
100
AcDbEntity
  8
0
100
AcDbLine
 10
137.0079999999999
 20
85.5545
 30
0.0
 11
137.022
 21
84.66750000000001
 31
0.0
  0
LINE
  5
2FA
330
1D
100
AcDbEntity
  8
0
100
AcDbLine
 10
137.0079999999999
 20
85.5545
 30
0.0
 11
137.022
 21
86.44150000000001
 31
0.0
  0
LINE
  5
2FB
330
1D
100
AcDbEntity
  8
0
100
AcDbLine
 10
137.022
 20
86.44150000000001
 30
0.0
 11
137.186
 21
87.8185
 31
0.0
  0
LINE
  5
2FD
330
1D
100
AcDbEntity
  8
0
100
AcDbLine
 10
137.022
 20
84.66750000000001
 30
0.0
 11
137.186
 21
83.2915
 31
0.0
  0
LINE
  5
2FF
330
1D
100
AcDbEntity
  8
0
100
AcDbLine
 10
137.022
 20
81.9935
 30
0.0
 11
137.186
 21
80.61849999999999
 31
0.0
  0
LINE
  5
300
330
1D
100
AcDbEntity
  8
0
100
AcDbLine
 10
137.0079999999999
 20
82.88149999999999
 30
0.0
 11
137.022
 21
81.9935
 31
0.0
  0
LINE
  5
301
330
1D
100
AcDbEntity
  8
0
100
AcDbLine
 10
137.0079999999999
 20
82.88149999999999
 30
0.0
 11
137.0079999999999
 21
85.5545
 31
0.0
  0
LINE
  5
302
330
1D
100
AcDbEntity
  8
0
100
AcDbLine
 10
137.0079999999999
 20
82.88149999999999
 30
0.0
 11
137.022
 21
83.76949999999999
 31
0.0
  0
LINE
  5
303
330
1D
100
AcDbEntity
  8
0
100
AcDbLine
 10
137.109
 20
81.26407926829299
 30
0.0
 11
137.109
 21
79.1805
 31
0.0
  0
LINE
  5
304
330
1D
100
AcDbEntity
  8
0
100
AcDbLine
 10
137.494
 20
79.2655
 30
0.0
 11
137.942
 21
77.9475
 31
0.0
  0
LINE
  5
307
330
1D
100
AcDbEntity
  8
0
100
AcDbLine
 10
138.525
 20
79.3485
 30
0.0
 11
139.2369999999999
 21
78.1375
 31
0.0
  0
LINE
  5
309
330
1D
100
AcDbEntity
  8
0
100
AcDbLine
 10
137.942
 20
80.61950000000001
 30
0.0
 11
138.525
 21
79.3485
 31
0.0
  0
LINE
  5
30A
330
1D
100
AcDbEntity
  8
0
100
AcDbLine
 10
137.186
 20
80.61849999999999
 30
0.0
 11
137.494
 21
79.2655
 31
0.0
  0
LINE
  5
30C
330
1D
100
AcDbEntity
  8
0
100
AcDbLine
 10
137.495
 20
81.93850000000001
 30
0.0
 11
137.942
 21
80.61950000000001
 31
0.0
  0
LINE
  5
30E
330
1D
100
AcDbEntity
  8
0
100
AcDbLine
 10
137.186
 20
83.2915
 30
0.0
 11
137.495
 21
81.93850000000001
 31
0.0
  0
LINE
  5
317
330
1D
100
AcDbEntity
  8
0
100
AcDbLine
 10
137.186
 20
87.8185
 30
0.0
 11
137.495
 21
89.17050000000001
 31
0.0
  0
LINE
  5
31A
330
1D
100
AcDbEntity
  8
0
100
AcDbLine
 10
137.495
 20
89.17050000000001
 30
0.0
 11
137.904280999083
 21
90.378199413403
 31
0.0
  0
LINE
  5
31C
330
1D
100
AcDbEntity
  8
0
100
AcDbLine
 10
137.905
 20
89.26949999999999
 30
0.0
 11
138.0079999999999
 21
88.01250000000001
 31
0.0
  0
LINE
  5
31D
330
1D
100
AcDbEntity
  8
0
100
AcDbLine
 10
137.904
 20
91.60349999999999
 30
0.0
 11
137.9042433179719
 21
91.228547004608
 31
0.0
  0
LINE
  5
31E
330
1D
100
AcDbEntity
  8
0
100
AcDbLine
 10
137.904
 20
91.60349999999999
 30
0.0
 11
137.905
 21
93.31749999999999
 31
0.0
  0
LINE
  5
320
330
1D
100
AcDbEntity
  8
0
100
AcDbLine
 10
137.905
 20
93.31749999999999
 30
0.0
 11
137.912
 21
92.92050000000001
 31
0.0
  0
LINE
  5
321
330
1D
100
AcDbEntity
  8
0
100
AcDbLine
 10
137.905
 20
93.31749999999999
 30
0.0
 11
138.0089999999999
 21
94.5725
 31
0.0
  0
LINE
  5
322
330
1D
100
AcDbEntity
  8
0
100
AcDbLine
 10
137.905
 20
92.52549999999999
 30
0.0
 11
138.0089999999999
 21
91.26850000000001
 31
0.0
  0
LINE
  5
323
330
1D
100
AcDbEntity
  8
0
100
AcDbLine
 10
137.905
 20
92.52549999999999
 30
0.0
 11
137.912
 21
92.92050000000001
 31
0.0
  0
LINE
  5
325
330
1D
100
AcDbEntity
  8
0
100
AcDbLine
 10
137.904
 20
90.81149999999999
 30
0.0
 11
137.905
 21
89.26949999999999
 31
0.0
  0
LINE
  5
326
330
1D
100
AcDbEntity
  8
0
100
AcDbLine
 10
137.904
 20
90.81149999999999
 30
0.0
 11
137.905
 21
92.52549999999999
 31
0.0
  0
LINE
  5
327
330
1D
100
AcDbEntity
  8
0
100
AcDbLine
 10
138.0659999999999
 20
87.31849999999999
 30
0.0
 11
138.098828898469
 21
87.524540419914
 31
0.0
  0
LINE
  5
329
330
1D
100
AcDbEntity
  8
0
100
AcDbLine
 10
138.0089999999999
 20
94.5725
 30
0.0
 11
138.239
 21
95.8155
 31
0.0
  0
LINE
  5
32B
330
1D
100
AcDbEntity
  8
0
100
AcDbLine
 10
138.0089999999999
 20
91.26850000000001
 30
0.0
 11
138.239
 21
90.0265
 31
0.0
  0
LINE
  5
32D
330
1D
100
AcDbEntity
  8
0
100
AcDbLine
 10
138.0079999999999
 20
88.01250000000001
 30
0.0
 11
138.239
 21
86.77150000000001
 31
0.0
  0
LINE
  5
32E
330
1D
100
AcDbEntity
  8
0
100
AcDbLine
 10
138.001
 20
86.0335
 30
0.0
 11
138.0659999999999
 21
84.74949999999999
 31
0.0
  0
LINE
  5
32F
330
1D
100
AcDbEntity
  8
0
100
AcDbLine
 10
138.001
 20
86.0335
 30
0.0
 11
138.0659999999999
 21
87.31849999999999
 31
0.0
  0
LINE
  5
333
330
1D
100
AcDbEntity
  8
0
100
AcDbLine
 10
138.239
 20
95.8155
 30
0.0
 11
138.595
 21
97.0325
 31
0.0
  0
LINE
  5
337
330
1D
100
AcDbEntity
  8
0
100
AcDbLine
 10
138.239
 20
90.0265
 30
0.0
 11
138.595
 21
88.8095
 31
0.0
  0
LINE
  5
338
330
1D
100
AcDbEntity
  8
0
100
AcDbLine
 10
138.239
 20
86.77150000000001
 30
0.0
 11
138.595
 21
85.5545
 31
0.0
  0
LINE
  5
339
330
1D
100
AcDbEntity
  8
0
100
AcDbLine
 10
138.0659999999999
 20
84.74949999999999
 30
0.0
 11
138.276
 21
83.43149999999999
 31
0.0
  0
LINE
  5
33B
330
1D
100
AcDbEntity
  8
0
100
AcDbLine
 10
138.595
 20
97.0325
 30
0.0
 11
139.0719999999999
 21
98.21049999999999
 31
0.0
  0
LINE
  5
33C
330
1D
100
AcDbEntity
  8
0
100
AcDbLine
 10
138.4429999999999
 20
94.08050000000001
 30
0.0
 11
138.612
 21
95.3245
 31
0.0
  0
LINE
  5
33D
330
1D
100
AcDbEntity
  8
0
100
AcDbLine
 10
138.412
 20
93.0925
 30
0.0
 11
138.4429999999999
 21
92.1035
 31
0.0
  0
LINE
  5
33E
330
1D
100
AcDbEntity
  8
0
100
AcDbLine
 10
138.412
 20
93.0925
 30
0.0
 11
138.4429999999999
 21
94.08050000000001
 31
0.0
  0
LINE
  5
33F
330
1D
100
AcDbEntity
  8
0
100
AcDbLine
 10
138.4429999999999
 20
92.1035
 30
0.0
 11
138.612
 21
90.8605
 31
0.0
  0
LINE
  5
340
330
1D
100
AcDbEntity
  8
0
100
AcDbLine
 10
138.612
 20
95.3245
 30
0.0
 11
138.9089999999999
 21
96.5465
 31
0.0
  0
LINE
  5
341
330
1D
100
AcDbEntity
  8
0
100
AcDbLine
 10
138.612
 20
90.8605
 30
0.0
 11
138.9089999999999
 21
89.6375
 31
0.0
  0
LINE
  5
342
330
1D
100
AcDbEntity
  8
0
100
AcDbLine
 10
138.595
 20
88.8095
 30
0.0
 11
139.0719999999999
 21
87.63150000000001
 31
0.0
  0
LINE
  5
343
330
1D
100
AcDbEntity
  8
0
100
AcDbLine
 10
138.595
 20
85.5545
 30
0.0
 11
139.0719999999999
 21
84.37649999999999
 31
0.0
  0
LINE
  5
344
330
1D
100
AcDbEntity
  8
0
100
AcDbLine
 10
138.276
 20
83.43149999999999
 30
0.0
 11
138.6279999999999
 21
82.1395
 31
0.0
  0
LINE
  5
346
330
1D
100
AcDbEntity
  8
0
100
AcDbLine
 10
139.0719999999999
 20
98.21049999999999
 30
0.0
 11
139.666
 21
99.3415
 31
0.0
  0
LINE
  5
347
330
1D
100
AcDbEntity
  8
0
100
AcDbLine
 10
138.9089999999999
 20
96.5465
 30
0.0
 11
139.3329999999999
 21
97.73650000000001
 31
0.0
  0
LINE
  5
348
330
1D
100
AcDbEntity
  8
0
100
AcDbLine
 10
138.9089999999999
 20
89.6375
 30
0.0
 11
139.3329999999999
 21
88.44849999999999
 31
0.0
  0
LINE
  5
349
330
1D
100
AcDbEntity
  8
0
100
AcDbLine
 10
139.0719999999999
 20
87.63150000000001
 30
0.0
 11
139.666
 21
86.4995
 31
0.0
  0
LINE
  5
34A
330
1D
100
AcDbEntity
  8
0
100
AcDbLine
 10
139.0719999999999
 20
84.37649999999999
 30
0.0
 11
139.666
 21
83.2445
 31
0.0
  0
LINE
  5
34B
330
1D
100
AcDbEntity
  8
0
100
AcDbLine
 10
138.6279999999999
 20
82.1395
 30
0.0
 11
139.115
 21
80.88849999999998
 31
0.0
  0
LINE
  5
34D
330
1D
100
AcDbEntity
  8
0
100
AcDbLine
 10
139.3329999999999
 20
97.73650000000001
 30
0.0
 11
139.8789999999999
 21
98.88049999999999
 31
0.0
  0
LINE
  5
34E
330
1D
100
AcDbEntity
  8
0
100
AcDbLine
 10
139.666
 20
99.3415
 30
0.0
 11
140.372
 21
100.4134999999999
 31
0.0
  0
LINE
  5
34F
330
1D
100
AcDbEntity
  8
0
100
AcDbLine
 10
139.3329999999999
 20
88.44849999999999
 30
0.0
 11
139.8789999999999
 21
87.30349999999999
 31
0.0
  0
LINE
  5
350
330
1D
100
AcDbEntity
  8
0
100
AcDbLine
 10
139.666
 20
86.4995
 30
0.0
 11
140.372
 21
85.42749999999999
 31
0.0
  0
LINE
  5
351
330
1D
100
AcDbEntity
  8
0
100
AcDbLine
 10
139.666
 20
83.2445
 30
0.0
 11
140.372
 21
82.17249999999999
 31
0.0
  0
LINE
  5
352
330
1D
100
AcDbEntity
  8
0
100
AcDbLine
 10
139.115
 20
80.88849999999998
 30
0.0
 11
139.7359999999999
 21
79.6905
 31
0.0
  0
LINE
  5
358
330
1D
100
AcDbEntity
  8
0
100
AcDbLine
 10
142.092
 20
80.23950000000001
 30
0.0
 11
143.091
 21
79.3965
 31
0.0
  0
LINE
  5
35A
330
1D
100
AcDbEntity
  8
0
100
AcDbLine
 10
141.1829999999999
 20
84.42249999999999
 30
0.0
 11
142.092
 21
83.4945
 31
0.0
  0
LINE
  5
35B
330
1D
100
AcDbEntity
  8
0
100
AcDbLine
 10
142.1899999999999
 20
84.24649999999999
 30
0.0
 11
143.1599999999999
 21
83.38549999999999
 31
0.0
  0
LINE
  5
35C
330
1D
100
AcDbEntity
  8
0
100
AcDbLine
 10
142.092
 20
83.4945
 30
0.0
 11
143.091
 21
82.65249999999999
 31
0.0
  0
LINE
  5
35D
330
1D
100
AcDbEntity
  8
0
100
AcDbLine
 10
141.1829999999999
 20
81.16750000000001
 30
0.0
 11
142.092
 21
80.23950000000001
 31
0.0
  0
LINE
  5
35E
330
1D
100
AcDbEntity
  8
0
100
AcDbLine
 10
140.372
 20
82.17249999999999
 30
0.0
 11
141.1829999999999
 21
81.16750000000001
 31
0.0
  0
LINE
  5
35F
330
1D
100
AcDbEntity
  8
0
100
AcDbLine
 10
140.541
 20
86.2155
 30
0.0
 11
141.314
 21
85.19350000000001
 31
0.0
  0
LINE
  5
360
330
1D
100
AcDbEntity
  8
0
100
AcDbLine
 10
141.314
 20
85.19350000000001
 30
0.0
 11
142.1899999999999
 21
84.24649999999999
 31
0.0
  0
LINE
  5
361
330
1D
100
AcDbEntity
  8
0
100
AcDbLine
 10
140.372
 20
85.42749999999999
 30
0.0
 11
141.1829999999999
 21
84.42249999999999
 31
0.0
  0
LINE
  5
362
330
1D
100
AcDbEntity
  8
0
100
AcDbLine
 10
143.1599999999999
 20
83.38549999999999
 30
0.0
 11
144.216
 21
82.6185
 31
0.0
  0
LINE
  5
363
330
1D
100
AcDbEntity
  8
0
100
AcDbLine
 10
143.091
 20
82.65249999999999
 30
0.0
 11
144.1689999999999
 21
81.9035
 31
0.0
  0
LINE
  5
364
330
1D
100
AcDbEntity
  8
0
100
AcDbLine
 10
143.091
 20
79.3965
 30
0.0
 11
144.1699999999999
 21
78.6485
 31
0.0
  0
LINE
  5
365
330
1D
100
AcDbEntity
  8
0
100
AcDbLine
 10
139.8789999999999
 20
87.30349999999999
 30
0.0
 11
140.541
 21
86.2155
 31
0.0
  0
LINE
  5
366
330
1D
100
AcDbEntity
  8
0
100
AcDbLine
 10
141.0
 20
91.91781914893601
 30
0.0
 11
141.0
 21
104.4634999999999
 31
0.0
  0
LINE
  5
368
330
1D
100
AcDbEntity
  8
0
100
AcDbLine
 10
141.010534175575
 20
91.791857304827
 30
0.0
 11
141.0247266953789
 21
91.682945141981
 31
0.0
  0
LINE
  5
369
330
1D
100
AcDbEntity
  8
0
100
AcDbLine
 10
139.8789999999999
 20
98.88049999999999
 30
0.0
 11
140.541
 21
99.9695
 31
0.0
  0
LINE
  5
36D
330
1D
100
AcDbEntity
  8
0
100
AcDbLine
 10
141.0
 20
104.4634999999999
 30
0.0
 11
141.0
 21
107.3605
 31
0.0
  0
LINE
  5
36E
330
1D
100
AcDbEntity
  8
0
100
AcDbLine
 10
141.0
 20
104.4634999999999
 30
0.0
 11
141.0
 21
91.91781914893601
 31
0.0
  0
LINE
  5
36F
330
1D
100
AcDbEntity
  8
0
100
AcDbLine
 10
141.0
 20
107.3605
 30
0.0
 11
141.0
 21
111.9694999999999
 31
0.0
  0
LINE
  5
370
330
1D
100
AcDbEntity
  8
0
100
AcDbLine
 10
141.0
 20
107.3605
 30
0.0
 11
141.0
 21
104.4634999999999
 31
0.0
  0
LINE
  5
371
330
1D
100
AcDbEntity
  8
0
100
AcDbLine
 10
141.0
 20
111.9694999999999
 30
0.0
 11
141.0
 21
117.9754999999999
 31
0.0
  0
LINE
  5
372
330
1D
100
AcDbEntity
  8
0
100
AcDbLine
 10
141.0
 20
111.9694999999999
 30
0.0
 11
141.0
 21
107.3605
 31
0.0
  0
LINE
  5
373
330
1D
100
AcDbEntity
  8
0
100
AcDbLine
 10
141.0
 20
117.9754999999999
 30
0.0
 11
141.0
 21
111.9694999999999
 31
0.0
  0
LINE
  5
374
330
1D
100
AcDbEntity
  8
0
100
AcDbLine
 10
141.0
 20
117.9754999999999
 30
0.0
 11
141.0
 21
124.9695
 31
0.0
  0
LINE
  5
375
330
1D
100
AcDbEntity
  8
0
100
AcDbLine
 10
141.0
 20
124.9695
 30
0.0
 11
141.0
 21
117.9754999999999
 31
0.0
  0
LINE
  5
376
330
1D
100
AcDbEntity
  8
0
100
AcDbLine
 10
141.0
 20
124.9695
 30
0.0
 11
141.0
 21
132.4755
 31
0.0
  0
LINE
  5
377
330
1D
100
AcDbEntity
  8
0
100
AcDbLine
 10
141.0
 20
132.4755
 30
0.0
 11
141.0
 21
139.9815
 31
0.0
  0
LINE
  5
378
330
1D
100
AcDbEntity
  8
0
100
AcDbLine
 10
141.0
 20
132.4755
 30
0.0
 11
141.0
 21
124.9695
 31
0.0
  0
LINE
  5
379
330
1D
100
AcDbEntity
  8
0
100
AcDbLine
 10
141.0
 20
139.9815
 30
0.0
 11
141.0
 21
280.6754999999999
 31
0.0
  0
LINE
  5
37A
330
1D
100
AcDbEntity
  8
0
100
AcDbLine
 10
141.0
 20
139.9815
 30
0.0
 11
141.0
 21
132.4755
 31
0.0
  0
LINE
  5
37B
330
1D
100
AcDbEntity
  8
0
100
AcDbLine
 10
140.372
 20
100.4134999999999
 30
0.0
 11
141.0
 21
101.1924987669539
 31
0.0
  0
LINE
  5
37C
330
1D
100
AcDbEntity
  8
0
100
AcDbLine
 10
140.541
 20
99.9695
 30
0.0
 11
141.0
 21
100.5763538162999
 31
0.0
  0
LINE
  5
381
330
1D
100
AcDbEntity
  8
0
100
AcDbLine
 10
141.0159999999999
 20
91.7265
 30
0.0
 11
141.2379999999999
 21
90.61849999999999
 31
0.0
  0
LINE
  5
382
330
1D
100
AcDbEntity
  8
0
100
AcDbLine
 10
141.2379999999999
 20
90.61849999999999
 30
0.0
 11
141.587
 21
89.5395
 31
0.0
  0
LINE
  5
383
330
1D
100
AcDbEntity
  8
0
100
AcDbLine
 10
141.587
 20
89.5395
 30
0.0
 11
142.056
 21
88.5035
 31
0.0
  0
LINE
  5
384
330
1D
100
AcDbEntity
  8
0
100
AcDbLine
 10
142.056
 20
88.5035
 30
0.0
 11
142.643
 21
87.51949999999999
 31
0.0
  0
LINE
  5
385
330
1D
100
AcDbEntity
  8
0
100
AcDbLine
 10
142.643
 20
87.51949999999999
 30
0.0
 11
143.3389999999999
 21
86.60149999999999
 31
0.0
  0
LINE
  5
386
330
1D
100
AcDbEntity
  8
0
100
AcDbLine
 10
143.3389999999999
 20
86.60149999999999
 30
0.0
 11
144.138
 21
85.7585
 31
0.0
  0
LINE
  5
387
330
1D
100
AcDbEntity
  8
0
100
AcDbLine
 10
139.7359999999999
 20
79.6905
 30
0.0
 11
140.4819999999999
 21
78.5565
 31
0.0
  0
LINE
  5
389
330
1D
100
AcDbEntity
  8
0
100
AcDbLine
 10
137.109
 20
79.1805
 30
0.0
 11
137.122
 21
78.2995
 31
0.0
  0
LINE
  5
38A
330
1D
100
AcDbEntity
  8
0
100
AcDbLine
 10
137.109
 20
79.1805
 30
0.0
 11
137.109
 21
81.26407926829299
 31
0.0
  0
LINE
  5
38B
330
1D
100
AcDbEntity
  8
0
100
AcDbLine
 10
137.109
 20
79.1805
 30
0.0
 11
137.122
 21
80.06249999999999
 31
0.0
  0
LINE
  5
38C
330
1D
100
AcDbEntity
  8
0
100
AcDbLine
 10
144.1689999999999
 20
81.9035
 30
0.0
 11
145.32
 21
81.25449999999998
 31
0.0
  0
LINE
  5
38D
330
1D
100
AcDbEntity
  8
0
100
AcDbLine
 10
144.216
 20
82.6185
 30
0.0
 11
145.3459999999999
 21
81.95149999999999
 31
0.0
  0
LINE
  5
38E
330
1D
100
AcDbEntity
  8
0
100
AcDbLine
 10
144.1699999999999
 20
78.6485
 30
0.0
 11
145.32
 21
77.99850000000001
 31
0.0
  0
LINE
  5
38F
330
1D
100
AcDbEntity
  8
0
100
AcDbLine
 10
144.138
 20
85.7585
 30
0.0
 11
145.028
 21
85.0035
 31
0.0
  0
LINE
  5
395
330
1D
100
AcDbEntity
  8
0
100
AcDbLine
 10
145.32
 20
81.25449999999998
 30
0.0
 11
146.531
 21
80.70950000000001
 31
0.0
  0
LINE
  5
397
330
1D
100
AcDbEntity
  8
0
100
AcDbLine
 10
150.4149999999999
 20
76.5015
 30
0.0
 11
151.7529999999999
 21
76.4195
 31
0.0
  0
LINE
  5
398
330
1D
100
AcDbEntity
  8
0
100
AcDbLine
 10
149.09
 20
76.7025
 30
0.0
 11
150.4149999999999
 21
76.5015
 31
0.0
  0
LINE
  5
399
330
1D
100
AcDbEntity
  8
0
100
AcDbLine
 10
147.792
 20
77.0215
 30
0.0
 11
149.09
 21
76.7025
 31
0.0
  0
LINE
  5
39A
330
1D
100
AcDbEntity
  8
0
100
AcDbLine
 10
145.3459999999999
 20
81.95149999999999
 30
0.0
 11
146.5399999999999
 21
81.3925
 31
0.0
  0
LINE
  5
39B
330
1D
100
AcDbEntity
  8
0
100
AcDbLine
 10
146.5399999999999
 20
81.3925
 30
0.0
 11
147.787
 21
80.94549999999999
 31
0.0
  0
LINE
  5
39C
330
1D
100
AcDbEntity
  8
0
100
AcDbLine
 10
147.787
 20
80.94549999999999
 30
0.0
 11
149.075
 21
80.6165
 31
0.0
  0
LINE
  5
39D
330
1D
100
AcDbEntity
  8
0
100
AcDbLine
 10
146.531
 20
80.70950000000001
 30
0.0
 11
147.792
 21
80.27649999999999
 31
0.0
  0
LINE
  5
39E
330
1D
100
AcDbEntity
  8
0
100
AcDbLine
 10
150.3909999999999
 20
80.40649999999999
 30
0.0
 11
151.722
 21
80.32049999999999
 31
0.0
  0
LINE
  5
3A0
330
1D
100
AcDbEntity
  8
0
100
AcDbLine
 10
149.075
 20
80.6165
 30
0.0
 11
150.3909999999999
 21
80.40649999999999
 31
0.0
  0
LINE
  5
3A3
330
1D
100
AcDbEntity
  8
0
100
AcDbLine
 10
147.792
 20
80.27649999999999
 30
0.0
 11
149.09
 21
79.9575
 31
0.0
  0
LINE
  5
3A4
330
1D
100
AcDbEntity
  8
0
100
AcDbLine
 10
149.09
 20
79.9575
 30
0.0
 11
150.4149999999999
 21
79.7565
 31
0.0
  0
LINE
  5
3A5
330
1D
100
AcDbEntity
  8
0
100
AcDbLine
 10
150.4149999999999
 20
79.7565
 30
0.0
 11
151.7529999999999
 21
79.67449999999999
 31
0.0
  0
LINE
  5
3A6
330
1D
100
AcDbEntity
  8
0
100
AcDbLine
 10
146.531
 20
77.45449999999999
 30
0.0
 11
147.792
 21
77.0215
 31
0.0
  0
LINE
  5
3A7
330
1D
100
AcDbEntity
  8
0
100
AcDbLine
 10
145.32
 20
77.99850000000001
 30
0.0
 11
146.531
 21
77.45449999999999
 31
0.0
  0
LINE
  5
3A8
330
1D
100
AcDbEntity
  8
0
100
AcDbLine
 10
145.028
 20
85.0035
 30
0.0
 11
146.0
 21
84.3425
 31
0.0
  0
LINE
  5
3A9
330
1D
100
AcDbEntity
  8
0
100
AcDbLine
 10
146.0
 20
84.3425
 30
0.0
 11
147.042
 21
83.78449999999999
 31
0.0
  0
LINE
  5
3AA
330
1D
100
AcDbEntity
  8
0
100
AcDbLine
 10
147.042
 20
83.78449999999999
 30
0.0
 11
148.143
 21
83.3345
 31
0.0
  0
LINE
  5
3AB
330
1D
100
AcDbEntity
  8
0
100
AcDbLine
 10
148.143
 20
83.3345
 30
0.0
 11
149.2879999999999
 21
83.0005
 31
0.0
  0
LINE
  5
3AC
330
1D
100
AcDbEntity
  8
0
100
AcDbLine
 10
149.2879999999999
 20
83.0005
 30
0.0
 11
150.466
 21
82.78350000000001
 31
0.0
  0
LINE
  5
3AD
330
1D
100
AcDbEntity
  8
0
100
AcDbLine
 10
150.466
 20
82.78350000000001
 30
0.0
 11
151.662
 21
82.6885
 31
0.0
  0
LINE
  5
3AF
330
1D
100
AcDbEntity
  8
0
100
AcDbLine
 10
152.0
 20
76.4265
 30
0.0
 11
152.247
 21
76.4195
 31
0.0
  0
LINE
  5
3C5
330
1D
100
AcDbEntity
  8
0
100
AcDbLine
 10
152.0
 20
80.3275
 30
0.0
 11
152.278
 21
80.32049999999999
 31
0.0
  0
LINE
  5
3C6
330
1D
100
AcDbEntity
  8
0
100
AcDbLine
 10
152.0
 20
79.6815
 30
0.0
 11
152.247
 21
79.67449999999999
 31
0.0
  0
LINE
  5
3C9
330
1D
100
AcDbEntity
  8
0
100
AcDbLine
 10
152.0
 20
82.6965
 30
0.0
 11
152.3379999999999
 21
82.6885
 31
0.0
  0
LINE
  5
3F0
330
1D
100
AcDbEntity
  8
0
100
AcDbLine
 10
163.0
 20
111.9694999999999
 30
0.0
 11
163.0
 21
107.3605
 31
0.0
  0
LINE
  5
3F1
330
1D
100
AcDbEntity
  8
0
100
AcDbLine
 10
163.0
 20
111.9694999999999
 30
0.0
 11
163.0
 21
117.9754999999999
 31
0.0
  0
LINE
  5
3F2
330
1D
100
AcDbEntity
  8
0
100
AcDbLine
 10
163.0
 20
107.3605
 30
0.0
 11
163.0
 21
104.4634999999999
 31
0.0
  0
LINE
  5
3F3
330
1D
100
AcDbEntity
  8
0
100
AcDbLine
 10
163.0
 20
107.3605
 30
0.0
 11
163.0
 21
111.9694999999999
 31
0.0
  0
LINE
  5
3F4
330
1D
100
AcDbEntity
  8
0
100
AcDbLine
 10
163.0
 20
152.4582029702969
 30
0.0
 11
172.4
 21
150.7085
 31
0.0
  0
LINE
  5
3F5
330
1D
100
AcDbEntity
  8
0
100
AcDbLine
 10
163.0
 20
153.069441176471
 30
0.0
 11
172.5999999999999
 21
151.2125
 31
0.0
  0
LINE
  5
3F6
330
1D
100
AcDbEntity
  8
0
100
AcDbLine
 10
163.0
 20
139.9815
 30
0.0
 11
163.0
 21
132.4755
 31
0.0
  0
LINE
  5
3F7
330
1D
100
AcDbEntity
  8
0
100
AcDbLine
 10
163.0
 20
139.9815
 30
0.0
 11
163.0
 21
280.6754999999999
 31
0.0
  0
LINE
  5
3F8
330
1D
100
AcDbEntity
  8
0
100
AcDbLine
 10
163.0
 20
132.4755
 30
0.0
 11
163.0
 21
139.9815
 31
0.0
  0
LINE
  5
3F9
330
1D
100
AcDbEntity
  8
0
100
AcDbLine
 10
163.0
 20
132.4755
 30
0.0
 11
163.0
 21
124.9695
 31
0.0
  0
LINE
  5
3FA
330
1D
100
AcDbEntity
  8
0
100
AcDbLine
 10
163.0
 20
124.9695
 30
0.0
 11
163.0
 21
117.9754999999999
 31
0.0
  0
LINE
  5
3FB
330
1D
100
AcDbEntity
  8
0
100
AcDbLine
 10
163.0
 20
124.9695
 30
0.0
 11
163.0
 21
132.4755
 31
0.0
  0
LINE
  5
3FC
330
1D
100
AcDbEntity
  8
0
100
AcDbLine
 10
163.0
 20
117.9754999999999
 30
0.0
 11
163.0
 21
111.9694999999999
 31
0.0
  0
LINE
  5
3FD
330
1D
100
AcDbEntity
  8
0
100
AcDbLine
 10
163.0
 20
117.9754999999999
 30
0.0
 11
163.0
 21
124.9695
 31
0.0
  0
LINE
  5
3FF
330
1D
100
AcDbEntity
  8
0
100
AcDbLine
 10
163.0
 20
104.4634999999999
 30
0.0
 11
163.0
 21
107.3605
 31
0.0
  0
LINE
  5
409
330
1D
100
AcDbEntity
  8
0
100
AcDbLine
 10
151.7529999999999
 20
79.67449999999999
 30
0.0
 11
152.0
 21
79.6815
 31
0.0
  0
LINE
  5
40A
330
1D
100
AcDbEntity
  8
0
100
AcDbLine
 10
151.722
 20
80.32049999999999
 30
0.0
 11
152.0
 21
80.3275
 31
0.0
  0
LINE
  5
40B
330
1D
100
AcDbEntity
  8
0
100
AcDbLine
 10
151.7529999999999
 20
76.4195
 30
0.0
 11
152.0
 21
76.4265
 31
0.0
  0
LINE
  5
40C
330
1D
100
AcDbEntity
  8
0
100
AcDbLine
 10
151.662
 20
82.6885
 30
0.0
 11
152.0
 21
82.6965
 31
0.0
  0
LINE
  5
45C
330
1D
100
AcDbEntity
  8
0
100
AcDbLine
 10
163.442827145517
 20
164.92224746335
 30
0.0
 11
166.1699999999999
 21
166.9335
 31
0.0
  0
LINE
  5
47D
330
1D
100
AcDbEntity
  8
0
100
AcDbLine
 10
166.1699999999999
 20
166.9335
 30
0.0
 11
170.6279999999999
 21
171.2905
 31
0.0
  0
LINE
  5
47E
330
1D
100
AcDbEntity
  8
0
100
AcDbLine
 10
170.6279999999999
 20
171.2905
 30
0.0
 11
173.257
 21
175.3664999999999
 31
0.0
  0
LINE
  5
480
330
1D
100
AcDbEntity
  8
0
100
AcDbLine
 10
163.0
 20
265.1755
 30
0.0
 11
172.0
 21
265.1755
 31
0.0
  0
LINE
  5
481
330
1D
100
AcDbEntity
  8
0
100
AcDbLine
 10
172.0
 20
263.1755
 30
0.0
 11
172.504
 21
260.1204999999999
 31
0.0
  0
LINE
  5
482
330
1D
100
AcDbEntity
  8
0
100
AcDbLine
 10
172.0
 20
263.1755
 30
0.0
 11
172.0
 21
285.1755
 31
0.0
  0
LINE
  5
483
330
1D
100
AcDbEntity
  8
0
100
AcDbLine
 10
172.0
 20
263.1755
 30
0.0
 11
172.504
 21
266.2304999999999
 31
0.0
  0
LINE
  5
484
330
1D
100
AcDbEntity
  8
0
100
AcDbLine
 10
163.0
 20
277.1805
 30
0.0
 11
172.0
 21
277.1805
 31
0.0
  0
LINE
  5
485
330
1D
100
AcDbEntity
  8
0
100
AcDbLine
 10
135.4209999999999
 20
277.1805
 30
0.0
 11
141.0
 21
277.1805
 31
0.0
  0
LINE
  5
486
330
1D
100
AcDbEntity
  8
0
100
AcDbLine
 10
172.0
 20
277.1805
 30
0.0
 11
172.0
 21
277.7665
 31
0.0
  0
LINE
  5
487
330
1D
100
AcDbEntity
  8
0
100
AcDbLine
 10
172.0
 20
277.7665
 30
0.0
 11
172.0
 21
279.6315
 31
0.0
  0
LINE
  5
488
330
1D
100
AcDbEntity
  8
0
100
AcDbLine
 10
172.0
 20
277.7665
 30
0.0
 11
172.0
 21
277.1805
 31
0.0
  0
LINE
  5
489
330
1D
100
AcDbEntity
  8
0
100
AcDbLine
 10
163.0
 20
280.6754999999999
 30
0.0
 11
163.0
 21
286.6815
 31
0.0
  0
LINE
  5
48A
330
1D
100
AcDbEntity
  8
0
100
AcDbLine
 10
163.0
 20
280.6754999999999
 30
0.0
 11
163.0
 21
139.9815
 31
0.0
  0
LINE
  5
48B
330
1D
100
AcDbEntity
  8
0
100
AcDbLine
 10
163.0
 20
286.6815
 30
0.0
 11
163.0
 21
291.2905
 31
0.0
  0
LINE
  5
48C
330
1D
100
AcDbEntity
  8
0
100
AcDbLine
 10
163.0
 20
286.6815
 30
0.0
 11
163.0
 21
280.6754999999999
 31
0.0
  0
LINE
  5
48D
330
1D
100
AcDbEntity
  8
0
100
AcDbLine
 10
141.0
 20
280.6754999999999
 30
0.0
 11
141.0
 21
286.6815
 31
0.0
  0
LINE
  5
48E
330
1D
100
AcDbEntity
  8
0
100
AcDbLine
 10
141.0
 20
280.6754999999999
 30
0.0
 11
141.0
 21
139.9815
 31
0.0
  0
LINE
  5
48F
330
1D
100
AcDbEntity
  8
0
100
AcDbLine
 10
141.0
 20
286.6815
 30
0.0
 11
141.0
 21
291.2905
 31
0.0
  0
LINE
  5
490
330
1D
100
AcDbEntity
  8
0
100
AcDbLine
 10
141.0
 20
286.6815
 30
0.0
 11
141.0
 21
280.6754999999999
 31
0.0
  0
LINE
  5
491
330
1D
100
AcDbEntity
  8
0
100
AcDbLine
 10
172.0
 20
285.1755
 30
0.0
 11
172.0
 21
263.1755
 31
0.0
  0
LINE
  5
492
330
1D
100
AcDbEntity
  8
0
100
AcDbLine
 10
172.0
 20
285.1755
 30
0.0
 11
172.504
 21
288.2305
 31
0.0
  0
LINE
  5
493
330
1D
100
AcDbEntity
  8
0
100
AcDbLine
 10
172.0
 20
285.1755
 30
0.0
 11
172.0
 21
286.1755
 31
0.0
  0
LINE
  5
494
330
1D
100
AcDbEntity
  8
0
100
AcDbLine
 10
141.0
 20
295.1754999999999
 30
0.0
 11
141.0
 21
294.1874999999999
 31
0.0
  0
LINE
  5
495
330
1D
100
AcDbEntity
  8
0
100
AcDbLine
 10
141.0
 20
295.1754999999999
 30
0.0
 11
141.396
 21
297.9914999999999
 31
0.0
  0
LINE
  5
496
330
1D
100
AcDbEntity
  8
0
100
AcDbLine
 10
141.0
 20
294.1874999999999
 30
0.0
 11
141.0
 21
295.1754999999999
 31
0.0
  0
LINE
  5
497
330
1D
100
AcDbEntity
  8
0
100
AcDbLine
 10
141.0
 20
294.1874999999999
 30
0.0
 11
141.0
 21
291.2905
 31
0.0
  0
LINE
  5
498
330
1D
100
AcDbEntity
  8
0
100
AcDbLine
 10
163.0
 20
291.2905
 30
0.0
 11
163.0
 21
294.1874999999999
 31
0.0
  0
LINE
  5
499
330
1D
100
AcDbEntity
  8
0
100
AcDbLine
 10
163.0
 20
291.2905
 30
0.0
 11
163.0
 21
286.6815
 31
0.0
  0
LINE
  5
49A
330
1D
100
AcDbEntity
  8
0
100
AcDbLine
 10
162.6039999999999
 20
297.9914999999999
 30
0.0
 11
163.0
 21
295.1754999999999
 31
0.0
  0
LINE
  5
49B
330
1D
100
AcDbEntity
  8
0
100
AcDbLine
 10
163.0
 20
294.1874999999999
 30
0.0
 11
163.0
 21
291.2905
 31
0.0
  0
LINE
  5
49C
330
1D
100
AcDbEntity
  8
0
100
AcDbLine
 10
163.0
 20
294.1874999999999
 30
0.0
 11
163.0
 21
295.1754999999999
 31
0.0
  0
LINE
  5
49D
330
1D
100
AcDbEntity
  8
0
100
AcDbLine
 10
163.0
 20
295.1754999999999
 30
0.0
 11
163.0
 21
294.1874999999999
 31
0.0
  0
LINE
  5
49E
330
1D
100
AcDbEntity
  8
0
100
AcDbLine
 10
141.396
 20
297.9914999999999
 30
0.0
 11
142.452
 21
300.6315
 31
0.0
  0
LINE
  5
49F
330
1D
100
AcDbEntity
  8
0
100
AcDbLine
 10
141.0
 20
291.2905
 30
0.0
 11
141.0
 21
286.6815
 31
0.0
  0
LINE
  5
4A0
330
1D
100
AcDbEntity
  8
0
100
AcDbLine
 10
141.0
 20
291.2905
 30
0.0
 11
141.0
 21
294.1874999999999
 31
0.0
  0
LINE
  5
4A1
330
1D
100
AcDbEntity
  8
0
100
AcDbLine
 10
143.0
 20
301.3576
 30
0.0
 11
143.0
 21
350.1755
 31
0.0
  0
LINE
  5
4A2
330
1D
100
AcDbEntity
  8
0
100
AcDbLine
 10
161.0
 20
301.3576
 30
0.0
 11
161.0
 21
350.1755
 31
0.0
  0
LINE
  5
4A3
330
1D
100
AcDbEntity
  8
0
100
AcDbLine
 10
159.7879999999999
 20
302.9635
 30
0.0
 11
161.5479999999999
 21
300.6315
 31
0.0
  0
LINE
  5
4A4
330
1D
100
AcDbEntity
  8
0
100
AcDbLine
 10
161.5479999999999
 20
300.6315
 30
0.0
 11
162.6039999999999
 21
297.9914999999999
 31
0.0
  0
LINE
  5
4A5
330
1D
100
AcDbEntity
  8
0
100
AcDbLine
 10
154.816
 20
305.7795
 30
0.0
 11
157.456
 21
304.7235
 31
0.0
  0
LINE
  5
4A6
330
1D
100
AcDbEntity
  8
0
100
AcDbLine
 10
157.456
 20
304.7235
 30
0.0
 11
159.7879999999999
 21
302.9635
 31
0.0
  0
LINE
  5
4A7
330
1D
100
AcDbEntity
  8
0
100
AcDbLine
 10
152.0
 20
306.1755
 30
0.0
 11
154.816
 21
305.7795
 31
0.0
  0
LINE
  5
4A8
330
1D
100
AcDbEntity
  8
0
100
AcDbLine
 10
149.184
 20
305.7795
 30
0.0
 11
152.0
 21
306.1755
 31
0.0
  0
LINE
  5
4A9
330
1D
100
AcDbEntity
  8
0
100
AcDbLine
 10
146.5439999999999
 20
304.7235
 30
0.0
 11
149.184
 21
305.7795
 31
0.0
  0
LINE
  5
4AA
330
1D
100
AcDbEntity
  8
0
100
AcDbLine
 10
144.212
 20
302.9635
 30
0.0
 11
146.5439999999999
 21
304.7235
 31
0.0
  0
LINE
  5
4AB
330
1D
100
AcDbEntity
  8
0
100
AcDbLine
 10
142.452
 20
300.6315
 30
0.0
 11
144.212
 21
302.9635
 31
0.0
  0
LINE
  5
4AC
330
1D
100
AcDbEntity
  8
0
100
AcDbLine
 10
172.0
 20
307.8985
 30
0.0
 11
172.0
 21
310.7645
 31
0.0
  0
LINE
  5
4AD
330
1D
100
AcDbEntity
  8
0
100
AcDbLine
 10
172.0
 20
307.8985
 30
0.0
 11
172.0
 21
304.2425
 31
0.0
  0
LINE
  5
4AE
330
1D
100
AcDbEntity
  8
0
100
AcDbLine
 10
172.0
 20
304.2425
 30
0.0
 11
172.0
 21
307.8985
 31
0.0
  0
LINE
  5
4AF
330
1D
100
AcDbEntity
  8
0
100
AcDbLine
 10
172.0
 20
304.2425
 30
0.0
 11
172.0
 21
299.8405
 31
0.0
  0
LINE
  5
4B0
330
1D
100
AcDbEntity
  8
0
100
AcDbLine
 10
172.0
 20
299.8405
 30
0.0
 11
172.0
 21
304.2425
 31
0.0
  0
LINE
  5
4B1
330
1D
100
AcDbEntity
  8
0
100
AcDbLine
 10
172.0
 20
299.8405
 30
0.0
 11
172.0
 21
295.0955
 31
0.0
  0
LINE
  5
4B2
330
1D
100
AcDbEntity
  8
0
100
AcDbLine
 10
172.0
 20
295.0955
 30
0.0
 11
172.0
 21
299.8405
 31
0.0
  0
LINE
  5
4B3
330
1D
100
AcDbEntity
  8
0
100
AcDbLine
 10
172.0
 20
295.0955
 30
0.0
 11
172.0
 21
290.4904999999999
 31
0.0
  0
LINE
  5
4B4
330
1D
100
AcDbEntity
  8
0
100
AcDbLine
 10
172.0
 20
290.4904999999999
 30
0.0
 11
172.0
 21
295.0955
 31
0.0
  0
LINE
  5
4B5
330
1D
100
AcDbEntity
  8
0
100
AcDbLine
 10
172.0
 20
290.4904999999999
 30
0.0
 11
172.0
 21
286.1755
 31
0.0
  0
LINE
  5
4B6
330
1D
100
AcDbEntity
  8
0
100
AcDbLine
 10
172.0
 20
286.1755
 30
0.0
 11
172.0
 21
290.4904999999999
 31
0.0
  0
LINE
  5
4B7
330
1D
100
AcDbEntity
  8
0
100
AcDbLine
 10
172.0
 20
286.1755
 30
0.0
 11
172.0
 21
285.1755
 31
0.0
  0
LINE
  5
4B8
330
1D
100
AcDbEntity
  8
0
100
AcDbLine
 10
172.0
 20
286.1755
 30
0.0
 11
172.0
 21
282.5085
 31
0.0
  0
LINE
  5
4B9
330
1D
100
AcDbEntity
  8
0
100
AcDbLine
 10
172.0
 20
279.6315
 30
0.0
 11
172.0
 21
282.5085
 31
0.0
  0
LINE
  5
4BA
330
1D
100
AcDbEntity
  8
0
100
AcDbLine
 10
172.0
 20
279.6315
 30
0.0
 11
172.0
 21
277.7665
 31
0.0
  0
LINE
  5
4BB
330
1D
100
AcDbEntity
  8
0
100
AcDbLine
 10
172.4
 20
150.7085
 30
0.0
 11
182.1999999999999
 21
147.5134999999999
 31
0.0
  0
LINE
  5
4BC
330
1D
100
AcDbEntity
  8
0
100
AcDbLine
 10
172.5999999999999
 20
151.2125
 30
0.0
 11
182.6
 21
148.1115
 31
0.0
  0
LINE
  5
4BD
330
1D
100
AcDbEntity
  8
0
100
AcDbLine
 10
172.4
 20
7.4995
 30
0.0
 11
182.1999999999999
 21
10.6945
 31
0.0
  0
LINE
  5
4BE
330
1D
100
AcDbEntity
  8
0
100
AcDbLine
 10
172.5999999999999
 20
6.311499999999999
 30
0.0
 11
182.6
 21
9.412499999999999
 31
0.0
  0
LINE
  5
4BF
330
1D
100
AcDbEntity
  8
0
100
AcDbLine
 10
172.5999999999999
 20
2.5495
 30
0.0
 11
182.6
 21
5.6505
 31
0.0
  0
LINE
  5
4C0
330
1D
100
AcDbEntity
  8
0
100
AcDbLine
 10
173.257
 20
175.3664999999999
 30
0.0
 11
175.0
 21
182.1785
 31
0.0
  0
LINE
  5
4C1
330
1D
100
AcDbEntity
  8
0
100
AcDbLine
 10
175.0
 20
182.1785
 30
0.0
 11
175.0
 21
191.2185
 31
0.0
  0
LINE
  5
4C2
330
1D
100
AcDbEntity
  8
0
100
AcDbLine
 10
175.0
 20
191.2185
 30
0.0
 11
175.0
 21
200.5685
 31
0.0
  0
LINE
  5
4C3
330
1D
100
AcDbEntity
  8
0
100
AcDbLine
 10
175.0
 20
191.2185
 30
0.0
 11
175.0
 21
182.1785
 31
0.0
  0
LINE
  5
4C4
330
1D
100
AcDbEntity
  8
0
100
AcDbLine
 10
175.0
 20
200.5685
 30
0.0
 11
175.0
 21
212.4725
 31
0.0
  0
LINE
  5
4C5
330
1D
100
AcDbEntity
  8
0
100
AcDbLine
 10
175.0
 20
200.5685
 30
0.0
 11
175.0
 21
191.2185
 31
0.0
  0
LINE
  5
4C6
330
1D
100
AcDbEntity
  8
0
100
AcDbLine
 10
175.0
 20
212.4725
 30
0.0
 11
175.0
 21
224.2814999999999
 31
0.0
  0
LINE
  5
4C7
330
1D
100
AcDbEntity
  8
0
100
AcDbLine
 10
175.0
 20
212.4725
 30
0.0
 11
175.0
 21
200.5685
 31
0.0
  0
LINE
  5
4C8
330
1D
100
AcDbEntity
  8
0
100
AcDbLine
 10
175.0
 20
224.2814999999999
 30
0.0
 11
175.0
 21
236.4965
 31
0.0
  0
LINE
  5
4C9
330
1D
100
AcDbEntity
  8
0
100
AcDbLine
 10
175.0
 20
224.2814999999999
 30
0.0
 11
175.0
 21
212.4725
 31
0.0
  0
LINE
  5
4CA
330
1D
100
AcDbEntity
  8
0
100
AcDbLine
 10
175.0
 20
236.4965
 30
0.0
 11
175.0
 21
224.2814999999999
 31
0.0
  0
LINE
  5
4CB
330
1D
100
AcDbEntity
  8
0
100
AcDbLine
 10
175.0
 20
231.1525
 30
0.0
 11
175.0
 21
242.3855
 31
0.0
  0
LINE
  5
4CC
330
1D
100
AcDbEntity
  8
0
100
AcDbLine
 10
182.1999999999999
 20
147.5134999999999
 30
0.0
 11
191.3
 21
143.3795
 31
0.0
  0
LINE
  5
4CD
330
1D
100
AcDbEntity
  8
0
100
AcDbLine
 10
191.3
 20
143.3795
 30
0.0
 11
200.0
 21
137.9285
 31
0.0
  0
LINE
  5
4CE
330
1D
100
AcDbEntity
  8
0
100
AcDbLine
 10
182.6
 20
148.1115
 30
0.0
 11
191.8
 21
143.8825
 31
0.0
  0
LINE
  5
4CF
330
1D
100
AcDbEntity
  8
0
100
AcDbLine
 10
191.8
 20
143.8825
 30
0.0
 11
200.5999999999999
 21
138.3385
 31
0.0
  0
LINE
  5
4D0
330
1D
100
AcDbEntity
  8
0
100
AcDbLine
 10
191.3
 20
14.82949999999999
 30
0.0
 11
200.0
 21
20.2795
 31
0.0
  0
LINE
  5
4D1
330
1D
100
AcDbEntity
  8
0
100
AcDbLine
 10
182.1999999999999
 20
10.6945
 30
0.0
 11
191.3
 21
14.82949999999999
 31
0.0
  0
LINE
  5
4D2
330
1D
100
AcDbEntity
  8
0
100
AcDbLine
 10
191.8
 20
13.6415
 30
0.0
 11
200.5999999999999
 21
19.1855
 31
0.0
  0
LINE
  5
4D3
330
1D
100
AcDbEntity
  8
0
100
AcDbLine
 10
182.6
 20
9.412499999999999
 30
0.0
 11
191.8
 21
13.6415
 31
0.0
  0
LINE
  5
4D4
330
1D
100
AcDbEntity
  8
0
100
AcDbLine
 10
191.8
 20
9.8795
 30
0.0
 11
200.5999999999999
 21
15.4235
 31
0.0
  0
LINE
  5
4D5
330
1D
100
AcDbEntity
  8
0
100
AcDbLine
 10
182.6
 20
5.6505
 30
0.0
 11
191.8
 21
9.8795
 31
0.0
  0
LINE
  5
4D6
330
1D
100
AcDbEntity
  8
0
100
AcDbLine
 10
199.0
 20
182.1785
 30
0.0
 11
199.0
 21
191.2185
 31
0.0
  0
LINE
  5
4D7
330
1D
100
AcDbEntity
  8
0
100
AcDbLine
 10
199.0
 20
182.1785
 30
0.0
 11
200.7429999999999
 21
175.3664999999999
 31
0.0
  0
LINE
  5
4D8
330
1D
100
AcDbEntity
  8
0
100
AcDbLine
 10
199.0
 20
224.2814999999999
 30
0.0
 11
199.0
 21
212.4725
 31
0.0
  0
LINE
  5
4D9
330
1D
100
AcDbEntity
  8
0
100
AcDbLine
 10
199.0
 20
212.4725
 30
0.0
 11
199.0
 21
224.2814999999999
 31
0.0
  0
LINE
  5
4DA
330
1D
100
AcDbEntity
  8
0
100
AcDbLine
 10
199.0
 20
212.4725
 30
0.0
 11
199.0
 21
200.5685
 31
0.0
  0
LINE
  5
4DB
330
1D
100
AcDbEntity
  8
0
100
AcDbLine
 10
199.0
 20
224.2814999999999
 30
0.0
 11
199.0
 21
248.9234999999999
 31
0.0
  0
LINE
  5
4DC
330
1D
100
AcDbEntity
  8
0
100
AcDbLine
 10
199.0
 20
248.9234999999999
 30
0.0
 11
199.0
 21
257.9804999999999
 31
0.0
  0
LINE
  5
4DD
330
1D
100
AcDbEntity
  8
0
100
AcDbLine
 10
199.0
 20
248.9234999999999
 30
0.0
 11
199.0
 21
224.2814999999999
 31
0.0
  0
LINE
  5
4DE
330
1D
100
AcDbEntity
  8
0
100
AcDbLine
 10
199.0
 20
200.5685
 30
0.0
 11
199.0
 21
212.4725
 31
0.0
  0
LINE
  5
4DF
330
1D
100
AcDbEntity
  8
0
100
AcDbLine
 10
199.0
 20
200.5685
 30
0.0
 11
199.0
 21
191.2185
 31
0.0
  0
LINE
  5
4E0
330
1D
100
AcDbEntity
  8
0
100
AcDbLine
 10
199.0
 20
191.2185
 30
0.0
 11
199.0
 21
182.1785
 31
0.0
  0
LINE
  5
4E1
330
1D
100
AcDbEntity
  8
0
100
AcDbLine
 10
199.0
 20
191.2185
 30
0.0
 11
199.0
 21
200.5685
 31
0.0
  0
LINE
  5
4E2
330
1D
100
AcDbEntity
  8
0
100
AcDbLine
 10
175.0
 20
242.3855
 30
0.0
 11
175.0
 21
251.3465
 31
0.0
  0
LINE
  5
4E3
330
1D
100
AcDbEntity
  8
0
100
AcDbLine
 10
175.0
 20
242.3855
 30
0.0
 11
175.0
 21
231.1525
 31
0.0
  0
LINE
  5
4E4
330
1D
100
AcDbEntity
  8
0
100
AcDbLine
 10
199.0
 20
257.9804999999999
 30
0.0
 11
199.0
 21
248.9234999999999
 31
0.0
  0
LINE
  5
4E5
330
1D
100
AcDbEntity
  8
0
100
AcDbLine
 10
199.0
 20
257.9804999999999
 30
0.0
 11
199.0
 21
267.6114999999999
 31
0.0
  0
LINE
  5
4E6
330
1D
100
AcDbEntity
  8
0
100
AcDbLine
 10
175.0
 20
251.3465
 30
0.0
 11
175.0
 21
260.6825
 31
0.0
  0
LINE
  5
4E7
330
1D
100
AcDbEntity
  8
0
100
AcDbLine
 10
175.0
 20
251.3465
 30
0.0
 11
175.0
 21
242.3855
 31
0.0
  0
LINE
  5
4E8
330
1D
100
AcDbEntity
  8
0
100
AcDbLine
 10
200.0
 20
20.2795
 30
0.0
 11
207.8
 21
26.66949999999999
 31
0.0
  0
LINE
  5
4E9
330
1D
100
AcDbEntity
  8
0
100
AcDbLine
 10
207.8
 20
26.66949999999999
 30
0.0
 11
214.5999999999999
 21
33.9985
 31
0.0
  0
LINE
  5
4EA
330
1D
100
AcDbEntity
  8
0
100
AcDbLine
 10
208.4999999999999
 20
25.6695
 30
0.0
 11
215.3999999999999
 21
33.0935
 31
0.0
  0
LINE
  5
4EB
330
1D
100
AcDbEntity
  8
0
100
AcDbLine
 10
208.4999999999999
 20
21.90749999999999
 30
0.0
 11
215.3999999999999
 21
29.3305
 31
0.0
  0
LINE
  5
4EC
330
1D
100
AcDbEntity
  8
0
100
AcDbLine
 10
214.5999999999999
 20
33.9985
 30
0.0
 11
220.4
 21
42.1745
 31
0.0
  0
LINE
  5
4ED
330
1D
100
AcDbEntity
  8
0
100
AcDbLine
 10
220.4
 20
42.1745
 30
0.0
 11
224.8
 21
50.72549999999999
 31
0.0
  0
LINE
  5
4EE
330
1D
100
AcDbEntity
  8
0
100
AcDbLine
 10
215.3999999999999
 20
33.0935
 30
0.0
 11
221.3
 21
41.36249999999999
 31
0.0
  0
LINE
  5
4EF
330
1D
100
AcDbEntity
  8
0
100
AcDbLine
 10
221.3
 20
41.36249999999999
 30
0.0
 11
225.8
 21
50.0075
 31
0.0
  0
LINE
  5
4F0
330
1D
100
AcDbEntity
  8
0
100
AcDbLine
 10
215.3999999999999
 20
29.3305
 30
0.0
 11
221.3
 21
37.60049999999999
 31
0.0
  0
LINE
  5
4F1
330
1D
100
AcDbEntity
  8
0
100
AcDbLine
 10
221.3
 20
37.60049999999999
 30
0.0
 11
225.8
 21
46.2455
 31
0.0
  0
LINE
  5
4F2
330
1D
100
AcDbEntity
  8
0
100
AcDbLine
 10
224.8
 20
50.72549999999999
 30
0.0
 11
228.2
 21
59.9345
 31
0.0
  0
LINE
  5
4F3
330
1D
100
AcDbEntity
  8
0
100
AcDbLine
 10
228.2
 20
98.2735
 30
0.0
 11
230.2
 21
88.78350000000001
 31
0.0
  0
LINE
  5
4F4
330
1D
100
AcDbEntity
  8
0
100
AcDbLine
 10
228.2
 20
59.9345
 30
0.0
 11
230.2
 21
69.4255
 31
0.0
  0
LINE
  5
4F5
330
1D
100
AcDbEntity
  8
0
100
AcDbLine
 10
225.8
 20
50.0075
 30
0.0
 11
229.0999999999999
 21
59.4045
 31
0.0
  0
LINE
  5
4F6
330
1D
100
AcDbEntity
  8
0
100
AcDbLine
 10
225.8
 20
46.2455
 30
0.0
 11
229.0999999999999
 21
55.6425
 31
0.0
  0
LINE
  5
4F7
330
1D
100
AcDbEntity
  8
0
100
AcDbLine
 10
200.5999999999999
 20
19.1855
 30
0.0
 11
208.4999999999999
 21
25.6695
 31
0.0
  0
LINE
  5
4F8
330
1D
100
AcDbEntity
  8
0
100
AcDbLine
 10
200.5999999999999
 20
15.4235
 30
0.0
 11
208.4999999999999
 21
21.90749999999999
 31
0.0
  0
LINE
  5
4F9
330
1D
100
AcDbEntity
  8
0
100
AcDbLine
 10
229.0999999999999
 20
55.6425
 30
0.0
 11
231.1999999999999
 21
65.22750000000001
 31
0.0
  0
LINE
  5
4FA
330
1D
100
AcDbEntity
  8
0
100
AcDbLine
 10
229.0999999999999
 20
59.4045
 30
0.0
 11
231.1999999999999
 21
68.98950000000001
 31
0.0
  0
LINE
  5
4FB
330
1D
100
AcDbEntity
  8
0
100
AcDbLine
 10
230.2
 20
88.78350000000001
 30
0.0
 11
231.0
 21
79.1045
 31
0.0
  0
LINE
  5
4FD
330
1D
100
AcDbEntity
  8
0
100
AcDbLine
 10
229.032674183431
 20
98.31121536312
 30
0.0
 11
229.8999999999999
 21
99.24649999999999
 31
0.0
  0
LINE
  5
4FE
330
1D
100
AcDbEntity
  8
0
100
AcDbLine
 10
229.8999999999999
 20
99.24649999999999
 30
0.0
 11
234.6999999999999
 21
108.9944999999999
 31
0.0
  0
LINE
  5
4FF
330
1D
100
AcDbEntity
  8
0
100
AcDbLine
 10
229.0999999999999
 20
98.11950000000001
 30
0.0
 11
231.1999999999999
 21
88.5345
 31
0.0
  0
LINE
  5
501
330
1D
100
AcDbEntity
  8
0
100
AcDbLine
 10
231.1999999999999
 20
88.5345
 30
0.0
 11
232.0
 21
78.7625
 31
0.0
  0
LINE
  5
502
330
1D
100
AcDbEntity
  8
0
100
AcDbLine
 10
230.2
 20
69.4255
 30
0.0
 11
231.0
 21
79.1045
 31
0.0
  0
LINE
  5
503
330
1D
100
AcDbEntity
  8
0
100
AcDbLine
 10
231.1999999999999
 20
68.98950000000001
 30
0.0
 11
232.0
 21
78.7625
 31
0.0
  0
LINE
  5
504
330
1D
100
AcDbEntity
  8
0
100
AcDbLine
 10
232.0
 20
78.7625
 30
0.0
 11
232.0
 21
74.9995
 31
0.0
  0
LINE
  5
505
330
1D
100
AcDbEntity
  8
0
100
AcDbLine
 10
232.0
 20
74.9995
 30
0.0
 11
232.0
 21
78.7625
 31
0.0
  0
LINE
  5
506
330
1D
100
AcDbEntity
  8
0
100
AcDbLine
 10
231.1999999999999
 20
65.22750000000001
 30
0.0
 11
232.0
 21
74.9995
 31
0.0
  0
LINE
  5
508
330
1D
100
AcDbEntity
  8
0
100
AcDbLine
 10
220.4
 20
116.0344999999999
 30
0.0
 11
224.8
 21
107.4825
 31
0.0
  0
LINE
  5
509
330
1D
100
AcDbEntity
  8
0
100
AcDbLine
 10
224.8
 20
107.4825
 30
0.0
 11
228.2
 21
98.2735
 31
0.0
  0
LINE
  5
50A
330
1D
100
AcDbEntity
  8
0
100
AcDbLine
 10
207.8
 20
131.5395
 30
0.0
 11
214.5999999999999
 21
124.2095
 31
0.0
  0
LINE
  5
50B
330
1D
100
AcDbEntity
  8
0
100
AcDbLine
 10
214.5999999999999
 20
124.2095
 30
0.0
 11
220.4
 21
116.0344999999999
 31
0.0
  0
LINE
  5
50C
330
1D
100
AcDbEntity
  8
0
100
AcDbLine
 10
200.0
 20
137.9285
 30
0.0
 11
207.8
 21
131.5395
 31
0.0
  0
LINE
  5
50D
330
1D
100
AcDbEntity
  8
0
100
AcDbLine
 10
200.5999999999999
 20
138.3385
 30
0.0
 11
208.4999999999999
 21
131.8545
 31
0.0
  0
LINE
  5
50E
330
1D
100
AcDbEntity
  8
0
100
AcDbLine
 10
208.4999999999999
 20
131.8545
 30
0.0
 11
215.3999999999999
 21
124.4315
 31
0.0
  0
LINE
  5
50F
330
1D
100
AcDbEntity
  8
0
100
AcDbLine
 10
215.3999999999999
 20
124.4315
 30
0.0
 11
221.3
 21
116.1615
 31
0.0
  0
LINE
  5
510
330
1D
100
AcDbEntity
  8
0
100
AcDbLine
 10
221.3
 20
116.1615
 30
0.0
 11
225.8
 21
107.5164999999999
 31
0.0
  0
LINE
  5
512
330
1D
100
AcDbEntity
  8
0
100
AcDbLine
 10
235.1999999999999
 20
110.3465
 30
0.0
 11
237.0
 21
120.8315
 31
0.0
  0
LINE
  5
513
330
1D
100
AcDbEntity
  8
0
100
AcDbLine
 10
234.6999999999999
 20
108.9944999999999
 30
0.0
 11
235.1999999999999
 21
110.3465
 31
0.0
  0
LINE
  5
514
330
1D
100
AcDbEntity
  8
0
100
AcDbLine
 10
225.8
 20
107.5164999999999
 30
0.0
 11
229.0999999999999
 21
98.11950000000001
 31
0.0
  0
LINE
  5
517
330
1D
100
AcDbEntity
  8
0
100
AcDbLine
 10
211.6
 20
165.7835
 30
0.0
 11
222.0
 21
158.9075
 31
0.0
  0
LINE
  5
518
330
1D
100
AcDbEntity
  8
0
100
AcDbLine
 10
222.0
 20
158.9075
 30
0.0
 11
222.3
 21
158.6144999999999
 31
0.0
  0
LINE
  5
519
330
1D
100
AcDbEntity
  8
0
100
AcDbLine
 10
222.3
 20
158.6144999999999
 30
0.0
 11
230.3
 21
149.5384999999999
 31
0.0
  0
LINE
  5
51A
330
1D
100
AcDbEntity
  8
0
100
AcDbLine
 10
230.3
 20
149.5384999999999
 30
0.0
 11
235.1999999999999
 21
139.3475
 31
0.0
  0
LINE
  5
51B
330
1D
100
AcDbEntity
  8
0
100
AcDbLine
 10
237.0
 20
120.8315
 30
0.0
 11
237.0
 21
122.2655
 31
0.0
  0
LINE
  5
51C
330
1D
100
AcDbEntity
  8
0
100
AcDbLine
 10
236.950729613734
 20
122.5524999999999
 30
0.0
 11
237.0
 21
122.2655
 31
0.0
  0
LINE
  5
51D
330
1D
100
AcDbEntity
  8
0
100
AcDbLine
 10
237.0
 20
122.2655
 30
0.0
 11
237.0
 21
120.8315
 31
0.0
  0
LINE
  5
51E
330
1D
100
AcDbEntity
  8
0
100
AcDbLine
 10
237.0
 20
128.8615
 30
0.0
 11
237.0
 21
122.8395
 31
0.0
  0
LINE
  5
51F
330
1D
100
AcDbEntity
  8
0
100
AcDbLine
 10
237.0
 20
122.8395
 30
0.0
 11
237.0
 21
128.8615
 31
0.0
  0
LINE
  5
520
330
1D
100
AcDbEntity
  8
0
100
AcDbLine
 10
235.1999999999999
 20
139.3475
 30
0.0
 11
237.0
 21
128.8615
 31
0.0
  0
LINE
  5
521
330
1D
100
AcDbEntity
  8
0
100
AcDbLine
 10
207.6026494045169
 20
167.155699763239
 30
0.0
 11
211.6
 21
165.7835
 31
0.0
  0
LINE
  5
522
330
1D
100
AcDbEntity
  8
0
100
AcDbLine
 10
203.372
 20
171.2905
 30
0.0
 11
207.83
 21
166.9335
 31
0.0
  0
LINE
  5
523
330
1D
100
AcDbEntity
  8
0
100
AcDbLine
 10
200.7429999999999
 20
175.3664999999999
 30
0.0
 11
203.372
 21
171.2905
 31
0.0
  0
LINE
  5
524
330
1D
100
AcDbEntity
  8
0
100
AcDbLine
 10
207.83
 20
166.9335
 30
0.0
 11
207.83
 21
166.9335
 31
0.0
  0
LINE
  5
525
330
1D
100
AcDbEntity
  8
0
100
AcDbLine
 10
199.0
 20
259.063547619048
 30
0.0
 11
199.4959999999999
 21
260.1204999999999
 31
0.0
  0
LINE
  5
526
330
1D
100
AcDbEntity
  8
0
100
AcDbLine
 10
199.4959999999999
 20
260.1204999999999
 30
0.0
 11
200.0
 21
263.1755
 31
0.0
  0
LINE
  5
527
330
1D
100
AcDbEntity
  8
0
100
AcDbLine
 10
173.8479999999999
 20
257.2565
 30
0.0
 11
175.0
 21
255.955357142857
 31
0.0
  0
LINE
  5
528
330
1D
100
AcDbEntity
  8
0
100
AcDbLine
 10
172.504
 20
288.2305
 30
0.0
 11
173.8479999999999
 21
291.0944999999999
 31
0.0
  0
LINE
  5
529
330
1D
100
AcDbEntity
  8
0
100
AcDbLine
 10
175.0
 20
267.6114999999999
 30
0.0
 11
175.0
 21
251.3465
 31
0.0
  0
LINE
  5
52A
330
1D
100
AcDbEntity
  8
0
100
AcDbLine
 10
200.0
 20
265.1755
 30
0.0
 11
245.4759999999999
 21
265.1755
 31
0.0
  0
LINE
  5
530
330
1D
100
AcDbEntity
  8
0
100
AcDbLine
 10
199.0
 20
269.8115
 30
0.0
 11
199.0
 21
257.9804999999999
 31
0.0
  0
LINE
  5
531
330
1D
100
AcDbEntity
  8
0
100
AcDbLine
 10
175.0
 20
267.6114999999999
 30
0.0
 11
175.0
 21
269.8115
 31
0.0
  0
LINE
  5
532
330
1D
100
AcDbEntity
  8
0
100
AcDbLine
 10
199.0
 20
267.2874523809519
 30
0.0
 11
199.4959999999999
 21
266.2304999999999
 31
0.0
  0
LINE
  5
533
330
1D
100
AcDbEntity
  8
0
100
AcDbLine
 10
199.4959999999999
 20
266.2304999999999
 30
0.0
 11
200.0
 21
263.1755
 31
0.0
  0
LINE
  5
534
330
1D
100
AcDbEntity
  8
0
100
AcDbLine
 10
246.492
 20
268.2234999999999
 30
0.0
 11
246.492
 21
271.3655
 31
0.0
  0
LINE
  5
535
330
1D
100
AcDbEntity
  8
0
100
AcDbLine
 10
246.492
 20
268.2234999999999
 30
0.0
 11
246.492
 21
266.3184999999999
 31
0.0
  0
LINE
  5
536
330
1D
100
AcDbEntity
  8
0
100
AcDbLine
 10
246.492
 20
266.3184999999999
 30
0.0
 11
246.492
 21
268.2234999999999
 31
0.0
  0
LINE
  5
537
330
1D
100
AcDbEntity
  8
0
100
AcDbLine
 10
246.492
 20
266.3184999999999
 30
0.0
 11
246.492
 21
265.6515
 31
0.0
  0
LINE
  5
538
330
1D
100
AcDbEntity
  8
0
100
AcDbLine
 10
246.7713200419729
 20
266.1754999999999
 30
0.0
 11
258.241734406439
 21
266.1754999999999
 31
0.0
  0
LINE
  5
539
330
1D
100
AcDbEntity
  8
0
100
AcDbLine
 10
258.2195200206969
 20
266.218966731155
 30
0.0
 11
258.508
 21
265.6544999999999
 31
0.0
  0
LINE
  5
53A
330
1D
100
AcDbEntity
  8
0
100
AcDbLine
 10
258.508
 20
266.2865
 30
0.0
 11
258.508
 21
265.6544999999999
 31
0.0
  0
LINE
  5
53B
330
1D
100
AcDbEntity
  8
0
100
AcDbLine
 10
258.508
 20
266.2865
 30
0.0
 11
258.508
 21
268.2624999999999
 31
0.0
  0
LINE
  5
53C
330
1D
100
AcDbEntity
  8
0
100
AcDbLine
 10
258.508
 20
265.6544999999999
 30
0.0
 11
259.5239999999999
 21
265.2615
 31
0.0
  0
LINE
  5
53D
330
1D
100
AcDbEntity
  8
0
100
AcDbLine
 10
258.508
 20
265.6544999999999
 30
0.0
 11
258.508
 21
266.2865
 31
0.0
  0
LINE
  5
53E
330
1D
100
AcDbEntity
  8
0
100
AcDbLine
 10
302.476
 20
265.2615
 30
0.0
 11
303.492
 21
265.6544999999999
 31
0.0
  0
LINE
  5
53F
330
1D
100
AcDbEntity
  8
0
100
AcDbLine
 10
303.492
 20
266.2865
 30
0.0
 11
303.492
 21
268.2624999999999
 31
0.0
  0
LINE
  5
540
330
1D
100
AcDbEntity
  8
0
100
AcDbLine
 10
303.492
 20
266.2865
 30
0.0
 11
303.492
 21
265.6544999999999
 31
0.0
  0
LINE
  5
541
330
1D
100
AcDbEntity
  8
0
100
AcDbLine
 10
304.0
 20
266.6485
 30
0.0
 11
304.0
 21
267.2375
 31
0.0
  0
LINE
  5
542
330
1D
100
AcDbEntity
  8
0
100
AcDbLine
 10
303.492
 20
265.6544999999999
 30
0.0
 11
303.492
 21
266.2865
 31
0.0
  0
LINE
  5
543
330
1D
100
AcDbEntity
  8
0
100
AcDbLine
 10
303.492
 20
265.6544999999999
 30
0.0
 11
304.0
 21
266.6485
 31
0.0
  0
LINE
  5
544
330
1D
100
AcDbEntity
  8
0
100
AcDbLine
 10
281.0
 20
265.2615
 30
0.0
 11
302.476
 21
265.2615
 31
0.0
  0
LINE
  5
545
330
1D
100
AcDbEntity
  8
0
100
AcDbLine
 10
259.5239999999999
 20
265.2615
 30
0.0
 11
281.0
 21
265.2615
 31
0.0
  0
LINE
  5
546
330
1D
100
AcDbEntity
  8
0
100
AcDbLine
 10
304.0
 20
267.2375
 30
0.0
 11
304.0
 21
269.0785
 31
0.0
  0
LINE
  5
547
330
1D
100
AcDbEntity
  8
0
100
AcDbLine
 10
304.0
 20
267.2375
 30
0.0
 11
304.0
 21
266.6485
 31
0.0
  0
LINE
  5
548
330
1D
100
AcDbEntity
  8
0
100
AcDbLine
 10
304.0
 20
269.0785
 30
0.0
 11
304.0
 21
267.2375
 31
0.0
  0
LINE
  5
549
330
1D
100
AcDbEntity
  8
0
100
AcDbLine
 10
304.0
 20
269.0785
 30
0.0
 11
304.0
 21
272.0864999999999
 31
0.0
  0
LINE
  5
54A
330
1D
100
AcDbEntity
  8
0
100
AcDbLine
 10
303.492
 20
268.2624999999999
 30
0.0
 11
303.492
 21
266.2865
 31
0.0
  0
LINE
  5
54B
330
1D
100
AcDbEntity
  8
0
100
AcDbLine
 10
303.492
 20
268.2624999999999
 30
0.0
 11
303.492
 21
271.4045
 31
0.0
  0
LINE
  5
54C
330
1D
100
AcDbEntity
  8
0
100
AcDbLine
 10
258.508
 20
268.2624999999999
 30
0.0
 11
258.508
 21
266.2865
 31
0.0
  0
LINE
  5
54D
330
1D
100
AcDbEntity
  8
0
100
AcDbLine
 10
258.508
 20
268.2624999999999
 30
0.0
 11
258.508
 21
271.4045
 31
0.0
  0
LINE
  5
54E
330
1D
100
AcDbEntity
  8
0
100
AcDbLine
 10
246.492
 20
265.6515
 30
0.0
 11
246.7713200419729
 21
266.1754999999999
 31
0.0
  0
LINE
  5
54F
330
1D
100
AcDbEntity
  8
0
100
AcDbLine
 10
246.492
 20
265.6515
 30
0.0
 11
246.492
 21
266.3184999999999
 31
0.0
  0
LINE
  5
550
330
1D
100
AcDbEntity
  8
0
100
AcDbLine
 10
245.4759999999999
 20
265.1755
 30
0.0
 11
246.492
 21
265.6515
 31
0.0
  0
LINE
  5
551
330
1D
100
AcDbEntity
  8
0
100
AcDbLine
 10
200.0
 20
263.1755
 30
0.0
 11
200.0
 21
294.1755
 31
0.0
  0
LINE
  5
552
330
1D
100
AcDbEntity
  8
0
100
AcDbLine
 10
198.5679999999999
 20
271.1415
 30
0.0
 11
199.0
 21
269.8115
 31
0.0
  0
LINE
  5
553
330
1D
100
AcDbEntity
  8
0
100
AcDbLine
 10
176.584
 20
272.3885
 30
0.0
 11
176.872
 21
272.6255
 31
0.0
  0
LINE
  5
554
330
1D
100
AcDbEntity
  8
0
100
AcDbLine
 10
197.1279999999999
 20
272.6255
 30
0.0
 11
197.4159999999999
 21
272.3885
 31
0.0
  0
LINE
  5
555
330
1D
100
AcDbEntity
  8
0
100
AcDbLine
 10
197.1279999999999
 20
272.6255
 30
0.0
 11
197.271794258995
 21
272.47509020652
 31
0.0
  0
LINE
  5
556
330
1D
100
AcDbEntity
  8
0
100
AcDbLine
 10
197.4159999999999
 20
272.3885
 30
0.0
 11
198.5679999999999
 21
271.1415
 31
0.0
  0
LINE
  5
557
330
1D
100
AcDbEntity
  8
0
100
AcDbLine
 10
192.8079999999999
 20
274.4965
 30
0.0
 11
195.2559999999999
 21
273.6854999999999
 31
0.0
  0
LINE
  5
558
330
1D
100
AcDbEntity
  8
0
100
AcDbLine
 10
195.2559999999999
 20
273.6854999999999
 30
0.0
 11
197.1279999999999
 21
272.6255
 31
0.0
  0
LINE
  5
559
330
1D
100
AcDbEntity
  8
0
100
AcDbLine
 10
187.0
 20
275.1825
 30
0.0
 11
190.024
 21
274.9954999999999
 31
0.0
  0
LINE
  5
55A
330
1D
100
AcDbEntity
  8
0
100
AcDbLine
 10
190.024
 20
274.9954999999999
 30
0.0
 11
192.8079999999999
 21
274.4965
 31
0.0
  0
LINE
  5
55B
330
1D
100
AcDbEntity
  8
0
100
AcDbLine
 10
183.976
 20
274.9954999999999
 30
0.0
 11
187.0
 21
275.1825
 31
0.0
  0
LINE
  5
55C
330
1D
100
AcDbEntity
  8
0
100
AcDbLine
 10
181.192
 20
274.4965
 30
0.0
 11
183.976
 21
274.9954999999999
 31
0.0
  0
LINE
  5
55D
330
1D
100
AcDbEntity
  8
0
100
AcDbLine
 10
178.744
 20
273.6854999999999
 30
0.0
 11
181.192
 21
274.4965
 31
0.0
  0
LINE
  5
55E
330
1D
100
AcDbEntity
  8
0
100
AcDbLine
 10
176.872
 20
272.6255
 30
0.0
 11
178.744
 21
273.6854999999999
 31
0.0
  0
LINE
  5
55F
330
1D
100
AcDbEntity
  8
0
100
AcDbLine
 10
176.7282057410049
 20
272.47509020652
 30
0.0
 11
176.872
 21
272.6255
 31
0.0
  0
LINE
  5
560
330
1D
100
AcDbEntity
  8
0
100
AcDbLine
 10
175.432
 20
271.1415
 30
0.0
 11
176.584
 21
272.3885
 31
0.0
  0
LINE
  5
561
330
1D
100
AcDbEntity
  8
0
100
AcDbLine
 10
175.0
 20
269.8115
 30
0.0
 11
175.0
 21
267.6114999999999
 31
0.0
  0
LINE
  5
562
330
1D
100
AcDbEntity
  8
0
100
AcDbLine
 10
175.0
 20
269.8115
 30
0.0
 11
175.432
 21
271.1415
 31
0.0
  0
LINE
  5
563
330
1D
100
AcDbEntity
  8
0
100
AcDbLine
 10
195.912
 20
293.6244999999999
 30
0.0
 11
198.152
 21
291.0944999999999
 31
0.0
  0
LINE
  5
564
330
1D
100
AcDbEntity
  8
0
100
AcDbLine
 10
198.152
 20
291.0944999999999
 30
0.0
 11
199.4959999999999
 21
288.2305
 31
0.0
  0
LINE
  5
565
330
1D
100
AcDbEntity
  8
0
100
AcDbLine
 10
246.492
 20
275.4615
 30
0.0
 11
246.492
 21
280.1275
 31
0.0
  0
LINE
  5
566
330
1D
100
AcDbEntity
  8
0
100
AcDbLine
 10
246.492
 20
275.4615
 30
0.0
 11
246.492
 21
271.3655
 31
0.0
  0
LINE
  5
567
330
1D
100
AcDbEntity
  8
0
100
AcDbLine
 10
303.1379999999999
 20
275.2005
 30
0.0
 11
303.6459999999999
 21
275.2594999999999
 31
0.0
  0
LINE
  5
568
330
1D
100
AcDbEntity
  8
0
100
AcDbLine
 10
293.8999999999999
 20
275.2005
 30
0.0
 11
303.1379999999999
 21
275.2005
 31
0.0
  0
LINE
  5
569
330
1D
100
AcDbEntity
  8
0
100
AcDbLine
 10
283.9
 20
275.4084999999999
 30
0.0
 11
284.154
 21
275.2594999999999
 31
0.0
  0
LINE
  5
56A
330
1D
100
AcDbEntity
  8
0
100
AcDbLine
 10
283.9
 20
275.4084999999999
 30
0.0
 11
283.9
 21
275.4965
 31
0.0
  0
LINE
  5
56B
330
1D
100
AcDbEntity
  8
0
100
AcDbLine
 10
284.154
 20
275.2594999999999
 30
0.0
 11
284.662
 21
275.2005
 31
0.0
  0
LINE
  5
56C
330
1D
100
AcDbEntity
  8
0
100
AcDbLine
 10
284.662
 20
275.2005
 30
0.0
 11
293.8999999999999
 21
275.2005
 31
0.0
  0
LINE
  5
56D
330
1D
100
AcDbEntity
  8
0
100
AcDbLine
 10
303.8999999999999
 20
275.4084999999999
 30
0.0
 11
303.8999999999999
 21
275.4965
 31
0.0
  0
LINE
  5
56E
330
1D
100
AcDbEntity
  8
0
100
AcDbLine
 10
303.6459999999999
 20
275.2594999999999
 30
0.0
 11
303.8999999999999
 21
275.4084999999999
 31
0.0
  0
LINE
  5
56F
330
1D
100
AcDbEntity
  8
0
100
AcDbLine
 10
304.0
 20
272.0864999999999
 30
0.0
 11
304.0
 21
275.9415
 31
0.0
  0
LINE
  5
570
330
1D
100
AcDbEntity
  8
0
100
AcDbLine
 10
304.0
 20
272.0864999999999
 30
0.0
 11
304.0
 21
269.0785
 31
0.0
  0
LINE
  5
571
330
1D
100
AcDbEntity
  8
0
100
AcDbLine
 10
303.492
 20
275.241614173228
 30
0.0
 11
303.492
 21
271.4045
 31
0.0
  0
LINE
  5
572
330
1D
100
AcDbEntity
  8
0
100
AcDbLine
 10
303.492
 20
271.4045
 30
0.0
 11
303.492
 21
275.241614173228
 31
0.0
  0
LINE
  5
573
330
1D
100
AcDbEntity
  8
0
100
AcDbLine
 10
303.492
 20
271.4045
 30
0.0
 11
303.492
 21
268.2624999999999
 31
0.0
  0
LINE
  5
574
330
1D
100
AcDbEntity
  8
0
100
AcDbLine
 10
258.508
 20
271.4045
 30
0.0
 11
258.508
 21
268.2624999999999
 31
0.0
  0
LINE
  5
575
330
1D
100
AcDbEntity
  8
0
100
AcDbLine
 10
258.508
 20
271.4045
 30
0.0
 11
258.508
 21
275.4195
 31
0.0
  0
LINE
  5
576
330
1D
100
AcDbEntity
  8
0
100
AcDbLine
 10
303.8999999999999
 20
275.4965
 30
0.0
 11
303.8999999999999
 21
275.4084999999999
 31
0.0
  0
LINE
  5
577
330
1D
100
AcDbEntity
  8
0
100
AcDbLine
 10
303.8999999999999
 20
275.4965
 30
0.0
 11
303.8999999999999
 21
275.7724999999999
 31
0.0
  0
LINE
  5
578
330
1D
100
AcDbEntity
  8
0
100
AcDbLine
 10
283.9
 20
276.2234999999999
 30
0.0
 11
283.9
 21
276.8025
 31
0.0
  0
LINE
  5
579
330
1D
100
AcDbEntity
  8
0
100
AcDbLine
 10
283.9
 20
276.2234999999999
 30
0.0
 11
283.9
 21
275.7724999999999
 31
0.0
  0
LINE
  5
57A
330
1D
100
AcDbEntity
  8
0
100
AcDbLine
 10
303.8999999999999
 20
276.2234999999999
 30
0.0
 11
303.8999999999999
 21
275.7724999999999
 31
0.0
  0
LINE
  5
57B
330
1D
100
AcDbEntity
  8
0
100
AcDbLine
 10
303.8999999999999
 20
276.2234999999999
 30
0.0
 11
303.8999999999999
 21
276.8025
 31
0.0
  0
LINE
  5
57C
330
1D
100
AcDbEntity
  8
0
100
AcDbLine
 10
303.8999999999999
 20
275.7724999999999
 30
0.0
 11
303.8999999999999
 21
275.4965
 31
0.0
  0
LINE
  5
57D
330
1D
100
AcDbEntity
  8
0
100
AcDbLine
 10
303.8999999999999
 20
275.7724999999999
 30
0.0
 11
303.8999999999999
 21
276.2234999999999
 31
0.0
  0
LINE
  5
57E
330
1D
100
AcDbEntity
  8
0
100
AcDbLine
 10
283.9
 20
275.7724999999999
 30
0.0
 11
283.9
 21
275.4965
 31
0.0
  0
LINE
  5
57F
330
1D
100
AcDbEntity
  8
0
100
AcDbLine
 10
283.9
 20
275.7724999999999
 30
0.0
 11
283.9
 21
276.2234999999999
 31
0.0
  0
LINE
  5
580
330
1D
100
AcDbEntity
  8
0
100
AcDbLine
 10
283.9
 20
275.4965
 30
0.0
 11
283.9
 21
277.8254999999999
 31
0.0
  0
LINE
  5
581
330
1D
100
AcDbEntity
  8
0
100
AcDbLine
 10
283.9
 20
275.4965
 30
0.0
 11
283.9
 21
275.4084999999999
 31
0.0
  0
LINE
  5
582
330
1D
100
AcDbEntity
  8
0
100
AcDbLine
 10
283.9
 20
275.4965
 30
0.0
 11
283.9
 21
275.7724999999999
 31
0.0
  0
LINE
  5
583
330
1D
100
AcDbEntity
  8
0
100
AcDbLine
 10
304.0
 20
275.9415
 30
0.0
 11
304.0
 21
272.0864999999999
 31
0.0
  0
LINE
  5
584
330
1D
100
AcDbEntity
  8
0
100
AcDbLine
 10
258.508
 20
275.4195
 30
0.0
 11
258.508
 21
271.4045
 31
0.0
  0
LINE
  5
585
330
1D
100
AcDbEntity
  8
0
100
AcDbLine
 10
258.508
 20
275.4195
 30
0.0
 11
258.508
 21
280.1225
 31
0.0
  0
LINE
  5
586
330
1D
100
AcDbEntity
  8
0
100
AcDbLine
 10
246.492
 20
271.3655
 30
0.0
 11
246.492
 21
268.2234999999999
 31
0.0
  0
LINE
  5
587
330
1D
100
AcDbEntity
  8
0
100
AcDbLine
 10
246.492
 20
271.3655
 30
0.0
 11
246.492
 21
275.4615
 31
0.0
  0
LINE
  5
588
330
1D
100
AcDbEntity
  8
0
100
AcDbLine
 10
304.0
 20
276.3667678899079
 30
0.0
 11
304.095
 21
276.3675
 31
0.0
  0
LINE
  5
589
330
1D
100
AcDbEntity
  8
0
100
AcDbLine
 10
304.095
 20
276.3675
 30
0.0
 11
317.0
 21
276.5115
 31
0.0
  0
LINE
  5
58A
330
1D
100
AcDbEntity
  8
0
100
AcDbLine
 10
303.8999999999999
 20
276.8025
 30
0.0
 11
303.8999999999999
 21
276.2234999999999
 31
0.0
  0
LINE
  5
58B
330
1D
100
AcDbEntity
  8
0
100
AcDbLine
 10
303.8999999999999
 20
276.8025
 30
0.0
 11
303.8999999999999
 21
277.4665
 31
0.0
  0
LINE
  5
58C
330
1D
100
AcDbEntity
  8
0
100
AcDbLine
 10
283.9
 20
276.8025
 30
0.0
 11
283.9
 21
277.4665
 31
0.0
  0
LINE
  5
58D
330
1D
100
AcDbEntity
  8
0
100
AcDbLine
 10
283.9
 20
276.8025
 30
0.0
 11
283.9
 21
276.2234999999999
 31
0.0
  0
LINE
  5
58E
330
1D
100
AcDbEntity
  8
0
100
AcDbLine
 10
317.0
 20
276.5115
 30
0.0
 11
328.9639999999999
 21
276.6925
 31
0.0
  0
LINE
  5
58F
330
1D
100
AcDbEntity
  8
0
100
AcDbLine
 10
328.9639999999999
 20
276.6925
 30
0.0
 11
339.7819999999999
 21
276.9085
 31
0.0
  0
LINE
  5
590
330
1D
100
AcDbEntity
  8
0
100
AcDbLine
 10
283.9
 20
278.9015
 30
0.0
 11
283.9
 21
279.5815
 31
0.0
  0
LINE
  5
591
330
1D
100
AcDbEntity
  8
0
100
AcDbLine
 10
283.9
 20
278.9015
 30
0.0
 11
283.9
 21
278.1824999999999
 31
0.0
  0
LINE
  5
592
330
1D
100
AcDbEntity
  8
0
100
AcDbLine
 10
283.9
 20
278.1824999999999
 30
0.0
 11
283.9
 21
278.9015
 31
0.0
  0
LINE
  5
593
330
1D
100
AcDbEntity
  8
0
100
AcDbLine
 10
283.9
 20
278.1824999999999
 30
0.0
 11
283.9
 21
277.4665
 31
0.0
  0
LINE
  5
594
330
1D
100
AcDbEntity
  8
0
100
AcDbLine
 10
283.9
 20
277.4665
 30
0.0
 11
283.9
 21
278.1824999999999
 31
0.0
  0
LINE
  5
595
330
1D
100
AcDbEntity
  8
0
100
AcDbLine
 10
283.9
 20
277.4665
 30
0.0
 11
283.9
 21
276.8025
 31
0.0
  0
LINE
  5
596
330
1D
100
AcDbEntity
  8
0
100
AcDbLine
 10
283.9
 20
279.5815
 30
0.0
 11
283.9
 21
280.1605
 31
0.0
  0
LINE
  5
597
330
1D
100
AcDbEntity
  8
0
100
AcDbLine
 10
283.9
 20
279.5815
 30
0.0
 11
283.9
 21
278.9015
 31
0.0
  0
LINE
  5
598
330
1D
100
AcDbEntity
  8
0
100
AcDbLine
 10
303.8999999999999
 20
278.9015
 30
0.0
 11
303.8999999999999
 21
278.1824999999999
 31
0.0
  0
LINE
  5
599
330
1D
100
AcDbEntity
  8
0
100
AcDbLine
 10
303.8999999999999
 20
278.9015
 30
0.0
 11
303.8999999999999
 21
279.5815
 31
0.0
  0
LINE
  5
59A
330
1D
100
AcDbEntity
  8
0
100
AcDbLine
 10
303.8999999999999
 20
278.1824999999999
 30
0.0
 11
303.8999999999999
 21
277.4665
 31
0.0
  0
LINE
  5
59B
330
1D
100
AcDbEntity
  8
0
100
AcDbLine
 10
303.8999999999999
 20
278.1824999999999
 30
0.0
 11
303.8999999999999
 21
278.9015
 31
0.0
  0
LINE
  5
59C
330
1D
100
AcDbEntity
  8
0
100
AcDbLine
 10
303.8999999999999
 20
279.5815
 30
0.0
 11
303.8999999999999
 21
280.1605
 31
0.0
  0
LINE
  5
59D
330
1D
100
AcDbEntity
  8
0
100
AcDbLine
 10
303.8999999999999
 20
279.5815
 30
0.0
 11
303.8999999999999
 21
278.9015
 31
0.0
  0
LINE
  5
59E
330
1D
100
AcDbEntity
  8
0
100
AcDbLine
 10
303.8999999999999
 20
277.4665
 30
0.0
 11
303.8999999999999
 21
276.8025
 31
0.0
  0
LINE
  5
59F
330
1D
100
AcDbEntity
  8
0
100
AcDbLine
 10
303.8999999999999
 20
277.4665
 30
0.0
 11
303.8999999999999
 21
278.1824999999999
 31
0.0
  0
LINE
  5
5A0
330
1D
100
AcDbEntity
  8
0
100
AcDbLine
 10
283.9
 20
277.8254999999999
 30
0.0
 11
283.9
 21
275.4965
 31
0.0
  0
LINE
  5
5A1
330
1D
100
AcDbEntity
  8
0
100
AcDbLine
 10
283.9
 20
280.1605
 30
0.0
 11
283.9
 21
280.5965
 31
0.0
  0
LINE
  5
5A2
330
1D
100
AcDbEntity
  8
0
100
AcDbLine
 10
283.9
 20
280.1605
 30
0.0
 11
283.9
 21
279.5815
 31
0.0
  0
LINE
  5
5A3
330
1D
100
AcDbEntity
  8
0
100
AcDbLine
 10
303.8999999999999
 20
280.1605
 30
0.0
 11
303.8999999999999
 21
279.5815
 31
0.0
  0
LINE
  5
5A4
330
1D
100
AcDbEntity
  8
0
100
AcDbLine
 10
303.8999999999999
 20
280.1605
 30
0.0
 11
303.8999999999999
 21
280.5965
 31
0.0
  0
LINE
  5
5A5
330
1D
100
AcDbEntity
  8
0
100
AcDbLine
 10
303.8999999999999
 20
280.5965
 30
0.0
 11
303.8999999999999
 21
280.1605
 31
0.0
  0
LINE
  5
5A6
330
1D
100
AcDbEntity
  8
0
100
AcDbLine
 10
303.8999999999999
 20
280.5965
 30
0.0
 11
303.8999999999999
 21
280.8784999999999
 31
0.0
  0
LINE
  5
5A7
330
1D
100
AcDbEntity
  8
0
100
AcDbLine
 10
303.8999999999999
 20
280.8784999999999
 30
0.0
 11
303.8999999999999
 21
280.5965
 31
0.0
  0
LINE
  5
5A8
330
1D
100
AcDbEntity
  8
0
100
AcDbLine
 10
303.8999999999999
 20
280.8784999999999
 30
0.0
 11
303.8999999999999
 21
283.2074999999999
 31
0.0
  0
LINE
  5
5A9
330
1D
100
AcDbEntity
  8
0
100
AcDbLine
 10
283.9
 20
280.5965
 30
0.0
 11
283.9
 21
280.8784999999999
 31
0.0
  0
LINE
  5
5AA
330
1D
100
AcDbEntity
  8
0
100
AcDbLine
 10
283.9
 20
280.5965
 30
0.0
 11
283.9
 21
280.1605
 31
0.0
  0
LINE
  5
5AB
330
1D
100
AcDbEntity
  8
0
100
AcDbLine
 10
283.9
 20
280.8784999999999
 30
0.0
 11
283.9
 21
283.2074999999999
 31
0.0
  0
LINE
  5
5AC
330
1D
100
AcDbEntity
  8
0
100
AcDbLine
 10
283.9
 20
280.8784999999999
 30
0.0
 11
283.9
 21
280.5965
 31
0.0
  0
LINE
  5
5AD
330
1D
100
AcDbEntity
  8
0
100
AcDbLine
 10
304.0
 20
280.3684999999999
 30
0.0
 11
304.0
 21
284.8201846108169
 31
0.0
  0
LINE
  5
5AE
330
1D
100
AcDbEntity
  8
0
100
AcDbLine
 10
258.508
 20
280.1225
 30
0.0
 11
258.508
 21
275.4195
 31
0.0
  0
LINE
  5
5AF
330
1D
100
AcDbEntity
  8
0
100
AcDbLine
 10
258.508
 20
280.1225
 30
0.0
 11
258.508
 21
285.1704999999999
 31
0.0
  0
LINE
  5
5B0
330
1D
100
AcDbEntity
  8
0
100
AcDbLine
 10
246.492
 20
280.1275
 30
0.0
 11
246.492
 21
285.1755
 31
0.0
  0
LINE
  5
5B1
330
1D
100
AcDbEntity
  8
0
100
AcDbLine
 10
246.492
 20
280.1275
 30
0.0
 11
246.492
 21
275.4615
 31
0.0
  0
LINE
  5
5B2
330
1D
100
AcDbEntity
  8
0
100
AcDbLine
 10
283.9
 20
283.2074999999999
 30
0.0
 11
283.9
 21
280.8784999999999
 31
0.0
  0
LINE
  5
5B3
330
1D
100
AcDbEntity
  8
0
100
AcDbLine
 10
303.492
 20
284.847890568012
 30
0.0
 11
303.492
 21
283.3664173228349
 31
0.0
  0
LINE
  5
5B4
330
1D
100
AcDbEntity
  8
0
100
AcDbLine
 10
303.8999999999999
 20
283.2074999999999
 30
0.0
 11
303.8999999999999
 21
280.8784999999999
 31
0.0
  0
LINE
  5
5B5
330
1D
100
AcDbEntity
  8
0
100
AcDbLine
 10
304.0
 20
284.8201846108169
 30
0.0
 11
304.0
 21
280.3684999999999
 31
0.0
  0
LINE
  5
5B6
330
1D
100
AcDbEntity
  8
0
100
AcDbLine
 10
303.492
 20
283.3664173228349
 30
0.0
 11
303.492
 21
284.847890568012
 31
0.0
  0
LINE
  5
5B7
330
1D
100
AcDbEntity
  8
0
100
AcDbLine
 10
258.508
 20
285.1704999999999
 30
0.0
 11
258.508
 21
280.1225
 31
0.0
  0
LINE
  5
5B8
330
1D
100
AcDbEntity
  8
0
100
AcDbLine
 10
258.508
 20
285.1704999999999
 30
0.0
 11
258.508
 21
287.396235540713
 31
0.0
  0
LINE
  5
5B9
330
1D
100
AcDbEntity
  8
0
100
AcDbLine
 10
246.492
 20
285.1755
 30
0.0
 11
246.492
 21
280.1275
 31
0.0
  0
LINE
  5
5BA
330
1D
100
AcDbEntity
  8
0
100
AcDbLine
 10
246.492
 20
285.1755
 30
0.0
 11
246.492
 21
288.153959002416
 31
0.0
  0
LINE
  5
5BB
330
1D
100
AcDbEntity
  8
0
100
AcDbLine
 10
205.7109999999999
 20
292.2985
 30
0.0
 11
241.504
 21
288.4685
 31
0.0
  0
LINE
  5
5BC
330
1D
100
AcDbEntity
  8
0
100
AcDbLine
 10
258.508
 20
287.396235540713
 30
0.0
 11
258.508
 21
285.1704999999999
 31
0.0
  0
LINE
  5
5BD
330
1D
100
AcDbEntity
  8
0
100
AcDbLine
 10
246.492
 20
288.153959002416
 30
0.0
 11
246.492
 21
285.1755
 31
0.0
  0
LINE
  5
5BE
330
1D
100
AcDbEntity
  8
0
100
AcDbLine
 10
241.504
 20
288.4685
 30
0.0
 11
269.652
 21
286.6934999999999
 31
0.0
  0
LINE
  5
5BF
330
1D
100
AcDbEntity
  8
0
100
AcDbLine
 10
269.652
 20
286.6934999999999
 30
0.0
 11
305.0209999999999
 21
284.7644999999999
 31
0.0
  0
LINE
  5
5C0
330
1D
100
AcDbEntity
  8
0
100
AcDbLine
 10
305.0209999999999
 20
284.7644999999999
 30
0.0
 11
336.0709999999999
 21
282.9384999999999
 31
0.0
  0
LINE
  5
5C1
330
1D
100
AcDbEntity
  8
0
100
AcDbLine
 10
336.0709999999999
 20
282.9384999999999
 30
0.0
 11
353.005
 21
281.5735
 31
0.0
  0
LINE
  5
5C2
330
1D
100
AcDbEntity
  8
0
100
AcDbLine
 10
357.263
 20
277.4245
 30
0.0
 11
363.6269999999999
 21
277.7174999999999
 31
0.0
  0
LINE
  5
5C3
330
1D
100
AcDbEntity
  8
0
100
AcDbLine
 10
363.6269999999999
 20
277.7174999999999
 30
0.0
 11
368.2519999999999
 21
278.0264999999999
 31
0.0
  0
LINE
  5
5C4
330
1D
100
AcDbEntity
  8
0
100
AcDbLine
 10
368.2519999999999
 20
278.0264999999999
 30
0.0
 11
371.059
 21
278.3455
 31
0.0
  0
LINE
  5
5C5
330
1D
100
AcDbEntity
  8
0
100
AcDbLine
 10
371.059
 20
278.3455
 30
0.0
 11
373.089
 21
278.6274999999999
 31
0.0
  0
LINE
  5
5C6
330
1D
100
AcDbEntity
  8
0
100
AcDbLine
 10
364.862128203703
 20
280.378622930721
 30
0.0
 11
369.952
 21
278.9594999999999
 31
0.0
  0
LINE
  5
5C7
330
1D
100
AcDbEntity
  8
0
100
AcDbLine
 10
374.048
 20
278.9594999999999
 30
0.0
 11
375.968
 21
279.7275
 31
0.0
  0
LINE
  5
5C8
330
1D
100
AcDbEntity
  8
0
100
AcDbLine
 10
373.089
 20
278.6274999999999
 30
0.0
 11
374.048
 21
278.9594999999999
 31
0.0
  0
LINE
  5
5C9
330
1D
100
AcDbEntity
  8
0
100
AcDbLine
 10
375.968
 20
279.7275
 30
0.0
 11
377.6639999999999
 21
281.0065
 31
0.0
  0
LINE
  5
5CA
330
1D
100
AcDbEntity
  8
0
100
AcDbLine
 10
353.005
 20
281.5735
 30
0.0
 11
366.461
 21
280.2174999999999
 31
0.0
  0
LINE
  5
5CB
330
1D
100
AcDbEntity
  8
0
100
AcDbLine
 10
377.6639999999999
 20
281.0065
 30
0.0
 11
378.944
 21
282.7024999999999
 31
0.0
  0
LINE
  5
5CC
330
1D
100
AcDbEntity
  8
0
100
AcDbLine
 10
378.944
 20
282.7024999999999
 30
0.0
 11
379.712
 21
284.6215
 31
0.0
  0
LINE
  5
5CD
330
1D
100
AcDbEntity
  8
0
100
AcDbLine
 10
375.968
 20
293.6115
 30
0.0
 11
377.6639999999999
 21
292.3315
 31
0.0
  0
LINE
  5
5CE
330
1D
100
AcDbEntity
  8
0
100
AcDbLine
 10
377.6639999999999
 20
292.3315
 30
0.0
 11
378.944
 21
290.6365
 31
0.0
  0
LINE
  5
5CF
330
1D
100
AcDbEntity
  8
0
100
AcDbLine
 10
378.944
 20
290.6365
 30
0.0
 11
379.712
 21
288.7164999999999
 31
0.0
  0
LINE
  5
5D0
330
1D
100
AcDbEntity
  8
0
100
AcDbLine
 10
379.712
 20
288.7164999999999
 30
0.0
 11
380.0
 21
286.6695
 31
0.0
  0
LINE
  5
5D1
330
1D
100
AcDbEntity
  8
0
100
AcDbLine
 10
379.712
 20
284.6215
 30
0.0
 11
380.0
 21
286.6695
 31
0.0
  0
LINE
  5
5D2
330
1D
100
AcDbEntity
  8
0
100
AcDbLine
 10
349.269
 20
277.1535
 30
0.0
 11
357.263
 21
277.4245
 31
0.0
  0
LINE
  5
5D3
330
1D
100
AcDbEntity
  8
0
100
AcDbLine
 10
339.7819999999999
 20
276.9085
 30
0.0
 11
349.269
 21
277.1535
 31
0.0
  0
LINE
  5
5D5
330
1D
100
AcDbEntity
  8
0
100
AcDbLine
 10
175.0
 20
295.0955
 30
0.0
 11
175.0
 21
299.8405
 31
0.0
  0
LINE
  5
5D6
330
1D
100
AcDbEntity
  8
0
100
AcDbLine
 10
175.0
 20
299.8405
 30
0.0
 11
175.0
 21
304.2425
 31
0.0
  0
LINE
  5
5D7
330
1D
100
AcDbEntity
  8
0
100
AcDbLine
 10
175.0
 20
299.8405
 30
0.0
 11
175.0
 21
295.0955
 31
0.0
  0
LINE
  5
5D8
330
1D
100
AcDbEntity
  8
0
100
AcDbLine
 10
175.0
 20
304.2425
 30
0.0
 11
175.0
 21
307.8985
 31
0.0
  0
LINE
  5
5D9
330
1D
100
AcDbEntity
  8
0
100
AcDbLine
 10
175.0
 20
304.2425
 30
0.0
 11
175.0
 21
299.8405
 31
0.0
  0
LINE
  5
5DA
330
1D
100
AcDbEntity
  8
0
100
AcDbLine
 10
175.0
 20
310.7645
 30
0.0
 11
175.0
 21
307.8985
 31
0.0
  0
LINE
  5
5DB
330
1D
100
AcDbEntity
  8
0
100
AcDbLine
 10
175.0
 20
310.7645
 30
0.0
 11
175.0
 21
312.5065
 31
0.0
  0
LINE
  5
5DC
330
1D
100
AcDbEntity
  8
0
100
AcDbLine
 10
175.0
 20
307.8985
 30
0.0
 11
175.0
 21
310.7645
 31
0.0
  0
LINE
  5
5DD
330
1D
100
AcDbEntity
  8
0
100
AcDbLine
 10
175.0
 20
307.8985
 30
0.0
 11
175.0
 21
304.2425
 31
0.0
  0
LINE
  5
5DE
330
1D
100
AcDbEntity
  8
0
100
AcDbLine
 10
179.0079999999999
 20
310.0124999999999
 30
0.0
 11
182.333
 21
310.5964999999999
 31
0.0
  0
LINE
  5
5DF
330
1D
100
AcDbEntity
  8
0
100
AcDbLine
 10
176.0539999999999
 20
308.4715
 30
0.0
 11
179.0079999999999
 21
310.0124999999999
 31
0.0
  0
LINE
  5
5E0
330
1D
100
AcDbEntity
  8
0
100
AcDbLine
 10
175.0
 20
307.335798277425
 30
0.0
 11
176.0539999999999
 21
308.4715
 31
0.0
  0
LINE
  5
5E1
330
1D
100
AcDbEntity
  8
0
100
AcDbLine
 10
199.981815897085
 20
294.335716690546
 30
0.0
 11
205.7109999999999
 21
292.2985
 31
0.0
  0
LINE
  5
5E2
330
1D
100
AcDbEntity
  8
0
100
AcDbLine
 10
189.5839999999999
 20
296.6795
 30
0.0
 11
192.944
 21
295.5335
 31
0.0
  0
LINE
  5
5E3
330
1D
100
AcDbEntity
  8
0
100
AcDbLine
 10
192.944
 20
295.5335
 30
0.0
 11
195.912
 21
293.6244999999999
 31
0.0
  0
LINE
  5
5E4
330
1D
100
AcDbEntity
  8
0
100
AcDbLine
 10
368.4959999999999
 20
295.9305
 30
0.0
 11
374.048
 21
294.3795
 31
0.0
  0
LINE
  5
5E5
330
1D
100
AcDbEntity
  8
0
100
AcDbLine
 10
366.461
 20
296.2134999999999
 30
0.0
 11
368.4959999999999
 21
295.9305
 31
0.0
  0
LINE
  5
5E6
330
1D
100
AcDbEntity
  8
0
100
AcDbLine
 10
374.048
 20
294.3795
 30
0.0
 11
375.968
 21
293.6115
 31
0.0
  0
LINE
  5
5E7
330
1D
100
AcDbEntity
  8
0
100
AcDbLine
 10
200.0
 20
294.1755
 30
0.0
 11
200.0
 21
263.1755
 31
0.0
  0
LINE
  5
5E8
330
1D
100
AcDbEntity
  8
0
100
AcDbLine
 10
182.333
 20
310.5964999999999
 30
0.0
 11
186.2409999999999
 21
310.2405
 31
0.0
  0
LINE
  5
5E9
330
1D
100
AcDbEntity
  8
0
100
AcDbLine
 10
186.6298636415399
 20
310.095674928022
 30
0.0
 11
188.9499999999999
 21
311.6675
 31
0.0
  0
LINE
  5
5EA
330
1D
100
AcDbEntity
  8
0
100
AcDbLine
 10
186.2409999999999
 20
310.2405
 30
0.0
 11
189.745
 21
308.9354999999999
 31
0.0
  0
LINE
  5
5EB
330
1D
100
AcDbEntity
  8
0
100
AcDbLine
 10
189.745
 20
308.9354999999999
 30
0.0
 11
193.07
 21
306.9365
 31
0.0
  0
LINE
  5
5EC
330
1D
100
AcDbEntity
  8
0
100
AcDbLine
 10
193.07
 20
306.9365
 30
0.0
 11
195.945
 21
304.1295
 31
0.0
  0
LINE
  5
5ED
330
1D
100
AcDbEntity
  8
0
100
AcDbLine
 10
195.945
 20
304.1295
 30
0.0
 11
198.4609999999999
 21
300.7235
 31
0.0
  0
LINE
  5
5EE
330
1D
100
AcDbEntity
  8
0
100
AcDbLine
 10
353.005
 20
297.5694999999999
 30
0.0
 11
366.461
 21
296.2134999999999
 31
0.0
  0
LINE
  5
5EF
330
1D
100
AcDbEntity
  8
0
100
AcDbLine
 10
336.0709999999999
 20
298.9345
 30
0.0
 11
353.005
 21
297.5694999999999
 31
0.0
  0
LINE
  5
5F1
330
1D
100
AcDbEntity
  8
0
100
AcDbLine
 10
208.029
 20
307.8075
 30
0.0
 11
241.504
 21
304.4645
 31
0.0
  0
LINE
  5
5F2
330
1D
100
AcDbEntity
  8
0
100
AcDbLine
 10
208.029
 20
307.8075
 30
0.0
 11
208.029
 21
307.8075
 31
0.0
  0
LINE
  5
5F3
330
1D
100
AcDbEntity
  8
0
100
AcDbLine
 10
304.0
 20
301.2375
 30
0.0
 11
304.0
 21
303.1145
 31
0.0
  0
LINE
  5
5F4
330
1D
100
AcDbEntity
  8
0
100
AcDbLine
 10
303.492
 20
300.843890568011
 30
0.0
 11
303.492
 21
302.0835
 31
0.0
  0
LINE
  5
5F5
330
1D
100
AcDbEntity
  8
0
100
AcDbLine
 10
303.492
 20
302.0835
 30
0.0
 11
303.492
 21
304.0344999999999
 31
0.0
  0
LINE
  5
5F6
330
1D
100
AcDbEntity
  8
0
100
AcDbLine
 10
303.492
 20
302.0835
 30
0.0
 11
303.492
 21
300.843890568011
 31
0.0
  0
LINE
  5
5F7
330
1D
100
AcDbEntity
  8
0
100
AcDbLine
 10
305.0209999999999
 20
300.7604999999999
 30
0.0
 11
336.0709999999999
 21
298.9345
 31
0.0
  0
LINE
  5
5F8
330
1D
100
AcDbEntity
  8
0
100
AcDbLine
 10
244.0
 20
305.1754999999999
 30
0.0
 11
245.4759999999999
 21
305.1754999999999
 31
0.0
  0
LINE
  5
5F9
330
1D
100
AcDbEntity
  8
0
100
AcDbLine
 10
246.492
 20
304.1499590024159
 30
0.0
 11
246.492
 21
304.6994999999999
 31
0.0
  0
LINE
  5
5FA
330
1D
100
AcDbEntity
  8
0
100
AcDbLine
 10
246.7713200419729
 20
304.1755
 30
0.0
 11
258.241734406439
 21
304.1755
 31
0.0
  0
LINE
  5
5FB
330
1D
100
AcDbEntity
  8
0
100
AcDbLine
 10
258.508
 20
303.3922355407129
 30
0.0
 11
258.508
 21
304.0344999999999
 31
0.0
  0
LINE
  5
5FC
330
1D
100
AcDbEntity
  8
0
100
AcDbLine
 10
258.508
 20
304.0344999999999
 30
0.0
 11
258.508
 21
304.6965
 31
0.0
  0
LINE
  5
5FD
330
1D
100
AcDbEntity
  8
0
100
AcDbLine
 10
258.508
 20
304.0344999999999
 30
0.0
 11
258.508
 21
303.3922355407129
 31
0.0
  0
LINE
  5
5FE
330
1D
100
AcDbEntity
  8
0
100
AcDbLine
 10
258.241734406439
 20
304.1755
 30
0.0
 11
258.508
 21
304.6965
 31
0.0
  0
LINE
  5
5FF
330
1D
100
AcDbEntity
  8
0
100
AcDbLine
 10
304.0
 20
303.7024999999999
 30
0.0
 11
304.0
 21
303.1145
 31
0.0
  0
LINE
  5
600
330
1D
100
AcDbEntity
  8
0
100
AcDbLine
 10
304.0
 20
303.1145
 30
0.0
 11
304.0
 21
303.7024999999999
 31
0.0
  0
LINE
  5
601
330
1D
100
AcDbEntity
  8
0
100
AcDbLine
 10
304.0
 20
303.1145
 30
0.0
 11
304.0
 21
301.2375
 31
0.0
  0
LINE
  5
602
330
1D
100
AcDbEntity
  8
0
100
AcDbLine
 10
303.492
 20
304.6965
 30
0.0
 11
303.492
 21
304.0344999999999
 31
0.0
  0
LINE
  5
603
330
1D
100
AcDbEntity
  8
0
100
AcDbLine
 10
303.492
 20
304.6965
 30
0.0
 11
304.0
 21
303.7024999999999
 31
0.0
  0
LINE
  5
604
330
1D
100
AcDbEntity
  8
0
100
AcDbLine
 10
303.492
 20
304.0344999999999
 30
0.0
 11
303.492
 21
304.6965
 31
0.0
  0
LINE
  5
605
330
1D
100
AcDbEntity
  8
0
100
AcDbLine
 10
303.492
 20
304.0344999999999
 30
0.0
 11
303.492
 21
302.0835
 31
0.0
  0
LINE
  5
606
330
1D
100
AcDbEntity
  8
0
100
AcDbLine
 10
302.476
 20
305.0895
 30
0.0
 11
303.492
 21
304.6965
 31
0.0
  0
LINE
  5
607
330
1D
100
AcDbEntity
  8
0
100
AcDbLine
 10
281.0
 20
305.0895
 30
0.0
 11
302.476
 21
305.0895
 31
0.0
  0
LINE
  5
608
330
1D
100
AcDbEntity
  8
0
100
AcDbLine
 10
258.508
 20
304.6965
 30
0.0
 11
258.508
 21
304.0344999999999
 31
0.0
  0
LINE
  5
609
330
1D
100
AcDbEntity
  8
0
100
AcDbLine
 10
258.508
 20
304.6965
 30
0.0
 11
259.5239999999999
 21
305.0895
 31
0.0
  0
LINE
  5
60A
330
1D
100
AcDbEntity
  8
0
100
AcDbLine
 10
259.5239999999999
 20
305.0895
 30
0.0
 11
281.0
 21
305.0895
 31
0.0
  0
LINE
  5
60B
330
1D
100
AcDbEntity
  8
0
100
AcDbLine
 10
246.492
 20
304.6994999999999
 30
0.0
 11
246.794918780209
 21
304.1312291387019
 31
0.0
  0
LINE
  5
60C
330
1D
100
AcDbEntity
  8
0
100
AcDbLine
 10
246.492
 20
304.6994999999999
 30
0.0
 11
246.492
 21
304.1499590024159
 31
0.0
  0
LINE
  5
60D
330
1D
100
AcDbEntity
  8
0
100
AcDbLine
 10
245.4759999999999
 20
305.1754999999999
 30
0.0
 11
246.492
 21
304.6994999999999
 31
0.0
  0
LINE
  5
60F
330
1D
100
AcDbEntity
  8
0
100
AcDbLine
 10
269.652
 20
302.6895
 30
0.0
 11
305.0209999999999
 21
300.7604999999999
 31
0.0
  0
LINE
  5
610
330
1D
100
AcDbEntity
  8
0
100
AcDbLine
 10
241.504
 20
304.4645
 30
0.0
 11
269.652
 21
302.6895
 31
0.0
  0
LINE
  5
612
330
1D
100
AcDbEntity
  8
0
100
AcDbLine
 10
198.4609999999999
 20
300.7235
 30
0.0
 11
199.6299999999999
 21
297.4355
 31
0.0
  0
LINE
  5
613
330
1D
100
AcDbEntity
  8
0
100
AcDbLine
 10
199.6299999999999
 20
297.4355
 30
0.0
 11
200.0
 21
294.1755
 31
0.0
  0
LINE
  5
614
330
1D
100
AcDbEntity
  8
0
100
AcDbLine
 10
186.0
 20
297.1085
 30
0.0
 11
189.5839999999999
 21
296.6795
 31
0.0
  0
LINE
  5
615
330
1D
100
AcDbEntity
  8
0
100
AcDbLine
 10
182.416
 20
296.6795
 30
0.0
 11
186.0
 21
297.1085
 31
0.0
  0
LINE
  5
616
330
1D
100
AcDbEntity
  8
0
100
AcDbLine
 10
179.0559999999999
 20
295.5335
 30
0.0
 11
182.416
 21
296.6795
 31
0.0
  0
LINE
  5
617
330
1D
100
AcDbEntity
  8
0
100
AcDbLine
 10
176.088
 20
293.6244999999999
 30
0.0
 11
179.0559999999999
 21
295.5335
 31
0.0
  0
LINE
  5
618
330
1D
100
AcDbEntity
  8
0
100
AcDbLine
 10
173.8479999999999
 20
291.0944999999999
 30
0.0
 11
176.088
 21
293.6244999999999
 31
0.0
  0
LINE
  5
619
330
1D
100
AcDbEntity
  8
0
100
AcDbLine
 10
173.8479999999999
 20
269.0944999999999
 30
0.0
 11
175.2996773263209
 21
270.7341176944609
 31
0.0
  0
LINE
  5
61A
330
1D
100
AcDbEntity
  8
0
100
AcDbLine
 10
172.504
 20
266.2304999999999
 30
0.0
 11
173.8479999999999
 21
269.0944999999999
 31
0.0
  0
LINE
  5
61B
330
1D
100
AcDbEntity
  8
0
100
AcDbLine
 10
172.504
 20
260.1204999999999
 30
0.0
 11
173.8479999999999
 21
257.2565
 31
0.0
  0
LINE
  5
61C
330
1D
100
AcDbEntity
  8
0
100
AcDbLine
 10
172.0
 20
282.5085
 30
0.0
 11
172.0
 21
286.1755
 31
0.0
  0
LINE
  5
61D
330
1D
100
AcDbEntity
  8
0
100
AcDbLine
 10
172.0
 20
282.5085
 30
0.0
 11
172.0
 21
279.6315
 31
0.0
  0
LINE
  5
61E
330
1D
100
AcDbEntity
  8
0
100
AcDbLine
 10
188.9499999999999
 20
311.6675
 30
0.0
 11
190.423
 21
312.5684999999999
 31
0.0
  0
LINE
  5
61F
330
1D
100
AcDbEntity
  8
0
100
AcDbLine
 10
172.0
 20
310.7645
 30
0.0
 11
172.0
 21
312.5065
 31
0.0
  0
LINE
  5
620
330
1D
100
AcDbEntity
  8
0
100
AcDbLine
 10
172.0
 20
310.7645
 30
0.0
 11
172.0
 21
307.8985
 31
0.0
  0
LINE
  5
621
330
1D
100
AcDbEntity
  8
0
100
AcDbLine
 10
134.667
 20
310.3895
 30
0.0
 11
134.667
 21
312.0964999999999
 31
0.0
  0
LINE
  5
622
330
1D
100
AcDbEntity
  8
0
100
AcDbLine
 10
134.667
 20
310.3895
 30
0.0
 11
134.667
 21
307.5604999999999
 31
0.0
  0
LINE
  5
623
330
1D
100
AcDbEntity
  8
0
100
AcDbLine
 10
175.0
 20
312.5065
 30
0.0
 11
175.0
 21
313.1705
 31
0.0
  0
LINE
  5
624
330
1D
100
AcDbEntity
  8
0
100
AcDbLine
 10
175.0
 20
312.5065
 30
0.0
 11
175.0
 21
310.7645
 31
0.0
  0
LINE
  5
625
330
1D
100
AcDbEntity
  8
0
100
AcDbLine
 10
196.617
 20
312.5265
 30
0.0
 11
208.029
 21
307.8075
 31
0.0
  0
LINE
  5
626
330
1D
100
AcDbEntity
  8
0
100
AcDbLine
 10
193.525
 20
313.1485
 30
0.0
 11
196.617
 21
312.5265
 31
0.0
  0
LINE
  5
627
330
1D
100
AcDbEntity
  8
0
100
AcDbLine
 10
190.423
 20
312.5684999999999
 30
0.0
 11
193.525
 21
313.1485
 31
0.0
  0
LINE
  5
628
330
1D
100
AcDbEntity
  8
0
100
AcDbLine
 10
175.0
 20
313.1705
 30
0.0
 11
175.0
 21
312.5065
 31
0.0
  0
LINE
  5
629
330
1D
100
AcDbEntity
  8
0
100
AcDbLine
 10
172.0
 20
313.1705
 30
0.0
 11
172.0
 21
312.5065
 31
0.0
  0
LINE
  5
62A
330
1D
100
AcDbEntity
  8
0
100
AcDbLine
 10
172.0
 20
313.1705
 30
0.0
 11
175.0
 21
313.1705
 31
0.0
  0
LINE
  5
62B
330
1D
100
AcDbEntity
  8
0
100
AcDbLine
 10
172.0
 20
312.5065
 30
0.0
 11
172.0
 21
313.1705
 31
0.0
  0
LINE
  5
62C
330
1D
100
AcDbEntity
  8
0
100
AcDbLine
 10
172.0
 20
312.5065
 30
0.0
 11
172.0
 21
310.7645
 31
0.0
  0
LINE
  5
62D
330
1D
100
AcDbEntity
  8
0
100
AcDbLine
 10
161.0
 20
313.1705
 30
0.0
 11
172.0
 21
313.1705
 31
0.0
  0
LINE
  5
64B
330
1D
100
AcDbEntity
  8
0
100
AcDbLine
 10
154.3039999999999
 20
350.1755
 30
0.0
 11
156.4639999999999
 21
350.1755
 31
0.0
  0
LINE
  5
64C
330
1D
100
AcDbEntity
  8
0
100
AcDbLine
 10
156.4639999999999
 20
350.1755
 30
0.0
 11
158.372
 21
350.1755
 31
0.0
  0
LINE
  5
64D
330
1D
100
AcDbEntity
  8
0
100
AcDbLine
 10
158.372
 20
350.1755
 30
0.0
 11
159.812
 21
350.1755
 31
0.0
  0
LINE
  5
64E
330
1D
100
AcDbEntity
  8
0
100
AcDbLine
 10
149.696
 20
350.1755
 30
0.0
 11
152.0
 21
350.1755
 31
0.0
  0
LINE
  5
64F
330
1D
100
AcDbEntity
  8
0
100
AcDbLine
 10
147.536
 20
350.1755
 30
0.0
 11
149.696
 21
350.1755
 31
0.0
  0
LINE
  5
650
330
1D
100
AcDbEntity
  8
0
100
AcDbLine
 10
145.6279999999999
 20
350.1755
 30
0.0
 11
147.536
 21
350.1755
 31
0.0
  0
LINE
  5
651
330
1D
100
AcDbEntity
  8
0
100
AcDbLine
 10
144.1879999999999
 20
350.1755
 30
0.0
 11
145.6279999999999
 21
350.1755
 31
0.0
  0
LINE
  5
652
330
1D
100
AcDbEntity
  8
0
100
AcDbLine
 10
143.3239999999999
 20
350.1755
 30
0.0
 11
144.1879999999999
 21
350.1755
 31
0.0
  0
LINE
  5
653
330
1D
100
AcDbEntity
  8
0
100
AcDbLine
 10
143.0
 20
350.1755
 30
0.0
 11
143.0
 21
301.3576
 31
0.0
  0
LINE
  5
654
330
1D
100
AcDbEntity
  8
0
100
AcDbLine
 10
143.0
 20
350.1755
 30
0.0
 11
143.3239999999999
 21
350.1755
 31
0.0
  0
LINE
  5
655
330
1D
100
AcDbEntity
  8
0
100
AcDbLine
 10
152.0
 20
350.1755
 30
0.0
 11
159.56
 21
350.1755
 31
0.0
  0
LINE
  5
656
330
1D
100
AcDbEntity
  8
0
100
AcDbLine
 10
152.0
 20
350.1755
 30
0.0
 11
154.3039999999999
 21
350.1755
 31
0.0
  0
LINE
  5
657
330
1D
100
AcDbEntity
  8
0
100
AcDbLine
 10
159.812
 20
350.1755
 30
0.0
 11
160.676
 21
350.1755
 31
0.0
  0
LINE
  5
658
330
1D
100
AcDbEntity
  8
0
100
AcDbLine
 10
160.676
 20
350.1755
 30
0.0
 11
161.0
 21
350.1755
 31
0.0
  0
LINE
  5
659
330
1D
100
AcDbEntity
  8
0
100
AcDbLine
 10
159.56
 20
350.1755
 30
0.0
 11
166.52
 21
350.1755
 31
0.0
  0
LINE
  5
65A
330
1D
100
AcDbEntity
  8
0
100
AcDbLine
 10
144.4399999999999
 20
350.1755
 30
0.0
 11
152.0
 21
350.1755
 31
0.0
  0
LINE
  5
65B
330
1D
100
AcDbEntity
  8
0
100
AcDbLine
 10
137.48
 20
350.1755
 30
0.0
 11
143.0
 21
350.1755
 31
0.0
  0
LINE
  5
65C
330
1D
100
AcDbEntity
  8
0
100
AcDbLine
 10
137.48
 20
350.1755
 30
0.0
 11
144.4399999999999
 21
350.1755
 31
0.0
  0
LINE
  5
65D
330
1D
100
AcDbEntity
  8
0
100
AcDbLine
 10
161.0
 20
350.1755
 30
0.0
 11
166.52
 21
350.1755
 31
0.0
  0
LINE
  5
65E
330
1D
100
AcDbEntity
  8
0
100
AcDbLine
 10
161.0
 20
350.1755
 30
0.0
 11
161.0
 21
301.3576
 31
0.0
  0
LINE
  5
65F
330
1D
100
AcDbEntity
  8
0
100
AcDbLine
 10
166.52
 20
350.1755
 30
0.0
 11
172.6399999999999
 21
350.1755
 31
0.0
  0
LINE
  5
660
330
1D
100
AcDbEntity
  8
0
100
AcDbLine
 10
172.6399999999999
 20
350.1755
 30
0.0
 11
177.3199999999999
 21
350.1755
 31
0.0
  0
LINE
  5
661
330
1D
100
AcDbEntity
  8
0
100
AcDbLine
 10
177.3199999999999
 20
350.1755
 30
0.0
 11
180.1999999999999
 21
350.1755
 31
0.0
  0
LINE
  5
662
330
1D
100
AcDbEntity
  8
0
100
AcDbLine
 10
152.0
 20
350.7755
 30
0.0
 11
159.6799999999999
 21
350.7755
 31
0.0
  0
LINE
  5
663
330
1D
100
AcDbEntity
  8
0
100
AcDbLine
 10
159.6799999999999
 20
350.7755
 30
0.0
 11
166.88
 21
350.7755
 31
0.0
  0
LINE
  5
664
330
1D
100
AcDbEntity
  8
0
100
AcDbLine
 10
166.88
 20
350.7755
 30
0.0
 11
173.24
 21
350.7755
 31
0.0
  0
LINE
  5
665
330
1D
100
AcDbEntity
  8
0
100
AcDbLine
 10
173.24
 20
350.7755
 30
0.0
 11
178.04
 21
350.7755
 31
0.0
  0
LINE
  5
666
330
1D
100
AcDbEntity
  8
0
100
AcDbLine
 10
178.04
 20
350.7755
 30
0.0
 11
180.9199999999999
 21
350.7755
 31
0.0
  0
LINE
  5
667
330
1D
100
AcDbEntity
  8
0
100
AcDbLine
 10
180.9199999999999
 20
350.7755
 30
0.0
 11
182.0
 21
350.7755
 31
0.0
  0
LINE
  5
668
330
1D
100
AcDbEntity
  8
0
100
AcDbLine
 10
144.32
 20
350.7755
 30
0.0
 11
152.0
 21
350.7755
 31
0.0
  0
LINE
  5
669
330
1D
100
AcDbEntity
  8
0
100
AcDbLine
 10
137.1199999999999
 20
350.7755
 30
0.0
 11
144.32
 21
350.7755
 31
0.0
  0
LINE
  5
66A
330
1D
100
AcDbEntity
  8
0
100
AcDbLine
 10
180.1999999999999
 20
350.1755
 30
0.0
 11
181.28
 21
350.1755
 31
0.0
  0
LINE
  5
66B
330
1D
100
AcDbEntity
  8
0
100
AcDbLine
 10
181.28
 20
350.1755
 30
0.0
 11
182.0
 21
350.7755
 31
0.0
  0
LINE
  5
66C
330
1D
100
AcDbEntity
  8
0
100
AcDbLine
 10
182.0
 20
350.7755
 30
0.0
 11
182.0
 21
360.1755
 31
0.0
  0
LINE
  5
67E
330
1D
100
AcDbEntity
  8
0
100
AcDbLine
 10
152.0
 20
360.1755
 30
0.0
 11
159.6799999999999
 21
360.1755
 31
0.0
  0
LINE
  5
67F
330
1D
100
AcDbEntity
  8
0
100
AcDbLine
 10
159.6799999999999
 20
360.1755
 30
0.0
 11
166.88
 21
360.1755
 31
0.0
  0
LINE
  5
680
330
1D
100
AcDbEntity
  8
0
100
AcDbLine
 10
166.88
 20
360.1755
 30
0.0
 11
173.24
 21
360.1755
 31
0.0
  0
LINE
  5
681
330
1D
100
AcDbEntity
  8
0
100
AcDbLine
 10
173.24
 20
360.1755
 30
0.0
 11
178.04
 21
360.1755
 31
0.0
  0
LINE
  5
682
330
1D
100
AcDbEntity
  8
0
100
AcDbLine
 10
178.04
 20
360.1755
 30
0.0
 11
180.9199999999999
 21
360.1755
 31
0.0
  0
LINE
  5
683
330
1D
100
AcDbEntity
  8
0
100
AcDbLine
 10
182.0
 20
360.1755
 30
0.0
 11
182.0
 21
350.7755
 31
0.0
  0
LINE
  5
684
330
1D
100
AcDbEntity
  8
0
100
AcDbLine
 10
180.9199999999999
 20
360.1755
 30
0.0
 11
182.0
 21
360.1755
 31
0.0
  0
LINE
  5
685
330
1D
100
AcDbEntity
  8
0
100
AcDbLine
 10
144.32
 20
360.1755
 30
0.0
 11
152.0
 21
360.1755
 31
0.0
  0
LINE
  5
686
330
1D
100
AcDbEntity
  8
0
100
AcDbLine
 10
137.1199999999999
 20
360.1755
 30
0.0
 11
144.32
 21
360.1755
 31
0.0
  0
LINE
  5
721
330
1D
100
AcDbEntity
  8
0
100
AcDbLine
 10
135.4209999999999
 20
313.1705
 30
0.0
 11
143.0
 21
313.1705
 31
0.0
  0
LINE
  5
722
330
1D
100
AcDbEntity
  8
0
100
AcDbLine
 10
134.667
 20
312.6884999999999
 30
0.0
 11
134.667
 21
312.0964999999999
 31
0.0
  0
LINE
  5
723
330
1D
100
AcDbEntity
  8
0
100
AcDbLine
 10
134.667
 20
312.6884999999999
 30
0.0
 11
135.4209999999999
 21
313.1705
 31
0.0
  0
LINE
  5
724
330
1D
100
AcDbEntity
  8
0
100
AcDbLine
 10
134.667
 20
312.0964999999999
 30
0.0
 11
134.667
 21
312.6884999999999
 31
0.0
  0
LINE
  5
725
330
1D
100
AcDbEntity
  8
0
100
AcDbLine
 10
134.667
 20
312.0964999999999
 30
0.0
 11
134.667
 21
310.3895
 31
0.0
  0
LINE
  5
726
330
1D
100
AcDbEntity
  8
0
100
AcDbLine
 10
133.9129999999999
 20
313.1705
 30
0.0
 11
134.667
 21
312.6884999999999
 31
0.0
  0
LINE
  5
74E
330
1D
100
AcDbEntity
  8
0
100
AcDbLine
 10
210.8
 20
334.1755
 30
0.0
 11
204.0
 21
334.1755
 31
0.0
  0
LINE
  5
74F
330
1D
100
AcDbEntity
  8
0
100
AcDbLine
 10
210.3
 20
334.6754999999999
 30
0.0
 11
203.3
 21
334.6754999999999
 31
0.0
  0
LINE
  5
750
330
1D
100
AcDbEntity
  8
0
100
AcDbLine
 10
210.0999999999999
 20
360.1755
 30
0.0
 11
203.0
 21
360.1755
 31
0.0
  0
LINE
  5
751
330
1D
100
AcDbEntity
  8
0
100
AcDbLine
 10
258.3
 20
334.1755
 30
0.0
 11
255.1
 21
334.1755
 31
0.0
  0
LINE
  5
752
330
1D
100
AcDbEntity
  8
0
100
AcDbLine
 10
259.2999999999999
 20
334.6754999999999
 30
0.0
 11
256.0
 21
334.6754999999999
 31
0.0
  0
LINE
  5
753
330
1D
100
AcDbEntity
  8
0
100
AcDbLine
 10
259.8
 20
360.1755
 30
0.0
 11
256.3999999999999
 21
360.1755
 31
0.0
  0
LINE
  5
754
330
1D
100
AcDbEntity
  8
0
100
AcDbLine
 10
260.4999999999999
 20
334.6754999999999
 30
0.0
 11
259.5
 21
334.1755
 31
0.0
  0
LINE
  5
755
330
1D
100
AcDbEntity
  8
0
100
AcDbLine
 10
260.4999999999999
 20
334.6754999999999
 30
0.0
 11
259.2999999999999
 21
334.6754999999999
 31
0.0
  0
LINE
  5
756
330
1D
100
AcDbEntity
  8
0
100
AcDbLine
 10
259.5
 20
334.1755
 30
0.0
 11
258.3
 21
334.1755
 31
0.0
  0
LINE
  5
757
330
1D
100
AcDbEntity
  8
0
100
AcDbLine
 10
261.0
 20
335.6755
 30
0.0
 11
260.4999999999999
 21
334.6754999999999
 31
0.0
  0
LINE
  5
758
330
1D
100
AcDbEntity
  8
0
100
AcDbLine
 10
261.0
 20
335.6755
 30
0.0
 11
261.0
 21
360.1755
 31
0.0
  0
LINE
  5
759
330
1D
100
AcDbEntity
  8
0
100
AcDbLine
 10
261.0
 20
360.1755
 30
0.0
 11
261.0
 21
335.6755
 31
0.0
  0
LINE
  5
75A
330
1D
100
AcDbEntity
  8
0
100
AcDbLine
 10
261.0
 20
360.1755
 30
0.0
 11
259.8
 21
360.1755
 31
0.0
  0
LINE
  5
75B
330
1D
100
AcDbEntity
  8
0
100
AcDbLine
 10
243.0
 20
332.1755
 30
0.0
 11
243.0
 21
333.1755
 31
0.0
  0
LINE
  5
75C
330
1D
100
AcDbEntity
  8
0
100
AcDbLine
 10
243.0
 20
332.1755
 30
0.0
 11
241.6287
 21
333.1755
 31
0.0
  0
LINE
  5
75D
330
1D
100
AcDbEntity
  8
0
100
AcDbLine
 10
243.0
 20
333.1755
 30
0.0
 11
243.0
 21
332.1755
 31
0.0
  0
LINE
  5
75E
330
1D
100
AcDbEntity
  8
0
100
AcDbLine
 10
211.0
 20
333.1755
 30
0.0
 11
211.0
 21
332.1755
 31
0.0
  0
LINE
  5
75F
330
1D
100
AcDbEntity
  8
0
100
AcDbLine
 10
211.0
 20
332.1755
 30
0.0
 11
211.0
 21
333.1755
 31
0.0
  0
LINE
  5
760
330
1D
100
AcDbEntity
  8
0
100
AcDbLine
 10
212.3712999999999
 20
333.1755
 30
0.0
 11
211.0
 21
332.1755
 31
0.0
  0
LINE
  5
761
330
1D
100
AcDbEntity
  8
0
100
AcDbLine
 10
235.2279999999999
 20
318.1754999999999
 30
0.0
 11
231.284
 21
318.1754999999999
 31
0.0
  0
LINE
  5
762
330
1D
100
AcDbEntity
  8
0
100
AcDbLine
 10
235.1445
 20
320.3775
 30
0.0
 11
231.3518999999999
 21
320.5944999999999
 31
0.0
  0
LINE
  5
763
330
1D
100
AcDbEntity
  8
0
100
AcDbLine
 10
241.9894999999999
 20
320.1754999999999
 30
0.0
 11
213.0
 21
320.1754999999999
 31
0.0
  0
LINE
  5
764
330
1D
100
AcDbEntity
  8
0
100
AcDbLine
 10
244.0
 20
305.1754999999999
 30
0.0
 11
244.0
 21
317.5754999999999
 31
0.0
  0
LINE
  5
765
330
1D
100
AcDbEntity
  8
0
100
AcDbLine
 10
244.0
 20
317.5754999999999
 30
0.0
 11
244.0
 21
305.1754999999999
 31
0.0
  0
LINE
  5
766
330
1D
100
AcDbEntity
  8
0
100
AcDbLine
 10
238.9578999999999
 20
320.5394999999999
 30
0.0
 11
235.1445
 21
320.3775
 31
0.0
  0
LINE
  5
767
330
1D
100
AcDbEntity
  8
0
100
AcDbLine
 10
243.0
 20
322.1754999999999
 30
0.0
 11
243.0
 21
320.2755
 31
0.0
  0
LINE
  5
768
330
1D
100
AcDbEntity
  8
0
100
AcDbLine
 10
243.0
 20
320.2755
 30
0.0
 11
243.0
 21
322.1754999999999
 31
0.0
  0
LINE
  5
769
330
1D
100
AcDbEntity
  8
0
100
AcDbLine
 10
243.592
 20
318.1754999999999
 30
0.0
 11
242.9799999999999
 21
318.1754999999999
 31
0.0
  0
LINE
  5
76A
330
1D
100
AcDbEntity
  8
0
100
AcDbLine
 10
244.0
 20
317.5754999999999
 30
0.0
 11
243.592
 21
318.1754999999999
 31
0.0
  0
LINE
  5
76B
330
1D
100
AcDbEntity
  8
0
100
AcDbLine
 10
243.0
 20
320.4155
 30
0.0
 11
243.0
 21
320.2755
 31
0.0
  0
LINE
  5
76C
330
1D
100
AcDbEntity
  8
0
100
AcDbLine
 10
242.9799999999999
 20
318.1754999999999
 30
0.0
 11
241.3479999999999
 21
318.1754999999999
 31
0.0
  0
LINE
  5
76D
330
1D
100
AcDbEntity
  8
0
100
AcDbLine
 10
241.3479999999999
 20
318.1754999999999
 30
0.0
 11
238.696
 21
318.1754999999999
 31
0.0
  0
LINE
  5
76E
330
1D
100
AcDbEntity
  8
0
100
AcDbLine
 10
241.0
 20
320.1754999999999
 30
0.0
 11
241.0
 21
318.1754999999999
 31
0.0
  0
LINE
  5
76F
330
1D
100
AcDbEntity
  8
0
100
AcDbLine
 10
241.0
 20
318.1754999999999
 30
0.0
 11
241.0
 21
320.1754999999999
 31
0.0
  0
LINE
  5
770
330
1D
100
AcDbEntity
  8
0
100
AcDbLine
 10
242.5788999999999
 20
320.1754999999999
 30
0.0
 11
241.9894999999999
 21
320.1754999999999
 31
0.0
  0
LINE
  5
771
330
1D
100
AcDbEntity
  8
0
100
AcDbLine
 10
238.696
 20
318.1754999999999
 30
0.0
 11
235.2279999999999
 21
318.1754999999999
 31
0.0
  0
LINE
  5
772
330
1D
100
AcDbEntity
  8
0
100
AcDbLine
 10
243.0
 20
320.2755
 30
0.0
 11
243.0
 21
320.4155
 31
0.0
  0
LINE
  5
773
330
1D
100
AcDbEntity
  8
0
100
AcDbLine
 10
243.0
 20
320.2755
 30
0.0
 11
242.5788999999999
 21
320.1754999999999
 31
0.0
  0
LINE
  5
774
330
1D
100
AcDbEntity
  8
0
100
AcDbLine
 10
243.0
 20
322.1754999999999
 30
0.0
 11
243.0
 21
332.1755
 31
0.0
  0
LINE
  5
775
330
1D
100
AcDbEntity
  8
0
100
AcDbLine
 10
243.0
 20
332.1755
 30
0.0
 11
243.0
 21
322.1754999999999
 31
0.0
  0
LINE
  5
776
330
1D
100
AcDbEntity
  8
0
100
AcDbLine
 10
243.0
 20
321.1755
 30
0.0
 11
242.6632
 21
321.1755
 31
0.0
  0
LINE
  5
777
330
1D
100
AcDbEntity
  8
0
100
AcDbLine
 10
242.6632
 20
321.1755
 30
0.0
 11
241.6287
 21
321.1755
 31
0.0
  0
LINE
  5
778
330
1D
100
AcDbEntity
  8
0
100
AcDbLine
 10
241.6287
 20
321.1755
 30
0.0
 11
238.9578999999999
 21
320.5394999999999
 31
0.0
  0
LINE
  5
779
330
1D
100
AcDbEntity
  8
0
100
AcDbLine
 10
210.0
 20
307.610664958925
 30
0.0
 11
210.0
 21
317.5754999999999
 31
0.0
  0
LINE
  5
77A
330
1D
100
AcDbEntity
  8
0
100
AcDbLine
 10
210.0
 20
317.5754999999999
 30
0.0
 11
210.0
 21
307.610664958925
 31
0.0
  0
LINE
  5
77B
330
1D
100
AcDbEntity
  8
0
100
AcDbLine
 10
222.716
 20
318.1754999999999
 30
0.0
 11
218.772
 21
318.1754999999999
 31
0.0
  0
LINE
  5
77C
330
1D
100
AcDbEntity
  8
0
100
AcDbLine
 10
222.6481
 20
320.5944999999999
 30
0.0
 11
218.8555
 21
320.3775
 31
0.0
  0
LINE
  5
77D
330
1D
100
AcDbEntity
  8
0
100
AcDbLine
 10
231.3518999999999
 20
320.5944999999999
 30
0.0
 11
228.9775
 21
321.1755
 31
0.0
  0
LINE
  5
77E
330
1D
100
AcDbEntity
  8
0
100
AcDbLine
 10
231.284
 20
318.1754999999999
 30
0.0
 11
227.0
 21
318.1754999999999
 31
0.0
  0
LINE
  5
77F
330
1D
100
AcDbEntity
  8
0
100
AcDbLine
 10
227.0
 20
318.1754999999999
 30
0.0
 11
222.716
 21
318.1754999999999
 31
0.0
  0
LINE
  5
780
330
1D
100
AcDbEntity
  8
0
100
AcDbLine
 10
227.0
 20
321.1755
 30
0.0
 11
225.0224999999999
 21
321.1755
 31
0.0
  0
LINE
  5
781
330
1D
100
AcDbEntity
  8
0
100
AcDbLine
 10
225.0224999999999
 20
321.1755
 30
0.0
 11
222.6481
 21
320.5944999999999
 31
0.0
  0
LINE
  5
782
330
1D
100
AcDbEntity
  8
0
100
AcDbLine
 10
228.9775
 20
321.1755
 30
0.0
 11
227.0
 21
321.1755
 31
0.0
  0
LINE
  5
783
330
1D
100
AcDbEntity
  8
0
100
AcDbLine
 10
211.0
 20
320.4155
 30
0.0
 11
211.0
 21
321.1755
 31
0.0
  0
LINE
  5
784
330
1D
100
AcDbEntity
  8
0
100
AcDbLine
 10
218.8555
 20
320.3775
 30
0.0
 11
215.0421
 21
320.5394999999999
 31
0.0
  0
LINE
  5
785
330
1D
100
AcDbEntity
  8
0
100
AcDbLine
 10
211.0
 20
321.1755
 30
0.0
 11
211.0
 21
320.4155
 31
0.0
  0
LINE
  5
786
330
1D
100
AcDbEntity
  8
0
100
AcDbLine
 10
215.304
 20
318.1754999999999
 30
0.0
 11
212.652
 21
318.1754999999999
 31
0.0
  0
LINE
  5
787
330
1D
100
AcDbEntity
  8
0
100
AcDbLine
 10
218.772
 20
318.1754999999999
 30
0.0
 11
215.304
 21
318.1754999999999
 31
0.0
  0
LINE
  5
788
330
1D
100
AcDbEntity
  8
0
100
AcDbLine
 10
212.652
 20
318.1754999999999
 30
0.0
 11
211.02
 21
318.1754999999999
 31
0.0
  0
LINE
  5
789
330
1D
100
AcDbEntity
  8
0
100
AcDbLine
 10
213.0
 20
318.1754999999999
 30
0.0
 11
213.0
 21
320.1754999999999
 31
0.0
  0
LINE
  5
78A
330
1D
100
AcDbEntity
  8
0
100
AcDbLine
 10
213.0
 20
320.1754999999999
 30
0.0
 11
212.0105
 21
320.1754999999999
 31
0.0
  0
LINE
  5
78B
330
1D
100
AcDbEntity
  8
0
100
AcDbLine
 10
213.0
 20
320.1754999999999
 30
0.0
 11
213.0
 21
318.1754999999999
 31
0.0
  0
LINE
  5
78C
330
1D
100
AcDbEntity
  8
0
100
AcDbLine
 10
211.02
 20
318.1754999999999
 30
0.0
 11
210.4079999999999
 21
318.1754999999999
 31
0.0
  0
LINE
  5
78D
330
1D
100
AcDbEntity
  8
0
100
AcDbLine
 10
210.4079999999999
 20
318.1754999999999
 30
0.0
 11
210.0
 21
317.5754999999999
 31
0.0
  0
LINE
  5
78E
330
1D
100
AcDbEntity
  8
0
100
AcDbLine
 10
211.4209999999999
 20
320.1754999999999
 30
0.0
 11
211.0
 21
320.2755
 31
0.0
  0
LINE
  5
78F
330
1D
100
AcDbEntity
  8
0
100
AcDbLine
 10
212.0105
 20
320.1754999999999
 30
0.0
 11
211.4209999999999
 21
320.1754999999999
 31
0.0
  0
LINE
  5
790
330
1D
100
AcDbEntity
  8
0
100
AcDbLine
 10
211.0
 20
320.2755
 30
0.0
 11
211.0
 21
320.4155
 31
0.0
  0
LINE
  5
791
330
1D
100
AcDbEntity
  8
0
100
AcDbLine
 10
211.0
 20
320.4155
 30
0.0
 11
211.0
 21
320.2755
 31
0.0
  0
LINE
  5
792
330
1D
100
AcDbEntity
  8
0
100
AcDbLine
 10
212.3712999999999
 20
321.1755
 30
0.0
 11
211.3368
 21
321.1755
 31
0.0
  0
LINE
  5
793
330
1D
100
AcDbEntity
  8
0
100
AcDbLine
 10
215.0421
 20
320.5394999999999
 30
0.0
 11
212.3712999999999
 21
321.1755
 31
0.0
  0
LINE
  5
794
330
1D
100
AcDbEntity
  8
0
100
AcDbLine
 10
211.3368
 20
321.1755
 30
0.0
 11
211.0
 21
321.1755
 31
0.0
  0
LINE
  5
795
330
1D
100
AcDbEntity
  8
0
100
AcDbLine
 10
211.0
 20
332.1755
 30
0.0
 11
211.0
 21
322.1754999999999
 31
0.0
  0
LINE
  5
796
330
1D
100
AcDbEntity
  8
0
100
AcDbLine
 10
211.0
 20
322.1754999999999
 30
0.0
 11
211.0
 21
321.1755
 31
0.0
  0
LINE
  5
797
330
1D
100
AcDbEntity
  8
0
100
AcDbLine
 10
211.0
 20
322.1754999999999
 30
0.0
 11
211.0
 21
332.1755
 31
0.0
  0
LINE
  5
798
330
1D
100
AcDbEntity
  8
0
100
AcDbLine
 10
211.0
 20
321.1755
 30
0.0
 11
211.0
 21
322.1754999999999
 31
0.0
  0
LINE
  5
799
330
1D
100
AcDbEntity
  8
0
100
AcDbLine
 10
235.1445
 20
333.9735
 30
0.0
 11
231.3518999999999
 21
333.7565
 31
0.0
  0
LINE
  5
79A
330
1D
100
AcDbEntity
  8
0
100
AcDbLine
 10
234.7474
 20
334.1755
 30
0.0
 11
231.0421
 21
334.1755
 31
0.0
  0
LINE
  5
79B
330
1D
100
AcDbEntity
  8
0
100
AcDbLine
 10
235.5999999999999
 20
334.6754999999999
 30
0.0
 11
227.0
 21
334.6754999999999
 31
0.0
  0
LINE
  5
79C
330
1D
100
AcDbEntity
  8
0
100
AcDbLine
 10
235.6999999999999
 20
360.1755
 30
0.0
 11
227.0
 21
360.1755
 31
0.0
  0
LINE
  5
79D
330
1D
100
AcDbEntity
  8
0
100
AcDbLine
 10
250.0
 20
334.1755
 30
0.0
 11
243.1999999999999
 21
334.1755
 31
0.0
  0
LINE
  5
79E
330
1D
100
AcDbEntity
  8
0
100
AcDbLine
 10
250.7
 20
334.6754999999999
 30
0.0
 11
243.6999999999999
 21
334.6754999999999
 31
0.0
  0
LINE
  5
79F
330
1D
100
AcDbEntity
  8
0
100
AcDbLine
 10
255.1
 20
334.1755
 30
0.0
 11
250.0
 21
334.1755
 31
0.0
  0
LINE
  5
7A0
330
1D
100
AcDbEntity
  8
0
100
AcDbLine
 10
256.0
 20
334.6754999999999
 30
0.0
 11
250.7
 21
334.6754999999999
 31
0.0
  0
LINE
  5
7A1
330
1D
100
AcDbEntity
  8
0
100
AcDbLine
 10
243.6999999999999
 20
334.6754999999999
 30
0.0
 11
235.5999999999999
 21
334.6754999999999
 31
0.0
  0
LINE
  5
7A2
330
1D
100
AcDbEntity
  8
0
100
AcDbLine
 10
240.4737
 20
334.1755
 30
0.0
 11
238.0316
 21
334.1755
 31
0.0
  0
LINE
  5
7A3
330
1D
100
AcDbEntity
  8
0
100
AcDbLine
 10
238.9578999999999
 20
333.8115
 30
0.0
 11
235.1445
 21
333.9735
 31
0.0
  0
LINE
  5
7A4
330
1D
100
AcDbEntity
  8
0
100
AcDbLine
 10
243.0
 20
333.1755
 30
0.0
 11
243.0
 21
333.9354999999999
 31
0.0
  0
LINE
  5
7A5
330
1D
100
AcDbEntity
  8
0
100
AcDbLine
 10
243.1999999999999
 20
334.1755
 30
0.0
 11
242.5788999999999
 21
334.1755
 31
0.0
  0
LINE
  5
7A6
330
1D
100
AcDbEntity
  8
0
100
AcDbLine
 10
243.0
 20
334.0754999999999
 30
0.0
 11
243.0
 21
333.9354999999999
 31
0.0
  0
LINE
  5
7A7
330
1D
100
AcDbEntity
  8
0
100
AcDbLine
 10
243.0
 20
334.0754999999999
 30
0.0
 11
242.5788999999999
 21
334.1755
 31
0.0
  0
LINE
  5
7A8
330
1D
100
AcDbEntity
  8
0
100
AcDbLine
 10
243.0
 20
333.9354999999999
 30
0.0
 11
243.0
 21
334.0754999999999
 31
0.0
  0
LINE
  5
7A9
330
1D
100
AcDbEntity
  8
0
100
AcDbLine
 10
243.0
 20
333.9354999999999
 30
0.0
 11
243.0
 21
333.1755
 31
0.0
  0
LINE
  5
7AA
330
1D
100
AcDbEntity
  8
0
100
AcDbLine
 10
241.9894999999999
 20
334.1755
 30
0.0
 11
240.4737
 21
334.1755
 31
0.0
  0
LINE
  5
7AB
330
1D
100
AcDbEntity
  8
0
100
AcDbLine
 10
241.6287
 20
333.1755
 30
0.0
 11
238.9578999999999
 21
333.8115
 31
0.0
  0
LINE
  5
7AC
330
1D
100
AcDbEntity
  8
0
100
AcDbLine
 10
242.5788999999999
 20
334.1755
 30
0.0
 11
241.9894999999999
 21
334.1755
 31
0.0
  0
LINE
  5
7AD
330
1D
100
AcDbEntity
  8
0
100
AcDbLine
 10
238.0316
 20
334.1755
 30
0.0
 11
234.7474
 21
334.1755
 31
0.0
  0
LINE
  5
7AE
330
1D
100
AcDbEntity
  8
0
100
AcDbLine
 10
256.3999999999999
 20
360.1755
 30
0.0
 11
251.0
 21
360.1755
 31
0.0
  0
LINE
  5
7AF
330
1D
100
AcDbEntity
  8
0
100
AcDbLine
 10
251.0
 20
360.1755
 30
0.0
 11
243.9
 21
360.1755
 31
0.0
  0
LINE
  5
7B0
330
1D
100
AcDbEntity
  8
0
100
AcDbLine
 10
243.9
 20
360.1755
 30
0.0
 11
235.6999999999999
 21
360.1755
 31
0.0
  0
LINE
  5
7B1
330
1D
100
AcDbEntity
  8
0
100
AcDbLine
 10
222.6481
 20
333.7565
 30
0.0
 11
218.8555
 21
333.9735
 31
0.0
  0
LINE
  5
7B2
330
1D
100
AcDbEntity
  8
0
100
AcDbLine
 10
222.9579
 20
334.1755
 30
0.0
 11
219.2527
 21
334.1755
 31
0.0
  0
LINE
  5
7B3
330
1D
100
AcDbEntity
  8
0
100
AcDbLine
 10
227.0
 20
334.6754999999999
 30
0.0
 11
218.4
 21
334.6754999999999
 31
0.0
  0
LINE
  5
7B4
330
1D
100
AcDbEntity
  8
0
100
AcDbLine
 10
228.9775
 20
333.1755
 30
0.0
 11
227.0
 21
333.1755
 31
0.0
  0
LINE
  5
7B5
330
1D
100
AcDbEntity
  8
0
100
AcDbLine
 10
231.0421
 20
334.1755
 30
0.0
 11
227.0
 21
334.1755
 31
0.0
  0
LINE
  5
7B6
330
1D
100
AcDbEntity
  8
0
100
AcDbLine
 10
225.0224999999999
 20
333.1755
 30
0.0
 11
222.6481
 21
333.7565
 31
0.0
  0
LINE
  5
7B7
330
1D
100
AcDbEntity
  8
0
100
AcDbLine
 10
227.0
 20
334.1755
 30
0.0
 11
222.9579
 21
334.1755
 31
0.0
  0
LINE
  5
7B8
330
1D
100
AcDbEntity
  8
0
100
AcDbLine
 10
227.0
 20
333.1755
 30
0.0
 11
225.0224999999999
 21
333.1755
 31
0.0
  0
LINE
  5
7B9
330
1D
100
AcDbEntity
  8
0
100
AcDbLine
 10
231.3518999999999
 20
333.7565
 30
0.0
 11
228.9775
 21
333.1755
 31
0.0
  0
LINE
  5
7BA
330
1D
100
AcDbEntity
  8
0
100
AcDbLine
 10
211.0
 20
333.1755
 30
0.0
 11
211.0
 21
333.9354999999999
 31
0.0
  0
LINE
  5
7BB
330
1D
100
AcDbEntity
  8
0
100
AcDbLine
 10
219.2527
 20
334.1755
 30
0.0
 11
215.9685
 21
334.1755
 31
0.0
  0
LINE
  5
7BC
330
1D
100
AcDbEntity
  8
0
100
AcDbLine
 10
211.0
 20
333.9354999999999
 30
0.0
 11
211.0
 21
333.1755
 31
0.0
  0
LINE
  5
7BD
330
1D
100
AcDbEntity
  8
0
100
AcDbLine
 10
211.4209999999999
 20
334.1755
 30
0.0
 11
211.0
 21
334.0754999999999
 31
0.0
  0
LINE
  5
7BE
330
1D
100
AcDbEntity
  8
0
100
AcDbLine
 10
211.4209999999999
 20
334.1755
 30
0.0
 11
210.8
 21
334.1755
 31
0.0
  0
LINE
  5
7BF
330
1D
100
AcDbEntity
  8
0
100
AcDbLine
 10
212.0105
 20
334.1755
 30
0.0
 11
211.4209999999999
 21
334.1755
 31
0.0
  0
LINE
  5
7C0
330
1D
100
AcDbEntity
  8
0
100
AcDbLine
 10
211.0
 20
334.0754999999999
 30
0.0
 11
211.0
 21
333.9354999999999
 31
0.0
  0
LINE
  5
7C1
330
1D
100
AcDbEntity
  8
0
100
AcDbLine
 10
215.9685
 20
334.1755
 30
0.0
 11
213.5263
 21
334.1755
 31
0.0
  0
LINE
  5
7C2
330
1D
100
AcDbEntity
  8
0
100
AcDbLine
 10
213.5263
 20
334.1755
 30
0.0
 11
212.0105
 21
334.1755
 31
0.0
  0
LINE
  5
7C3
330
1D
100
AcDbEntity
  8
0
100
AcDbLine
 10
218.8555
 20
333.9735
 30
0.0
 11
215.0421
 21
333.8115
 31
0.0
  0
LINE
  5
7C4
330
1D
100
AcDbEntity
  8
0
100
AcDbLine
 10
215.0421
 20
333.8115
 30
0.0
 11
212.3712999999999
 21
333.1755
 31
0.0
  0
LINE
  5
7C5
330
1D
100
AcDbEntity
  8
0
100
AcDbLine
 10
218.4
 20
334.6754999999999
 30
0.0
 11
210.3
 21
334.6754999999999
 31
0.0
  0
LINE
  5
7C6
330
1D
100
AcDbEntity
  8
0
100
AcDbLine
 10
218.3
 20
360.1755
 30
0.0
 11
210.0999999999999
 21
360.1755
 31
0.0
  0
LINE
  5
7C7
330
1D
100
AcDbEntity
  8
0
100
AcDbLine
 10
227.0
 20
360.1755
 30
0.0
 11
218.3
 21
360.1755
 31
0.0
  0
LINE
  5
7C8
330
1D
100
AcDbEntity
  8
0
100
AcDbLine
 10
204.0
 20
334.1755
 30
0.0
 11
198.9
 21
334.1755
 31
0.0
  0
LINE
  5
7C9
330
1D
100
AcDbEntity
  8
0
100
AcDbLine
 10
203.3
 20
334.6754999999999
 30
0.0
 11
198.0
 21
334.6754999999999
 31
0.0
  0
LINE
  5
7CA
330
1D
100
AcDbEntity
  8
0
100
AcDbLine
 10
203.0
 20
360.1755
 30
0.0
 11
197.5999999999999
 21
360.1755
 31
0.0
  0
LINE
  5
7CB
330
1D
100
AcDbEntity
  8
0
100
AcDbLine
 10
198.9
 20
334.1755
 30
0.0
 11
195.6999999999999
 21
334.1755
 31
0.0
  0
LINE
  5
7CC
330
1D
100
AcDbEntity
  8
0
100
AcDbLine
 10
198.0
 20
334.6754999999999
 30
0.0
 11
194.6999999999999
 21
334.6754999999999
 31
0.0
  0
LINE
  5
7CD
330
1D
100
AcDbEntity
  8
0
100
AcDbLine
 10
194.6999999999999
 20
334.6754999999999
 30
0.0
 11
193.5
 21
334.6754999999999
 31
0.0
  0
LINE
  5
7CE
330
1D
100
AcDbEntity
  8
0
100
AcDbLine
 10
195.6999999999999
 20
334.1755
 30
0.0
 11
194.5
 21
334.1755
 31
0.0
  0
LINE
  5
7CF
330
1D
100
AcDbEntity
  8
0
100
AcDbLine
 10
194.5
 20
334.1755
 30
0.0
 11
193.5
 21
334.6754999999999
 31
0.0
  0
LINE
  5
7D0
330
1D
100
AcDbEntity
  8
0
100
AcDbLine
 10
197.5999999999999
 20
360.1755
 30
0.0
 11
194.1999999999999
 21
360.1755
 31
0.0
  0
LINE
  5
7D1
330
1D
100
AcDbEntity
  8
0
100
AcDbLine
 10
193.0
 20
360.1755
 30
0.0
 11
193.0
 21
335.6755
 31
0.0
  0
LINE
  5
7D2
330
1D
100
AcDbEntity
  8
0
100
AcDbLine
 10
194.1999999999999
 20
360.1755
 30
0.0
 11
193.0
 21
360.1755
 31
0.0
  0
LINE
  5
7D3
330
1D
100
AcDbEntity
  8
0
100
AcDbLine
 10
193.5
 20
334.6754999999999
 30
0.0
 11
193.0
 21
335.6755
 31
0.0
  0
LINE
  5
7D4
330
1D
100
AcDbEntity
  8
0
100
AcDbLine
 10
193.0
 20
335.6755
 30
0.0
 11
193.0
 21
360.1755
 31
0.0
  0
LINE
  5
7D5
330
1D
100
AcDbEntity
  8
0
100
AcDbLine
 10
165.9909999999999
 20
94.5725
 30
0.0
 11
165.761
 21
95.8155
 31
0.0
  0
LINE
  5
7D6
330
1D
100
AcDbEntity
  8
0
100
AcDbLine
 10
165.557
 20
94.08050000000001
 30
0.0
 11
165.388
 21
95.3245
 31
0.0
  0
LINE
  5
7D7
330
1D
100
AcDbEntity
  8
0
100
AcDbLine
 10
163.0
 20
91.91781914893601
 30
0.0
 11
163.0
 21
104.4634999999999
 31
0.0
  0
LINE
  5
7D8
330
1D
100
AcDbEntity
  8
0
100
AcDbLine
 10
163.0
 20
104.4634999999999
 30
0.0
 11
163.0
 21
91.91781914893601
 31
0.0
  0
LINE
  5
7D9
330
1D
100
AcDbEntity
  8
0
100
AcDbLine
 10
161.8539999999999
 20
68.6725
 30
0.0
 11
160.71
 21
67.8155
 31
0.0
  0
LINE
  5
7DA
330
1D
100
AcDbEntity
  8
0
100
AcDbLine
 10
161.9209999999999
 20
72.30249999999999
 30
0.0
 11
160.768
 21
71.4395
 31
0.0
  0
LINE
  5
7DB
330
1D
100
AcDbEntity
  8
0
100
AcDbLine
 10
161.9209999999999
 20
74.9755
 30
0.0
 11
160.769
 21
74.11249999999999
 31
0.0
  0
LINE
  5
7DC
330
1D
100
AcDbEntity
  8
0
100
AcDbLine
 10
161.6789999999999
 20
76.5315
 30
0.0
 11
160.606
 21
75.65949999999999
 31
0.0
  0
LINE
  5
7DD
330
1D
100
AcDbEntity
  8
0
100
AcDbLine
 10
161.9079999999999
 20
80.23950000000001
 30
0.0
 11
160.9089999999999
 21
79.3965
 31
0.0
  0
LINE
  5
7DE
330
1D
100
AcDbEntity
  8
0
100
AcDbLine
 10
161.81
 20
84.24649999999999
 30
0.0
 11
160.84
 21
83.38549999999999
 31
0.0
  0
LINE
  5
7DF
330
1D
100
AcDbEntity
  8
0
100
AcDbLine
 10
161.9079999999999
 20
83.4945
 30
0.0
 11
160.9089999999999
 21
82.65249999999999
 31
0.0
  0
LINE
  5
7E0
330
1D
100
AcDbEntity
  8
0
100
AcDbLine
 10
161.9439999999999
 20
88.5035
 30
0.0
 11
161.3569999999999
 21
87.51949999999999
 31
0.0
  0
LINE
  5
7E1
330
1D
100
AcDbEntity
  8
0
100
AcDbLine
 10
164.677
 20
71.81350000000001
 30
0.0
 11
163.847
 21
70.68049999999999
 31
0.0
  0
LINE
  5
7E2
330
1D
100
AcDbEntity
  8
0
100
AcDbLine
 10
162.9039999999999
 20
69.63049999999999
 30
0.0
 11
161.8539999999999
 21
68.6725
 31
0.0
  0
LINE
  5
7E3
330
1D
100
AcDbEntity
  8
0
100
AcDbLine
 10
163.847
 20
70.68049999999999
 30
0.0
 11
162.9039999999999
 21
69.63049999999999
 31
0.0
  0
LINE
  5
7E4
330
1D
100
AcDbEntity
  8
0
100
AcDbLine
 10
166.992
 20
85.5545
 30
0.0
 11
166.992
 21
82.88149999999999
 31
0.0
  0
LINE
  5
7E5
330
1D
100
AcDbEntity
  8
0
100
AcDbLine
 10
166.992
 20
82.88149999999999
 30
0.0
 11
166.992
 21
85.5545
 31
0.0
  0
LINE
  5
7E6
330
1D
100
AcDbEntity
  8
0
100
AcDbLine
 10
166.992
 20
82.88149999999999
 30
0.0
 11
166.9779999999999
 21
83.76949999999999
 31
0.0
  0
LINE
  5
7E7
330
1D
100
AcDbEntity
  8
0
100
AcDbLine
 10
166.814
 20
83.2915
 30
0.0
 11
166.5049999999999
 21
81.93850000000001
 31
0.0
  0
LINE
  5
7E8
330
1D
100
AcDbEntity
  8
0
100
AcDbLine
 10
165.724
 20
83.43149999999999
 30
0.0
 11
165.372
 21
82.1395
 31
0.0
  0
LINE
  5
7E9
330
1D
100
AcDbEntity
  8
0
100
AcDbLine
 10
164.334
 20
83.2445
 30
0.0
 11
163.628
 21
82.17249999999999
 31
0.0
  0
LINE
  5
7EA
330
1D
100
AcDbEntity
  8
0
100
AcDbLine
 10
166.0579999999999
 20
77.9475
 30
0.0
 11
165.4749999999999
 21
76.6755
 31
0.0
  0
LINE
  5
7EB
330
1D
100
AcDbEntity
  8
0
100
AcDbLine
 10
164.763
 20
78.1375
 30
0.0
 11
163.927
 21
76.9975
 31
0.0
  0
LINE
  5
7EC
330
1D
100
AcDbEntity
  8
0
100
AcDbLine
 10
162.654
 20
77.4995
 30
0.0
 11
161.6789999999999
 21
76.5315
 31
0.0
  0
LINE
  5
7ED
330
1D
100
AcDbEntity
  8
0
100
AcDbLine
 10
166.8779999999999
 20
78.2995
 30
0.0
 11
166.714
 21
76.9345
 31
0.0
  0
LINE
  5
7EE
330
1D
100
AcDbEntity
  8
0
100
AcDbLine
 10
162.976
 20
73.2675
 30
0.0
 11
161.9209999999999
 21
72.30249999999999
 31
0.0
  0
LINE
  5
7EF
330
1D
100
AcDbEntity
  8
0
100
AcDbLine
 10
163.928
 20
74.3245
 30
0.0
 11
162.976
 21
73.2675
 31
0.0
  0
LINE
  5
7F0
330
1D
100
AcDbEntity
  8
0
100
AcDbLine
 10
164.763
 20
75.4645
 30
0.0
 11
163.928
 21
74.3245
 31
0.0
  0
LINE
  5
7F1
330
1D
100
AcDbEntity
  8
0
100
AcDbLine
 10
165.385
 20
73.01649999999999
 30
0.0
 11
164.677
 21
71.81350000000001
 31
0.0
  0
LINE
  5
7F2
330
1D
100
AcDbEntity
  8
0
100
AcDbLine
 10
165.964
 20
74.2795
 30
0.0
 11
165.385
 21
73.01649999999999
 31
0.0
  0
LINE
  5
7F3
330
1D
100
AcDbEntity
  8
0
100
AcDbLine
 10
162.977
 20
75.93949999999999
 30
0.0
 11
161.9209999999999
 21
74.9755
 31
0.0
  0
LINE
  5
7F4
330
1D
100
AcDbEntity
  8
0
100
AcDbLine
 10
166.408
 20
75.58849999999999
 30
0.0
 11
165.964
 21
74.2795
 31
0.0
  0
LINE
  5
7F5
330
1D
100
AcDbEntity
  8
0
100
AcDbLine
 10
165.4749999999999
 20
76.6755
 30
0.0
 11
164.763
 21
75.4645
 31
0.0
  0
LINE
  5
7F6
330
1D
100
AcDbEntity
  8
0
100
AcDbLine
 10
163.927
 20
76.9975
 30
0.0
 11
162.977
 21
75.93949999999999
 31
0.0
  0
LINE
  5
7F7
330
1D
100
AcDbEntity
  8
0
100
AcDbLine
 10
166.714
 20
76.9345
 30
0.0
 11
166.408
 21
75.58849999999999
 31
0.0
  0
LINE
  5
7F8
330
1D
100
AcDbEntity
  8
0
100
AcDbLine
 10
164.8849999999999
 20
80.88849999999998
 30
0.0
 11
164.264
 21
79.6905
 31
0.0
  0
LINE
  5
7F9
330
1D
100
AcDbEntity
  8
0
100
AcDbLine
 10
166.9779999999999
 20
81.9935
 30
0.0
 11
166.814
 21
80.61849999999999
 31
0.0
  0
LINE
  5
7FA
330
1D
100
AcDbEntity
  8
0
100
AcDbLine
 10
166.992
 20
82.88149999999999
 30
0.0
 11
166.9779999999999
 21
81.9935
 31
0.0
  0
LINE
  5
7FB
330
1D
100
AcDbEntity
  8
0
100
AcDbLine
 10
166.8909999999999
 20
81.26407926829299
 30
0.0
 11
166.8909999999999
 21
79.1805
 31
0.0
  0
LINE
  5
7FC
330
1D
100
AcDbEntity
  8
0
100
AcDbLine
 10
166.5059999999999
 20
79.2655
 30
0.0
 11
166.0579999999999
 21
77.9475
 31
0.0
  0
LINE
  5
7FD
330
1D
100
AcDbEntity
  8
0
100
AcDbLine
 10
165.4749999999999
 20
79.3485
 30
0.0
 11
164.763
 21
78.1375
 31
0.0
  0
LINE
  5
7FE
330
1D
100
AcDbEntity
  8
0
100
AcDbLine
 10
166.0579999999999
 20
80.61950000000001
 30
0.0
 11
165.4749999999999
 21
79.3485
 31
0.0
  0
LINE
  5
7FF
330
1D
100
AcDbEntity
  8
0
100
AcDbLine
 10
166.814
 20
80.61849999999999
 30
0.0
 11
166.5059999999999
 21
79.2655
 31
0.0
  0
LINE
  5
800
330
1D
100
AcDbEntity
  8
0
100
AcDbLine
 10
166.5049999999999
 20
81.93850000000001
 30
0.0
 11
166.0579999999999
 21
80.61950000000001
 31
0.0
  0
LINE
  5
801
330
1D
100
AcDbEntity
  8
0
100
AcDbLine
 10
165.372
 20
82.1395
 30
0.0
 11
164.8849999999999
 21
80.88849999999998
 31
0.0
  0
LINE
  5
802
330
1D
100
AcDbEntity
  8
0
100
AcDbLine
 10
166.8909999999999
 20
79.1805
 30
0.0
 11
166.8779999999999
 21
78.2995
 31
0.0
  0
LINE
  5
803
330
1D
100
AcDbEntity
  8
0
100
AcDbLine
 10
166.8909999999999
 20
79.1805
 30
0.0
 11
166.8909999999999
 21
81.26407926829299
 31
0.0
  0
LINE
  5
804
330
1D
100
AcDbEntity
  8
0
100
AcDbLine
 10
166.8909999999999
 20
79.1805
 30
0.0
 11
166.8779999999999
 21
80.06249999999999
 31
0.0
  0
LINE
  5
805
330
1D
100
AcDbEntity
  8
0
100
AcDbLine
 10
163.518
 20
78.5565
 30
0.0
 11
162.654
 21
77.4995
 31
0.0
  0
LINE
  5
806
330
1D
100
AcDbEntity
  8
0
100
AcDbLine
 10
162.817
 20
81.16750000000001
 30
0.0
 11
161.9079999999999
 21
80.23950000000001
 31
0.0
  0
LINE
  5
807
330
1D
100
AcDbEntity
  8
0
100
AcDbLine
 10
163.628
 20
82.17249999999999
 30
0.0
 11
162.817
 21
81.16750000000001
 31
0.0
  0
LINE
  5
808
330
1D
100
AcDbEntity
  8
0
100
AcDbLine
 10
164.264
 20
79.6905
 30
0.0
 11
163.518
 21
78.5565
 31
0.0
  0
LINE
  5
809
330
1D
100
AcDbEntity
  8
0
100
AcDbLine
 10
166.814
 20
87.8185
 30
0.0
 11
166.5049999999999
 21
89.17050000000001
 31
0.0
  0
LINE
  5
80A
330
1D
100
AcDbEntity
  8
0
100
AcDbLine
 10
166.0949999999999
 20
89.26949999999999
 30
0.0
 11
165.992
 21
88.01250000000001
 31
0.0
  0
LINE
  5
80B
330
1D
100
AcDbEntity
  8
0
100
AcDbLine
 10
165.761
 20
90.0265
 30
0.0
 11
165.4049999999999
 21
88.8095
 31
0.0
  0
LINE
  5
80C
330
1D
100
AcDbEntity
  8
0
100
AcDbLine
 10
165.0909999999999
 20
89.6375
 30
0.0
 11
164.667
 21
88.44849999999999
 31
0.0
  0
LINE
  5
80D
330
1D
100
AcDbEntity
  8
0
100
AcDbLine
 10
162.4129999999999
 20
89.5395
 30
0.0
 11
161.9439999999999
 21
88.5035
 31
0.0
  0
LINE
  5
80E
330
1D
100
AcDbEntity
  8
0
100
AcDbLine
 10
164.928
 20
87.63150000000001
 30
0.0
 11
164.334
 21
86.4995
 31
0.0
  0
LINE
  5
80F
330
1D
100
AcDbEntity
  8
0
100
AcDbLine
 10
164.928
 20
84.37649999999999
 30
0.0
 11
164.334
 21
83.2445
 31
0.0
  0
LINE
  5
810
330
1D
100
AcDbEntity
  8
0
100
AcDbLine
 10
164.667
 20
88.44849999999999
 30
0.0
 11
164.1209999999999
 21
87.30349999999999
 31
0.0
  0
LINE
  5
811
330
1D
100
AcDbEntity
  8
0
100
AcDbLine
 10
166.992
 20
85.5545
 30
0.0
 11
166.9779999999999
 21
86.44150000000001
 31
0.0
  0
LINE
  5
812
330
1D
100
AcDbEntity
  8
0
100
AcDbLine
 10
165.999
 20
86.0335
 30
0.0
 11
165.934
 21
84.74949999999999
 31
0.0
  0
LINE
  5
813
330
1D
100
AcDbEntity
  8
0
100
AcDbLine
 10
165.761
 20
86.77150000000001
 30
0.0
 11
165.4049999999999
 21
85.5545
 31
0.0
  0
LINE
  5
814
330
1D
100
AcDbEntity
  8
0
100
AcDbLine
 10
166.992
 20
85.5545
 30
0.0
 11
166.9779999999999
 21
84.66750000000001
 31
0.0
  0
LINE
  5
815
330
1D
100
AcDbEntity
  8
0
100
AcDbLine
 10
166.9779999999999
 20
84.66750000000001
 30
0.0
 11
166.814
 21
83.2915
 31
0.0
  0
LINE
  5
816
330
1D
100
AcDbEntity
  8
0
100
AcDbLine
 10
165.934
 20
84.74949999999999
 30
0.0
 11
165.724
 21
83.43149999999999
 31
0.0
  0
LINE
  5
817
330
1D
100
AcDbEntity
  8
0
100
AcDbLine
 10
165.4049999999999
 20
85.5545
 30
0.0
 11
164.928
 21
84.37649999999999
 31
0.0
  0
LINE
  5
818
330
1D
100
AcDbEntity
  8
0
100
AcDbLine
 10
166.9779999999999
 20
86.44150000000001
 30
0.0
 11
166.814
 21
87.8185
 31
0.0
  0
LINE
  5
819
330
1D
100
AcDbEntity
  8
0
100
AcDbLine
 10
165.934
 20
87.31849999999999
 30
0.0
 11
165.901171101531
 21
87.524540419914
 31
0.0
  0
LINE
  5
81A
330
1D
100
AcDbEntity
  8
0
100
AcDbLine
 10
165.992
 20
88.01250000000001
 30
0.0
 11
165.761
 21
86.77150000000001
 31
0.0
  0
LINE
  5
81B
330
1D
100
AcDbEntity
  8
0
100
AcDbLine
 10
165.999
 20
86.0335
 30
0.0
 11
165.934
 21
87.31849999999999
 31
0.0
  0
LINE
  5
81C
330
1D
100
AcDbEntity
  8
0
100
AcDbLine
 10
165.4049999999999
 20
88.8095
 30
0.0
 11
164.928
 21
87.63150000000001
 31
0.0
  0
LINE
  5
81D
330
1D
100
AcDbEntity
  8
0
100
AcDbLine
 10
164.334
 20
86.4995
 30
0.0
 11
163.628
 21
85.42749999999999
 31
0.0
  0
LINE
  5
81E
330
1D
100
AcDbEntity
  8
0
100
AcDbLine
 10
162.817
 20
84.42249999999999
 30
0.0
 11
161.9079999999999
 21
83.4945
 31
0.0
  0
LINE
  5
81F
330
1D
100
AcDbEntity
  8
0
100
AcDbLine
 10
163.459
 20
86.2155
 30
0.0
 11
162.686
 21
85.19350000000001
 31
0.0
  0
LINE
  5
820
330
1D
100
AcDbEntity
  8
0
100
AcDbLine
 10
162.686
 20
85.19350000000001
 30
0.0
 11
161.81
 21
84.24649999999999
 31
0.0
  0
LINE
  5
821
330
1D
100
AcDbEntity
  8
0
100
AcDbLine
 10
163.628
 20
85.42749999999999
 30
0.0
 11
162.817
 21
84.42249999999999
 31
0.0
  0
LINE
  5
822
330
1D
100
AcDbEntity
  8
0
100
AcDbLine
 10
164.1209999999999
 20
87.30349999999999
 30
0.0
 11
163.459
 21
86.2155
 31
0.0
  0
LINE
  5
823
330
1D
100
AcDbEntity
  8
0
100
AcDbLine
 10
166.0959999999999
 20
91.60349999999999
 30
0.0
 11
166.0949999999999
 21
93.31749999999999
 31
0.0
  0
LINE
  5
824
330
1D
100
AcDbEntity
  8
0
100
AcDbLine
 10
166.0949999999999
 20
92.52549999999999
 30
0.0
 11
165.9909999999999
 21
91.26850000000001
 31
0.0
  0
LINE
  5
825
330
1D
100
AcDbEntity
  8
0
100
AcDbLine
 10
166.0959999999999
 20
90.81149999999999
 30
0.0
 11
166.0949999999999
 21
92.52549999999999
 31
0.0
  0
LINE
  5
826
330
1D
100
AcDbEntity
  8
0
100
AcDbLine
 10
165.557
 20
92.1035
 30
0.0
 11
165.388
 21
90.8605
 31
0.0
  0
LINE
  5
827
330
1D
100
AcDbEntity
  8
0
100
AcDbLine
 10
166.5049999999999
 20
89.17050000000001
 30
0.0
 11
166.0957190009169
 21
90.378199413403
 31
0.0
  0
LINE
  5
828
330
1D
100
AcDbEntity
  8
0
100
AcDbLine
 10
166.0959999999999
 20
91.60349999999999
 30
0.0
 11
166.095756682028
 21
91.228547004608
 31
0.0
  0
LINE
  5
829
330
1D
100
AcDbEntity
  8
0
100
AcDbLine
 10
166.0959999999999
 20
90.81149999999999
 30
0.0
 11
166.0949999999999
 21
89.26949999999999
 31
0.0
  0
LINE
  5
82A
330
1D
100
AcDbEntity
  8
0
100
AcDbLine
 10
165.9909999999999
 20
91.26850000000001
 30
0.0
 11
165.761
 21
90.0265
 31
0.0
  0
LINE
  5
82B
330
1D
100
AcDbEntity
  8
0
100
AcDbLine
 10
165.388
 20
90.8605
 30
0.0
 11
165.0909999999999
 21
89.6375
 31
0.0
  0
LINE
  5
82C
330
1D
100
AcDbEntity
  8
0
100
AcDbLine
 10
166.0949999999999
 20
93.31749999999999
 30
0.0
 11
166.0879999999999
 21
92.92050000000001
 31
0.0
  0
LINE
  5
82D
330
1D
100
AcDbEntity
  8
0
100
AcDbLine
 10
166.0949999999999
 20
93.31749999999999
 30
0.0
 11
165.9909999999999
 21
94.5725
 31
0.0
  0
LINE
  5
82E
330
1D
100
AcDbEntity
  8
0
100
AcDbLine
 10
166.0949999999999
 20
92.52549999999999
 30
0.0
 11
166.0879999999999
 21
92.92050000000001
 31
0.0
  0
LINE
  5
82F
330
1D
100
AcDbEntity
  8
0
100
AcDbLine
 10
165.5879999999999
 20
93.0925
 30
0.0
 11
165.557
 21
92.1035
 31
0.0
  0
LINE
  5
830
330
1D
100
AcDbEntity
  8
0
100
AcDbLine
 10
165.5879999999999
 20
93.0925
 30
0.0
 11
165.557
 21
94.08050000000001
 31
0.0
  0
LINE
  5
831
330
1D
100
AcDbEntity
  8
0
100
AcDbLine
 10
162.9894658244249
 20
91.791857304827
 30
0.0
 11
162.975273304621
 21
91.682945141981
 31
0.0
  0
LINE
  5
832
330
1D
100
AcDbEntity
  8
0
100
AcDbLine
 10
162.984
 20
91.7265
 30
0.0
 11
162.762
 21
90.61849999999999
 31
0.0
  0
LINE
  5
833
330
1D
100
AcDbEntity
  8
0
100
AcDbLine
 10
162.762
 20
90.61849999999999
 30
0.0
 11
162.4129999999999
 21
89.5395
 31
0.0
  0
LINE
  5
834
330
1D
100
AcDbEntity
  8
0
100
AcDbLine
 10
160.768
 20
71.4395
 30
0.0
 11
159.5329999999999
 21
70.68649999999999
 31
0.0
  0
LINE
  5
835
330
1D
100
AcDbEntity
  8
0
100
AcDbLine
 10
156.8229999999999
 20
65.9285
 30
0.0
 11
155.417
 21
65.5485
 31
0.0
  0
LINE
  5
836
330
1D
100
AcDbEntity
  8
0
100
AcDbLine
 10
158.182
 20
66.4365
 30
0.0
 11
156.8229999999999
 21
65.9285
 31
0.0
  0
LINE
  5
837
330
1D
100
AcDbEntity
  8
0
100
AcDbLine
 10
159.4829999999999
 20
67.06749999999999
 30
0.0
 11
158.182
 21
66.4365
 31
0.0
  0
LINE
  5
838
330
1D
100
AcDbEntity
  8
0
100
AcDbLine
 10
160.71
 20
67.8155
 30
0.0
 11
159.4829999999999
 21
67.06749999999999
 31
0.0
  0
LINE
  5
839
330
1D
100
AcDbEntity
  8
0
100
AcDbLine
 10
156.8559999999999
 20
69.54049999999999
 30
0.0
 11
155.441
 21
69.1575
 31
0.0
  0
LINE
  5
83A
330
1D
100
AcDbEntity
  8
0
100
AcDbLine
 10
158.2239999999999
 20
70.0515
 30
0.0
 11
156.8559999999999
 21
69.54049999999999
 31
0.0
  0
LINE
  5
83B
330
1D
100
AcDbEntity
  8
0
100
AcDbLine
 10
159.5329999999999
 20
70.68649999999999
 30
0.0
 11
158.2239999999999
 21
70.0515
 31
0.0
  0
LINE
  5
83C
330
1D
100
AcDbEntity
  8
0
100
AcDbLine
 10
153.9779999999999
 20
65.29949999999999
 30
0.0
 11
152.52
 21
65.18349999999999
 31
0.0
  0
LINE
  5
83D
330
1D
100
AcDbEntity
  8
0
100
AcDbLine
 10
155.441
 20
69.1575
 30
0.0
 11
153.991
 21
68.90649999999999
 31
0.0
  0
LINE
  5
83E
330
1D
100
AcDbEntity
  8
0
100
AcDbLine
 10
153.991
 20
68.90649999999999
 30
0.0
 11
152.524
 21
68.7895
 31
0.0
  0
LINE
  5
83F
330
1D
100
AcDbEntity
  8
0
100
AcDbLine
 10
155.417
 20
65.5485
 30
0.0
 11
153.9779999999999
 21
65.29949999999999
 31
0.0
  0
LINE
  5
840
330
1D
100
AcDbEntity
  8
0
100
AcDbLine
 10
152.524
 20
68.7895
 30
0.0
 11
152.0
 21
68.79649999999999
 31
0.0
  0
LINE
  5
841
330
1D
100
AcDbEntity
  8
0
100
AcDbLine
 10
152.52
 20
65.18349999999999
 30
0.0
 11
152.0
 21
65.1905
 31
0.0
  0
LINE
  5
842
330
1D
100
AcDbEntity
  8
0
100
AcDbLine
 10
160.84
 20
83.38549999999999
 30
0.0
 11
159.7839999999999
 21
82.6185
 31
0.0
  0
LINE
  5
843
330
1D
100
AcDbEntity
  8
0
100
AcDbLine
 10
154.712
 20
83.0005
 30
0.0
 11
153.5339999999999
 21
82.78350000000001
 31
0.0
  0
LINE
  5
844
330
1D
100
AcDbEntity
  8
0
100
AcDbLine
 10
156.8559999999999
 20
72.2135
 30
0.0
 11
155.44
 21
71.82949999999999
 31
0.0
  0
LINE
  5
845
330
1D
100
AcDbEntity
  8
0
100
AcDbLine
 10
156.905
 20
73.7145
 30
0.0
 11
155.553
 21
73.3115
 31
0.0
  0
LINE
  5
846
330
1D
100
AcDbEntity
  8
0
100
AcDbLine
 10
156.2079999999999
 20
77.0215
 30
0.0
 11
154.9099999999999
 21
76.7025
 31
0.0
  0
LINE
  5
847
330
1D
100
AcDbEntity
  8
0
100
AcDbLine
 10
156.2129999999999
 20
80.94549999999999
 30
0.0
 11
154.925
 21
80.6165
 31
0.0
  0
LINE
  5
848
330
1D
100
AcDbEntity
  8
0
100
AcDbLine
 10
156.2079999999999
 20
80.27649999999999
 30
0.0
 11
154.9099999999999
 21
79.9575
 31
0.0
  0
LINE
  5
849
330
1D
100
AcDbEntity
  8
0
100
AcDbLine
 10
159.5329999999999
 20
73.3595
 30
0.0
 11
158.2239999999999
 21
72.7245
 31
0.0
  0
LINE
  5
84A
330
1D
100
AcDbEntity
  8
0
100
AcDbLine
 10
159.4439999999999
 20
74.89449999999999
 30
0.0
 11
158.2069999999999
 21
74.2445
 31
0.0
  0
LINE
  5
84B
330
1D
100
AcDbEntity
  8
0
100
AcDbLine
 10
160.769
 20
74.11249999999999
 30
0.0
 11
159.5329999999999
 21
73.3595
 31
0.0
  0
LINE
  5
84C
330
1D
100
AcDbEntity
  8
0
100
AcDbLine
 10
160.606
 20
75.65949999999999
 30
0.0
 11
159.4439999999999
 21
74.89449999999999
 31
0.0
  0
LINE
  5
84D
330
1D
100
AcDbEntity
  8
0
100
AcDbLine
 10
158.2239999999999
 20
72.7245
 30
0.0
 11
156.8559999999999
 21
72.2135
 31
0.0
  0
LINE
  5
84E
330
1D
100
AcDbEntity
  8
0
100
AcDbLine
 10
158.2069999999999
 20
74.2445
 30
0.0
 11
156.905
 21
73.7145
 31
0.0
  0
LINE
  5
84F
330
1D
100
AcDbEntity
  8
0
100
AcDbLine
 10
160.9089999999999
 20
82.65249999999999
 30
0.0
 11
159.831
 21
81.9035
 31
0.0
  0
LINE
  5
850
330
1D
100
AcDbEntity
  8
0
100
AcDbLine
 10
160.9089999999999
 20
79.3965
 30
0.0
 11
159.83
 21
78.6485
 31
0.0
  0
LINE
  5
851
330
1D
100
AcDbEntity
  8
0
100
AcDbLine
 10
159.831
 20
81.9035
 30
0.0
 11
158.68
 21
81.25449999999998
 31
0.0
  0
LINE
  5
852
330
1D
100
AcDbEntity
  8
0
100
AcDbLine
 10
159.7839999999999
 20
82.6185
 30
0.0
 11
158.654
 21
81.95149999999999
 31
0.0
  0
LINE
  5
853
330
1D
100
AcDbEntity
  8
0
100
AcDbLine
 10
159.83
 20
78.6485
 30
0.0
 11
158.68
 21
77.99850000000001
 31
0.0
  0
LINE
  5
854
330
1D
100
AcDbEntity
  8
0
100
AcDbLine
 10
158.68
 20
81.25449999999998
 30
0.0
 11
157.4689999999999
 21
80.70950000000001
 31
0.0
  0
LINE
  5
855
330
1D
100
AcDbEntity
  8
0
100
AcDbLine
 10
158.654
 20
81.95149999999999
 30
0.0
 11
157.46
 21
81.3925
 31
0.0
  0
LINE
  5
856
330
1D
100
AcDbEntity
  8
0
100
AcDbLine
 10
157.46
 20
81.3925
 30
0.0
 11
156.2129999999999
 21
80.94549999999999
 31
0.0
  0
LINE
  5
857
330
1D
100
AcDbEntity
  8
0
100
AcDbLine
 10
157.4689999999999
 20
80.70950000000001
 30
0.0
 11
156.2079999999999
 21
80.27649999999999
 31
0.0
  0
LINE
  5
858
330
1D
100
AcDbEntity
  8
0
100
AcDbLine
 10
157.4689999999999
 20
77.45449999999999
 30
0.0
 11
156.2079999999999
 21
77.0215
 31
0.0
  0
LINE
  5
859
330
1D
100
AcDbEntity
  8
0
100
AcDbLine
 10
158.68
 20
77.99850000000001
 30
0.0
 11
157.4689999999999
 21
77.45449999999999
 31
0.0
  0
LINE
  5
85A
330
1D
100
AcDbEntity
  8
0
100
AcDbLine
 10
153.991
 20
71.5785
 30
0.0
 11
152.524
 21
71.46250000000001
 31
0.0
  0
LINE
  5
85B
330
1D
100
AcDbEntity
  8
0
100
AcDbLine
 10
152.7539999999999
 20
72.89950000000001
 30
0.0
 11
152.0
 21
72.89749999999999
 31
0.0
  0
LINE
  5
85C
330
1D
100
AcDbEntity
  8
0
100
AcDbLine
 10
153.585
 20
76.5015
 30
0.0
 11
152.247
 21
76.4195
 31
0.0
  0
LINE
  5
85D
330
1D
100
AcDbEntity
  8
0
100
AcDbLine
 10
155.44
 20
71.82949999999999
 30
0.0
 11
153.991
 21
71.5785
 31
0.0
  0
LINE
  5
85E
330
1D
100
AcDbEntity
  8
0
100
AcDbLine
 10
155.553
 20
73.3115
 30
0.0
 11
154.1649999999999
 21
73.0385
 31
0.0
  0
LINE
  5
85F
330
1D
100
AcDbEntity
  8
0
100
AcDbLine
 10
154.1649999999999
 20
73.0385
 30
0.0
 11
152.7539999999999
 21
72.89950000000001
 31
0.0
  0
LINE
  5
860
330
1D
100
AcDbEntity
  8
0
100
AcDbLine
 10
154.9099999999999
 20
76.7025
 30
0.0
 11
153.585
 21
76.5015
 31
0.0
  0
LINE
  5
861
330
1D
100
AcDbEntity
  8
0
100
AcDbLine
 10
152.524
 20
71.46250000000001
 30
0.0
 11
152.0
 21
71.4695
 31
0.0
  0
LINE
  5
862
330
1D
100
AcDbEntity
  8
0
100
AcDbLine
 10
152.0
 20
76.4265
 30
0.0
 11
151.7529999999999
 21
76.4195
 31
0.0
  0
LINE
  5
863
330
1D
100
AcDbEntity
  8
0
100
AcDbLine
 10
152.247
 20
76.4195
 30
0.0
 11
152.0
 21
76.4265
 31
0.0
  0
LINE
  5
864
330
1D
100
AcDbEntity
  8
0
100
AcDbLine
 10
153.609
 20
80.40649999999999
 30
0.0
 11
152.278
 21
80.32049999999999
 31
0.0
  0
LINE
  5
865
330
1D
100
AcDbEntity
  8
0
100
AcDbLine
 10
154.925
 20
80.6165
 30
0.0
 11
153.609
 21
80.40649999999999
 31
0.0
  0
LINE
  5
866
330
1D
100
AcDbEntity
  8
0
100
AcDbLine
 10
154.9099999999999
 20
79.9575
 30
0.0
 11
153.585
 21
79.7565
 31
0.0
  0
LINE
  5
867
330
1D
100
AcDbEntity
  8
0
100
AcDbLine
 10
153.585
 20
79.7565
 30
0.0
 11
152.247
 21
79.67449999999999
 31
0.0
  0
LINE
  5
868
330
1D
100
AcDbEntity
  8
0
100
AcDbLine
 10
153.5339999999999
 20
82.78350000000001
 30
0.0
 11
152.3379999999999
 21
82.6885
 31
0.0
  0
LINE
  5
869
330
1D
100
AcDbEntity
  8
0
100
AcDbLine
 10
152.0
 20
80.3275
 30
0.0
 11
151.722
 21
80.32049999999999
 31
0.0
  0
LINE
  5
86A
330
1D
100
AcDbEntity
  8
0
100
AcDbLine
 10
152.0
 20
79.6815
 30
0.0
 11
151.7529999999999
 21
79.67449999999999
 31
0.0
  0
LINE
  5
86B
330
1D
100
AcDbEntity
  8
0
100
AcDbLine
 10
152.0
 20
82.6965
 30
0.0
 11
151.662
 21
82.6885
 31
0.0
  0
LINE
  5
86C
330
1D
100
AcDbEntity
  8
0
100
AcDbLine
 10
152.247
 20
79.67449999999999
 30
0.0
 11
152.0
 21
79.6815
 31
0.0
  0
LINE
  5
86D
330
1D
100
AcDbEntity
  8
0
100
AcDbLine
 10
152.278
 20
80.32049999999999
 30
0.0
 11
152.0
 21
80.3275
 31
0.0
  0
LINE
  5
86E
330
1D
100
AcDbEntity
  8
0
100
AcDbLine
 10
152.3379999999999
 20
82.6885
 30
0.0
 11
152.0
 21
82.6965
 31
0.0
  0
LINE
  5
86F
330
1D
100
AcDbEntity
  8
0
100
AcDbLine
 10
161.3569999999999
 20
87.51949999999999
 30
0.0
 11
160.661
 21
86.60149999999999
 31
0.0
  0
LINE
  5
870
330
1D
100
AcDbEntity
  8
0
100
AcDbLine
 10
160.661
 20
86.60149999999999
 30
0.0
 11
159.8619999999999
 21
85.7585
 31
0.0
  0
LINE
  5
871
330
1D
100
AcDbEntity
  8
0
100
AcDbLine
 10
159.8619999999999
 20
85.7585
 30
0.0
 11
158.9719999999999
 21
85.0035
 31
0.0
  0
LINE
  5
872
330
1D
100
AcDbEntity
  8
0
100
AcDbLine
 10
158.9719999999999
 20
85.0035
 30
0.0
 11
158.0
 21
84.3425
 31
0.0
  0
LINE
  5
873
330
1D
100
AcDbEntity
  8
0
100
AcDbLine
 10
158.0
 20
84.3425
 30
0.0
 11
156.958
 21
83.78449999999999
 31
0.0
  0
LINE
  5
874
330
1D
100
AcDbEntity
  8
0
100
AcDbLine
 10
156.958
 20
83.78449999999999
 30
0.0
 11
155.857
 21
83.3345
 31
0.0
  0
LINE
  5
875
330
1D
100
AcDbEntity
  8
0
100
AcDbLine
 10
155.857
 20
83.3345
 30
0.0
 11
154.712
 21
83.0005
 31
0.0
  0
LINE
  5
876
330
1D
100
AcDbEntity
  8
0
100
AcDbLine
 10
165.761
 20
95.8155
 30
0.0
 11
165.4049999999999
 21
97.0325
 31
0.0
  0
LINE
  5
877
330
1D
100
AcDbEntity
  8
0
100
AcDbLine
 10
165.4049999999999
 20
97.0325
 30
0.0
 11
164.928
 21
98.21049999999999
 31
0.0
  0
LINE
  5
878
330
1D
100
AcDbEntity
  8
0
100
AcDbLine
 10
165.388
 20
95.3245
 30
0.0
 11
165.0909999999999
 21
96.5465
 31
0.0
  0
LINE
  5
879
330
1D
100
AcDbEntity
  8
0
100
AcDbLine
 10
164.928
 20
98.21049999999999
 30
0.0
 11
164.334
 21
99.3415
 31
0.0
  0
LINE
  5
87A
330
1D
100
AcDbEntity
  8
0
100
AcDbLine
 10
165.0909999999999
 20
96.5465
 30
0.0
 11
164.667
 21
97.73650000000001
 31
0.0
  0
LINE
  5
87B
330
1D
100
AcDbEntity
  8
0
100
AcDbLine
 10
164.667
 20
97.73650000000001
 30
0.0
 11
164.1209999999999
 21
98.88049999999999
 31
0.0
  0
LINE
  5
87C
330
1D
100
AcDbEntity
  8
0
100
AcDbLine
 10
164.334
 20
99.3415
 30
0.0
 11
163.628
 21
100.4134999999999
 31
0.0
  0
LINE
  5
87D
330
1D
100
AcDbEntity
  8
0
100
AcDbLine
 10
164.1209999999999
 20
98.88049999999999
 30
0.0
 11
163.459
 21
99.9695
 31
0.0
  0
LINE
  5
87E
330
1D
100
AcDbEntity
  8
0
100
AcDbLine
 10
163.628
 20
100.4134999999999
 30
0.0
 11
163.0
 21
101.1924987669539
 31
0.0
  0
LINE
  5
87F
330
1D
100
AcDbEntity
  8
0
100
AcDbLine
 10
163.459
 20
99.9695
 30
0.0
 11
163.0
 21
100.5763538162999
 31
0.0
  0
LINE
  5
880
330
1D
100
AcDbEntity
  8
0
100
AcDbLine
 10
20.1
 20
283.2074999999999
 30
0.0
 11
0.1
 21
283.2074999999999
 31
0.0
  0
ENDSEC
  0
SECTION
  2
OBJECTS
  0
DICTIONARY
  5
C
330
0
100
AcDbDictionary
281
     1
  3
ACAD_GROUP
350
D
  3
ACAD_LAYOUT
350
1A
  3
ACAD_MLEADERSTYLE
350
883
  3
ACAD_MLINESTYLE
350
17
  3
ACAD_PLOTSETTINGS
350
19
  3
ACAD_PLOTSTYLENAME
350
E
  3
ACAD_SCALELIST
350
72C
  3
AcDbVariableDictionary
350
881
  3
DWGPROPS
350
886
  0
DICTIONARY
  5
D
102
{ACAD_REACTORS
330
C
102
}
330
C
100
AcDbDictionary
281
     1
  0
DICTIONARY
  5
1A
102
{ACAD_REACTORS
330
C
102
}
330
C
100
AcDbDictionary
281
     1
  3
Layout1
350
1C
  3
Model
350
1E
  0
DICTIONARY
  5
883
102
{ACAD_REACTORS
330
C
102
}
330
C
100
AcDbDictionary
281
     1
  0
DICTIONARY
  5
17
102
{ACAD_REACTORS
330
C
102
}
330
C
100
AcDbDictionary
281
     1
  3
Standard
350
18
  0
DICTIONARY
  5
19
102
{ACAD_REACTORS
330
C
102
}
330
C
100
AcDbDictionary
281
     1
  0
ACDBDICTIONARYWDFLT
  5
E
102
{ACAD_REACTORS
330
C
102
}
330
C
100
AcDbDictionary
281
     1
  3
Normal
350
F
100
AcDbDictionaryWithDefault
340
F
  0
DICTIONARY
  5
72C
102
{ACAD_REACTORS
330
C
102
}
330
C
100
AcDbDictionary
281
     1
  3
A0
350
72D
  3
A1
350
72E
  3
A2
350
72F
  3
A3
350
730
  3
A4
350
731
  3
A5
350
732
  3
A6
350
733
  3
A7
350
734
  3
A8
350
735
  3
A9
350
736
  3
B0
350
737
  3
B1
350
738
  3
B2
350
739
  3
B3
350
73A
  3
B4
350
73B
  3
B5
350
73C
  3
B6
350
73D
  3
B7
350
73E
  3
B8
350
73F
  3
B9
350
740
  3
C0
350
741
  3
C1
350
742
  3
C2
350
743
  3
C3
350
744
  3
C4
350
745
  3
C5
350
746
  3
C6
350
747
  3
C7
350
748
  3
C8
350
749
  3
C9
350
74A
  3
D0
350
74B
  3
D1
350
74C
  3
D2
350
74D
  0
DICTIONARY
  5
881
102
{ACAD_REACTORS
330
C
102
}
330
C
100
AcDbDictionary
281
     1
  3
CANNOSCALE
350
884
  3
DIMASSOC
350
88C
  0
XRECORD
  5
886
102
{ACAD_REACTORS
330
C
102
}
330
C
100
AcDbXrecord
280
     1
  1
DWGPROPS COOKIE
  2

  3

  4

  6

  7

  8
MARTIN
  9

300
=
301
=
302
=
303
=
304
=
305
=
306
=
307
=
308
=
309
=
 40
0.0
 41
2455870.886880855
 42
2455870.89986081
  1

 90
        0
  0
LAYOUT
  5
1C
102
{ACAD_REACTORS
330
1A
102
}
330
1A
100
AcDbPlotSettings
  1

  2
none_device
  4

  6

 40
0.0
 41
0.0
 42
0.0
 43
0.0
 44
0.0
 45
0.0
 46
0.0
 47
0.0
 48
0.0
 49
0.0
140
0.0
141
0.0
142
1.0
143
1.0
 70
   688
 72
     0
 73
     0
 74
     5
  7

 75
    16
147
1.0
148
0.0
149
0.0
100
AcDbLayout
  1
Layout1
 70
     1
 71
     1
 10
0.0
 20
0.0
 11
12.0
 21
9.0
 12
0.0
 22
0.0
 32
0.0
 14
1.000000000000000E+20
 24
1.000000000000000E+20
 34
1.000000000000000E+20
 15
-1.000000000000000E+20
 25
-1.000000000000000E+20
 35
-1.000000000000000E+20
146
0.0
 13
0.0
 23
0.0
 33
0.0
 16
1.0
 26
0.0
 36
0.0
 17
0.0
 27
1.0
 37
0.0
 76
     0
330
1B
  0
LAYOUT
  5
1E
102
{ACAD_REACTORS
330
1A
102
}
330
1A
100
AcDbPlotSettings
  1

  2
none_device
  4

  6

 40
0.0
 41
0.0
 42
0.0
 43
0.0
 44
0.0
 45
0.0
 46
0.0
 47
0.0
 48
0.0
 49
0.0
140
0.0
141
0.0
142
1.0
143
1.0
 70
  1712
 72
     0
 73
     0
 74
     0
  7

 75
     0
147
1.0
148
0.0
149
0.0
100
AcDbLayout
  1
Model
 70
     1
 71
     0
 10
0.0
 20
0.0
 11
12.0
 21
9.0
 12
0.0
 22
0.0
 32
0.0
 14
0.0
 24
-0.1755
 34
0.0
 15
380.0
 25
360.1755
 35
0.0
146
0.0
 13
0.0
 23
0.0
 33
0.0
 16
1.0
 26
0.0
 36
0.0
 17
0.0
 27
1.0
 37
0.0
 76
     0
330
1D
331
727
  0
MLINESTYLE
  5
18
102
{ACAD_REACTORS
330
17
102
}
330
17
100
AcDbMlineStyle
  2
STANDARD
 70
     0
  3

 62
   256
 51
90.0
 52
90.0
 71
     2
 49
0.5
 62
   256
  6
BYLAYER
 49
-0.5
 62
   256
  6
BYLAYER
  0
ACDBPLACEHOLDER
  5
F
102
{ACAD_REACTORS
330
E
102
}
330
E
  0
SCALE
  5
72D
102
{ACAD_REACTORS
330
72C
102
}
330
72C
100
AcDbScale
 70
     0
300
1:1
140
1.0
141
1.0
290
     1
  0
SCALE
  5
72E
102
{ACAD_REACTORS
330
72C
102
}
330
72C
100
AcDbScale
 70
     0
300
1:2
140
1.0
141
2.0
290
     0
  0
SCALE
  5
72F
102
{ACAD_REACTORS
330
72C
102
}
330
72C
100
AcDbScale
 70
     0
300
1:4
140
1.0
141
4.0
290
     0
  0
SCALE
  5
730
102
{ACAD_REACTORS
330
72C
102
}
330
72C
100
AcDbScale
 70
     0
300
1:5
140
1.0
141
5.0
290
     0
  0
SCALE
  5
731
102
{ACAD_REACTORS
330
72C
102
}
330
72C
100
AcDbScale
 70
     0
300
1:8
140
1.0
141
8.0
290
     0
  0
SCALE
  5
732
102
{ACAD_REACTORS
330
72C
102
}
330
72C
100
AcDbScale
 70
     0
300
1:10
140
1.0
141
10.0
290
     0
  0
SCALE
  5
733
102
{ACAD_REACTORS
330
72C
102
}
330
72C
100
AcDbScale
 70
     0
300
1:16
140
1.0
141
16.0
290
     0
  0
SCALE
  5
734
102
{ACAD_REACTORS
330
72C
102
}
330
72C
100
AcDbScale
 70
     0
300
1:20
140
1.0
141
20.0
290
     0
  0
SCALE
  5
735
102
{ACAD_REACTORS
330
72C
102
}
330
72C
100
AcDbScale
 70
     0
300
1:30
140
1.0
141
30.0
290
     0
  0
SCALE
  5
736
102
{ACAD_REACTORS
330
72C
102
}
330
72C
100
AcDbScale
 70
     0
300
1:40
140
1.0
141
40.0
290
     0
  0
SCALE
  5
737
102
{ACAD_REACTORS
330
72C
102
}
330
72C
100
AcDbScale
 70
     0
300
1:50
140
1.0
141
50.0
290
     0
  0
SCALE
  5
738
102
{ACAD_REACTORS
330
72C
102
}
330
72C
100
AcDbScale
 70
     0
300
1:100
140
1.0
141
100.0
290
     0
  0
SCALE
  5
739
102
{ACAD_REACTORS
330
72C
102
}
330
72C
100
AcDbScale
 70
     0
300
2:1
140
2.0
141
1.0
290
     0
  0
SCALE
  5
73A
102
{ACAD_REACTORS
330
72C
102
}
330
72C
100
AcDbScale
 70
     0
300
4:1
140
4.0
141
1.0
290
     0
  0
SCALE
  5
73B
102
{ACAD_REACTORS
330
72C
102
}
330
72C
100
AcDbScale
 70
     0
300
8:1
140
8.0
141
1.0
290
     0
  0
SCALE
  5
73C
102
{ACAD_REACTORS
330
72C
102
}
330
72C
100
AcDbScale
 70
     0
300
10:1
140
10.0
141
1.0
290
     0
  0
SCALE
  5
73D
102
{ACAD_REACTORS
330
72C
102
}
330
72C
100
AcDbScale
 70
     0
300
100:1
140
100.0
141
1.0
290
     0
  0
SCALE
  5
73E
102
{ACAD_REACTORS
330
72C
102
}
330
72C
100
AcDbScale
 70
     0
300
1/128" = 1'-0"
140
0.0078125
141
12.0
290
     0
  0
SCALE
  5
73F
102
{ACAD_REACTORS
330
72C
102
}
330
72C
100
AcDbScale
 70
     0
300
1/64" = 1'-0"
140
0.015625
141
12.0
290
     0
  0
SCALE
  5
740
102
{ACAD_REACTORS
330
72C
102
}
330
72C
100
AcDbScale
 70
     0
300
1/32" = 1'-0"
140
0.03125
141
12.0
290
     0
  0
SCALE
  5
741
102
{ACAD_REACTORS
330
72C
102
}
330
72C
100
AcDbScale
 70
     0
300
1/16" = 1'-0"
140
0.0625
141
12.0
290
     0
  0
SCALE
  5
742
102
{ACAD_REACTORS
330
72C
102
}
330
72C
100
AcDbScale
 70
     0
300
3/32" = 1'-0"
140
0.09375
141
12.0
290
     0
  0
SCALE
  5
743
102
{ACAD_REACTORS
330
72C
102
}
330
72C
100
AcDbScale
 70
     0
300
1/8" = 1'-0"
140
0.125
141
12.0
290
     0
  0
SCALE
  5
744
102
{ACAD_REACTORS
330
72C
102
}
330
72C
100
AcDbScale
 70
     0
300
3/16" = 1'-0"
140
0.1875
141
12.0
290
     0
  0
SCALE
  5
745
102
{ACAD_REACTORS
330
72C
102
}
330
72C
100
AcDbScale
 70
     0
300
1/4" = 1'-0"
140
0.25
141
12.0
290
     0
  0
SCALE
  5
746
102
{ACAD_REACTORS
330
72C
102
}
330
72C
100
AcDbScale
 70
     0
300
3/8" = 1'-0"
140
0.375
141
12.0
290
     0
  0
SCALE
  5
747
102
{ACAD_REACTORS
330
72C
102
}
330
72C
100
AcDbScale
 70
     0
300
1/2" = 1'-0"
140
0.5
141
12.0
290
     0
  0
SCALE
  5
748
102
{ACAD_REACTORS
330
72C
102
}
330
72C
100
AcDbScale
 70
     0
300
3/4" = 1'-0"
140
0.75
141
12.0
290
     0
  0
SCALE
  5
749
102
{ACAD_REACTORS
330
72C
102
}
330
72C
100
AcDbScale
 70
     0
300
1" = 1'-0"
140
1.0
141
12.0
290
     0
  0
SCALE
  5
74A
102
{ACAD_REACTORS
330
72C
102
}
330
72C
100
AcDbScale
 70
     0
300
1-1/2" = 1'-0"
140
1.5
141
12.0
290
     0
  0
SCALE
  5
74B
102
{ACAD_REACTORS
330
72C
102
}
330
72C
100
AcDbScale
 70
     0
300
3" = 1'-0"
140
3.0
141
12.0
290
     0
  0
SCALE
  5
74C
102
{ACAD_REACTORS
330
72C
102
}
330
72C
100
AcDbScale
 70
     0
300
6" = 1'-0"
140
6.0
141
12.0
290
     0
  0
SCALE
  5
74D
102
{ACAD_REACTORS
330
72C
102
}
330
72C
100
AcDbScale
 70
     0
300
1'-0" = 1'-0"
140
12.0
141
12.0
290
     0
  0
DICTIONARYVAR
  5
884
102
{ACAD_REACTORS
330
881
102
}
330
881
100
DictionaryVariables
280
     0
  1
1:1
  0
DICTIONARYVAR
  5
88C
102
{ACAD_REACTORS
330
881
102
}
330
881
100
DictionaryVariables
280
     0
  1
1
  0
ENDSEC
  0
EOF
