  0
SECTION
  2
HEADER
  9
$ACADVER
  1
AC1015
  9
$ACADMAINTVER
 70
     6
  9
$DWGCODEPAGE
  3
ANSI_1252
  9
$INSBASE
 10
0.0
 20
0.0
 30
0.0
  9
$EXTMIN
 10
0.000022
 20
0.0127445
 30
0.0
  9
$EXTMAX
 10
484.999978
 20
156.9872555
 30
0.0
  9
$LIMMIN
 10
0.0
 20
0.0
  9
$LIMMAX
 10
12.0
 20
9.0
  9
$ORTHOMODE
 70
     0
  9
$REGENMODE
 70
     1
  9
$FILLMODE
 70
     1
  9
$QTEXTMODE
 70
     0
  9
$MIRRTEXT
 70
     1
  9
$LTSCALE
 40
1.0
  9
$ATTMODE
 70
     1
  9
$TEXTSIZE
 40
0.2
  9
$TRACEWID
 40
0.05
  9
$TEXTSTYLE
  7
Standard
  9
$CLAYER
  8
0
  9
$CELTYPE
  6
ByBlock
  9
$CECOLOR
 62
   256
  9
$CELTSCALE
 40
1.0
  9
$DISPSILH
 70
     0
  9
$DIMSCALE
 40
1.0
  9
$DIMASZ
 40
0.18
  9
$DIMEXO
 40
0.0625
  9
$DIMDLI
 40
0.38
  9
$DIMRND
 40
0.0
  9
$DIMDLE
 40
0.0
  9
$DIMEXE
 40
0.18
  9
$DIMTP
 40
0.0
  9
$DIMTM
 40
0.0
  9
$DIMTXT
 40
0.18
  9
$DIMCEN
 40
0.09
  9
$DIMTSZ
 40
0.0
  9
$DIMTOL
 70
     0
  9
$DIMLIM
 70
     0
  9
$DIMTIH
 70
     1
  9
$DIMTOH
 70
     1
  9
$DIMSE1
 70
     0
  9
$DIMSE2
 70
     0
  9
$DIMTAD
 70
     0
  9
$DIMZIN
 70
     0
  9
$DIMBLK
  1

  9
$DIMASO
 70
     1
  9
$DIMSHO
 70
     1
  9
$DIMPOST
  1

  9
$DIMAPOST
  1

  9
$DIMALT
 70
     0
  9
$DIMALTD
 70
     2
  9
$DIMALTF
 40
25.4
  9
$DIMLFAC
 40
1.0
  9
$DIMTOFL
 70
     0
  9
$DIMTVP
 40
0.0
  9
$DIMTIX
 70
     0
  9
$DIMSOXD
 70
     0
  9
$DIMSAH
 70
     0
  9
$DIMBLK1
  1

  9
$DIMBLK2
  1

  9
$DIMSTYLE
  2
Standard
  9
$DIMCLRD
 70
     0
  9
$DIMCLRE
 70
     0
  9
$DIMCLRT
 70
     0
  9
$DIMTFAC
 40
1.0
  9
$DIMGAP
 40
0.09
  9
$DIMJUST
 70
     0
  9
$DIMSD1
 70
     0
  9
$DIMSD2
 70
     0
  9
$DIMTOLJ
 70
     1
  9
$DIMTZIN
 70
     0
  9
$DIMALTZ
 70
     0
  9
$DIMALTTZ
 70
     0
  9
$DIMUPT
 70
     0
  9
$DIMDEC
 70
     4
  9
$DIMTDEC
 70
     4
  9
$DIMALTU
 70
     2
  9
$DIMALTTD
 70
     2
  9
$DIMTXSTY
  7
Standard
  9
$DIMAUNIT
 70
     0
  9
$DIMADEC
 70
     0
  9
$DIMALTRND
 40
0.0
  9
$DIMAZIN
 70
     0
  9
$DIMDSEP
 70
    46
  9
$DIMATFIT
 70
     3
  9
$DIMFRAC
 70
     0
  9
$DIMLDRBLK
  1

  9
$DIMLUNIT
 70
     2
  9
$DIMLWD
 70
    -2
  9
$DIMLWE
 70
    -2
  9
$DIMTMOVE
 70
     2
  9
$LUNITS
 70
     2
  9
$LUPREC
 70
     4
  9
$SKETCHINC
 40
0.1
  9
$FILLETRAD
 40
0.5
  9
$AUNITS
 70
     0
  9
$AUPREC
 70
     0
  9
$MENU
  1
.
  9
$ELEVATION
 40
0.0
  9
$PELEVATION
 40
0.0
  9
$THICKNESS
 40
0.0
  9
$LIMCHECK
 70
     0
  9
$CHAMFERA
 40
0.5
  9
$CHAMFERB
 40
0.5
  9
$CHAMFERC
 40
1.0
  9
$CHAMFERD
 40
0.0
  9
$SKPOLY
 70
     0
  9
$TDCREATE
 40
2455870.875471528
  9
$TDUCREATE
 40
2455870.833804861
  9
$TDUPDATE
 40
2455870.87674757
  9
$TDUUPDATE
 40
2455870.835080903
  9
$TDINDWG
 40
0.0012756944
  9
$TDUSRTIMER
 40
0.0012756944
  9
$USRTIMER
 70
     1
  9
$ANGBASE
 50
0.0
  9
$ANGDIR
 70
     0
  9
$PDMODE
 70
     0
  9
$PDSIZE
 40
0.0
  9
$PLINEWID
 40
0.0
  9
$SPLFRAME
 70
     0
  9
$SPLINETYPE
 70
     6
  9
$SPLINESEGS
 70
     8
  9
$HANDSEED
  5
339
  9
$SURFTAB1
 70
     6
  9
$SURFTAB2
 70
     6
  9
$SURFTYPE
 70
     6
  9
$SURFU
 70
     6
  9
$SURFV
 70
     6
  9
$UCSBASE
  2

  9
$UCSNAME
  2

  9
$UCSORG
 10
0.0
 20
0.0
 30
0.0
  9
$UCSXDIR
 10
1.0
 20
0.0
 30
0.0
  9
$UCSYDIR
 10
0.0
 20
1.0
 30
0.0
  9
$UCSORTHOREF
  2

  9
$UCSORTHOVIEW
 70
     0
  9
$UCSORGTOP
 10
0.0
 20
0.0
 30
0.0
  9
$UCSORGBOTTOM
 10
0.0
 20
0.0
 30
0.0
  9
$UCSORGLEFT
 10
0.0
 20
0.0
 30
0.0
  9
$UCSORGRIGHT
 10
0.0
 20
0.0
 30
0.0
  9
$UCSORGFRONT
 10
0.0
 20
0.0
 30
0.0
  9
$UCSORGBACK
 10
0.0
 20
0.0
 30
0.0
  9
$PUCSBASE
  2

  9
$PUCSNAME
  2

  9
$PUCSORG
 10
0.0
 20
0.0
 30
0.0
  9
$PUCSXDIR
 10
1.0
 20
0.0
 30
0.0
  9
$PUCSYDIR
 10
0.0
 20
1.0
 30
0.0
  9
$PUCSORTHOREF
  2

  9
$PUCSORTHOVIEW
 70
     0
  9
$PUCSORGTOP
 10
0.0
 20
0.0
 30
0.0
  9
$PUCSORGBOTTOM
 10
0.0
 20
0.0
 30
0.0
  9
$PUCSORGLEFT
 10
0.0
 20
0.0
 30
0.0
  9
$PUCSORGRIGHT
 10
0.0
 20
0.0
 30
0.0
  9
$PUCSORGFRONT
 10
0.0
 20
0.0
 30
0.0
  9
$PUCSORGBACK
 10
0.0
 20
0.0
 30
0.0
  9
$USERI1
 70
     0
  9
$USERI2
 70
     0
  9
$USERI3
 70
     0
  9
$USERI4
 70
     0
  9
$USERI5
 70
     0
  9
$USERR1
 40
0.0
  9
$USERR2
 40
0.0
  9
$USERR3
 40
0.0
  9
$USERR4
 40
0.0
  9
$USERR5
 40
0.0
  9
$WORLDVIEW
 70
     1
  9
$SHADEDGE
 70
     3
  9
$SHADEDIF
 70
    70
  9
$TILEMODE
 70
     1
  9
$MAXACTVP
 70
    64
  9
$PINSBASE
 10
0.0
 20
0.0
 30
0.0
  9
$PLIMCHECK
 70
     0
  9
$PEXTMIN
 10
1.000000000000E+20
 20
1.000000000000E+20
 30
1.000000000000E+20
  9
$PEXTMAX
 10
-1.000000000000E+20
 20
-1.000000000000E+20
 30
-1.000000000000E+20
  9
$PLIMMIN
 10
0.0
 20
0.0
  9
$PLIMMAX
 10
12.0
 20
9.0
  9
$UNITMODE
 70
     0
  9
$VISRETAIN
 70
     1
  9
$PLINEGEN
 70
     0
  9
$PSLTSCALE
 70
     1
  9
$TREEDEPTH
 70
  3020
  9
$CMLSTYLE
  2
Standard
  9
$CMLJUST
 70
     0
  9
$CMLSCALE
 40
1.0
  9
$PROXYGRAPHICS
 70
     1
  9
$MEASUREMENT
 70
     0
  9
$CELWEIGHT
370
    -1
  9
$ENDCAPS
280
     0
  9
$JOINSTYLE
280
     0
  9
$LWDISPLAY
290
     0
  9
$INSUNITS
 70
     0
  9
$HYPERLINKBASE
  1

  9
$STYLESHEET
  1

  9
$XEDIT
290
     1
  9
$CEPSNTYPE
380
     0
  9
$PSTYLEMODE
290
     1
  9
$FINGERPRINTGUID
  2
{82008B9E-A73E-4684-B325-7A18B1EAD83A}
  9
$VERSIONGUID
  2
{FAEB1C32-E019-11D5-929B-00C0DF256EC4}
  9
$EXTNAMES
290
     1
  9
$PSVPSCALE
 40
0.0
  9
$OLESTARTUP
290
     0
  0
ENDSEC
  0
SECTION
  2
CLASSES
  0
CLASS
  1
ACDBDICTIONARYWDFLT
  2
AcDbDictionaryWithDefault
  3
ObjectDBX Classes
 90
        0
280
     0
281
     0
  0
CLASS
  1
SCALE
  2
AcDbScale
  3
ObjectDBX Classes
 90
     1153
280
     0
281
     0
  0
CLASS
  1
DICTIONARYVAR
  2
AcDbDictionaryVar
  3
ObjectDBX Classes
 90
        0
280
     0
281
     0
  0
CLASS
  1
ACDBPLACEHOLDER
  2
AcDbPlaceHolder
  3
ObjectDBX Classes
 90
        0
280
     0
281
     0
  0
CLASS
  1
LAYOUT
  2
AcDbLayout
  3
ObjectDBX Classes
 90
        0
280
     0
281
     0
  0
ENDSEC
  0
SECTION
  2
TABLES
  0
TABLE
  2
VPORT
  5
8
330
0
100
AcDbSymbolTable
 70
     1
  0
VPORT
  5
30C
330
8
100
AcDbSymbolTableRecord
100
AcDbViewportTableRecord
  2
*Active
 70
     0
 10
0.0
 20
0.0
 11
1.0
 21
1.0
 12
242.499989
 22
78.49362775
 13
0.0
 23
0.0
 14
0.5
 24
0.5
 15
0.5
 25
0.5
 16
0.0
 26
0.0
 36
1.0
 17
0.0
 27
0.0
 37
0.0
 40
217.764106697632
 41
2.271724137931
 42
50.0
 43
0.0
 44
0.0
 50
0.0
 51
0.0
 71
    16
 72
   100
 73
     1
 74
     3
 75
     0
 76
     0
 77
     0
 78
     0
281
     0
 65
     1
110
0.0
120
0.0
130
0.0
111
1.0
121
0.0
131
0.0
112
0.0
122
1.0
132
0.0
 79
     0
146
0.0
  0
ENDTAB
  0
TABLE
  2
LTYPE
  5
5
330
0
100
AcDbSymbolTable
 70
     1
  0
LTYPE
  5
14
330
5
100
AcDbSymbolTableRecord
100
AcDbLinetypeTableRecord
  2
ByBlock
 70
     0
  3

 72
    65
 73
     0
 40
0.0
  0
LTYPE
  5
15
330
5
100
AcDbSymbolTableRecord
100
AcDbLinetypeTableRecord
  2
ByLayer
 70
     0
  3

 72
    65
 73
     0
 40
0.0
  0
LTYPE
  5
16
330
5
100
AcDbSymbolTableRecord
100
AcDbLinetypeTableRecord
  2
Continuous
 70
     0
  3
Solid line
 72
    65
 73
     0
 40
0.0
  0
ENDTAB
  0
TABLE
  2
LAYER
  5
2
330
0
100
AcDbSymbolTable
 70
     1
  0
LAYER
  5
10
330
2
100
AcDbSymbolTableRecord
100
AcDbLayerTableRecord
  2
0
 70
     0
 62
     7
  6
Continuous
370
    -3
390
F
  0
ENDTAB
  0
TABLE
  2
STYLE
  5
3
330
0
100
AcDbSymbolTable
 70
     1
  0
STYLE
  5
11
330
3
100
AcDbSymbolTableRecord
100
AcDbTextStyleTableRecord
  2
Standard
 70
     0
 40
0.0
 41
1.0
 50
0.0
 71
     0
 42
0.2
  3
txt
  4

  0
ENDTAB
  0
TABLE
  2
VIEW
  5
6
330
0
100
AcDbSymbolTable
 70
     0
  0
ENDTAB
  0
TABLE
  2
UCS
  5
7
330
0
100
AcDbSymbolTable
 70
     0
  0
ENDTAB
  0
TABLE
  2
APPID
  5
9
330
0
100
AcDbSymbolTable
 70
     1
  0
APPID
  5
12
330
9
100
AcDbSymbolTableRecord
100
AcDbRegAppTableRecord
  2
ACAD
 70
     0
  0
ENDTAB
  0
TABLE
  2
DIMSTYLE
  5
A
330
0
100
AcDbSymbolTable
 70
     1
100
AcDbDimStyleTable
  0
DIMSTYLE
105
20
330
A
100
AcDbSymbolTableRecord
100
AcDbDimStyleTableRecord
  2
Standard
 70
     0
340
11
  0
ENDTAB
  0
TABLE
  2
BLOCK_RECORD
  5
1
330
0
100
AcDbSymbolTable
 70
     0
  0
BLOCK_RECORD
  5
1D
330
1
100
AcDbSymbolTableRecord
100
AcDbBlockTableRecord
  2
*Model_Space
340
1E
  0
BLOCK_RECORD
  5
1B
330
1
100
AcDbSymbolTableRecord
100
AcDbBlockTableRecord
  2
*Paper_Space
340
1C
  0
ENDTAB
  0
ENDSEC
  0
SECTION
  2
BLOCKS
  0
BLOCK
  5
30F
330
1D
100
AcDbEntity
  8
0
100
AcDbBlockBegin
  2
*Model_Space
 70
     0
 10
0.0
 20
0.0
 30
0.0
  3
*Model_Space
  1
*Model_Space
  0
ENDBLK
  5
310
330
1D
100
AcDbEntity
  8
0
100
AcDbBlockEnd
  0
BLOCK
  5
30D
330
1B
100
AcDbEntity
 67
     1
  8
0
100
AcDbBlockBegin
  2
*Paper_Space
 70
     0
 10
0.0
 20
0.0
 30
0.0
  3
*Paper_Space
  1
*Paper_Space
  0
ENDBLK
  5
30E
330
1B
100
AcDbEntity
 67
     1
  8
0
100
AcDbBlockEnd
  0
ENDSEC
  0
SECTION
  2
ENTITIES
  0
LINE
  5
21
330
1D
100
AcDbEntity
  8
0
100
AcDbLine
 10
0.000022
 20
2.6794155
 30
0.0
 11
1.258298
 21
2.0127455
 31
0.0
  0
LINE
  5
22
330
1D
100
AcDbEntity
  8
0
100
AcDbLine
 10
0.000022
 20
2.6794155
 30
0.0
 11
0.226512
 21
2.6794155
 31
0.0
  0
LINE
  5
23
330
1D
100
AcDbEntity
  8
0
100
AcDbLine
 10
3.120548
 20
2.0127455
 30
0.0
 11
4.486198
 21
2.0127455
 31
0.0
  0
LINE
  5
24
330
1D
100
AcDbEntity
  8
0
100
AcDbLine
 10
0.880817
 20
2.6794155
 30
0.0
 11
1.887438
 21
2.6794155
 31
0.0
  0
LINE
  5
25
330
1D
100
AcDbEntity
  8
0
100
AcDbLine
 10
0.226512
 20
14.0127555
 30
0.0
 11
0.880817
 21
14.0127555
 31
0.0
  0
LINE
  5
26
330
1D
100
AcDbEntity
  8
0
100
AcDbLine
 10
0.000022
 20
14.0127555
 30
0.0
 11
0.629161
 21
14.6794555
 31
0.0
  0
LINE
  5
27
330
1D
100
AcDbEntity
  8
0
100
AcDbLine
 10
0.880817
 20
14.0127555
 30
0.0
 11
1.887438
 21
14.0127555
 31
0.0
  0
LINE
  5
28
330
1D
100
AcDbEntity
  8
0
100
AcDbLine
 10
0.226512
 20
14.0127555
 30
0.0
 11
0.880817
 21
14.0127555
 31
0.0
  0
LINE
  5
29
330
1D
100
AcDbEntity
  8
0
100
AcDbLine
 10
0.000022
 20
14.0127555
 30
0.0
 11
0.226512
 21
14.0127555
 31
0.0
  0
LINE
  5
2A
330
1D
100
AcDbEntity
  8
0
100
AcDbLine
 10
0.226512
 20
2.6794155
 30
0.0
 11
0.880817
 21
2.6794155
 31
0.0
  0
LINE
  5
2B
330
1D
100
AcDbEntity
  8
0
100
AcDbLine
 10
2.127348
 20
2.0127455
 30
0.0
 11
3.120548
 21
2.0127455
 31
0.0
  0
LINE
  5
2C
330
1D
100
AcDbEntity
  8
0
100
AcDbLine
 10
1.887438
 20
2.6794155
 30
0.0
 11
3.271538
 21
2.6794155
 31
0.0
  0
LINE
  5
2D
330
1D
100
AcDbEntity
  8
0
100
AcDbLine
 10
1.887438
 20
14.0127555
 30
0.0
 11
3.271538
 21
14.0127555
 31
0.0
  0
LINE
  5
2E
330
1D
100
AcDbEntity
  8
0
100
AcDbLine
 10
3.271538
 20
14.0127555
 30
0.0
 11
5.033128
 21
14.0127555
 31
0.0
  0
LINE
  5
2F
330
1D
100
AcDbEntity
  8
0
100
AcDbLine
 10
3.271538
 20
2.6794155
 30
0.0
 11
5.033128
 21
2.6794155
 31
0.0
  0
LINE
  5
30
330
1D
100
AcDbEntity
  8
0
100
AcDbLine
 10
5.033128
 20
14.0127555
 30
0.0
 11
6.870218
 21
14.0127555
 31
0.0
  0
LINE
  5
31
330
1D
100
AcDbEntity
  8
0
100
AcDbLine
 10
5.033128
 20
2.6794155
 30
0.0
 11
6.870218
 21
2.6794155
 31
0.0
  0
LINE
  5
32
330
1D
100
AcDbEntity
  8
0
100
AcDbLine
 10
1.481768
 20
2.0127455
 30
0.0
 11
2.127348
 21
2.0127455
 31
0.0
  0
LINE
  5
33
330
1D
100
AcDbEntity
  8
0
100
AcDbLine
 10
1.258298
 20
2.0127455
 30
0.0
 11
1.481768
 21
2.0127455
 31
0.0
  0
LINE
  5
34
330
1D
100
AcDbEntity
  8
0
100
AcDbLine
 10
4.486198
 20
2.0127455
 30
0.0
 11
6.224308
 21
2.0127455
 31
0.0
  0
LINE
  5
35
330
1D
100
AcDbEntity
  8
0
100
AcDbLine
 10
8.807968
 20
2.6794155
 30
0.0
 11
94.999978
 21
2.6794155
 31
0.0
  0
LINE
  5
36
330
1D
100
AcDbEntity
  8
0
100
AcDbLine
 10
6.870218
 20
2.6794155
 30
0.0
 11
8.807968
 21
2.6794155
 31
0.0
  0
LINE
  5
37
330
1D
100
AcDbEntity
  8
0
100
AcDbLine
 10
6.870218
 20
14.0127555
 30
0.0
 11
8.807968
 21
14.0127555
 31
0.0
  0
LINE
  5
38
330
1D
100
AcDbEntity
  8
0
100
AcDbLine
 10
8.807968
 20
14.0127555
 30
0.0
 11
94.999978
 21
14.0127555
 31
0.0
  0
LINE
  5
39
330
1D
100
AcDbEntity
  8
0
100
AcDbLine
 10
8.807968
 20
2.6794155
 30
0.0
 11
94.999978
 21
2.6794155
 31
0.0
  0
LINE
  5
3A
330
1D
100
AcDbEntity
  8
0
100
AcDbLine
 10
6.224308
 20
2.0127455
 30
0.0
 11
8.036888
 21
2.0127455
 31
0.0
  0
LINE
  5
3B
330
1D
100
AcDbEntity
  8
0
100
AcDbLine
 10
8.036888
 20
2.0127455
 30
0.0
 11
9.948808
 21
2.0127455
 31
0.0
  0
LINE
  5
3C
330
1D
100
AcDbEntity
  8
0
100
AcDbLine
 10
33.029778
 20
0.0127445
 30
0.0
 11
33.029778
 21
2.0127455
 31
0.0
  0
LINE
  5
3D
330
1D
100
AcDbEntity
  8
0
100
AcDbLine
 10
47.499978
 20
0.0127445
 30
0.0
 11
48.066178
 21
0.0127445
 31
0.0
  0
LINE
  5
3E
330
1D
100
AcDbEntity
  8
0
100
AcDbLine
 10
47.499978
 20
0.0127445
 30
0.0
 11
47.499978
 21
2.0127455
 31
0.0
  0
LINE
  5
3F
330
1D
100
AcDbEntity
  8
0
100
AcDbLine
 10
51.274778
 20
0.0127445
 30
0.0
 11
51.274778
 21
2.0127455
 31
0.0
  0
LINE
  5
40
330
1D
100
AcDbEntity
  8
0
100
AcDbLine
 10
50.708578
 20
0.0127445
 30
0.0
 11
51.274778
 21
0.0127445
 31
0.0
  0
LINE
  5
42
330
1D
100
AcDbEntity
  8
0
100
AcDbLine
 10
49.387378
 20
0.0127445
 30
0.0
 11
50.708578
 21
0.0127445
 31
0.0
  0
LINE
  5
44
330
1D
100
AcDbEntity
  8
0
100
AcDbLine
 10
48.066178
 20
0.0127445
 30
0.0
 11
49.387378
 21
0.0127445
 31
0.0
  0
LINE
  5
46
330
1D
100
AcDbEntity
  8
0
100
AcDbLine
 10
32.463578
 20
0.0127445
 30
0.0
 11
33.029778
 21
0.0127445
 31
0.0
  0
LINE
  5
48
330
1D
100
AcDbEntity
  8
0
100
AcDbLine
 10
31.142378
 20
0.0127445
 30
0.0
 11
32.463578
 21
0.0127445
 31
0.0
  0
LINE
  5
4A
330
1D
100
AcDbEntity
  8
0
100
AcDbLine
 10
11.009878
 20
0.0127445
 30
0.0
 11
11.576178
 21
0.0127445
 31
0.0
  0
LINE
  5
4B
330
1D
100
AcDbEntity
  8
0
100
AcDbLine
 10
11.009878
 20
0.0127445
 30
0.0
 11
11.009878
 21
2.0127455
 31
0.0
  0
LINE
  5
4C
330
1D
100
AcDbEntity
  8
0
100
AcDbLine
 10
14.784778
 20
0.0127445
 30
0.0
 11
14.784778
 21
2.0127455
 31
0.0
  0
LINE
  5
4D
330
1D
100
AcDbEntity
  8
0
100
AcDbLine
 10
14.218478
 20
0.0127445
 30
0.0
 11
14.784778
 21
0.0127445
 31
0.0
  0
LINE
  5
4F
330
1D
100
AcDbEntity
  8
0
100
AcDbLine
 10
12.897378
 20
0.0127445
 30
0.0
 11
14.218478
 21
0.0127445
 31
0.0
  0
LINE
  5
51
330
1D
100
AcDbEntity
  8
0
100
AcDbLine
 10
11.576178
 20
0.0127445
 30
0.0
 11
12.897378
 21
0.0127445
 31
0.0
  0
LINE
  5
54
330
1D
100
AcDbEntity
  8
0
100
AcDbLine
 10
12.897378
 20
2.0127455
 30
0.0
 11
14.218478
 21
2.0127455
 31
0.0
  0
LINE
  5
56
330
1D
100
AcDbEntity
  8
0
100
AcDbLine
 10
14.784778
 20
2.0127455
 30
0.0
 11
14.784778
 21
0.0127445
 31
0.0
  0
LINE
  5
58
330
1D
100
AcDbEntity
  8
0
100
AcDbLine
 10
11.576178
 20
2.0127455
 30
0.0
 11
12.897378
 21
2.0127455
 31
0.0
  0
LINE
  5
59
330
1D
100
AcDbEntity
  8
0
100
AcDbLine
 10
11.009878
 20
2.0127455
 30
0.0
 11
11.009878
 21
0.0127445
 31
0.0
  0
LINE
  5
5A
330
1D
100
AcDbEntity
  8
0
100
AcDbLine
 10
11.009878
 20
2.0127455
 30
0.0
 11
11.576178
 21
2.0127455
 31
0.0
  0
LINE
  5
5B
330
1D
100
AcDbEntity
  8
0
100
AcDbLine
 10
29.254978
 20
2.0127455
 30
0.0
 11
29.254978
 21
0.0127445
 31
0.0
  0
LINE
  5
5C
330
1D
100
AcDbEntity
  8
0
100
AcDbLine
 10
29.254978
 20
2.0127455
 30
0.0
 11
29.821178
 21
2.0127455
 31
0.0
  0
LINE
  5
5E
330
1D
100
AcDbEntity
  8
0
100
AcDbLine
 10
49.387378
 20
2.0127455
 30
0.0
 11
50.708578
 21
2.0127455
 31
0.0
  0
LINE
  5
60
330
1D
100
AcDbEntity
  8
0
100
AcDbLine
 10
51.274778
 20
2.0127455
 30
0.0
 11
51.274778
 21
0.0127445
 31
0.0
  0
LINE
  5
62
330
1D
100
AcDbEntity
  8
0
100
AcDbLine
 10
48.066178
 20
2.0127455
 30
0.0
 11
49.387378
 21
2.0127455
 31
0.0
  0
LINE
  5
64
330
1D
100
AcDbEntity
  8
0
100
AcDbLine
 10
31.142378
 20
2.0127455
 30
0.0
 11
32.463578
 21
2.0127455
 31
0.0
  0
LINE
  5
66
330
1D
100
AcDbEntity
  8
0
100
AcDbLine
 10
33.029778
 20
2.0127455
 30
0.0
 11
33.029778
 21
0.0127445
 31
0.0
  0
LINE
  5
68
330
1D
100
AcDbEntity
  8
0
100
AcDbLine
 10
29.821178
 20
2.0127455
 30
0.0
 11
31.142378
 21
2.0127455
 31
0.0
  0
LINE
  5
69
330
1D
100
AcDbEntity
  8
0
100
AcDbLine
 10
47.499978
 20
2.0127455
 30
0.0
 11
47.499978
 21
0.0127445
 31
0.0
  0
LINE
  5
6A
330
1D
100
AcDbEntity
  8
0
100
AcDbLine
 10
47.499978
 20
2.0127455
 30
0.0
 11
48.066178
 21
2.0127455
 31
0.0
  0
LINE
  5
6B
330
1D
100
AcDbEntity
  8
0
100
AcDbLine
 10
29.254978
 20
0.0127445
 30
0.0
 11
29.821178
 21
0.0127445
 31
0.0
  0
LINE
  5
6C
330
1D
100
AcDbEntity
  8
0
100
AcDbLine
 10
29.254978
 20
0.0127445
 30
0.0
 11
29.254978
 21
2.0127455
 31
0.0
  0
LINE
  5
6D
330
1D
100
AcDbEntity
  8
0
100
AcDbLine
 10
29.821178
 20
0.0127445
 30
0.0
 11
31.142378
 21
0.0127445
 31
0.0
  0
LINE
  5
70
330
1D
100
AcDbEntity
  8
0
100
AcDbLine
 10
66.311278
 20
2.0127455
 30
0.0
 11
67.632478
 21
2.0127455
 31
0.0
  0
LINE
  5
71
330
1D
100
AcDbEntity
  8
0
100
AcDbLine
 10
65.744978
 20
2.0127455
 30
0.0
 11
65.744978
 21
0.0127445
 31
0.0
  0
LINE
  5
72
330
1D
100
AcDbEntity
  8
0
100
AcDbLine
 10
65.744978
 20
2.0127455
 30
0.0
 11
66.311278
 21
2.0127455
 31
0.0
  0
LINE
  5
73
330
1D
100
AcDbEntity
  8
0
100
AcDbLine
 10
65.744978
 20
0.0127445
 30
0.0
 11
66.311278
 21
0.0127445
 31
0.0
  0
LINE
  5
74
330
1D
100
AcDbEntity
  8
0
100
AcDbLine
 10
65.744978
 20
0.0127445
 30
0.0
 11
65.744978
 21
2.0127455
 31
0.0
  0
LINE
  5
75
330
1D
100
AcDbEntity
  8
0
100
AcDbLine
 10
69.519878
 20
0.0127445
 30
0.0
 11
69.519878
 21
2.0127455
 31
0.0
  0
LINE
  5
76
330
1D
100
AcDbEntity
  8
0
100
AcDbLine
 10
68.953578
 20
0.0127445
 30
0.0
 11
69.519878
 21
0.0127445
 31
0.0
  0
LINE
  5
7A
330
1D
100
AcDbEntity
  8
0
100
AcDbLine
 10
68.953578
 20
2.0127455
 30
0.0
 11
69.519878
 21
2.0127455
 31
0.0
  0
LINE
  5
7B
330
1D
100
AcDbEntity
  8
0
100
AcDbLine
 10
69.519878
 20
2.0127455
 30
0.0
 11
69.519878
 21
0.0127445
 31
0.0
  0
LINE
  5
7C
330
1D
100
AcDbEntity
  8
0
100
AcDbLine
 10
67.632478
 20
0.0127445
 30
0.0
 11
68.953578
 21
0.0127445
 31
0.0
  0
LINE
  5
7E
330
1D
100
AcDbEntity
  8
0
100
AcDbLine
 10
66.311278
 20
0.0127445
 30
0.0
 11
67.632478
 21
0.0127445
 31
0.0
  0
LINE
  5
80
330
1D
100
AcDbEntity
  8
0
100
AcDbLine
 10
9.948808
 20
2.0127455
 30
0.0
 11
94.999978
 21
2.0127455
 31
0.0
  0
LINE
  5
81
330
1D
100
AcDbEntity
  8
0
100
AcDbLine
 10
9.948808
 20
2.0127455
 30
0.0
 11
94.999978
 21
2.0127455
 31
0.0
  0
LINE
  5
82
330
1D
100
AcDbEntity
  8
0
100
AcDbLine
 10
0.629161
 20
14.6794555
 30
0.0
 11
5.033128
 21
16.0127555
 31
0.0
  0
LINE
  5
83
330
1D
100
AcDbEntity
  8
0
100
AcDbLine
 10
36.490078
 20
20.0127555
 30
0.0
 11
45.297978
 21
20.6794555
 31
0.0
  0
LINE
  5
84
330
1D
100
AcDbEntity
  8
0
100
AcDbLine
 10
22.648978
 20
18.6794555
 30
0.0
 11
36.490078
 21
20.0127555
 31
0.0
  0
LINE
  5
85
330
1D
100
AcDbEntity
  8
0
100
AcDbLine
 10
12.582778
 20
17.3460555
 30
0.0
 11
22.648978
 21
18.6794555
 31
0.0
  0
LINE
  5
86
330
1D
100
AcDbEntity
  8
0
100
AcDbLine
 10
5.033128
 20
16.0127555
 30
0.0
 11
12.582778
 21
17.3460555
 31
0.0
  0
LINE
  5
87
330
1D
100
AcDbEntity
  8
0
100
AcDbLine
 10
75.672878
 20
22.0127555
 30
0.0
 11
75.874178
 21
22.0127555
 31
0.0
  0
LINE
  5
88
330
1D
100
AcDbEntity
  8
0
100
AcDbLine
 10
75.541978
 20
22.0127555
 30
0.0
 11
75.672878
 21
22.0127555
 31
0.0
  0
LINE
  5
89
330
1D
100
AcDbEntity
  8
0
100
AcDbLine
 10
56.622478
 20
21.3460555
 30
0.0
 11
75.496678
 21
22.0127555
 31
0.0
  0
LINE
  5
8A
330
1D
100
AcDbEntity
  8
0
100
AcDbLine
 10
75.874178
 20
22.0127555
 30
0.0
 11
76.150978
 21
22.0127555
 31
0.0
  0
LINE
  5
8B
330
1D
100
AcDbEntity
  8
0
100
AcDbLine
 10
76.150978
 20
22.0127555
 30
0.0
 11
76.503278
 21
22.0127555
 31
0.0
  0
LINE
  5
8C
330
1D
100
AcDbEntity
  8
0
100
AcDbLine
 10
76.503278
 20
22.0127555
 30
0.0
 11
76.870678
 21
22.0127555
 31
0.0
  0
LINE
  5
8D
330
1D
100
AcDbEntity
  8
0
100
AcDbLine
 10
76.870678
 20
22.0127555
 30
0.0
 11
77.258278
 21
22.0127555
 31
0.0
  0
LINE
  5
8E
330
1D
100
AcDbEntity
  8
0
100
AcDbLine
 10
77.258278
 20
22.0127555
 30
0.0
 11
94.999978
 21
22.0127555
 31
0.0
  0
LINE
  5
8F
330
1D
100
AcDbEntity
  8
0
100
AcDbLine
 10
45.297978
 20
20.6794555
 30
0.0
 11
56.622478
 21
21.3460555
 31
0.0
  0
LINE
  5
90
330
1D
100
AcDbEntity
  8
0
100
AcDbLine
 10
0.629161
 20
14.6794555
 30
0.0
 11
5.033128
 21
16.0127555
 31
0.0
  0
LINE
  5
91
330
1D
100
AcDbEntity
  8
0
100
AcDbLine
 10
0.000022
 20
14.0127555
 30
0.0
 11
0.629161
 21
14.6794555
 31
0.0
  0
LINE
  5
92
330
1D
100
AcDbEntity
  8
0
100
AcDbLine
 10
0.000022
 20
14.0127555
 30
0.0
 11
0.226512
 21
14.0127555
 31
0.0
  0
LINE
  5
93
330
1D
100
AcDbEntity
  8
0
100
AcDbLine
 10
0.000022
 20
2.6794155
 30
0.0
 11
1.258298
 21
2.0127455
 31
0.0
  0
LINE
  5
94
330
1D
100
AcDbEntity
  8
0
100
AcDbLine
 10
0.000022
 20
2.6794155
 30
0.0
 11
0.000022
 21
14.0127555
 31
0.0
  0
LINE
  5
95
330
1D
100
AcDbEntity
  8
0
100
AcDbLine
 10
0.000022
 20
2.6794155
 30
0.0
 11
0.226512
 21
2.6794155
 31
0.0
  0
LINE
  5
96
330
1D
100
AcDbEntity
  8
0
100
AcDbLine
 10
79.999978
 20
22.0127555
 30
0.0
 11
79.999978
 21
31.5853555
 31
0.0
  0
LINE
  5
97
330
1D
100
AcDbEntity
  8
0
100
AcDbLine
 10
82.417178
 20
2.0127455
 30
0.0
 11
82.417178
 21
0.0127445
 31
0.0
  0
LINE
  5
98
330
1D
100
AcDbEntity
  8
0
100
AcDbLine
 10
82.417178
 20
2.0127455
 30
0.0
 11
82.870178
 21
2.0127455
 31
0.0
  0
LINE
  5
99
330
1D
100
AcDbEntity
  8
0
100
AcDbLine
 10
82.870178
 20
2.0127455
 30
0.0
 11
83.990078
 21
2.0127455
 31
0.0
  0
LINE
  5
9A
330
1D
100
AcDbEntity
  8
0
100
AcDbLine
 10
82.417178
 20
0.0127445
 30
0.0
 11
82.870178
 21
0.0127445
 31
0.0
  0
LINE
  5
9B
330
1D
100
AcDbEntity
  8
0
100
AcDbLine
 10
82.417178
 20
0.0127445
 30
0.0
 11
82.417178
 21
2.0127455
 31
0.0
  0
LINE
  5
9C
330
1D
100
AcDbEntity
  8
0
100
AcDbLine
 10
82.870178
 20
0.0127445
 30
0.0
 11
83.990078
 21
0.0127445
 31
0.0
  0
LINE
  5
9D
330
1D
100
AcDbEntity
  8
0
100
AcDbLine
 10
81.979978
 20
31.5853555
 30
0.0
 11
84.379978
 21
31.5853555
 31
0.0
  0
LINE
  5
9E
330
1D
100
AcDbEntity
  8
0
100
AcDbLine
 10
80.539978
 20
31.5853555
 30
0.0
 11
81.979978
 21
31.5853555
 31
0.0
  0
LINE
  5
9F
330
1D
100
AcDbEntity
  8
0
100
AcDbLine
 10
80.499978
 20
32.0127555
 30
0.0
 11
80.499978
 21
53.5854555
 31
0.0
  0
LINE
  5
A0
330
1D
100
AcDbEntity
  8
0
100
AcDbLine
 10
82.339978
 20
32.0127555
 30
0.0
 11
84.679978
 21
32.0127555
 31
0.0
  0
LINE
  5
A1
330
1D
100
AcDbEntity
  8
0
100
AcDbLine
 10
82.413978
 20
53.5854555
 30
0.0
 11
84.733978
 21
53.5854555
 31
0.0
  0
LINE
  5
A2
330
1D
100
AcDbEntity
  8
0
100
AcDbLine
 10
82.761978
 20
54.0127555
 30
0.0
 11
85.023978
 21
54.0127555
 31
0.0
  0
LINE
  5
A3
330
1D
100
AcDbEntity
  8
0
100
AcDbLine
 10
81.369978
 20
54.0127555
 30
0.0
 11
82.761978
 21
54.0127555
 31
0.0
  0
LINE
  5
A4
330
1D
100
AcDbEntity
  8
0
100
AcDbLine
 10
80.847978
 20
54.0127555
 30
0.0
 11
81.369978
 21
54.0127555
 31
0.0
  0
LINE
  5
A5
330
1D
100
AcDbEntity
  8
0
100
AcDbLine
 10
81.021978
 20
53.5854555
 30
0.0
 11
82.413978
 21
53.5854555
 31
0.0
  0
LINE
  5
A6
330
1D
100
AcDbEntity
  8
0
100
AcDbLine
 10
80.499978
 20
53.5854555
 30
0.0
 11
80.499978
 21
32.0127555
 31
0.0
  0
LINE
  5
A7
330
1D
100
AcDbEntity
  8
0
100
AcDbLine
 10
80.499978
 20
53.5854555
 30
0.0
 11
81.021978
 21
53.5854555
 31
0.0
  0
LINE
  5
A8
330
1D
100
AcDbEntity
  8
0
100
AcDbLine
 10
80.499978
 20
53.5854555
 30
0.0
 11
80.847978
 21
54.0127555
 31
0.0
  0
LINE
  5
A9
330
1D
100
AcDbEntity
  8
0
100
AcDbLine
 10
80.899978
 20
32.0127555
 30
0.0
 11
82.339978
 21
32.0127555
 31
0.0
  0
LINE
  5
AA
330
1D
100
AcDbEntity
  8
0
100
AcDbLine
 10
80.359978
 20
32.0127555
 30
0.0
 11
80.899978
 21
32.0127555
 31
0.0
  0
LINE
  5
AB
330
1D
100
AcDbEntity
  8
0
100
AcDbLine
 10
79.999978
 20
31.5853555
 30
0.0
 11
79.999978
 21
22.0127555
 31
0.0
  0
LINE
  5
AC
330
1D
100
AcDbEntity
  8
0
100
AcDbLine
 10
79.999978
 20
31.5853555
 30
0.0
 11
80.539978
 21
31.5853555
 31
0.0
  0
LINE
  5
AD
330
1D
100
AcDbEntity
  8
0
100
AcDbLine
 10
79.999978
 20
31.5853555
 30
0.0
 11
80.359978
 21
32.0127555
 31
0.0
  0
LINE
  5
AF
330
1D
100
AcDbEntity
  8
0
100
AcDbLine
 10
83.990078
 20
2.0127455
 30
0.0
 11
84.556278
 21
2.0127455
 31
0.0
  0
LINE
  5
B0
330
1D
100
AcDbEntity
  8
0
100
AcDbLine
 10
83.990078
 20
0.0127445
 30
0.0
 11
84.556278
 21
0.0127445
 31
0.0
  0
LINE
  5
B2
330
1D
100
AcDbEntity
  8
0
100
AcDbLine
 10
85.877478
 20
0.0127445
 30
0.0
 11
87.198678
 21
0.0127445
 31
0.0
  0
LINE
  5
B5
330
1D
100
AcDbEntity
  8
0
100
AcDbLine
 10
84.556278
 20
2.0127455
 30
0.0
 11
85.877478
 21
2.0127455
 31
0.0
  0
LINE
  5
B7
330
1D
100
AcDbEntity
  8
0
100
AcDbLine
 10
87.198678
 20
2.0127455
 30
0.0
 11
87.764878
 21
2.0127455
 31
0.0
  0
LINE
  5
B8
330
1D
100
AcDbEntity
  8
0
100
AcDbLine
 10
85.877478
 20
2.0127455
 30
0.0
 11
86.091378
 21
2.0127455
 31
0.0
  0
LINE
  5
BA
330
1D
100
AcDbEntity
  8
0
100
AcDbLine
 10
84.556278
 20
0.0127445
 30
0.0
 11
85.877478
 21
0.0127445
 31
0.0
  0
LINE
  5
BC
330
1D
100
AcDbEntity
  8
0
100
AcDbLine
 10
87.764878
 20
0.0127445
 30
0.0
 11
87.764878
 21
2.0127455
 31
0.0
  0
LINE
  5
BD
330
1D
100
AcDbEntity
  8
0
100
AcDbLine
 10
87.764878
 20
2.0127455
 30
0.0
 11
87.764878
 21
0.0127445
 31
0.0
  0
LINE
  5
BE
330
1D
100
AcDbEntity
  8
0
100
AcDbLine
 10
87.198678
 20
0.0127445
 30
0.0
 11
88.758878
 21
0.0127445
 31
0.0
  0
LINE
  5
BF
330
1D
100
AcDbEntity
  8
0
100
AcDbLine
 10
87.198678
 20
0.0127445
 30
0.0
 11
87.764878
 21
0.0127445
 31
0.0
  0
LINE
  5
C1
330
1D
100
AcDbEntity
  8
0
100
AcDbLine
 10
87.981978
 20
54.0127555
 30
0.0
 11
91.345978
 21
54.0127555
 31
0.0
  0
LINE
  5
C2
330
1D
100
AcDbEntity
  8
0
100
AcDbLine
 10
85.023978
 20
54.0127555
 30
0.0
 11
87.981978
 21
54.0127555
 31
0.0
  0
LINE
  5
C3
330
1D
100
AcDbEntity
  8
0
100
AcDbLine
 10
87.807978
 20
53.5854555
 30
0.0
 11
91.287978
 21
53.5854555
 31
0.0
  0
LINE
  5
C4
330
1D
100
AcDbEntity
  8
0
100
AcDbLine
 10
84.733978
 20
53.5854555
 30
0.0
 11
87.807978
 21
53.5854555
 31
0.0
  0
LINE
  5
C5
330
1D
100
AcDbEntity
  8
0
100
AcDbLine
 10
87.739978
 20
32.0127555
 30
0.0
 11
91.219978
 21
32.0127555
 31
0.0
  0
LINE
  5
C6
330
1D
100
AcDbEntity
  8
0
100
AcDbLine
 10
84.679978
 20
32.0127555
 30
0.0
 11
87.739978
 21
32.0127555
 31
0.0
  0
LINE
  5
C7
330
1D
100
AcDbEntity
  8
0
100
AcDbLine
 10
87.559978
 20
31.5853555
 30
0.0
 11
91.159978
 21
31.5853555
 31
0.0
  0
LINE
  5
C8
330
1D
100
AcDbEntity
  8
0
100
AcDbLine
 10
84.379978
 20
31.5853555
 30
0.0
 11
87.559978
 21
31.5853555
 31
0.0
  0
LINE
  5
CA
330
1D
100
AcDbEntity
  8
0
100
AcDbLine
 10
94.999978
 20
0.0127445
 30
0.0
 11
98.221178
 21
0.0127445
 31
0.0
  0
LINE
  5
CB
330
1D
100
AcDbEntity
  8
0
100
AcDbLine
 10
88.758878
 20
2.0127455
 30
0.0
 11
91.778778
 21
2.0127455
 31
0.0
  0
LINE
  5
CC
330
1D
100
AcDbEntity
  8
0
100
AcDbLine
 10
91.778778
 20
2.0127455
 30
0.0
 11
94.999978
 21
2.0127455
 31
0.0
  0
LINE
  5
CD
330
1D
100
AcDbEntity
  8
0
100
AcDbLine
 10
88.758878
 20
0.0127445
 30
0.0
 11
91.778778
 21
0.0127445
 31
0.0
  0
LINE
  5
CE
330
1D
100
AcDbEntity
  8
0
100
AcDbLine
 10
91.778778
 20
0.0127445
 30
0.0
 11
94.999978
 21
0.0127445
 31
0.0
  0
LINE
  5
CF
330
1D
100
AcDbEntity
  8
0
100
AcDbLine
 10
94.999978
 20
2.0127455
 30
0.0
 11
180.050978
 21
2.0127455
 31
0.0
  0
LINE
  5
D0
330
1D
100
AcDbEntity
  8
0
100
AcDbLine
 10
94.999978
 20
2.6794155
 30
0.0
 11
181.191978
 21
2.6794155
 31
0.0
  0
LINE
  5
D1
330
1D
100
AcDbEntity
  8
0
100
AcDbLine
 10
98.221178
 20
2.0127455
 30
0.0
 11
101.240978
 21
2.0127455
 31
0.0
  0
LINE
  5
D2
330
1D
100
AcDbEntity
  8
0
100
AcDbLine
 10
98.221178
 20
0.0127445
 30
0.0
 11
101.240978
 21
0.0127445
 31
0.0
  0
LINE
  5
D3
330
1D
100
AcDbEntity
  8
0
100
AcDbLine
 10
94.999978
 20
14.0127555
 30
0.0
 11
181.191978
 21
14.0127555
 31
0.0
  0
LINE
  5
D4
330
1D
100
AcDbEntity
  8
0
100
AcDbLine
 10
94.999978
 20
22.0127555
 30
0.0
 11
98.839978
 21
22.0127555
 31
0.0
  0
LINE
  5
D5
330
1D
100
AcDbEntity
  8
0
100
AcDbLine
 10
94.999978
 20
22.0127555
 30
0.0
 11
112.741978
 21
22.0127555
 31
0.0
  0
LINE
  5
D6
330
1D
100
AcDbEntity
  8
0
100
AcDbLine
 10
102.234978
 20
0.0127445
 30
0.0
 11
102.800978
 21
0.0127445
 31
0.0
  0
LINE
  5
D7
330
1D
100
AcDbEntity
  8
0
100
AcDbLine
 10
102.234978
 20
0.0127445
 30
0.0
 11
102.234978
 21
2.0127455
 31
0.0
  0
LINE
  5
D8
330
1D
100
AcDbEntity
  8
0
100
AcDbLine
 10
102.800978
 20
0.0127445
 30
0.0
 11
104.122978
 21
0.0127445
 31
0.0
  0
LINE
  5
DB
330
1D
100
AcDbEntity
  8
0
100
AcDbLine
 10
107.582978
 20
0.0127445
 30
0.0
 11
107.582978
 21
2.0127455
 31
0.0
  0
LINE
  5
DC
330
1D
100
AcDbEntity
  8
0
100
AcDbLine
 10
107.129978
 20
0.0127445
 30
0.0
 11
107.582978
 21
0.0127445
 31
0.0
  0
LINE
  5
DD
330
1D
100
AcDbEntity
  8
0
100
AcDbLine
 10
105.443978
 20
0.0127445
 30
0.0
 11
106.009978
 21
0.0127445
 31
0.0
  0
LINE
  5
DF
330
1D
100
AcDbEntity
  8
0
100
AcDbLine
 10
104.122978
 20
0.0127445
 30
0.0
 11
105.443978
 21
0.0127445
 31
0.0
  0
LINE
  5
E1
330
1D
100
AcDbEntity
  8
0
100
AcDbLine
 10
105.921978
 20
0.0127445
 30
0.0
 11
107.129978
 21
0.0127445
 31
0.0
  0
LINE
  5
E2
330
1D
100
AcDbEntity
  8
0
100
AcDbLine
 10
103.908978
 20
0.0127445
 30
0.0
 11
105.921978
 21
0.0127445
 31
0.0
  0
LINE
  5
E4
330
1D
100
AcDbEntity
  8
0
100
AcDbLine
 10
105.443978
 20
2.0127455
 30
0.0
 11
106.009978
 21
2.0127455
 31
0.0
  0
LINE
  5
E5
330
1D
100
AcDbEntity
  8
0
100
AcDbLine
 10
107.582978
 20
2.0127455
 30
0.0
 11
107.582978
 21
0.0127445
 31
0.0
  0
LINE
  5
E6
330
1D
100
AcDbEntity
  8
0
100
AcDbLine
 10
107.129978
 20
2.0127455
 30
0.0
 11
107.582978
 21
2.0127455
 31
0.0
  0
LINE
  5
E9
330
1D
100
AcDbEntity
  8
0
100
AcDbLine
 10
102.800978
 20
2.0127455
 30
0.0
 11
104.122978
 21
2.0127455
 31
0.0
  0
LINE
  5
EA
330
1D
100
AcDbEntity
  8
0
100
AcDbLine
 10
102.234978
 20
2.0127455
 30
0.0
 11
102.234978
 21
0.0127445
 31
0.0
  0
LINE
  5
EB
330
1D
100
AcDbEntity
  8
0
100
AcDbLine
 10
102.234978
 20
2.0127455
 30
0.0
 11
102.800978
 21
2.0127455
 31
0.0
  0
LINE
  5
EC
330
1D
100
AcDbEntity
  8
0
100
AcDbLine
 10
106.009978
 20
2.0127455
 30
0.0
 11
107.129978
 21
2.0127455
 31
0.0
  0
LINE
  5
EE
330
1D
100
AcDbEntity
  8
0
100
AcDbLine
 10
101.240978
 20
2.0127455
 30
0.0
 11
102.234978
 21
2.0127455
 31
0.0
  0
LINE
  5
EF
330
1D
100
AcDbEntity
  8
0
100
AcDbLine
 10
101.240978
 20
0.0127445
 30
0.0
 11
103.908978
 21
0.0127445
 31
0.0
  0
LINE
  5
F0
330
1D
100
AcDbEntity
  8
0
100
AcDbLine
 10
98.839978
 20
22.0127555
 30
0.0
 11
102.439978
 21
22.0127555
 31
0.0
  0
LINE
  5
F1
330
1D
100
AcDbEntity
  8
0
100
AcDbLine
 10
102.439978
 20
22.0127555
 30
0.0
 11
105.619978
 21
22.0127555
 31
0.0
  0
LINE
  5
F2
330
1D
100
AcDbEntity
  8
0
100
AcDbLine
 10
108.019978
 20
31.5853555
 30
0.0
 11
109.459978
 21
31.5853555
 31
0.0
  0
LINE
  5
F3
330
1D
100
AcDbEntity
  8
0
100
AcDbLine
 10
91.159978
 20
31.5853555
 30
0.0
 11
94.999978
 21
31.5853555
 31
0.0
  0
LINE
  5
F4
330
1D
100
AcDbEntity
  8
0
100
AcDbLine
 10
94.999978
 20
31.5853555
 30
0.0
 11
98.839978
 21
31.5853555
 31
0.0
  0
LINE
  5
F5
330
1D
100
AcDbEntity
  8
0
100
AcDbLine
 10
98.839978
 20
31.5853555
 30
0.0
 11
102.439978
 21
31.5853555
 31
0.0
  0
LINE
  5
F6
330
1D
100
AcDbEntity
  8
0
100
AcDbLine
 10
102.439978
 20
31.5853555
 30
0.0
 11
105.619978
 21
31.5853555
 31
0.0
  0
LINE
  5
F7
330
1D
100
AcDbEntity
  8
0
100
AcDbLine
 10
107.585978
 20
32.0127555
 30
0.0
 11
107.659978
 21
32.0127555
 31
0.0
  0
LINE
  5
F8
330
1D
100
AcDbEntity
  8
0
100
AcDbLine
 10
105.619978
 20
31.5853555
 30
0.0
 11
108.019978
 21
31.5853555
 31
0.0
  0
LINE
  5
F9
330
1D
100
AcDbEntity
  8
0
100
AcDbLine
 10
91.219978
 20
32.0127555
 30
0.0
 11
94.999978
 21
32.0127555
 31
0.0
  0
LINE
  5
FA
330
1D
100
AcDbEntity
  8
0
100
AcDbLine
 10
94.999978
 20
32.0127555
 30
0.0
 11
98.779978
 21
32.0127555
 31
0.0
  0
LINE
  5
FB
330
1D
100
AcDbEntity
  8
0
100
AcDbLine
 10
98.779978
 20
32.0127555
 30
0.0
 11
102.259978
 21
32.0127555
 31
0.0
  0
LINE
  5
FC
330
1D
100
AcDbEntity
  8
0
100
AcDbLine
 10
91.287978
 20
53.5854555
 30
0.0
 11
94.999978
 21
53.5854555
 31
0.0
  0
LINE
  5
FD
330
1D
100
AcDbEntity
  8
0
100
AcDbLine
 10
91.345978
 20
54.0127555
 30
0.0
 11
94.999978
 21
54.0127555
 31
0.0
  0
LINE
  5
FE
330
1D
100
AcDbEntity
  8
0
100
AcDbLine
 10
94.999978
 20
54.0127555
 30
0.0
 11
98.653978
 21
54.0127555
 31
0.0
  0
LINE
  5
FF
330
1D
100
AcDbEntity
  8
0
100
AcDbLine
 10
94.999978
 20
53.5854555
 30
0.0
 11
98.711978
 21
53.5854555
 31
0.0
  0
LINE
  5
100
330
1D
100
AcDbEntity
  8
0
100
AcDbLine
 10
98.711978
 20
53.5854555
 30
0.0
 11
102.191978
 21
53.5854555
 31
0.0
  0
LINE
  5
101
330
1D
100
AcDbEntity
  8
0
100
AcDbLine
 10
98.653978
 20
54.0127555
 30
0.0
 11
102.017978
 21
54.0127555
 31
0.0
  0
LINE
  5
102
330
1D
100
AcDbEntity
  8
0
100
AcDbLine
 10
102.017978
 20
54.0127555
 30
0.0
 11
104.975978
 21
54.0127555
 31
0.0
  0
LINE
  5
103
330
1D
100
AcDbEntity
  8
0
100
AcDbLine
 10
102.191978
 20
53.5854555
 30
0.0
 11
105.265978
 21
53.5854555
 31
0.0
  0
LINE
  5
104
330
1D
100
AcDbEntity
  8
0
100
AcDbLine
 10
104.975978
 20
54.0127555
 30
0.0
 11
107.237978
 21
54.0127555
 31
0.0
  0
LINE
  5
105
330
1D
100
AcDbEntity
  8
0
100
AcDbLine
 10
105.265978
 20
53.5854555
 30
0.0
 11
107.585978
 21
53.5854555
 31
0.0
  0
LINE
  5
106
330
1D
100
AcDbEntity
  8
0
100
AcDbLine
 10
102.259978
 20
32.0127555
 30
0.0
 11
105.319978
 21
32.0127555
 31
0.0
  0
LINE
  5
107
330
1D
100
AcDbEntity
  8
0
100
AcDbLine
 10
107.585978
 20
53.5854555
 30
0.0
 11
108.977978
 21
53.5854555
 31
0.0
  0
LINE
  5
108
330
1D
100
AcDbEntity
  8
0
100
AcDbLine
 10
107.237978
 20
54.0127555
 30
0.0
 11
108.629978
 21
54.0127555
 31
0.0
  0
LINE
  5
109
330
1D
100
AcDbEntity
  8
0
100
AcDbLine
 10
108.629978
 20
54.0127555
 30
0.0
 11
109.151978
 21
54.0127555
 31
0.0
  0
LINE
  5
10A
330
1D
100
AcDbEntity
  8
0
100
AcDbLine
 10
108.977978
 20
53.5854555
 30
0.0
 11
109.499978
 21
53.5854555
 31
0.0
  0
LINE
  5
10B
330
1D
100
AcDbEntity
  8
0
100
AcDbLine
 10
105.319978
 20
32.0127555
 30
0.0
 11
107.659978
 21
32.0127555
 31
0.0
  0
LINE
  5
10C
330
1D
100
AcDbEntity
  8
0
100
AcDbLine
 10
107.659978
 20
32.0127555
 30
0.0
 11
109.099978
 21
32.0127555
 31
0.0
  0
LINE
  5
10D
330
1D
100
AcDbEntity
  8
0
100
AcDbLine
 10
109.499978
 20
53.5854555
 30
0.0
 11
109.499978
 21
32.0127555
 31
0.0
  0
LINE
  5
10E
330
1D
100
AcDbEntity
  8
0
100
AcDbLine
 10
109.499978
 20
32.0127555
 30
0.0
 11
109.499978
 21
53.5854555
 31
0.0
  0
LINE
  5
10F
330
1D
100
AcDbEntity
  8
0
100
AcDbLine
 10
109.151978
 20
54.0127555
 30
0.0
 11
109.499978
 21
53.5854555
 31
0.0
  0
LINE
  5
110
330
1D
100
AcDbEntity
  8
0
100
AcDbLine
 10
109.099978
 20
32.0127555
 30
0.0
 11
109.639978
 21
32.0127555
 31
0.0
  0
LINE
  5
111
330
1D
100
AcDbEntity
  8
0
100
AcDbLine
 10
109.459978
 20
31.5853555
 30
0.0
 11
109.999978
 21
31.5853555
 31
0.0
  0
LINE
  5
112
330
1D
100
AcDbEntity
  8
0
100
AcDbLine
 10
178.989978
 20
0.0127445
 30
0.0
 11
178.989978
 21
2.0127455
 31
0.0
  0
LINE
  5
113
330
1D
100
AcDbEntity
  8
0
100
AcDbLine
 10
178.423978
 20
0.0127445
 30
0.0
 11
178.989978
 21
0.0127445
 31
0.0
  0
LINE
  5
115
330
1D
100
AcDbEntity
  8
0
100
AcDbLine
 10
160.744978
 20
0.0127445
 30
0.0
 11
160.744978
 21
2.0127455
 31
0.0
  0
LINE
  5
116
330
1D
100
AcDbEntity
  8
0
100
AcDbLine
 10
175.214978
 20
0.0127445
 30
0.0
 11
175.780978
 21
0.0127445
 31
0.0
  0
LINE
  5
117
330
1D
100
AcDbEntity
  8
0
100
AcDbLine
 10
175.214978
 20
0.0127445
 30
0.0
 11
175.214978
 21
2.0127455
 31
0.0
  0
LINE
  5
118
330
1D
100
AcDbEntity
  8
0
100
AcDbLine
 10
175.780978
 20
0.0127445
 30
0.0
 11
177.102978
 21
0.0127445
 31
0.0
  0
LINE
  5
11A
330
1D
100
AcDbEntity
  8
0
100
AcDbLine
 10
177.102978
 20
0.0127445
 30
0.0
 11
178.423978
 21
0.0127445
 31
0.0
  0
LINE
  5
11C
330
1D
100
AcDbEntity
  8
0
100
AcDbLine
 10
160.178978
 20
0.0127445
 30
0.0
 11
160.744978
 21
0.0127445
 31
0.0
  0
LINE
  5
11E
330
1D
100
AcDbEntity
  8
0
100
AcDbLine
 10
142.499978
 20
0.0127445
 30
0.0
 11
142.499978
 21
2.0127455
 31
0.0
  0
LINE
  5
11F
330
1D
100
AcDbEntity
  8
0
100
AcDbLine
 10
156.969978
 20
0.0127445
 30
0.0
 11
157.535978
 21
0.0127445
 31
0.0
  0
LINE
  5
120
330
1D
100
AcDbEntity
  8
0
100
AcDbLine
 10
156.969978
 20
0.0127445
 30
0.0
 11
156.969978
 21
2.0127455
 31
0.0
  0
LINE
  5
121
330
1D
100
AcDbEntity
  8
0
100
AcDbLine
 10
157.535978
 20
0.0127445
 30
0.0
 11
158.857978
 21
0.0127445
 31
0.0
  0
LINE
  5
123
330
1D
100
AcDbEntity
  8
0
100
AcDbLine
 10
158.857978
 20
0.0127445
 30
0.0
 11
160.178978
 21
0.0127445
 31
0.0
  0
LINE
  5
125
330
1D
100
AcDbEntity
  8
0
100
AcDbLine
 10
141.933978
 20
0.0127445
 30
0.0
 11
142.499978
 21
0.0127445
 31
0.0
  0
LINE
  5
127
330
1D
100
AcDbEntity
  8
0
100
AcDbLine
 10
124.254978
 20
0.0127445
 30
0.0
 11
124.254978
 21
2.0127455
 31
0.0
  0
LINE
  5
128
330
1D
100
AcDbEntity
  8
0
100
AcDbLine
 10
138.724978
 20
0.0127445
 30
0.0
 11
139.290978
 21
0.0127445
 31
0.0
  0
LINE
  5
129
330
1D
100
AcDbEntity
  8
0
100
AcDbLine
 10
138.724978
 20
0.0127445
 30
0.0
 11
138.724978
 21
2.0127455
 31
0.0
  0
LINE
  5
12A
330
1D
100
AcDbEntity
  8
0
100
AcDbLine
 10
139.290978
 20
0.0127445
 30
0.0
 11
140.612978
 21
0.0127445
 31
0.0
  0
LINE
  5
12C
330
1D
100
AcDbEntity
  8
0
100
AcDbLine
 10
140.612978
 20
0.0127445
 30
0.0
 11
141.933978
 21
0.0127445
 31
0.0
  0
LINE
  5
12E
330
1D
100
AcDbEntity
  8
0
100
AcDbLine
 10
123.688978
 20
0.0127445
 30
0.0
 11
124.254978
 21
0.0127445
 31
0.0
  0
LINE
  5
130
330
1D
100
AcDbEntity
  8
0
100
AcDbLine
 10
120.479978
 20
2.0127455
 30
0.0
 11
120.479978
 21
0.0127445
 31
0.0
  0
LINE
  5
131
330
1D
100
AcDbEntity
  8
0
100
AcDbLine
 10
120.479978
 20
2.0127455
 30
0.0
 11
121.045978
 21
2.0127455
 31
0.0
  0
LINE
  5
132
330
1D
100
AcDbEntity
  8
0
100
AcDbLine
 10
121.045978
 20
2.0127455
 30
0.0
 11
122.367978
 21
2.0127455
 31
0.0
  0
LINE
  5
134
330
1D
100
AcDbEntity
  8
0
100
AcDbLine
 10
120.479978
 20
0.0127445
 30
0.0
 11
121.045978
 21
0.0127445
 31
0.0
  0
LINE
  5
135
330
1D
100
AcDbEntity
  8
0
100
AcDbLine
 10
120.479978
 20
0.0127445
 30
0.0
 11
120.479978
 21
2.0127455
 31
0.0
  0
LINE
  5
136
330
1D
100
AcDbEntity
  8
0
100
AcDbLine
 10
142.499978
 20
2.0127455
 30
0.0
 11
142.499978
 21
0.0127445
 31
0.0
  0
LINE
  5
138
330
1D
100
AcDbEntity
  8
0
100
AcDbLine
 10
141.933978
 20
2.0127455
 30
0.0
 11
142.499978
 21
2.0127455
 31
0.0
  0
LINE
  5
13A
330
1D
100
AcDbEntity
  8
0
100
AcDbLine
 10
140.612978
 20
2.0127455
 30
0.0
 11
141.933978
 21
2.0127455
 31
0.0
  0
LINE
  5
13D
330
1D
100
AcDbEntity
  8
0
100
AcDbLine
 10
175.780978
 20
2.0127455
 30
0.0
 11
177.102978
 21
2.0127455
 31
0.0
  0
LINE
  5
13E
330
1D
100
AcDbEntity
  8
0
100
AcDbLine
 10
178.989978
 20
2.0127455
 30
0.0
 11
178.989978
 21
0.0127445
 31
0.0
  0
LINE
  5
140
330
1D
100
AcDbEntity
  8
0
100
AcDbLine
 10
178.423978
 20
2.0127455
 30
0.0
 11
178.989978
 21
2.0127455
 31
0.0
  0
LINE
  5
141
330
1D
100
AcDbEntity
  8
0
100
AcDbLine
 10
177.102978
 20
2.0127455
 30
0.0
 11
178.423978
 21
2.0127455
 31
0.0
  0
LINE
  5
144
330
1D
100
AcDbEntity
  8
0
100
AcDbLine
 10
160.744978
 20
2.0127455
 30
0.0
 11
160.744978
 21
0.0127445
 31
0.0
  0
LINE
  5
146
330
1D
100
AcDbEntity
  8
0
100
AcDbLine
 10
160.178978
 20
2.0127455
 30
0.0
 11
160.744978
 21
2.0127455
 31
0.0
  0
LINE
  5
147
330
1D
100
AcDbEntity
  8
0
100
AcDbLine
 10
158.857978
 20
2.0127455
 30
0.0
 11
160.178978
 21
2.0127455
 31
0.0
  0
LINE
  5
149
330
1D
100
AcDbEntity
  8
0
100
AcDbLine
 10
175.214978
 20
2.0127455
 30
0.0
 11
175.214978
 21
0.0127445
 31
0.0
  0
LINE
  5
14A
330
1D
100
AcDbEntity
  8
0
100
AcDbLine
 10
175.214978
 20
2.0127455
 30
0.0
 11
175.780978
 21
2.0127455
 31
0.0
  0
LINE
  5
14B
330
1D
100
AcDbEntity
  8
0
100
AcDbLine
 10
156.969978
 20
2.0127455
 30
0.0
 11
156.969978
 21
0.0127445
 31
0.0
  0
LINE
  5
14C
330
1D
100
AcDbEntity
  8
0
100
AcDbLine
 10
156.969978
 20
2.0127455
 30
0.0
 11
157.535978
 21
2.0127455
 31
0.0
  0
LINE
  5
14D
330
1D
100
AcDbEntity
  8
0
100
AcDbLine
 10
124.254978
 20
2.0127455
 30
0.0
 11
124.254978
 21
0.0127445
 31
0.0
  0
LINE
  5
14F
330
1D
100
AcDbEntity
  8
0
100
AcDbLine
 10
123.688978
 20
2.0127455
 30
0.0
 11
124.254978
 21
2.0127455
 31
0.0
  0
LINE
  5
150
330
1D
100
AcDbEntity
  8
0
100
AcDbLine
 10
122.367978
 20
2.0127455
 30
0.0
 11
123.688978
 21
2.0127455
 31
0.0
  0
LINE
  5
152
330
1D
100
AcDbEntity
  8
0
100
AcDbLine
 10
138.724978
 20
2.0127455
 30
0.0
 11
138.724978
 21
0.0127445
 31
0.0
  0
LINE
  5
153
330
1D
100
AcDbEntity
  8
0
100
AcDbLine
 10
138.724978
 20
2.0127455
 30
0.0
 11
139.290978
 21
2.0127455
 31
0.0
  0
LINE
  5
154
330
1D
100
AcDbEntity
  8
0
100
AcDbLine
 10
121.045978
 20
0.0127445
 30
0.0
 11
122.367978
 21
0.0127445
 31
0.0
  0
LINE
  5
156
330
1D
100
AcDbEntity
  8
0
100
AcDbLine
 10
122.367978
 20
0.0127445
 30
0.0
 11
123.688978
 21
0.0127445
 31
0.0
  0
LINE
  5
158
330
1D
100
AcDbEntity
  8
0
100
AcDbLine
 10
180.050978
 20
2.0127455
 30
0.0
 11
181.962978
 21
2.0127455
 31
0.0
  0
LINE
  5
159
330
1D
100
AcDbEntity
  8
0
100
AcDbLine
 10
114.125978
 20
22.0127555
 30
0.0
 11
114.326978
 21
22.0127555
 31
0.0
  0
LINE
  5
15A
330
1D
100
AcDbEntity
  8
0
100
AcDbLine
 10
114.502978
 20
22.0127555
 30
0.0
 11
133.376978
 21
21.3460555
 31
0.0
  0
LINE
  5
15B
330
1D
100
AcDbEntity
  8
0
100
AcDbLine
 10
114.326978
 20
22.0127555
 30
0.0
 11
114.457978
 21
22.0127555
 31
0.0
  0
LINE
  5
15C
330
1D
100
AcDbEntity
  8
0
100
AcDbLine
 10
113.848978
 20
22.0127555
 30
0.0
 11
114.125978
 21
22.0127555
 31
0.0
  0
LINE
  5
15D
330
1D
100
AcDbEntity
  8
0
100
AcDbLine
 10
113.496978
 20
22.0127555
 30
0.0
 11
113.848978
 21
22.0127555
 31
0.0
  0
LINE
  5
15E
330
1D
100
AcDbEntity
  8
0
100
AcDbLine
 10
113.128978
 20
22.0127555
 30
0.0
 11
113.496978
 21
22.0127555
 31
0.0
  0
LINE
  5
15F
330
1D
100
AcDbEntity
  8
0
100
AcDbLine
 10
112.741978
 20
22.0127555
 30
0.0
 11
113.128978
 21
22.0127555
 31
0.0
  0
LINE
  5
160
330
1D
100
AcDbEntity
  8
0
100
AcDbLine
 10
177.416978
 20
17.3460555
 30
0.0
 11
184.966978
 21
16.0127555
 31
0.0
  0
LINE
  5
161
330
1D
100
AcDbEntity
  8
0
100
AcDbLine
 10
167.350978
 20
18.6794555
 30
0.0
 11
177.416978
 21
17.3460555
 31
0.0
  0
LINE
  5
162
330
1D
100
AcDbEntity
  8
0
100
AcDbLine
 10
153.509978
 20
20.0127555
 30
0.0
 11
167.350978
 21
18.6794555
 31
0.0
  0
LINE
  5
163
330
1D
100
AcDbEntity
  8
0
100
AcDbLine
 10
144.701978
 20
20.6794555
 30
0.0
 11
153.509978
 21
20.0127555
 31
0.0
  0
LINE
  5
164
330
1D
100
AcDbEntity
  8
0
100
AcDbLine
 10
133.376978
 20
21.3460555
 30
0.0
 11
144.701978
 21
20.6794555
 31
0.0
  0
LINE
  5
165
330
1D
100
AcDbEntity
  8
0
100
AcDbLine
 10
181.191978
 20
2.6794155
 30
0.0
 11
183.129978
 21
2.6794155
 31
0.0
  0
LINE
  5
166
330
1D
100
AcDbEntity
  8
0
100
AcDbLine
 10
183.774978
 20
2.0127455
 30
0.0
 11
185.513978
 21
2.0127455
 31
0.0
  0
LINE
  5
167
330
1D
100
AcDbEntity
  8
0
100
AcDbLine
 10
181.962978
 20
2.0127455
 30
0.0
 11
183.774978
 21
2.0127455
 31
0.0
  0
LINE
  5
168
330
1D
100
AcDbEntity
  8
0
100
AcDbLine
 10
184.966978
 20
2.6794155
 30
0.0
 11
186.727978
 21
2.6794155
 31
0.0
  0
LINE
  5
169
330
1D
100
AcDbEntity
  8
0
100
AcDbLine
 10
183.129978
 20
2.6794155
 30
0.0
 11
184.966978
 21
2.6794155
 31
0.0
  0
LINE
  5
16A
330
1D
100
AcDbEntity
  8
0
100
AcDbLine
 10
186.878978
 20
2.0127455
 30
0.0
 11
187.871978
 21
2.0127455
 31
0.0
  0
LINE
  5
16B
330
1D
100
AcDbEntity
  8
0
100
AcDbLine
 10
187.871978
 20
2.0127455
 30
0.0
 11
188.517978
 21
2.0127455
 31
0.0
  0
LINE
  5
16C
330
1D
100
AcDbEntity
  8
0
100
AcDbLine
 10
185.513978
 20
2.0127455
 30
0.0
 11
186.878978
 21
2.0127455
 31
0.0
  0
LINE
  5
16D
330
1D
100
AcDbEntity
  8
0
100
AcDbLine
 10
188.112978
 20
2.6794155
 30
0.0
 11
189.118978
 21
2.6794155
 31
0.0
  0
LINE
  5
16E
330
1D
100
AcDbEntity
  8
0
100
AcDbLine
 10
186.727978
 20
2.6794155
 30
0.0
 11
188.112978
 21
2.6794155
 31
0.0
  0
LINE
  5
16F
330
1D
100
AcDbEntity
  8
0
100
AcDbLine
 10
188.517978
 20
2.0127455
 30
0.0
 11
188.741978
 21
2.0127455
 31
0.0
  0
LINE
  5
170
330
1D
100
AcDbEntity
  8
0
100
AcDbLine
 10
188.741978
 20
2.0127455
 30
0.0
 11
189.999978
 21
2.6794155
 31
0.0
  0
LINE
  5
171
330
1D
100
AcDbEntity
  8
0
100
AcDbLine
 10
189.118978
 20
2.6794155
 30
0.0
 11
189.773978
 21
2.6794155
 31
0.0
  0
LINE
  5
172
330
1D
100
AcDbEntity
  8
0
100
AcDbLine
 10
189.773978
 20
2.6794155
 30
0.0
 11
189.999978
 21
2.6794155
 31
0.0
  0
LINE
  5
173
330
1D
100
AcDbEntity
  8
0
100
AcDbLine
 10
188.112978
 20
14.0127555
 30
0.0
 11
189.118978
 21
14.0127555
 31
0.0
  0
LINE
  5
174
330
1D
100
AcDbEntity
  8
0
100
AcDbLine
 10
189.118978
 20
14.0127555
 30
0.0
 11
189.773978
 21
14.0127555
 31
0.0
  0
LINE
  5
175
330
1D
100
AcDbEntity
  8
0
100
AcDbLine
 10
189.999978
 20
2.6794155
 30
0.0
 11
189.999978
 21
14.0127555
 31
0.0
  0
LINE
  5
176
330
1D
100
AcDbEntity
  8
0
100
AcDbLine
 10
189.999978
 20
14.0127555
 30
0.0
 11
189.999978
 21
2.6794155
 31
0.0
  0
LINE
  5
177
330
1D
100
AcDbEntity
  8
0
100
AcDbLine
 10
189.773978
 20
14.0127555
 30
0.0
 11
189.999978
 21
14.0127555
 31
0.0
  0
LINE
  5
178
330
1D
100
AcDbEntity
  8
0
100
AcDbLine
 10
186.727978
 20
14.0127555
 30
0.0
 11
188.112978
 21
14.0127555
 31
0.0
  0
LINE
  5
179
330
1D
100
AcDbEntity
  8
0
100
AcDbLine
 10
184.966978
 20
14.0127555
 30
0.0
 11
186.727978
 21
14.0127555
 31
0.0
  0
LINE
  5
17A
330
1D
100
AcDbEntity
  8
0
100
AcDbLine
 10
184.966978
 20
16.0127555
 30
0.0
 11
189.370978
 21
14.6794555
 31
0.0
  0
LINE
  5
17B
330
1D
100
AcDbEntity
  8
0
100
AcDbLine
 10
189.370978
 20
14.6794555
 30
0.0
 11
189.999978
 21
14.0127555
 31
0.0
  0
LINE
  5
17C
330
1D
100
AcDbEntity
  8
0
100
AcDbLine
 10
183.129978
 20
14.0127555
 30
0.0
 11
184.966978
 21
14.0127555
 31
0.0
  0
LINE
  5
17D
330
1D
100
AcDbEntity
  8
0
100
AcDbLine
 10
181.191978
 20
14.0127555
 30
0.0
 11
183.129978
 21
14.0127555
 31
0.0
  0
LINE
  5
17E
330
1D
100
AcDbEntity
  8
0
100
AcDbLine
 10
109.999978
 20
31.5853555
 30
0.0
 11
109.999978
 21
22.0127555
 31
0.0
  0
LINE
  5
17F
330
1D
100
AcDbEntity
  8
0
100
AcDbLine
 10
109.999978
 20
22.0127555
 30
0.0
 11
109.999978
 21
31.5853555
 31
0.0
  0
LINE
  5
180
330
1D
100
AcDbEntity
  8
0
100
AcDbLine
 10
109.639978
 20
32.0127555
 30
0.0
 11
109.999978
 21
31.5853555
 31
0.0
  0
LINE
  5
185
330
1D
100
AcDbEntity
  8
0
100
AcDbLine
 10
83.936978
 20
58.3264555
 30
0.0
 11
84.202278
 21
57.8406555
 31
0.0
  0
LINE
  5
186
330
1D
100
AcDbEntity
  8
0
100
AcDbLine
 10
83.936978
 20
58.3264555
 30
0.0
 11
83.936978
 21
68.8932555
 31
0.0
  0
LINE
  5
187
330
1D
100
AcDbEntity
  8
0
100
AcDbLine
 10
84.600378
 20
57.8406555
 30
0.0
 11
85.661978
 21
57.8406555
 31
0.0
  0
LINE
  5
188
330
1D
100
AcDbEntity
  8
0
100
AcDbLine
 10
84.479778
 20
76.3632555
 30
0.0
 11
85.993878
 21
83.9291555
 31
0.0
  0
LINE
  5
189
330
1D
100
AcDbEntity
  8
0
100
AcDbLine
 10
84.202278
 20
57.8406555
 30
0.0
 11
84.600378
 21
57.8406555
 31
0.0
  0
LINE
  5
18A
330
1D
100
AcDbEntity
  8
0
100
AcDbLine
 10
83.936978
 20
68.8932555
 30
0.0
 11
83.936978
 21
58.3264555
 31
0.0
  0
LINE
  5
18B
330
1D
100
AcDbEntity
  8
0
100
AcDbLine
 10
83.936978
 20
68.8932555
 30
0.0
 11
84.479778
 21
76.3632555
 31
0.0
  0
LINE
  5
18C
330
1D
100
AcDbEntity
  8
0
100
AcDbLine
 10
85.479078
 20
56.3700555
 30
0.0
 11
87.465878
 21
57.8406555
 31
0.0
  0
LINE
  5
192
330
1D
100
AcDbEntity
  8
0
100
AcDbLine
 10
83.722378
 20
54.3886555
 30
0.0
 11
85.479078
 21
56.3700555
 31
0.0
  0
LINE
  5
19B
330
1D
100
AcDbEntity
  8
0
100
AcDbLine
 10
106.266978
 20
54.3886555
 30
0.0
 11
106.439980018571
 21
54.0127555
 31
0.0
  0
LINE
  5
1A4
330
1D
100
AcDbEntity
  8
0
100
AcDbLine
 10
104.509978
 20
56.3700555
 30
0.0
 11
106.266978
 21
54.3886555
 31
0.0
  0
LINE
  5
1B4
330
1D
100
AcDbEntity
  8
0
100
AcDbLine
 10
87.386978
 20
57.8406555
 30
0.0
 11
89.642678
 21
57.8406555
 31
0.0
  0
LINE
  5
1B5
330
1D
100
AcDbEntity
  8
0
100
AcDbLine
 10
87.386978
 20
57.8406555
 30
0.0
 11
87.465878
 21
57.8406555
 31
0.0
  0
LINE
  5
1B6
330
1D
100
AcDbEntity
  8
0
100
AcDbLine
 10
85.993878
 20
83.9291555
 30
0.0
 11
88.484978
 21
91.2333555
 31
0.0
  0
LINE
  5
1B7
330
1D
100
AcDbEntity
  8
0
100
AcDbLine
 10
85.661978
 20
57.8406555
 30
0.0
 11
87.386978
 21
57.8406555
 31
0.0
  0
LINE
  5
1BB
330
1D
100
AcDbEntity
  8
0
100
AcDbLine
 10
89.642678
 20
57.8406555
 30
0.0
 11
92.208078
 21
57.8406555
 31
0.0
  0
LINE
  5
1BC
330
1D
100
AcDbEntity
  8
0
100
AcDbLine
 10
87.821378
 20
57.8406555
 30
0.0
 11
87.905278
 21
57.8406555
 31
0.0
  0
LINE
  5
1BD
330
1D
100
AcDbEntity
  8
0
100
AcDbLine
 10
88.484978
 20
91.2333555
 30
0.0
 11
91.910378
 21
98.1504555
 31
0.0
  0
LINE
  5
1BE
330
1D
100
AcDbEntity
  8
0
100
AcDbLine
 10
87.905278
 20
57.8406555
 30
0.0
 11
90.175278
 21
57.8406555
 31
0.0
  0
LINE
  5
1BF
330
1D
100
AcDbEntity
  8
0
100
AcDbLine
 10
92.208078
 20
57.8406555
 30
0.0
 11
94.994678
 21
57.8406555
 31
0.0
  0
LINE
  5
1C0
330
1D
100
AcDbEntity
  8
0
100
AcDbLine
 10
96.312178
 20
57.8406555
 30
0.0
 11
99.240078
 21
57.8406555
 31
0.0
  0
LINE
  5
1C1
330
1D
100
AcDbEntity
  8
0
100
AcDbLine
 10
94.994678
 20
57.8406555
 30
0.0
 11
97.781178
 21
57.8406555
 31
0.0
  0
LINE
  5
1C2
330
1D
100
AcDbEntity
  8
0
100
AcDbLine
 10
94.994678
 20
57.8406555
 30
0.0
 11
96.312178
 21
57.8406555
 31
0.0
  0
LINE
  5
1C4
330
1D
100
AcDbEntity
  8
0
100
AcDbLine
 10
102.083978
 20
57.8406555
 30
0.0
 11
102.167978
 21
57.8406555
 31
0.0
  0
LINE
  5
1C5
330
1D
100
AcDbEntity
  8
0
100
AcDbLine
 10
99.813978
 20
57.8406555
 30
0.0
 11
102.083978
 21
57.8406555
 31
0.0
  0
LINE
  5
1C6
330
1D
100
AcDbEntity
  8
0
100
AcDbLine
 10
99.240078
 20
57.8406555
 30
0.0
 11
99.813978
 21
57.8406555
 31
0.0
  0
LINE
  5
1C9
330
1D
100
AcDbEntity
  8
0
100
AcDbLine
 10
102.167978
 20
57.8406555
 30
0.0
 11
102.522978
 21
57.8406555
 31
0.0
  0
LINE
  5
1CB
330
1D
100
AcDbEntity
  8
0
100
AcDbLine
 10
102.522978
 20
57.8406555
 30
0.0
 11
102.601978
 21
57.8406555
 31
0.0
  0
LINE
  5
1CC
330
1D
100
AcDbEntity
  8
0
100
AcDbLine
 10
102.522978
 20
57.8406555
 30
0.0
 11
104.509978
 21
56.3700555
 31
0.0
  0
LINE
  5
1CD
330
1D
100
AcDbEntity
  8
0
100
AcDbLine
 10
97.781178
 20
57.8406555
 30
0.0
 11
100.346978
 21
57.8406555
 31
0.0
  0
LINE
  5
1CE
330
1D
100
AcDbEntity
  8
0
100
AcDbLine
 10
100.346978
 20
57.8406555
 30
0.0
 11
102.601978
 21
57.8406555
 31
0.0
  0
LINE
  5
1CF
330
1D
100
AcDbEntity
  8
0
100
AcDbLine
 10
102.601978
 20
57.8406555
 30
0.0
 11
104.326978
 21
57.8406555
 31
0.0
  0
LINE
  5
1D0
330
1D
100
AcDbEntity
  8
0
100
AcDbLine
 10
104.326978
 20
57.8406555
 30
0.0
 11
105.388978
 21
57.8406555
 31
0.0
  0
LINE
  5
1D1
330
1D
100
AcDbEntity
  8
0
100
AcDbLine
 10
105.388978
 20
57.8406555
 30
0.0
 11
105.786978
 21
57.8406555
 31
0.0
  0
LINE
  5
1D2
330
1D
100
AcDbEntity
  8
0
100
AcDbLine
 10
105.786978
 20
57.8406555
 30
0.0
 11
106.051978
 21
58.3264555
 31
0.0
  0
LINE
  5
1D3
330
1D
100
AcDbEntity
  8
0
100
AcDbLine
 10
93.677178
 20
57.8406555
 30
0.0
 11
94.994678
 21
57.8406555
 31
0.0
  0
LINE
  5
1D4
330
1D
100
AcDbEntity
  8
0
100
AcDbLine
 10
96.211478
 20
104.5622555
 30
0.0
 11
101.584978
 21
110.6292555
 31
0.0
  0
LINE
  5
1D5
330
1D
100
AcDbEntity
  8
0
100
AcDbLine
 10
91.910378
 20
98.1504555
 30
0.0
 11
96.211478
 21
104.5622555
 31
0.0
  0
LINE
  5
1D6
330
1D
100
AcDbEntity
  8
0
100
AcDbLine
 10
101.584978
 20
110.6292555
 30
0.0
 11
107.384978
 21
115.7282555
 31
0.0
  0
LINE
  5
1D7
330
1D
100
AcDbEntity
  8
0
100
AcDbLine
 10
106.051978
 20
68.8932555
 30
0.0
 11
106.051978
 21
58.3264555
 31
0.0
  0
LINE
  5
1D8
330
1D
100
AcDbEntity
  8
0
100
AcDbLine
 10
106.051978
 20
68.8932555
 30
0.0
 11
106.334978
 21
73.4770555
 31
0.0
  0
LINE
  5
1D9
330
1D
100
AcDbEntity
  8
0
100
AcDbLine
 10
106.334978
 20
73.4770555
 30
0.0
 11
107.283978
 21
78.2219555
 31
0.0
  0
LINE
  5
1DA
330
1D
100
AcDbEntity
  8
0
100
AcDbLine
 10
467.999978
 20
77.5033555
 30
0.0
 11
468.242978
 21
77.1420555
 31
0.0
  0
LINE
  5
1DB
330
1D
100
AcDbEntity
  8
0
100
AcDbLine
 10
107.283978
 20
78.2219555
 30
0.0
 11
108.846978
 21
82.8023555
 31
0.0
  0
LINE
  5
1DC
330
1D
100
AcDbEntity
  8
0
100
AcDbLine
 10
108.846978
 20
82.8023555
 30
0.0
 11
110.994978
 21
87.1401555
 31
0.0
  0
LINE
  5
1DD
330
1D
100
AcDbEntity
  8
0
100
AcDbLine
 10
467.999978
 20
80.9361555
 30
0.0
 11
467.999978
 21
81.5424555
 31
0.0
  0
LINE
  5
1DE
330
1D
100
AcDbEntity
  8
0
100
AcDbLine
 10
467.999978
 20
80.9361555
 30
0.0
 11
467.999978
 21
80.4342555
 31
0.0
  0
LINE
  5
1DF
330
1D
100
AcDbEntity
  8
0
100
AcDbLine
 10
467.999978
 20
81.5424555
 30
0.0
 11
467.999978
 21
80.9361555
 31
0.0
  0
LINE
  5
1E0
330
1D
100
AcDbEntity
  8
0
100
AcDbLine
 10
467.999978
 20
81.5424555
 30
0.0
 11
467.999978
 21
82.3033555
 31
0.0
  0
LINE
  5
1E1
330
1D
100
AcDbEntity
  8
0
100
AcDbLine
 10
467.999978
 20
80.4342555
 30
0.0
 11
467.999978
 21
79.9742555
 31
0.0
  0
LINE
  5
1E2
330
1D
100
AcDbEntity
  8
0
100
AcDbLine
 10
467.999978
 20
80.4342555
 30
0.0
 11
467.999978
 21
80.9361555
 31
0.0
  0
LINE
  5
1E3
330
1D
100
AcDbEntity
  8
0
100
AcDbLine
 10
467.999978
 20
79.9742555
 30
0.0
 11
467.999978
 21
79.6397555
 31
0.0
  0
LINE
  5
1E4
330
1D
100
AcDbEntity
  8
0
100
AcDbLine
 10
467.999978
 20
79.9742555
 30
0.0
 11
467.999978
 21
80.4342555
 31
0.0
  0
LINE
  5
1E5
330
1D
100
AcDbEntity
  8
0
100
AcDbLine
 10
467.999978
 20
79.6397555
 30
0.0
 11
467.999978
 21
79.3430555
 31
0.0
  0
LINE
  5
1E6
330
1D
100
AcDbEntity
  8
0
100
AcDbLine
 10
467.999978
 20
79.6397555
 30
0.0
 11
467.999978
 21
79.9742555
 31
0.0
  0
LINE
  5
1E7
330
1D
100
AcDbEntity
  8
0
100
AcDbLine
 10
467.999978
 20
79.3430555
 30
0.0
 11
467.999978
 21
78.9148555
 31
0.0
  0
LINE
  5
1E8
330
1D
100
AcDbEntity
  8
0
100
AcDbLine
 10
467.999978
 20
79.3430555
 30
0.0
 11
467.999978
 21
79.6397555
 31
0.0
  0
LINE
  5
1E9
330
1D
100
AcDbEntity
  8
0
100
AcDbLine
 10
467.999978
 20
78.9148555
 30
0.0
 11
467.999978
 21
78.4687555
 31
0.0
  0
LINE
  5
1EA
330
1D
100
AcDbEntity
  8
0
100
AcDbLine
 10
467.999978
 20
78.9148555
 30
0.0
 11
467.999978
 21
79.3430555
 31
0.0
  0
LINE
  5
1EB
330
1D
100
AcDbEntity
  8
0
100
AcDbLine
 10
467.999978
 20
78.4687555
 30
0.0
 11
467.999978
 21
78.0510555
 31
0.0
  0
LINE
  5
1EC
330
1D
100
AcDbEntity
  8
0
100
AcDbLine
 10
467.999978
 20
78.4687555
 30
0.0
 11
467.999978
 21
78.9148555
 31
0.0
  0
LINE
  5
1ED
330
1D
100
AcDbEntity
  8
0
100
AcDbLine
 10
467.999978
 20
78.0510555
 30
0.0
 11
467.999978
 21
77.7189555
 31
0.0
  0
LINE
  5
1EE
330
1D
100
AcDbEntity
  8
0
100
AcDbLine
 10
467.999978
 20
78.0510555
 30
0.0
 11
467.999978
 21
78.4687555
 31
0.0
  0
LINE
  5
1EF
330
1D
100
AcDbEntity
  8
0
100
AcDbLine
 10
467.999978
 20
77.7189555
 30
0.0
 11
467.999978
 21
77.5033555
 31
0.0
  0
LINE
  5
1F0
330
1D
100
AcDbEntity
  8
0
100
AcDbLine
 10
467.999978
 20
77.7189555
 30
0.0
 11
467.999978
 21
78.0510555
 31
0.0
  0
LINE
  5
1F1
330
1D
100
AcDbEntity
  8
0
100
AcDbLine
 10
467.999978
 20
77.5033555
 30
0.0
 11
467.999978
 21
77.7189555
 31
0.0
  0
LINE
  5
1F2
330
1D
100
AcDbEntity
  8
0
100
AcDbLine
 10
467.999978
 20
82.3033555
 30
0.0
 11
467.999978
 21
83.1217555
 31
0.0
  0
LINE
  5
1F3
330
1D
100
AcDbEntity
  8
0
100
AcDbLine
 10
467.999978
 20
82.3033555
 30
0.0
 11
467.999978
 21
81.5424555
 31
0.0
  0
LINE
  5
1F4
330
1D
100
AcDbEntity
  8
0
100
AcDbLine
 10
467.999978
 20
83.1217555
 30
0.0
 11
467.999978
 21
84.0830555
 31
0.0
  0
LINE
  5
1F5
330
1D
100
AcDbEntity
  8
0
100
AcDbLine
 10
467.999978
 20
83.1217555
 30
0.0
 11
467.999978
 21
82.3033555
 31
0.0
  0
LINE
  5
1F6
330
1D
100
AcDbEntity
  8
0
100
AcDbLine
 10
467.999978
 20
84.0830555
 30
0.0
 11
467.999978
 21
84.9398555
 31
0.0
  0
LINE
  5
1F7
330
1D
100
AcDbEntity
  8
0
100
AcDbLine
 10
467.999978
 20
84.0830555
 30
0.0
 11
467.999978
 21
83.1217555
 31
0.0
  0
LINE
  5
1F8
330
1D
100
AcDbEntity
  8
0
100
AcDbLine
 10
110.994978
 20
87.1401555
 30
0.0
 11
113.691978
 21
91.1613555
 31
0.0
  0
LINE
  5
1F9
330
1D
100
AcDbEntity
  8
0
100
AcDbLine
 10
467.999978
 20
84.9398555
 30
0.0
 11
467.999978
 21
86.1728555
 31
0.0
  0
LINE
  5
1FA
330
1D
100
AcDbEntity
  8
0
100
AcDbLine
 10
467.999978
 20
84.9398555
 30
0.0
 11
467.999978
 21
84.0830555
 31
0.0
  0
LINE
  5
1FB
330
1D
100
AcDbEntity
  8
0
100
AcDbLine
 10
467.999978
 20
86.1728555
 30
0.0
 11
467.999978
 21
87.5730555
 31
0.0
  0
LINE
  5
1FC
330
1D
100
AcDbEntity
  8
0
100
AcDbLine
 10
467.999978
 20
86.1728555
 30
0.0
 11
467.999978
 21
84.9398555
 31
0.0
  0
LINE
  5
1FD
330
1D
100
AcDbEntity
  8
0
100
AcDbLine
 10
113.691978
 20
91.1613555
 30
0.0
 11
117.135978
 21
95.0404555
 31
0.0
  0
LINE
  5
1FE
330
1D
100
AcDbEntity
  8
0
100
AcDbLine
 10
467.999978
 20
87.5730555
 30
0.0
 11
467.999978
 21
89.3261555
 31
0.0
  0
LINE
  5
1FF
330
1D
100
AcDbEntity
  8
0
100
AcDbLine
 10
467.999978
 20
87.5730555
 30
0.0
 11
467.999978
 21
86.1728555
 31
0.0
  0
LINE
  5
200
330
1D
100
AcDbEntity
  8
0
100
AcDbLine
 10
467.999978
 20
89.3261555
 30
0.0
 11
467.999978
 21
92.4883555
 31
0.0
  0
LINE
  5
201
330
1D
100
AcDbEntity
  8
0
100
AcDbLine
 10
467.999978
 20
89.3261555
 30
0.0
 11
467.999978
 21
87.5730555
 31
0.0
  0
LINE
  5
202
330
1D
100
AcDbEntity
  8
0
100
AcDbLine
 10
120.773978
 20
98.2382555
 30
0.0
 11
124.796978
 21
100.9322555
 31
0.0
  0
LINE
  5
203
330
1D
100
AcDbEntity
  8
0
100
AcDbLine
 10
124.796978
 20
100.9322555
 30
0.0
 11
129.135978
 21
103.0772555
 31
0.0
  0
LINE
  5
204
330
1D
100
AcDbEntity
  8
0
100
AcDbLine
 10
117.135978
 20
95.0404555
 30
0.0
 11
120.773978
 21
98.2382555
 31
0.0
  0
LINE
  5
205
330
1D
100
AcDbEntity
  8
0
100
AcDbLine
 10
467.999978
 20
92.4883555
 30
0.0
 11
467.999978
 21
96.4338555
 31
0.0
  0
LINE
  5
206
330
1D
100
AcDbEntity
  8
0
100
AcDbLine
 10
467.999978
 20
92.4883555
 30
0.0
 11
467.999978
 21
89.3261555
 31
0.0
  0
LINE
  5
207
330
1D
100
AcDbEntity
  8
0
100
AcDbLine
 10
484.999978
 20
76.9872555
 30
0.0
 11
484.999978
 21
77.0403555
 31
0.0
  0
LINE
  5
208
330
1D
100
AcDbEntity
  8
0
100
AcDbLine
 10
484.999978
 20
77.2135555
 30
0.0
 11
484.999978
 21
77.5745555
 31
0.0
  0
LINE
  5
209
330
1D
100
AcDbEntity
  8
0
100
AcDbLine
 10
484.999978
 20
77.2135555
 30
0.0
 11
484.999978
 21
77.0403555
 31
0.0
  0
LINE
  5
20A
330
1D
100
AcDbEntity
  8
0
100
AcDbLine
 10
484.999978
 20
77.0403555
 30
0.0
 11
484.999978
 21
77.2135555
 31
0.0
  0
LINE
  5
20B
330
1D
100
AcDbEntity
  8
0
100
AcDbLine
 10
484.999978
 20
77.0403555
 30
0.0
 11
484.999978
 21
76.9872555
 31
0.0
  0
LINE
  5
20C
330
1D
100
AcDbEntity
  8
0
100
AcDbLine
 10
468.809978
 20
76.9872555
 30
0.0
 11
484.999978
 21
76.9872555
 31
0.0
  0
LINE
  5
20E
330
1D
100
AcDbEntity
  8
0
100
AcDbLine
 10
468.242978
 20
77.1420555
 30
0.0
 11
468.809978
 21
76.9872555
 31
0.0
  0
LINE
  5
22D
330
1D
100
AcDbEntity
  8
0
100
AcDbLine
 10
484.999978
 20
82.7400555
 30
0.0
 11
484.999978
 21
81.9162555
 31
0.0
  0
LINE
  5
22E
330
1D
100
AcDbEntity
  8
0
100
AcDbLine
 10
484.999978
 20
82.7400555
 30
0.0
 11
484.999978
 21
83.6907555
 31
0.0
  0
LINE
  5
22F
330
1D
100
AcDbEntity
  8
0
100
AcDbLine
 10
484.999978
 20
83.6907555
 30
0.0
 11
484.999978
 21
82.7400555
 31
0.0
  0
LINE
  5
230
330
1D
100
AcDbEntity
  8
0
100
AcDbLine
 10
484.999978
 20
83.6907555
 30
0.0
 11
484.999978
 21
84.5809555
 31
0.0
  0
LINE
  5
231
330
1D
100
AcDbEntity
  8
0
100
AcDbLine
 10
484.999978
 20
84.5809555
 30
0.0
 11
484.999978
 21
83.6907555
 31
0.0
  0
LINE
  5
232
330
1D
100
AcDbEntity
  8
0
100
AcDbLine
 10
484.999978
 20
84.5809555
 30
0.0
 11
484.999978
 21
85.8254555
 31
0.0
  0
LINE
  5
233
330
1D
100
AcDbEntity
  8
0
100
AcDbLine
 10
484.999978
 20
85.8254555
 30
0.0
 11
484.999978
 21
84.5809555
 31
0.0
  0
LINE
  5
234
330
1D
100
AcDbEntity
  8
0
100
AcDbLine
 10
484.999978
 20
85.8254555
 30
0.0
 11
484.999978
 21
87.2688555
 31
0.0
  0
LINE
  5
235
330
1D
100
AcDbEntity
  8
0
100
AcDbLine
 10
484.999978
 20
87.2688555
 30
0.0
 11
484.999978
 21
85.8254555
 31
0.0
  0
LINE
  5
236
330
1D
100
AcDbEntity
  8
0
100
AcDbLine
 10
484.999978
 20
87.2688555
 30
0.0
 11
484.999978
 21
89.0218555
 31
0.0
  0
LINE
  5
237
330
1D
100
AcDbEntity
  8
0
100
AcDbLine
 10
484.999978
 20
89.0218555
 30
0.0
 11
484.999978
 21
87.2688555
 31
0.0
  0
LINE
  5
238
330
1D
100
AcDbEntity
  8
0
100
AcDbLine
 10
484.999978
 20
89.0218555
 30
0.0
 11
484.999978
 21
92.2629555
 31
0.0
  0
LINE
  5
239
330
1D
100
AcDbEntity
  8
0
100
AcDbLine
 10
484.999978
 20
92.2629555
 30
0.0
 11
484.999978
 21
89.0218555
 31
0.0
  0
LINE
  5
23A
330
1D
100
AcDbEntity
  8
0
100
AcDbLine
 10
484.999978
 20
92.2629555
 30
0.0
 11
484.999978
 21
96.2248555
 31
0.0
  0
LINE
  5
23B
330
1D
100
AcDbEntity
  8
0
100
AcDbLine
 10
484.999978
 20
96.2248555
 30
0.0
 11
484.999978
 21
92.2629555
 31
0.0
  0
LINE
  5
23C
330
1D
100
AcDbEntity
  8
0
100
AcDbLine
 10
484.999978
 20
96.2248555
 30
0.0
 11
484.999978
 21
101.9672555
 31
0.0
  0
LINE
  5
23D
330
1D
100
AcDbEntity
  8
0
100
AcDbLine
 10
484.999978
 20
101.9672555
 30
0.0
 11
484.999978
 21
96.2248555
 31
0.0
  0
LINE
  5
23E
330
1D
100
AcDbEntity
  8
0
100
AcDbLine
 10
484.999978
 20
101.9672555
 30
0.0
 11
484.999978
 21
108.5182555
 31
0.0
  0
LINE
  5
23F
330
1D
100
AcDbEntity
  8
0
100
AcDbLine
 10
484.999978
 20
81.9162555
 30
0.0
 11
484.999978
 21
81.1884555
 31
0.0
  0
LINE
  5
240
330
1D
100
AcDbEntity
  8
0
100
AcDbLine
 10
484.999978
 20
81.9162555
 30
0.0
 11
484.999978
 21
82.7400555
 31
0.0
  0
LINE
  5
241
330
1D
100
AcDbEntity
  8
0
100
AcDbLine
 10
484.999978
 20
81.1884555
 30
0.0
 11
484.999978
 21
81.9162555
 31
0.0
  0
LINE
  5
242
330
1D
100
AcDbEntity
  8
0
100
AcDbLine
 10
484.999978
 20
81.1884555
 30
0.0
 11
484.999978
 21
80.5571555
 31
0.0
  0
LINE
  5
243
330
1D
100
AcDbEntity
  8
0
100
AcDbLine
 10
484.999978
 20
80.5571555
 30
0.0
 11
484.999978
 21
81.1884555
 31
0.0
  0
LINE
  5
244
330
1D
100
AcDbEntity
  8
0
100
AcDbLine
 10
484.999978
 20
80.5571555
 30
0.0
 11
484.999978
 21
80.0469555
 31
0.0
  0
LINE
  5
245
330
1D
100
AcDbEntity
  8
0
100
AcDbLine
 10
484.999978
 20
80.0469555
 30
0.0
 11
484.999978
 21
80.5571555
 31
0.0
  0
LINE
  5
246
330
1D
100
AcDbEntity
  8
0
100
AcDbLine
 10
484.999978
 20
80.0469555
 30
0.0
 11
484.999978
 21
79.5454555
 31
0.0
  0
LINE
  5
247
330
1D
100
AcDbEntity
  8
0
100
AcDbLine
 10
484.999978
 20
79.5454555
 30
0.0
 11
484.999978
 21
80.0469555
 31
0.0
  0
LINE
  5
248
330
1D
100
AcDbEntity
  8
0
100
AcDbLine
 10
484.999978
 20
79.5454555
 30
0.0
 11
484.999978
 21
79.1908555
 31
0.0
  0
LINE
  5
249
330
1D
100
AcDbEntity
  8
0
100
AcDbLine
 10
484.999978
 20
79.1908555
 30
0.0
 11
484.999978
 21
79.5454555
 31
0.0
  0
LINE
  5
24A
330
1D
100
AcDbEntity
  8
0
100
AcDbLine
 10
484.999978
 20
79.1908555
 30
0.0
 11
484.999978
 21
78.8672555
 31
0.0
  0
LINE
  5
24B
330
1D
100
AcDbEntity
  8
0
100
AcDbLine
 10
484.999978
 20
78.8672555
 30
0.0
 11
484.999978
 21
79.1908555
 31
0.0
  0
LINE
  5
24C
330
1D
100
AcDbEntity
  8
0
100
AcDbLine
 10
484.999978
 20
78.8672555
 30
0.0
 11
484.999978
 21
78.4811555
 31
0.0
  0
LINE
  5
24D
330
1D
100
AcDbEntity
  8
0
100
AcDbLine
 10
484.999978
 20
78.4811555
 30
0.0
 11
484.999978
 21
78.8672555
 31
0.0
  0
LINE
  5
24E
330
1D
100
AcDbEntity
  8
0
100
AcDbLine
 10
484.999978
 20
78.4811555
 30
0.0
 11
484.999978
 21
78.0087555
 31
0.0
  0
LINE
  5
24F
330
1D
100
AcDbEntity
  8
0
100
AcDbLine
 10
484.999978
 20
78.0087555
 30
0.0
 11
484.999978
 21
78.4811555
 31
0.0
  0
LINE
  5
250
330
1D
100
AcDbEntity
  8
0
100
AcDbLine
 10
484.999978
 20
78.0087555
 30
0.0
 11
484.999978
 21
77.5745555
 31
0.0
  0
LINE
  5
251
330
1D
100
AcDbEntity
  8
0
100
AcDbLine
 10
484.999978
 20
77.5745555
 30
0.0
 11
484.999978
 21
78.0087555
 31
0.0
  0
LINE
  5
252
330
1D
100
AcDbEntity
  8
0
100
AcDbLine
 10
484.999978
 20
77.5745555
 30
0.0
 11
484.999978
 21
77.2135555
 31
0.0
  0
LINE
  5
257
330
1D
100
AcDbEntity
  8
0
100
AcDbLine
 10
467.999978
 20
96.4338555
 30
0.0
 11
467.999978
 21
102.1982555
 31
0.0
  0
LINE
  5
258
330
1D
100
AcDbEntity
  8
0
100
AcDbLine
 10
467.999978
 20
96.4338555
 30
0.0
 11
467.999978
 21
92.4883555
 31
0.0
  0
LINE
  5
259
330
1D
100
AcDbEntity
  8
0
100
AcDbLine
 10
143.290978
 20
105.9002555
 30
0.0
 11
467.999978
 21
105.897273864967
 31
0.0
  0
LINE
  5
25A
330
1D
100
AcDbEntity
  8
0
100
AcDbLine
 10
138.462978
 20
105.5822555
 30
0.0
 11
143.290978
 21
105.9002555
 31
0.0
  0
LINE
  5
25B
330
1D
100
AcDbEntity
  8
0
100
AcDbLine
 10
133.717978
 20
104.6362555
 30
0.0
 11
138.462978
 21
105.5822555
 31
0.0
  0
LINE
  5
25C
330
1D
100
AcDbEntity
  8
0
100
AcDbLine
 10
129.135978
 20
103.0772555
 30
0.0
 11
133.717978
 21
104.6362555
 31
0.0
  0
LINE
  5
25D
330
1D
100
AcDbEntity
  8
0
100
AcDbLine
 10
143.290978
 20
105.9002555
 30
0.0
 11
467.999978
 21
105.897273864967
 31
0.0
  0
LINE
  5
25E
330
1D
100
AcDbEntity
  8
0
100
AcDbLine
 10
467.999978
 20
108.6192555
 30
0.0
 11
467.999978
 21
113.6332555
 31
0.0
  0
LINE
  5
25F
330
1D
100
AcDbEntity
  8
0
100
AcDbLine
 10
467.999978
 20
108.6192555
 30
0.0
 11
467.999978
 21
102.1982555
 31
0.0
  0
LINE
  5
260
330
1D
100
AcDbEntity
  8
0
100
AcDbLine
 10
107.384978
 20
115.7282555
 30
0.0
 11
113.799978
 21
120.0242555
 31
0.0
  0
LINE
  5
261
330
1D
100
AcDbEntity
  8
0
100
AcDbLine
 10
113.799978
 20
120.0242555
 30
0.0
 11
120.719978
 21
123.4452555
 31
0.0
  0
LINE
  5
262
330
1D
100
AcDbEntity
  8
0
100
AcDbLine
 10
143.290978
 20
127.9462555
 30
0.0
 11
467.999978
 21
127.937310594901
 31
0.0
  0
LINE
  5
263
330
1D
100
AcDbEntity
  8
0
100
AcDbLine
 10
135.592978
 20
127.4402555
 30
0.0
 11
143.290978
 21
127.9462555
 31
0.0
  0
LINE
  5
264
330
1D
100
AcDbEntity
  8
0
100
AcDbLine
 10
128.025978
 20
125.9312555
 30
0.0
 11
135.592978
 21
127.4402555
 31
0.0
  0
LINE
  5
265
330
1D
100
AcDbEntity
  8
0
100
AcDbLine
 10
120.719978
 20
123.4452555
 30
0.0
 11
128.025978
 21
125.9312555
 31
0.0
  0
LINE
  5
266
330
1D
100
AcDbEntity
  8
0
100
AcDbLine
 10
143.290978
 20
127.9462555
 30
0.0
 11
467.999978
 21
127.937310594901
 31
0.0
  0
LINE
  5
267
330
1D
100
AcDbEntity
  8
0
100
AcDbLine
 10
467.999978
 20
125.3552555
 30
0.0
 11
467.999978
 21
120.3412555
 31
0.0
  0
LINE
  5
268
330
1D
100
AcDbEntity
  8
0
100
AcDbLine
 10
467.999978
 20
125.3552555
 30
0.0
 11
467.999978
 21
131.7762555
 31
0.0
  0
LINE
  5
269
330
1D
100
AcDbEntity
  8
0
100
AcDbLine
 10
467.999978
 20
120.3412555
 30
0.0
 11
467.999978
 21
116.9872555
 31
0.0
  0
LINE
  5
26A
330
1D
100
AcDbEntity
  8
0
100
AcDbLine
 10
467.999978
 20
120.3412555
 30
0.0
 11
467.999978
 21
125.3552555
 31
0.0
  0
LINE
  5
26B
330
1D
100
AcDbEntity
  8
0
100
AcDbLine
 10
467.999978
 20
127.937310594901
 30
0.0
 11
467.999978
 21
131.7762555
 31
0.0
  0
LINE
  5
26C
330
1D
100
AcDbEntity
  8
0
100
AcDbLine
 10
467.999978
 20
149.8912555
 30
0.0
 11
467.999978
 21
150.8522555
 31
0.0
  0
LINE
  5
26D
330
1D
100
AcDbEntity
  8
0
100
AcDbLine
 10
467.999978
 20
150.8522555
 30
0.0
 11
467.999978
 21
149.8912555
 31
0.0
  0
LINE
  5
26E
330
1D
100
AcDbEntity
  8
0
100
AcDbLine
 10
467.999978
 20
150.8522555
 30
0.0
 11
467.999978
 21
151.6712555
 31
0.0
  0
LINE
  5
26F
330
1D
100
AcDbEntity
  8
0
100
AcDbLine
 10
467.999978
 20
149.8912555
 30
0.0
 11
467.999978
 21
147.8012555
 31
0.0
  0
LINE
  5
270
330
1D
100
AcDbEntity
  8
0
100
AcDbLine
 10
467.999978
 20
147.8012555
 30
0.0
 11
467.999978
 21
146.4012555
 31
0.0
  0
LINE
  5
271
330
1D
100
AcDbEntity
  8
0
100
AcDbLine
 10
467.999978
 20
147.8012555
 30
0.0
 11
467.999978
 21
149.8912555
 31
0.0
  0
LINE
  5
272
330
1D
100
AcDbEntity
  8
0
100
AcDbLine
 10
467.999978
 20
146.4012555
 30
0.0
 11
467.999978
 21
144.6482555
 31
0.0
  0
LINE
  5
273
330
1D
100
AcDbEntity
  8
0
100
AcDbLine
 10
467.999978
 20
146.4012555
 30
0.0
 11
467.999978
 21
147.8012555
 31
0.0
  0
LINE
  5
274
330
1D
100
AcDbEntity
  8
0
100
AcDbLine
 10
467.999978
 20
144.6482555
 30
0.0
 11
467.999978
 21
141.4862555
 31
0.0
  0
LINE
  5
275
330
1D
100
AcDbEntity
  8
0
100
AcDbLine
 10
467.999978
 20
144.6482555
 30
0.0
 11
467.999978
 21
146.4012555
 31
0.0
  0
LINE
  5
276
330
1D
100
AcDbEntity
  8
0
100
AcDbLine
 10
467.999978
 20
141.4862555
 30
0.0
 11
467.999978
 21
137.5402555
 31
0.0
  0
LINE
  5
277
330
1D
100
AcDbEntity
  8
0
100
AcDbLine
 10
467.999978
 20
141.4862555
 30
0.0
 11
467.999978
 21
144.6482555
 31
0.0
  0
LINE
  5
278
330
1D
100
AcDbEntity
  8
0
100
AcDbLine
 10
467.999978
 20
137.5402555
 30
0.0
 11
467.999978
 21
131.7762555
 31
0.0
  0
LINE
  5
279
330
1D
100
AcDbEntity
  8
0
100
AcDbLine
 10
467.999978
 20
137.5402555
 30
0.0
 11
467.999978
 21
141.4862555
 31
0.0
  0
LINE
  5
27A
330
1D
100
AcDbEntity
  8
0
100
AcDbLine
 10
467.999978
 20
131.7762555
 30
0.0
 11
467.999978
 21
127.937310594901
 31
0.0
  0
LINE
  5
27B
330
1D
100
AcDbEntity
  8
0
100
AcDbLine
 10
467.999978
 20
131.7762555
 30
0.0
 11
467.999978
 21
137.5402555
 31
0.0
  0
LINE
  5
27C
330
1D
100
AcDbEntity
  8
0
100
AcDbLine
 10
467.999978
 20
131.7762555
 30
0.0
 11
467.999978
 21
125.3552555
 31
0.0
  0
LINE
  5
27D
330
1D
100
AcDbEntity
  8
0
100
AcDbLine
 10
467.999978
 20
151.6712555
 30
0.0
 11
467.999978
 21
152.4322555
 31
0.0
  0
LINE
  5
27E
330
1D
100
AcDbEntity
  8
0
100
AcDbLine
 10
467.999978
 20
151.6712555
 30
0.0
 11
467.999978
 21
150.8522555
 31
0.0
  0
LINE
  5
27F
330
1D
100
AcDbEntity
  8
0
100
AcDbLine
 10
467.999978
 20
152.4322555
 30
0.0
 11
467.999978
 21
153.0382555
 31
0.0
  0
LINE
  5
280
330
1D
100
AcDbEntity
  8
0
100
AcDbLine
 10
467.999978
 20
152.4322555
 30
0.0
 11
467.999978
 21
151.6712555
 31
0.0
  0
LINE
  5
281
330
1D
100
AcDbEntity
  8
0
100
AcDbLine
 10
467.999978
 20
153.0382555
 30
0.0
 11
467.999978
 21
153.5402555
 31
0.0
  0
LINE
  5
282
330
1D
100
AcDbEntity
  8
0
100
AcDbLine
 10
467.999978
 20
153.0382555
 30
0.0
 11
467.999978
 21
152.4322555
 31
0.0
  0
LINE
  5
283
330
1D
100
AcDbEntity
  8
0
100
AcDbLine
 10
467.999978
 20
153.5402555
 30
0.0
 11
467.999978
 21
154.0002555
 31
0.0
  0
LINE
  5
284
330
1D
100
AcDbEntity
  8
0
100
AcDbLine
 10
467.999978
 20
153.5402555
 30
0.0
 11
467.999978
 21
153.0382555
 31
0.0
  0
LINE
  5
285
330
1D
100
AcDbEntity
  8
0
100
AcDbLine
 10
467.999978
 20
154.0002555
 30
0.0
 11
467.999978
 21
154.3352555
 31
0.0
  0
LINE
  5
286
330
1D
100
AcDbEntity
  8
0
100
AcDbLine
 10
467.999978
 20
154.0002555
 30
0.0
 11
467.999978
 21
153.5402555
 31
0.0
  0
LINE
  5
287
330
1D
100
AcDbEntity
  8
0
100
AcDbLine
 10
467.999978
 20
154.3352555
 30
0.0
 11
467.999978
 21
154.6312555
 31
0.0
  0
LINE
  5
288
330
1D
100
AcDbEntity
  8
0
100
AcDbLine
 10
467.999978
 20
154.3352555
 30
0.0
 11
467.999978
 21
154.0002555
 31
0.0
  0
LINE
  5
289
330
1D
100
AcDbEntity
  8
0
100
AcDbLine
 10
467.999978
 20
154.6312555
 30
0.0
 11
467.999978
 21
155.0592555
 31
0.0
  0
LINE
  5
28A
330
1D
100
AcDbEntity
  8
0
100
AcDbLine
 10
467.999978
 20
154.6312555
 30
0.0
 11
467.999978
 21
154.3352555
 31
0.0
  0
LINE
  5
28B
330
1D
100
AcDbEntity
  8
0
100
AcDbLine
 10
467.999978
 20
155.0592555
 30
0.0
 11
467.999978
 21
155.5052555
 31
0.0
  0
LINE
  5
28C
330
1D
100
AcDbEntity
  8
0
100
AcDbLine
 10
467.999978
 20
155.0592555
 30
0.0
 11
467.999978
 21
154.6312555
 31
0.0
  0
LINE
  5
28D
330
1D
100
AcDbEntity
  8
0
100
AcDbLine
 10
467.999978
 20
155.5052555
 30
0.0
 11
467.999978
 21
155.9232555
 31
0.0
  0
LINE
  5
28E
330
1D
100
AcDbEntity
  8
0
100
AcDbLine
 10
467.999978
 20
155.5052555
 30
0.0
 11
467.999978
 21
155.0592555
 31
0.0
  0
LINE
  5
28F
330
1D
100
AcDbEntity
  8
0
100
AcDbLine
 10
467.999978
 20
155.9232555
 30
0.0
 11
467.999978
 21
156.2552555
 31
0.0
  0
LINE
  5
290
330
1D
100
AcDbEntity
  8
0
100
AcDbLine
 10
467.999978
 20
155.9232555
 30
0.0
 11
467.999978
 21
155.5052555
 31
0.0
  0
LINE
  5
291
330
1D
100
AcDbEntity
  8
0
100
AcDbLine
 10
467.999978
 20
156.2552555
 30
0.0
 11
467.999978
 21
156.4712555
 31
0.0
  0
LINE
  5
292
330
1D
100
AcDbEntity
  8
0
100
AcDbLine
 10
467.999978
 20
156.2552555
 30
0.0
 11
467.999978
 21
155.9232555
 31
0.0
  0
LINE
  5
293
330
1D
100
AcDbEntity
  8
0
100
AcDbLine
 10
467.999978
 20
156.4712555
 30
0.0
 11
468.242978
 21
156.8322555
 31
0.0
  0
LINE
  5
294
330
1D
100
AcDbEntity
  8
0
100
AcDbLine
 10
467.999978
 20
156.4712555
 30
0.0
 11
467.999978
 21
156.2552555
 31
0.0
  0
LINE
  5
295
330
1D
100
AcDbEntity
  8
0
100
AcDbLine
 10
467.999978
 20
116.9872555
 30
0.0
 11
467.999978
 21
113.6332555
 31
0.0
  0
LINE
  5
296
330
1D
100
AcDbEntity
  8
0
100
AcDbLine
 10
467.999978
 20
116.9872555
 30
0.0
 11
467.999978
 21
120.3412555
 31
0.0
  0
LINE
  5
297
330
1D
100
AcDbEntity
  8
0
100
AcDbLine
 10
467.999978
 20
113.6332555
 30
0.0
 11
467.999978
 21
116.9872555
 31
0.0
  0
LINE
  5
298
330
1D
100
AcDbEntity
  8
0
100
AcDbLine
 10
467.999978
 20
113.6332555
 30
0.0
 11
467.999978
 21
108.6192555
 31
0.0
  0
LINE
  5
299
330
1D
100
AcDbEntity
  8
0
100
AcDbLine
 10
484.999978
 20
108.5182555
 30
0.0
 11
484.999978
 21
101.9672555
 31
0.0
  0
LINE
  5
29A
330
1D
100
AcDbEntity
  8
0
100
AcDbLine
 10
484.999978
 20
108.5182555
 30
0.0
 11
484.999978
 21
113.5762555
 31
0.0
  0
LINE
  5
29B
330
1D
100
AcDbEntity
  8
0
100
AcDbLine
 10
484.999978
 20
113.5762555
 30
0.0
 11
484.999978
 21
108.5182555
 31
0.0
  0
LINE
  5
29C
330
1D
100
AcDbEntity
  8
0
100
AcDbLine
 10
484.999978
 20
113.5762555
 30
0.0
 11
484.999978
 21
116.9872555
 31
0.0
  0
LINE
  5
2C5
330
1D
100
AcDbEntity
  8
0
100
AcDbLine
 10
468.242978
 20
156.8322555
 30
0.0
 11
468.809978
 21
156.9872555
 31
0.0
  0
LINE
  5
2C7
330
1D
100
AcDbEntity
  8
0
100
AcDbLine
 10
484.999978
 20
152.7862555
 30
0.0
 11
484.999978
 21
152.0582555
 31
0.0
  0
LINE
  5
2C8
330
1D
100
AcDbEntity
  8
0
100
AcDbLine
 10
484.999978
 20
152.7862555
 30
0.0
 11
484.999978
 21
153.4172555
 31
0.0
  0
LINE
  5
2C9
330
1D
100
AcDbEntity
  8
0
100
AcDbLine
 10
484.999978
 20
153.4172555
 30
0.0
 11
484.999978
 21
152.7862555
 31
0.0
  0
LINE
  5
2CA
330
1D
100
AcDbEntity
  8
0
100
AcDbLine
 10
484.999978
 20
153.4172555
 30
0.0
 11
484.999978
 21
153.9272555
 31
0.0
  0
LINE
  5
2CB
330
1D
100
AcDbEntity
  8
0
100
AcDbLine
 10
484.999978
 20
153.9272555
 30
0.0
 11
484.999978
 21
153.4172555
 31
0.0
  0
LINE
  5
2CC
330
1D
100
AcDbEntity
  8
0
100
AcDbLine
 10
484.999978
 20
153.9272555
 30
0.0
 11
484.999978
 21
154.4292555
 31
0.0
  0
LINE
  5
2CD
330
1D
100
AcDbEntity
  8
0
100
AcDbLine
 10
484.999978
 20
154.4292555
 30
0.0
 11
484.999978
 21
153.9272555
 31
0.0
  0
LINE
  5
2CE
330
1D
100
AcDbEntity
  8
0
100
AcDbLine
 10
484.999978
 20
154.4292555
 30
0.0
 11
484.999978
 21
154.7832555
 31
0.0
  0
LINE
  5
2CF
330
1D
100
AcDbEntity
  8
0
100
AcDbLine
 10
484.999978
 20
154.7832555
 30
0.0
 11
484.999978
 21
154.4292555
 31
0.0
  0
LINE
  5
2D0
330
1D
100
AcDbEntity
  8
0
100
AcDbLine
 10
484.999978
 20
154.7832555
 30
0.0
 11
484.999978
 21
155.1072555
 31
0.0
  0
LINE
  5
2D1
330
1D
100
AcDbEntity
  8
0
100
AcDbLine
 10
484.999978
 20
155.1072555
 30
0.0
 11
484.999978
 21
154.7832555
 31
0.0
  0
LINE
  5
2D2
330
1D
100
AcDbEntity
  8
0
100
AcDbLine
 10
484.999978
 20
155.1072555
 30
0.0
 11
484.999978
 21
155.4932555
 31
0.0
  0
LINE
  5
2D3
330
1D
100
AcDbEntity
  8
0
100
AcDbLine
 10
484.999978
 20
155.4932555
 30
0.0
 11
484.999978
 21
155.1072555
 31
0.0
  0
LINE
  5
2D4
330
1D
100
AcDbEntity
  8
0
100
AcDbLine
 10
484.999978
 20
155.4932555
 30
0.0
 11
484.999978
 21
155.9662555
 31
0.0
  0
LINE
  5
2D5
330
1D
100
AcDbEntity
  8
0
100
AcDbLine
 10
484.999978
 20
155.9662555
 30
0.0
 11
484.999978
 21
155.4932555
 31
0.0
  0
LINE
  5
2D6
330
1D
100
AcDbEntity
  8
0
100
AcDbLine
 10
484.999978
 20
155.9662555
 30
0.0
 11
484.999978
 21
156.4002555
 31
0.0
  0
LINE
  5
2D7
330
1D
100
AcDbEntity
  8
0
100
AcDbLine
 10
484.999978
 20
156.4002555
 30
0.0
 11
484.999978
 21
155.9662555
 31
0.0
  0
LINE
  5
2D8
330
1D
100
AcDbEntity
  8
0
100
AcDbLine
 10
484.999978
 20
156.4002555
 30
0.0
 11
484.999978
 21
156.7612555
 31
0.0
  0
LINE
  5
2D9
330
1D
100
AcDbEntity
  8
0
100
AcDbLine
 10
484.999978
 20
156.7612555
 30
0.0
 11
484.999978
 21
156.4002555
 31
0.0
  0
LINE
  5
2DA
330
1D
100
AcDbEntity
  8
0
100
AcDbLine
 10
484.999978
 20
156.7612555
 30
0.0
 11
484.999978
 21
156.9342555
 31
0.0
  0
LINE
  5
2DB
330
1D
100
AcDbEntity
  8
0
100
AcDbLine
 10
484.999978
 20
156.9342555
 30
0.0
 11
484.999978
 21
156.7612555
 31
0.0
  0
LINE
  5
2DC
330
1D
100
AcDbEntity
  8
0
100
AcDbLine
 10
484.999978
 20
156.9342555
 30
0.0
 11
484.999978
 21
156.9872555
 31
0.0
  0
LINE
  5
2DD
330
1D
100
AcDbEntity
  8
0
100
AcDbLine
 10
484.999978
 20
156.9872555
 30
0.0
 11
484.999978
 21
156.9342555
 31
0.0
  0
LINE
  5
2DE
330
1D
100
AcDbEntity
  8
0
100
AcDbLine
 10
484.999978
 20
152.0582555
 30
0.0
 11
484.999978
 21
151.2342555
 31
0.0
  0
LINE
  5
2DF
330
1D
100
AcDbEntity
  8
0
100
AcDbLine
 10
484.999978
 20
152.0582555
 30
0.0
 11
484.999978
 21
152.7862555
 31
0.0
  0
LINE
  5
2E0
330
1D
100
AcDbEntity
  8
0
100
AcDbLine
 10
484.999978
 20
151.2342555
 30
0.0
 11
484.999978
 21
152.0582555
 31
0.0
  0
LINE
  5
2E1
330
1D
100
AcDbEntity
  8
0
100
AcDbLine
 10
484.999978
 20
151.2342555
 30
0.0
 11
484.999978
 21
150.2832555
 31
0.0
  0
LINE
  5
2E2
330
1D
100
AcDbEntity
  8
0
100
AcDbLine
 10
484.999978
 20
150.2832555
 30
0.0
 11
484.999978
 21
151.2342555
 31
0.0
  0
LINE
  5
2E3
330
1D
100
AcDbEntity
  8
0
100
AcDbLine
 10
484.999978
 20
150.2832555
 30
0.0
 11
484.999978
 21
149.3932555
 31
0.0
  0
LINE
  5
2E4
330
1D
100
AcDbEntity
  8
0
100
AcDbLine
 10
484.999978
 20
149.3932555
 30
0.0
 11
484.999978
 21
150.2832555
 31
0.0
  0
LINE
  5
2E5
330
1D
100
AcDbEntity
  8
0
100
AcDbLine
 10
484.999978
 20
149.3932555
 30
0.0
 11
484.999978
 21
148.1492555
 31
0.0
  0
LINE
  5
2E6
330
1D
100
AcDbEntity
  8
0
100
AcDbLine
 10
484.999978
 20
148.1492555
 30
0.0
 11
484.999978
 21
149.3932555
 31
0.0
  0
LINE
  5
2E7
330
1D
100
AcDbEntity
  8
0
100
AcDbLine
 10
484.999978
 20
148.1492555
 30
0.0
 11
484.999978
 21
146.7052555
 31
0.0
  0
LINE
  5
2E8
330
1D
100
AcDbEntity
  8
0
100
AcDbLine
 10
484.999978
 20
146.7052555
 30
0.0
 11
484.999978
 21
148.1492555
 31
0.0
  0
LINE
  5
2E9
330
1D
100
AcDbEntity
  8
0
100
AcDbLine
 10
484.999978
 20
146.7052555
 30
0.0
 11
484.999978
 21
144.9522555
 31
0.0
  0
LINE
  5
2EA
330
1D
100
AcDbEntity
  8
0
100
AcDbLine
 10
484.999978
 20
144.9522555
 30
0.0
 11
484.999978
 21
146.7052555
 31
0.0
  0
LINE
  5
2EB
330
1D
100
AcDbEntity
  8
0
100
AcDbLine
 10
484.999978
 20
144.9522555
 30
0.0
 11
484.999978
 21
141.7112555
 31
0.0
  0
LINE
  5
2EC
330
1D
100
AcDbEntity
  8
0
100
AcDbLine
 10
484.999978
 20
141.7112555
 30
0.0
 11
484.999978
 21
144.9522555
 31
0.0
  0
LINE
  5
2ED
330
1D
100
AcDbEntity
  8
0
100
AcDbLine
 10
484.999978
 20
141.7112555
 30
0.0
 11
484.999978
 21
137.7492555
 31
0.0
  0
LINE
  5
2EE
330
1D
100
AcDbEntity
  8
0
100
AcDbLine
 10
484.999978
 20
137.7492555
 30
0.0
 11
484.999978
 21
141.7112555
 31
0.0
  0
LINE
  5
2EF
330
1D
100
AcDbEntity
  8
0
100
AcDbLine
 10
484.999978
 20
137.7492555
 30
0.0
 11
484.999978
 21
132.0072555
 31
0.0
  0
LINE
  5
2F0
330
1D
100
AcDbEntity
  8
0
100
AcDbLine
 10
484.999978
 20
132.0072555
 30
0.0
 11
484.999978
 21
137.7492555
 31
0.0
  0
LINE
  5
2F1
330
1D
100
AcDbEntity
  8
0
100
AcDbLine
 10
484.999978
 20
132.0072555
 30
0.0
 11
484.999978
 21
125.4562555
 31
0.0
  0
LINE
  5
2F2
330
1D
100
AcDbEntity
  8
0
100
AcDbLine
 10
484.999978
 20
125.4562555
 30
0.0
 11
484.999978
 21
132.0072555
 31
0.0
  0
LINE
  5
2F3
330
1D
100
AcDbEntity
  8
0
100
AcDbLine
 10
484.999978
 20
125.4562555
 30
0.0
 11
484.999978
 21
120.3982555
 31
0.0
  0
LINE
  5
2F4
330
1D
100
AcDbEntity
  8
0
100
AcDbLine
 10
484.999978
 20
120.3982555
 30
0.0
 11
484.999978
 21
125.4562555
 31
0.0
  0
LINE
  5
2F5
330
1D
100
AcDbEntity
  8
0
100
AcDbLine
 10
484.999978
 20
120.3982555
 30
0.0
 11
484.999978
 21
116.9872555
 31
0.0
  0
LINE
  5
2F6
330
1D
100
AcDbEntity
  8
0
100
AcDbLine
 10
468.809978
 20
156.9872555
 30
0.0
 11
484.999978
 21
156.9872555
 31
0.0
  0
LINE
  5
2F7
330
1D
100
AcDbEntity
  8
0
100
AcDbLine
 10
484.999978
 20
116.9872555
 30
0.0
 11
484.999978
 21
113.5762555
 31
0.0
  0
LINE
  5
2F8
330
1D
100
AcDbEntity
  8
0
100
AcDbLine
 10
484.999978
 20
116.9872555
 30
0.0
 11
484.999978
 21
120.3982555
 31
0.0
  0
LINE
  5
2FD
330
1D
100
AcDbEntity
  8
0
100
AcDbLine
 10
467.999978
 20
105.897273864967
 30
0.0
 11
467.999978
 21
102.1982555
 31
0.0
  0
LINE
  5
2FE
330
1D
100
AcDbEntity
  8
0
100
AcDbLine
 10
467.999978
 20
102.1982555
 30
0.0
 11
467.999978
 21
105.897273864967
 31
0.0
  0
LINE
  5
2FF
330
1D
100
AcDbEntity
  8
0
100
AcDbLine
 10
467.999978
 20
102.1982555
 30
0.0
 11
467.999978
 21
96.4338555
 31
0.0
  0
LINE
  5
300
330
1D
100
AcDbEntity
  8
0
100
AcDbLine
 10
467.999978
 20
102.1982555
 30
0.0
 11
467.999978
 21
108.6192555
 31
0.0
  0
LINE
  5
301
330
1D
100
AcDbEntity
  8
0
100
AcDbLine
 10
106.051978
 20
58.3264555
 30
0.0
 11
106.051978
 21
68.8932555
 31
0.0
  0
LINE
  5
303
330
1D
100
AcDbEntity
  8
0
100
AcDbLine
 10
90.749278
 20
57.8406555
 30
0.0
 11
93.677178
 21
57.8406555
 31
0.0
  0
LINE
  5
304
330
1D
100
AcDbEntity
  8
0
100
AcDbLine
 10
90.175278
 20
57.8406555
 30
0.0
 11
90.749278
 21
57.8406555
 31
0.0
  0
LINE
  5
307
330
1D
100
AcDbEntity
  8
0
100
AcDbLine
 10
87.465878
 20
57.8406555
 30
0.0
 11
87.821378
 21
57.8406555
 31
0.0
  0
LINE
  5
30B
330
1D
100
AcDbEntity
  8
0
100
AcDbLine
 10
83.549603615664
 20
54.0127555
 30
0.0
 11
83.722378
 21
54.3886555
 31
0.0
  0
ENDSEC
  0
SECTION
  2
OBJECTS
  0
DICTIONARY
  5
C
330
0
100
AcDbDictionary
281
     1
  3
ACAD_GROUP
350
D
  3
ACAD_LAYOUT
350
1A
  3
ACAD_MLEADERSTYLE
350
335
  3
ACAD_MLINESTYLE
350
17
  3
ACAD_PLOTSETTINGS
350
19
  3
ACAD_PLOTSTYLENAME
350
E
  3
ACAD_SCALELIST
350
311
  3
AcDbVariableDictionary
350
333
  3
DWGPROPS
350
338
  0
DICTIONARY
  5
D
102
{ACAD_REACTORS
330
C
102
}
330
C
100
AcDbDictionary
281
     1
  0
DICTIONARY
  5
1A
102
{ACAD_REACTORS
330
C
102
}
330
C
100
AcDbDictionary
281
     1
  3
Layout1
350
1C
  3
Model
350
1E
  0
DICTIONARY
  5
335
102
{ACAD_REACTORS
330
C
102
}
330
C
100
AcDbDictionary
281
     1
  0
DICTIONARY
  5
17
102
{ACAD_REACTORS
330
C
102
}
330
C
100
AcDbDictionary
281
     1
  3
Standard
350
18
  0
DICTIONARY
  5
19
102
{ACAD_REACTORS
330
C
102
}
330
C
100
AcDbDictionary
281
     1
  0
ACDBDICTIONARYWDFLT
  5
E
102
{ACAD_REACTORS
330
C
102
}
330
C
100
AcDbDictionary
281
     1
  3
Normal
350
F
100
AcDbDictionaryWithDefault
340
F
  0
DICTIONARY
  5
311
102
{ACAD_REACTORS
330
C
102
}
330
C
100
AcDbDictionary
281
     1
  3
A0
350
312
  3
A1
350
313
  3
A2
350
314
  3
A3
350
315
  3
A4
350
316
  3
A5
350
317
  3
A6
350
318
  3
A7
350
319
  3
A8
350
31A
  3
A9
350
31B
  3
B0
350
31C
  3
B1
350
31D
  3
B2
350
31E
  3
B3
350
31F
  3
B4
350
320
  3
B5
350
321
  3
B6
350
322
  3
B7
350
323
  3
B8
350
324
  3
B9
350
325
  3
C0
350
326
  3
C1
350
327
  3
C2
350
328
  3
C3
350
329
  3
C4
350
32A
  3
C5
350
32B
  3
C6
350
32C
  3
C7
350
32D
  3
C8
350
32E
  3
C9
350
32F
  3
D0
350
330
  3
D1
350
331
  3
D2
350
332
  0
DICTIONARY
  5
333
102
{ACAD_REACTORS
330
C
102
}
330
C
100
AcDbDictionary
281
     1
  3
CANNOSCALE
350
336
  0
XRECORD
  5
338
102
{ACAD_REACTORS
330
C
102
}
330
C
100
AcDbXrecord
280
     1
  1
DWGPROPS COOKIE
  2

  3

  4

  6

  7

  8
MARTIN
  9

300
=
301
=
302
=
303
=
304
=
305
=
306
=
307
=
308
=
309
=
 40
0.0
 41
2455870.833804861
 42
2455870.835080903
  1

 90
        0
  0
LAYOUT
  5
1C
102
{ACAD_REACTORS
330
1A
102
}
330
1A
100
AcDbPlotSettings
  1

  2
none_device
  4

  6

 40
0.0
 41
0.0
 42
0.0
 43
0.0
 44
0.0
 45
0.0
 46
0.0
 47
0.0
 48
0.0
 49
0.0
140
0.0
141
0.0
142
1.0
143
1.0
 70
   688
 72
     0
 73
     0
 74
     5
  7

 75
    16
147
1.0
148
0.0
149
0.0
100
AcDbLayout
  1
Layout1
 70
     1
 71
     1
 10
0.0
 20
0.0
 11
12.0
 21
9.0
 12
0.0
 22
0.0
 32
0.0
 14
1.000000000000E+20
 24
1.000000000000E+20
 34
1.000000000000E+20
 15
-1.000000000000E+20
 25
-1.000000000000E+20
 35
-1.000000000000E+20
146
0.0
 13
0.0
 23
0.0
 33
0.0
 16
1.0
 26
0.0
 36
0.0
 17
0.0
 27
1.0
 37
0.0
 76
     0
330
1B
  0
LAYOUT
  5
1E
102
{ACAD_REACTORS
330
1A
102
}
330
1A
100
AcDbPlotSettings
  1

  2
none_device
  4

  6

 40
0.0
 41
0.0
 42
0.0
 43
0.0
 44
0.0
 45
0.0
 46
0.0
 47
0.0
 48
0.0
 49
0.0
140
0.0
141
0.0
142
1.0
143
1.0
 70
  1712
 72
     0
 73
     0
 74
     0
  7

 75
     0
147
1.0
148
0.0
149
0.0
100
AcDbLayout
  1
Model
 70
     1
 71
     0
 10
0.0
 20
0.0
 11
12.0
 21
9.0
 12
0.0
 22
0.0
 32
0.0
 14
0.000022
 24
0.0127445
 34
0.0
 15
484.999978
 25
156.9872555
 35
0.0
146
0.0
 13
0.0
 23
0.0
 33
0.0
 16
1.0
 26
0.0
 36
0.0
 17
0.0
 27
1.0
 37
0.0
 76
     0
330
1D
331
30C
  0
MLINESTYLE
  5
18
102
{ACAD_REACTORS
330
17
102
}
330
17
100
AcDbMlineStyle
  2
Standard
 70
     0
  3

 62
   256
 51
90.0
 52
90.0
 71
     2
 49
0.5
 62
   256
  6
BYLAYER
 49
-0.5
 62
   256
  6
BYLAYER
  0
ACDBPLACEHOLDER
  5
F
102
{ACAD_REACTORS
330
E
102
}
330
E
  0
SCALE
  5
312
102
{ACAD_REACTORS
330
311
102
}
330
311
100
AcDbScale
 70
     0
300
1:1
140
1.0
141
1.0
290
     1
  0
SCALE
  5
313
102
{ACAD_REACTORS
330
311
102
}
330
311
100
AcDbScale
 70
     0
300
1:2
140
1.0
141
2.0
290
     0
  0
SCALE
  5
314
102
{ACAD_REACTORS
330
311
102
}
330
311
100
AcDbScale
 70
     0
300
1:4
140
1.0
141
4.0
290
     0
  0
SCALE
  5
315
102
{ACAD_REACTORS
330
311
102
}
330
311
100
AcDbScale
 70
     0
300
1:5
140
1.0
141
5.0
290
     0
  0
SCALE
  5
316
102
{ACAD_REACTORS
330
311
102
}
330
311
100
AcDbScale
 70
     0
300
1:8
140
1.0
141
8.0
290
     0
  0
SCALE
  5
317
102
{ACAD_REACTORS
330
311
102
}
330
311
100
AcDbScale
 70
     0
300
1:10
140
1.0
141
10.0
290
     0
  0
SCALE
  5
318
102
{ACAD_REACTORS
330
311
102
}
330
311
100
AcDbScale
 70
     0
300
1:16
140
1.0
141
16.0
290
     0
  0
SCALE
  5
319
102
{ACAD_REACTORS
330
311
102
}
330
311
100
AcDbScale
 70
     0
300
1:20
140
1.0
141
20.0
290
     0
  0
SCALE
  5
31A
102
{ACAD_REACTORS
330
311
102
}
330
311
100
AcDbScale
 70
     0
300
1:30
140
1.0
141
30.0
290
     0
  0
SCALE
  5
31B
102
{ACAD_REACTORS
330
311
102
}
330
311
100
AcDbScale
 70
     0
300
1:40
140
1.0
141
40.0
290
     0
  0
SCALE
  5
31C
102
{ACAD_REACTORS
330
311
102
}
330
311
100
AcDbScale
 70
     0
300
1:50
140
1.0
141
50.0
290
     0
  0
SCALE
  5
31D
102
{ACAD_REACTORS
330
311
102
}
330
311
100
AcDbScale
 70
     0
300
1:100
140
1.0
141
100.0
290
     0
  0
SCALE
  5
31E
102
{ACAD_REACTORS
330
311
102
}
330
311
100
AcDbScale
 70
     0
300
2:1
140
2.0
141
1.0
290
     0
  0
SCALE
  5
31F
102
{ACAD_REACTORS
330
311
102
}
330
311
100
AcDbScale
 70
     0
300
4:1
140
4.0
141
1.0
290
     0
  0
SCALE
  5
320
102
{ACAD_REACTORS
330
311
102
}
330
311
100
AcDbScale
 70
     0
300
8:1
140
8.0
141
1.0
290
     0
  0
SCALE
  5
321
102
{ACAD_REACTORS
330
311
102
}
330
311
100
AcDbScale
 70
     0
300
10:1
140
10.0
141
1.0
290
     0
  0
SCALE
  5
322
102
{ACAD_REACTORS
330
311
102
}
330
311
100
AcDbScale
 70
     0
300
100:1
140
100.0
141
1.0
290
     0
  0
SCALE
  5
323
102
{ACAD_REACTORS
330
311
102
}
330
311
100
AcDbScale
 70
     0
300
1/128" = 1'-0"
140
0.0078125
141
12.0
290
     0
  0
SCALE
  5
324
102
{ACAD_REACTORS
330
311
102
}
330
311
100
AcDbScale
 70
     0
300
1/64" = 1'-0"
140
0.015625
141
12.0
290
     0
  0
SCALE
  5
325
102
{ACAD_REACTORS
330
311
102
}
330
311
100
AcDbScale
 70
     0
300
1/32" = 1'-0"
140
0.03125
141
12.0
290
     0
  0
SCALE
  5
326
102
{ACAD_REACTORS
330
311
102
}
330
311
100
AcDbScale
 70
     0
300
1/16" = 1'-0"
140
0.0625
141
12.0
290
     0
  0
SCALE
  5
327
102
{ACAD_REACTORS
330
311
102
}
330
311
100
AcDbScale
 70
     0
300
3/32" = 1'-0"
140
0.09375
141
12.0
290
     0
  0
SCALE
  5
328
102
{ACAD_REACTORS
330
311
102
}
330
311
100
AcDbScale
 70
     0
300
1/8" = 1'-0"
140
0.125
141
12.0
290
     0
  0
SCALE
  5
329
102
{ACAD_REACTORS
330
311
102
}
330
311
100
AcDbScale
 70
     0
300
3/16" = 1'-0"
140
0.1875
141
12.0
290
     0
  0
SCALE
  5
32A
102
{ACAD_REACTORS
330
311
102
}
330
311
100
AcDbScale
 70
     0
300
1/4" = 1'-0"
140
0.25
141
12.0
290
     0
  0
SCALE
  5
32B
102
{ACAD_REACTORS
330
311
102
}
330
311
100
AcDbScale
 70
     0
300
3/8" = 1'-0"
140
0.375
141
12.0
290
     0
  0
SCALE
  5
32C
102
{ACAD_REACTORS
330
311
102
}
330
311
100
AcDbScale
 70
     0
300
1/2" = 1'-0"
140
0.5
141
12.0
290
     0
  0
SCALE
  5
32D
102
{ACAD_REACTORS
330
311
102
}
330
311
100
AcDbScale
 70
     0
300
3/4" = 1'-0"
140
0.75
141
12.0
290
     0
  0
SCALE
  5
32E
102
{ACAD_REACTORS
330
311
102
}
330
311
100
AcDbScale
 70
     0
300
1" = 1'-0"
140
1.0
141
12.0
290
     0
  0
SCALE
  5
32F
102
{ACAD_REACTORS
330
311
102
}
330
311
100
AcDbScale
 70
     0
300
1-1/2" = 1'-0"
140
1.5
141
12.0
290
     0
  0
SCALE
  5
330
102
{ACAD_REACTORS
330
311
102
}
330
311
100
AcDbScale
 70
     0
300
3" = 1'-0"
140
3.0
141
12.0
290
     0
  0
SCALE
  5
331
102
{ACAD_REACTORS
330
311
102
}
330
311
100
AcDbScale
 70
     0
300
6" = 1'-0"
140
6.0
141
12.0
290
     0
  0
SCALE
  5
332
102
{ACAD_REACTORS
330
311
102
}
330
311
100
AcDbScale
 70
     0
300
1'-0" = 1'-0"
140
12.0
141
12.0
290
     0
  0
DICTIONARYVAR
  5
336
102
{ACAD_REACTORS
330
333
102
}
330
333
100
DictionaryVariables
280
     0
  1
1:1
  0
ENDSEC
  0
SECTION
  2
THUMBNAILIMAGE
 90
    16364
310
28000000B40000005500000001000800000000000000000000000000000000000000000000000000FFFFFF000000FF0000FFFF0000FF0000FFFF0000FF000000FF00FF000000000080808000C0C0C0000000FF007F7FFF000000A5005252A50000007F003F3F7F0000004C0026264C000000260013132600003FFF007F9FFF
310
000029A5005267A500001F7F003F4F7F0000134C00262F4C000009260013172600007FFF007FBFFF000052A500527CA500003F7F003F5F7F0000264C0026394C0000132600131C260000BFFF007FDFFF00007CA5005291A500005F7F003F6F7F0000394C0026424C00001C26001321260000FFFF007FFFFF0000A5A50052A5
310
A500007F7F003F7F7F00004C4C00264C4C00002626001326260000FFBF007FFFDF0000A57C0052A59100007F5F003F7F6F00004C3900264C420000261C001326210000FF7F007FFFBF0000A5520052A57C00007F3F003F7F5F00004C2600264C39000026130013261C0000FF3F007FFF9F0000A5290052A56700007F1F003F
310
7F4F00004C1300264C2F00002609001326170000FF00007FFF7F0000A5000052A55200007F00003F7F3F00004C0000264C260000260000132613003FFF00009FFF7F0029A5000067A552001F7F00004F7F3F00134C00002F4C260009260000172613007FFF0000BFFF7F0052A500007CA552003F7F00005F7F3F00264C0000
310
394C2600132600001C261300BFFF0000DFFF7F007CA5000091A552005F7F00006F7F3F00394C0000424C26001C26000021261300FFFF0000FFFF7F00A5A50000A5A552007F7F00007F7F3F004C4C00004C4C26002626000026261300FFBF0000FFDF7F00A57C0000A59152007F5F00007F6F3F004C3900004C422600261C00
310
0026211300FF7F0000FFBF7F00A5520000A57C52007F3F00007F5F3F004C2600004C39260026130000261C1300FF3F0000FF9F7F00A5290000A56752007F1F00007F4F3F004C1300004C2F26002609000026171300FF000000FF7F7F00A5000000A55252007F0000007F3F3F004C0000004C2626002600000026131300FF00
310
3F00FF7F9F00A5002900A55267007F001F007F3F4F004C0013004C262F002600090026131700FF007F00FF7FBF00A5005200A5527C007F003F007F3F5F004C0026004C2639002600130026131C00FF00BF00FF7FDF00A5007C00A55291007F005F007F3F6F004C0039004C26420026001C0026132100FF00FF00FF7FFF00A5
310
00A500A552A5007F007F007F3F7F004C004C004C264C002600260026132600BF00FF00DF7FFF007C00A5009152A5005F007F006F3F7F0039004C0042264C001C002600211326007F00FF00BF7FFF005200A5007C52A5003F007F005F3F7F0026004C0039264C00130026001C1326003F00FF009F7FFF002900A5006752A500
310
1F007F004F3F7F0013004C002F264C000900260017132600000000002D2D2D005B5B5B0089898900B7B7B700B3B3B30000000000000000000000000000000000000000000000000000000000000000000000000000000000000000000000000000000000000000000000000000000000000000000000000000000000000000
310
00000000000000000000000000000000000000000000000000000000000000000000000000000000000000000000000000000000000000000000000000000000000000000000000000000000000000000000000000000000000000000000000000000000000000000000000000000000000000000000000000000000000000
310
00000000000000000000000000000000000000000000000000000000000000000000000000000000000000000000000000000000000000000000000000000000000000000000000000000000000000000000000000000000000000000000000000000000000000000000000000000000000000000000000000000000000000
310
00000000000000000000000000000000000000000000000000000000000000000000000000000000000000000000000000000000000000000000000000000000000000000000000000000000000000000000000000000000000000000000000000000000000000000000000000000000000000000000000000000000000000
310
00000000000000000000000000000000000000000000000000000000000000000000000000000000000000000000000000000000000000000000000000000000000000000000000000000000000000000000000000000000000000000000000000000000000000000000000000000000000000000000000000000000000000
310
00000000000000000000000000000000000000000000000000000000000000000000000000000000000000000000000000000000000000000000000000000000000000000000000000000000000000000000000000000000000000000000000000000000000000000000000000000000000000000000000000000000000000
310
00000000000000000000000000000000000000000000000000000000000000000000000000000000000000000000000000000000000000000000000000000000000000000000000000000000000000000000000000000000000000000000000000000000000000000000000000000000000000000000000000000000000000
310
00000000000000000000000000000000000000000000000000000000000000000000000000000000000000000000000000000000000000000000000000000000000000000000000000000000000000000000000000000000000000000000000000000000000000000000000000000000000000000000000000000000000000
310
00000000000000000000000000000000000000000000000000000000000000000000000000000000000000000000000000000000000000000000000000000000000000000000000000000000000000000000000000000000000000000000000000000000000000000000000000000000000000000000000000000000000000
310
00000000000000000000000000000000000000000000000000000000000000000000000000000000000000000000000000000000000000000000000000000000000000000000000000000000000000000000000000000000000000000000000000000000000000000000000000000000000000000000000000000000000000
310
00000000000000000000000000000000000000000000000000000000000000000000000000000000000000000000000000000000000000000000000000000000000000000000000000000000000000000000000000000000000000000000000000000000000000000000000000000000000000000000000000000000000000
310
00000000000000000000000000000000000000000000000000000000000000000000000000000000000000000000000000000000000000000000000000000000000000000000000000000000000000000000000000000000000000000000000000000000000000000000000000000000000000000000000000000000000000
310
00000000000000000000000000000000000000000000000000000000000000000000000000000000000000000000000000000000000000000000000000000000000000000000000000000000000000000000000000000000000000000000000000000000000000000000000000000000000000000000000000000000000000
310
00000000000000000000000000000000000000000000000000000000000000000000000000000000000000000000000000000000000000000000000000000000000000000000000000000000000000000000000000000000000000000000000000000000000000000000000000000000000000000000000000000000000000
310
00000000000000000000000000000000000000000000000000000000000000000000000000000000000000000000000000000000000000000000000000000000000000000000000000000000000000000000000000000000000000000000000000000000000000000000000000000000000000000000000000000000000000
310
00000000000000000000000000000000000000000000000000000000000000000000000000000000000000000000000000000000000000000000000000000000000000000000000000000000000000000000000000000000000000000000000000000000000000000000000000000000000000000000000000000000000000
310
00000000000000000000000000000000000000000000000000000000000000000000000000000000000000000000000000000000000000000000000000000000000000000000000000000000000000000000000000000000000000000000000000000000000000000000000000000000000000000000000000000000000000
310
00000000000000000000000000000000000000000000000000000000000000000000000000000000000000000000000000000000000000000000000000000000000000000000000000000000000000000000000000000000000000000000000000000000000000000000000000000000000000000000000000000000000000
310
00000000000000000000000000000000000000000000000000000000000000000000000000000000000000000000000000000000000000000000000000000000000000000000000000000000000000000000000000000000000000000000000000000000000000000000000007070000000007070700000000070700000000
310
00070700000000070707070707070707070000000007070000000007070700000000070700000000000707000000000000000000000000000000000000000000000000000000000000000000000000000000000000000000000000000000000000000000000000000000000000000000000000000000000000000000000000
310
00000000000000000000000000000000000000000000000000000000000007070707070707070707070707070707070707070707070707070707070707070707070707070707070707070707070707070707070707070707070707070707070707070707000000000000000000000000000000000000000000000000000000
310
00000000000000000000000000000000000000000000000000000000000000000000000000000000000000000000000000000000000000000000000000000000000000000000000000000000000000000000000700000000000000000000000000000000000000000000000000000000000000000000000000000000000000
310
00000000000000000000000000000000000000000000000000070000000000000000000000000000000000000000000000000000000000000000000000000000000000000000000000000000000000000000000000000000000000000000000000000000000000000000000000000000000000000000000000000000000000
310
00000000000000000007000000000000000000000000000000000000000000000000000000000000000000000000000000000000000000000000000000000000000000000000000000000000000007000000000000000000000000000000000000000000000000000000000000000000000000000000000000000000000000
310
00000000000000000000000000000000000000000000000000000000000000000000000000000000000000000000000000000000000000000000000000000700000000000000000000000000000000000000000000000000000000000000000000000000000000000000000000000000000000000000000000000000000000
310
00000000070000000000000000000000000000000000000000000000000000000000000000000000000000000000000000000000000000000000000000000000000000000000000000000000000000000000000000000000000000000000000000000000000000000000000000000000000000070707070707070707070707
310
07070707070707070707070707070707070707070707070707070707070707070707070707070707070707070707070707070707070707070707000000000000000000000000000000000000000000000000000000000000000000000000000000000000000000000000000000000000000000000000000000000000000000
310
00000000000000000000000000000000000000000000000000000000000000000000000000000000000007070707070000000000000000000000000000000000000000000000000000000000000000000000000000000000000000000000000000000000000000000707070707070000000000000000000000000000000000
310
00000000000000000000000000000000000000000000000000000000000000000000000000000000000000000000000000000000000000000000000000000000000000000000000000000000000000000000000000000000000000000000000000000000070707070707070707070707000000000000000000000000000000
310
00000000000000000000000000000000000007070707070707070707070700000000000000000000000000000000000000000000000000000000000000000000000000000000000000000000000000000000000000000000000000000000000000000000000000000000000000000000000000000000000000000000000000
310
00000000000000000000000000000000000000000000000000000000000000000000000000000707070707070707070707070707070707070707070707070707070707070707070000000000000000000000000000000000000000000000000000000000000000000000000000000000000000000000000000000000000000
310
00000000000000000000000000000000000000000000000000000000000000000000000000000000000000000000000000000000000000000000000000000000000000000000000000000000000000000000000000000000000000000000000000000000000007000000000000000000000700000000000000000000000000
310
00000000000000000000000000000000000000000000000000000000000000000000000000000000000000000000000000000000000000000000000000000000000000000000000000000000000000000000000000000000000000000000000000000000000000000000000000000000000000000000000000000000000000
310
00000000000000000000000000000000000000000000000000000000070000000000000000000007000000000000000000000000000000000000000000000000000000000000000000000000000000000000000000000000000000000000000000000000000000000000000000000000000000000000000000000000000000
310
00000000000000000000000000000000000000000000000000000000000000000000000000000000000000000000000000000000000000000000000000000000000000000000000000000000000000000007070707070707070707070700000000000000000000000000000000000000000000000000000000000000000000
310
00000000000000000000000000000000000000000000000000000000000000000000000000000000000000000000000000000000000000000000000000000000000000000000000000000000000000000000000000000000000000000000000000000000000000000000000000000000000000000000000000000000000000
310
00000000000000070707070707070707070707000000000000000000000000000000000000000000000000000000000000000000000000000000000000000000000000000000000000000000000000000000000000000000000000000000000000000000000000000000000000000000000000000000000000000000000000
310
00000000000000000000000000000000000000000000000000000000000000000000000000000000000000000000000000000000000000000000000007000000000000000000000700000000000000000000000000000000000000000000000000000000000000000000000000000000000000000000000000000000000000
310
00000000000000000000000000000000000000000000000000000000000000000000000000000000000000000000000000000000000000000000000000000000000000000000000000000000000000000000000000000000000000000000000000000000000000000000000000000000000700000000000000000000070000
310
00000000000000000000000000000000000000000000000000000000000000000000000000000000000000000000000000000000000000000000000000000000000000000000000000000000000000000000000000000000000000000000000000000000000000000000000000000000000000000000000000000000000000
310
00000000000000000000000000000000000000000000000000000000000000000000000000000007000000000000000000000700000000000000000000000000000000000000000000000000000000000000000000000000000000000000000000000000000000000000000000000000000000000000000000000000000000
310
00000000000000000000000000000000000000000000000000000000000000000000000000000000000000000000000000000000000000000000000000000000000000000000000000000000000000000000000000000000000000000700000000000000000000070000000000000000000000000000000000000000000000
310
00000000000000000000000000000000000000000000000000000000000000000000000000000000000000000000000000000000000000000000000000000000000000000000000000000000000000000000000000000000000000000000000000000000000000000000000000000000000000000000000000000000000000
310
00000000000000000000000000000000000007000000000000000000000700000000000000000000000000000000000000000000000000000000000000000000000000000000000000000000000000000000000000000000000000000000000000000000000000000000000000000000000000000000000000000000000000
310
00000000000000000000000000000000000000000000000000000000000000000000000000000000000000000000000000000000000000000000000000000000000000000000000700000000000000000000070000000000000000000000000000000000000000000000000000000000000000000000000000000000000000
310
00000000000000000000000000000000000000000000000000000000000000000000000000000000000000000000000000000000000000000000000000000000000000000000000000000000000000000000000000000000000000000000000000000000000000000000000000000000000000000000000000000000070707
310
07070707070707070700000000000000000000000000000000000000000000000000000000000000000000000000000000000000000000000000000000000000000000000000000000000000000000000000000000000000000000000000000000000000000000000000000000000000000000000000000000000000000000
310
00000000000000000000000000000000000000000000000000000000000000000000000000000000000000000000000000000707070707070707070707000000000000000000000000000000000000000000000000000000000000000000000000000000000000000000000000000000000000000000000000000000000000
310
00000000000000000000000000000000000000000000000000000000000000000000000000000000000000000000000000000000000000000000000000000000000000000000000000000000000000000000000000000000000000000000000000000000000000000707070707070707070000000000000000000000000000
310
00000000000000000000000000000000000000000000000000000000000000000000000000000000000000000000000000000000000000000000000000000000000000000000000000000000000000000000000000000000000000000000000000000000000000000000000000000000000000000000000000000000000000
310
00000000000000000000000000000000000000000000000000000000000007000000000000000700000000000000000000000000000000000000000000000000000000000000000000000000000000000000000000000000000000000000000000000000000000000000000000000000000000000000000000000000000000
310
00000000000000000000000000000000000000000000000000000000000000000000000000000000000000000000000000000000000000000000000000000000000000000000000000000000000000000000000700000000000000070000000000000000000000000000000000000000000000000000000000000000000000
310
00000000000000000000000000000000000000000000000000000000000000000000000000000000000000000000000000000000000000000000000000000000000000000000000000000000000000000000000000000000000000000000000000000000000000000000000000000000000000000000000000000000000000
310
00000000000000000007000000000000000700000000000000000000000000000000000000000000000000000000000000000000000000000000000000000000000000000000000000000000000000000000000000000000000000000000000000000000000000000000000000000000000000000000000000000000000000
310
00000000000000000000000000000000000000000000000000000000000000000000000000000000000000000000000000000000000000000000000000000700000000000000070000000000000000000000000000000000000000000000000000000000000000000000000000000000000000000000000000000000000000
310
00000000000000000000000000000000000000000000000000000000000000000000000000000000000000000000000000000000000000000000000000000000000000000000000000000000000000000000000000000000000000000000000000000000000000000000000000000000000000070000000000000007000000
310
00000000000000000000000000000000000000000000000000000000000000000000000000000000000000000000000000000000000000000000000000000000000000000000000000000000000000000000000000000000000000000000000000000000000000000000000000000000000000000000000000000000000000
310
00000000000000000000000000000000000000000000000000000000000000000000000000000000000007000000000000070000000000000000000000000000000000000000000000000000000000000000000000000000000000000000000000000000000000000000000000000000000000000000000000000000000000
310
00000000000000000000000000000000000000000000000000000000000000000000000000000000000000000000000000000000000000000000000000000000000000000000000000000000000000000000000000000000000000000000000700000000000000070000000000000000000000000000000000000000000000
310
00000000000000000000000000000000000000000000000000000000000000000000000000000000000000000000000000000000000000000000000000000000000000000000000000000000000000000000000000000000000000000000000000000000000000000000000707070707070700000000000000000000000000
310
00000000000000000000000000000000000000000007000000000000000700000000000000000000000000000000000000000000000000000000000000000000000000000000000000000000000000000000000000000000000000000000000000000000000000000000000000000000000000000000000000000000000000
310
00000000000000000000000000000000000000000000000000000000000000000007000000000007000000000000000000000000000000000000000000000000000000000000000000000700000000000000070000000000000000000000000000000000000000000000000000000000000000000000000000000000000000
310
00000000000000000000000000000000000000000000000000000000000000000000000000000000000000000000000000000000000000000000000000000000000000000000000000000000000000000000000000000700000000000700000000000000000000000000000000000000000000000000000000000000000000
310
07000000000000000700000000000000000000000000000000000000000000000000000000000000000000000000000000000000000000000000000000000000000000000000000000000000000000000000000000000000000000000000000000000000000000000000000000000000000000000000000000000000000000
310
00000000000000000000000007000000000007000000000000000000000000000000000000000000000000000000000000000000000007000000000000000700000000000000000000000000000000000000000000000000000000000000000000000000000000000000000000000000000000000000000000000000000000
310
00000000000000000000000000000000000000000000000000000000000000000000000000000000000000000000000000000000000000000000000000000000000700000000000700000000000000000000000000000000000000000000000000000000000000000000000700000000000000000700000000000000000000
310
00000000000000000000000000000000000000000000000000000000000000000000000000000000000000000000000000000000000000000000000000000000000000000000000000000000000000000000000000000000000000000000000000000000000000000000000000000000000000000000070000000000070000
310
00000000000000000000000000000000000000000000000000000000000000000007000000000000000007000000000000000000000000000000000000000000000000000000000000000000000000000000000000000000000000000000000000000000000000000000000000000000000000000000000000000000000000
310
00000000000000000000000000000000000000000000000000000000000000000000000000000000000000000700000000000700000000000000000000000000000000000000000000000000000000000000000000000007000000000000000007000000000000000000000000000000000000000000000000000000000000
310
00000000000000000000000000000000000000000000000000000000000000000000000000000000000000000000000000000000000000000000000000000000000000000000000000000000000000000000000000000000000000000000000000070000000000070000000000000000000000000000000000000000000000
310
00000000000000000000000000070000000000000000000707000000000000000000000000000000000000000000000000000000000000000000000000000000000000000000000000000000000000000000000000000000000000000000000000000000000000000000000000000000000000000000000000000000000000
310
00000000000000000000000000000000000000000000000700000000000700000000000000000000000000000000000000000000000000000000000000000000000000070000000000000000000007070700000000000000000000000000000000000000000000000000000000000000000000000000000000000000000000
310
00000000000000000000000000000000000000000000000000000000000000000000000000000000000000000000000000000000000000000000000000000000000000000000000000000000070000000000070000000000000000000000000000000000000000000000000000000000000000000000000000070000000000
310
00000000000000070707070707070707070707070707070707070707070707070707070707070707070707070707070707070707070707070707070707070707070707070707070707070707070707070707070707070707070707070707070707070707070707070707070707070707070707070707070707070707070707
310
07070700000000000700000000000000000000000000000000000000000000000000000000000000000000000000000007000000000000000000000000000000000000000000000000000000000000000000000000000000000000000000000000000000000000000000000000000000000000000000000000000000000000
310
00000000000000000000000000000000000000000000000000000000000000000000000000000000000000000000000000000000000000070000000000070000000000000000000000000000000000000000000000000000000000000000000000000000000007000000000000000000000000000000000000000000000000
310
00000000000000000000000000000000000000000000000000000000000000000000000000000000000000000000000000000000000000000000000000000000000000000000000000000000000000000000000000000000000000000000000000000000000000000000000007000000000007000000000000000000000000
310
00000000000000000000000000000000000000000000000000000000000700000000000000000000000000000000000000000000000000000000000000000000000000000000000000000000000000000000000000000000000000000000000000000000000000000000000000000000000000000000000000000000000000
310
00000000000000000000000000000000000000000000000000000000000000000000070000000000070000000000000000000000000000000000000000000000000000000000000000000000000000000000000700000000000000000000000000000000000000000000000000000000000000000000000000000000000000
310
00000000000000000000000000000000000000000000000000000000000000000000000000000000000000000000000000000000000000000000000000000000000000000000000000000000000000000000000000000007000000000007000000000000000000000000000000000000000000000000000000000000000000
310
00000000000000000000070000000000000000000000000000000000000000000000000000000000000000000000000000000000000000000000000000000000000000000000000000000000000000000000000000000000000000000000000000000000000000000000000000000000000000000000000000000000000000
310
00000000000000000000000000070000000000070000000000000000000000000000000000000000000000000000000000000000000000000000000000000000070700000000000000000000000000000000000000000000000000000000000000000000000000000000000000000000000000000000000000000000000000
310
00000000000000000000000000000000000000000000000000000000000000000000000000000000000000000000000000000000000000000000000000000000000007000000000007000000000000000000000000000000000000000000000000000000000000000000000000000000000000000000000707000000000000
310
00000000000000000000000000000000000000000000000000000000000000000000000000000000000000000000000000000000000000000000000000000000000000000000000000000000000000000000000000000000000000000000000000000000000000000000000000000000000000000000000700000000000700
310
00000000000000000000000000000000000000000000000000000000000000000000000000000000000000000000000707070707070707070707070707070707070707070707070707070707070707070707070707070707070707070707070707070707070707070707070707070707070707070707070707070707070707
310
07070707070707070707070707070707070707070707070707070707070707070707070707070707070707070707000000000007000000000000000000000000000000000000000000000000000000000000000000000000000000000000000000000000000000000000000000000000000000000000000000000000000000
310
00000000000000000000000000000000000000000000000000000000000000000000000000000000000000000000000000000000000000000000000000000000000000000000000000000000000000000000000000000000000000000000000000000700000000000700000000000000000000000000000000000000000000
310
00000000000000000000000000000000000000000000000000000000000000000000000000000000000000000000000000000000000000000000000000000000000000000000000000000000000000000000000000000000000000000000000000000000000000000000000000000000000000000000000000000000000000
310
00000000000000000000000000000000000000000000000007000000000007000000000000000000000000000000000000000000000000000000000000000000000000000000000000000000000000000000000000000000000000000000000000000000000000000000000000000000000000000000000000000000000000
310
00000000000000000000000000000000000000000000000000000000000000000000000000000000000000000000000000000000000000000000000000000000000000000000000000000000000700000000000700000000000000000000000000000000000000000000000000000000000000000000000000000000000000
310
00000000000000000000000000000000000000000000000000000000000000000000000000000000000000000000000000000000000000000000000000000000000000000000000000000000000000000000000000000000000000000000000000000000000000000000000000000000000000000000000000000000000000
310
00000007000000000007000000000000000000000000000000000000000000000000000000000000000000000000000000000000000000000000000000000000000000000000000000000000000000000000000000000000000000000000000000000000000000000000000000000000000000000000000000000000000000
310
00000000000000000000000000000000000000000000000000000000000000000000000000000000000000000000000000000000000000000700000000000700000000000000000000000000000000000000000000000000000000000000000000000000000000000000000000000000000000000000000000000000000000
310
00000000000000000000000000000000000000000000000000000000000000000000000000000000000000000000000000000000000000000000000000000000000000000000000000000000000000000000000000000000000000000000000000000000000000000000000000070000000000070000000000000000000000
310
00000000000000000000000000000000000000000000000000000000000000000000000000000000000000000000000000000000000000000000000000000000000000000000000000000000000000000000000000000000000000000000000000000000000000000000000000000000000000000000000000000000000000
310
00000000000000000000000000000000000000000000000000000000000000000000000700000000000700000000000000000000000000000000000000000000000000000000000000000000000000000000000000000000000000000000000000000000000000000000000000000000000000000000000000000000000000
310
00000000000000000000000000000000000000000000000000000000000000000000000000000000000000000000000000000000000000000000000000000000000000000000000000000000000000000000000000000000070000000000070000000000000000000000000000000000000000000000000000000000000000
310
00000000000000000000000000000000000000000000000000000000000000000000000000000000000000000000000000000000000000000000000000000000000000000000000000000000000000000000000000000000000000000000000000000000000000000000000000000000000000000000000000000000000000
310
00000000000000000000000000000700000000000700000000000000000000000000000000000000000000000000000000000000000000000000000000000000000000000000000000000000000000000000000000000000000000000000000000000000000000000000000000000000000000000000000000000000000000
310
00000000000000000000000000000000000000000000000000000000000000000000000000000000000000000000000000000000000000000000000000000000000000070000000000070000000000000000000000000000000000000000000000000000000000000000000000000000000000000000000000000000000000
310
00000000000000000000000000000000000000000000000000000000000000000000000000000000000000000000000000000000000000000000000000000000000000000000000000000000000000000000000000000000000000000000000000000000000000000000000000000000000000000000000007070707070707
310
00000000000000000000000000000000000000000000000000000000000000000000000000000000000000000000000000000000000000000000000000000000000000000000000000000000000000000000000000000000000000000000000000000000000000000000000000000000000000000000000000000000000000
310
00000000000000000000000000000000000000000000000000000000000000000000000000000000000000000000000000000000000000000000000000000000000000000000000000000000000000000000000000000000000000000000000000000000000000000000000000000000000000000000000000000000000000
310
00000000000000000000000000000000000000000000000000000000000000000000000000000000000000000000000000000000000000000000000000000000000000000000000000000000000000000000000000000000000000000000000000000000000000000000000000000000000000000000000000000000000000
310
00000000000000000000000000000000000000000000000000000000000000000000000000000000000000000000000000000000000000000000000000000000000000000000000000000000000000000000000000000000000000000000000000000000000000000000000000000000000000000000000000000000000000
310
00000000000000000000000000000000000000000000000000000000000000000000000000000000000000000000000000000000000000000000000000000000000000000000000000000000000000000000000000000000000000000000000000000000000000000000000000000000000000000000000000000000000000
310
00000000000000000000000000000000000000000000000000000000000000000000000000000000000000000000000000000000000000000000000000000000000000000000000000000000000000000000000000000000000000000000000000000000000000000000000000000000000000000000000000000000000000
310
00000000000000000000000000000000000000000000000000000000000000000000000000000000000000000000000000000000000000000000000000000000000000000000000000000000000000000000000000000000000000000000000000000000000000000000000000000000000000000000000000000000000000
310
00000000000000000000000000000000000000000000000000000000000000000000000000000000000000000000000000000000000000000000000000000000000000000000000000000000000000000000000000000000000000000000000000000000000000000000000000000000000000000000000000000000000000
310
00000000000000000000000000000000000000000000000000000000000000000000000000000000000000000000000000000000000000000000000000000000000000000000000000000000000000000000000000000000000000000000000000000000000000000000000000000000000000000000000000000000000000
310
00000000000000000000000000000000000000000000000000000000000000000000000000000000000000000000000000000000000000000000000000000000000000000000000000000000000000000000000000000000000000000000000000000000000000000000000000000000000000000000000000000000000000
310
00000000000000000000000000000000000000000000000000000000000000000000000000000000000000000000000000000000000000000000000000000000000000000000000000000000000000000000000000000000000000000000000000000000000000000000000000000000000000000000000000000000000000
310
00000000000000000000000000000000000000000000000000000000000000000000000000000000000000000000000000000000000000000000000000000000000000000000000000000000000000000000000000000000000000000000000000000000000000000000000000000000000000000000000000000000000000
310
00000000000000000000000000000000000000000000000000000000000000000000000000000000000000000000000000000000000000000000000000000000000000000000000000000000000000000000000000000000000000000000000000000000000000000000000000000000000000000000000000000000000000
310
00000000000000000000000000000000000000000000000000000000000000000000000000000000000000000000000000000000000000000000000000000000000000000000000000000000000000000000000000000000000000000000000000000000000000000000000000000000000000000000000000000000000000
310
00000000000000000000000000000000000000000000000000000000000000000000000000000000000000000000000000000000000000000000000000000000000000000000000000000000000000000000000000000000000000000000000000000000000000000000000000000000000000000000000000000000000000
310
00000000000000000000000000000000000000000000000000000000000000000000000000000000000000000000000000000000000000000000000000000000000000000000000000000000000000000000000000000000000000000000000000000000000000000000000000000000000000000000000000000000000000
310
00000000000000000000000000000000000000000000000000000000000000000000000000000000000000000000000000000000000000000000000000000000000000000000000000000000000000000000000000000000000000000000000000000000000000000000000000000000000000000000000000000000000000
310
00000000000000000000000000000000000000000000000000000000000000000000000000000000000000000000000000000000000000000000000000000000000000000000000000000000000000000000000000000000000000000000000000000000000000000000000000000000000000000000000000000000000000
310
00000000000000000000000000000000000000000000000000000000000000000000000000000000000000000000000000000000000000000000000000000000000000000000000000000000000000000000000000000000000000000000000000000000000000000000000000000000000000000000000000000000000000
310
000000000000000000000000000000000000000000000000000000000000000000000000000000000000000000000000000000000000000000000000000000000000000000000000000000000000000000000000000000000000000000000000000000000000000000000000
  0
ENDSEC
  0
EOF
