  0
SECTION
  2
HEADER
  9
$ACADVER
  1
AC1015
  9
$ACADMAINTVER
 70
     6
  9
$DWGCODEPAGE
  3
ANSI_1252
  9
$INSBASE
 10
0.0
 20
0.0
 30
0.0
  9
$EXTMIN
 10
0.076765
 20
0.48108
 30
0.0
  9
$EXTMAX
 10
349.923235
 20
260.88736
 30
0.0
  9
$LIMMIN
 10
0.0
 20
0.0
  9
$LIMMAX
 10
12.0
 20
9.0
  9
$ORTHOMODE
 70
     0
  9
$REGENMODE
 70
     1
  9
$FILLMODE
 70
     1
  9
$QTEXTMODE
 70
     0
  9
$MIRRTEXT
 70
     1
  9
$LTSCALE
 40
1.0
  9
$ATTMODE
 70
     1
  9
$TEXTSIZE
 40
0.2
  9
$TRACEWID
 40
0.05
  9
$TEXTSTYLE
  7
Standard
  9
$CLAYER
  8
0
  9
$CELTYPE
  6
ByBlock
  9
$CECOLOR
 62
   256
  9
$CELTSCALE
 40
1.0
  9
$DISPSILH
 70
     0
  9
$DIMSCALE
 40
1.0
  9
$DIMASZ
 40
0.18
  9
$DIMEXO
 40
0.0625
  9
$DIMDLI
 40
0.38
  9
$DIMRND
 40
0.0
  9
$DIMDLE
 40
0.0
  9
$DIMEXE
 40
0.18
  9
$DIMTP
 40
0.0
  9
$DIMTM
 40
0.0
  9
$DIMTXT
 40
0.18
  9
$DIMCEN
 40
0.09
  9
$DIMTSZ
 40
0.0
  9
$DIMTOL
 70
     0
  9
$DIMLIM
 70
     0
  9
$DIMTIH
 70
     1
  9
$DIMTOH
 70
     1
  9
$DIMSE1
 70
     0
  9
$DIMSE2
 70
     0
  9
$DIMTAD
 70
     0
  9
$DIMZIN
 70
     0
  9
$DIMBLK
  1

  9
$DIMASO
 70
     1
  9
$DIMSHO
 70
     1
  9
$DIMPOST
  1

  9
$DIMAPOST
  1

  9
$DIMALT
 70
     0
  9
$DIMALTD
 70
     2
  9
$DIMALTF
 40
25.4
  9
$DIMLFAC
 40
1.0
  9
$DIMTOFL
 70
     0
  9
$DIMTVP
 40
0.0
  9
$DIMTIX
 70
     0
  9
$DIMSOXD
 70
     0
  9
$DIMSAH
 70
     0
  9
$DIMBLK1
  1

  9
$DIMBLK2
  1

  9
$DIMSTYLE
  2
Standard
  9
$DIMCLRD
 70
     0
  9
$DIMCLRE
 70
     0
  9
$DIMCLRT
 70
     0
  9
$DIMTFAC
 40
1.0
  9
$DIMGAP
 40
0.09
  9
$DIMJUST
 70
     0
  9
$DIMSD1
 70
     0
  9
$DIMSD2
 70
     0
  9
$DIMTOLJ
 70
     1
  9
$DIMTZIN
 70
     0
  9
$DIMALTZ
 70
     0
  9
$DIMALTTZ
 70
     0
  9
$DIMUPT
 70
     0
  9
$DIMDEC
 70
     4
  9
$DIMTDEC
 70
     4
  9
$DIMALTU
 70
     2
  9
$DIMALTTD
 70
     2
  9
$DIMTXSTY
  7
Standard
  9
$DIMAUNIT
 70
     0
  9
$DIMADEC
 70
     0
  9
$DIMALTRND
 40
0.0
  9
$DIMAZIN
 70
     0
  9
$DIMDSEP
 70
    46
  9
$DIMATFIT
 70
     3
  9
$DIMFRAC
 70
     0
  9
$DIMLDRBLK
  1

  9
$DIMLUNIT
 70
     2
  9
$DIMLWD
 70
    -2
  9
$DIMLWE
 70
    -2
  9
$DIMTMOVE
 70
     2
  9
$LUNITS
 70
     2
  9
$LUPREC
 70
     4
  9
$SKETCHINC
 40
0.1
  9
$FILLETRAD
 40
0.5
  9
$AUNITS
 70
     0
  9
$AUPREC
 70
     0
  9
$MENU
  1
.
  9
$ELEVATION
 40
0.0
  9
$PELEVATION
 40
0.0
  9
$THICKNESS
 40
0.0
  9
$LIMCHECK
 70
     0
  9
$CHAMFERA
 40
0.5
  9
$CHAMFERB
 40
0.5
  9
$CHAMFERC
 40
1.0
  9
$CHAMFERD
 40
0.0
  9
$SKPOLY
 70
     0
  9
$TDCREATE
 40
2455824.649267211
  9
$TDUCREATE
 40
2455824.565933877
  9
$TDUPDATE
 40
2455824.724422917
  9
$TDUUPDATE
 40
2455824.641089583
  9
$TDINDWG
 40
0.0751555324
  9
$TDUSRTIMER
 40
0.0751555324
  9
$USRTIMER
 70
     1
  9
$ANGBASE
 50
0.0
  9
$ANGDIR
 70
     0
  9
$PDMODE
 70
     0
  9
$PDSIZE
 40
0.0
  9
$PLINEWID
 40
0.0
  9
$SPLFRAME
 70
     0
  9
$SPLINETYPE
 70
     6
  9
$SPLINESEGS
 70
     8
  9
$HANDSEED
  5
D97
  9
$SURFTAB1
 70
     6
  9
$SURFTAB2
 70
     6
  9
$SURFTYPE
 70
     6
  9
$SURFU
 70
     6
  9
$SURFV
 70
     6
  9
$UCSBASE
  2

  9
$UCSNAME
  2

  9
$UCSORG
 10
0.0
 20
0.0
 30
0.0
  9
$UCSXDIR
 10
1.0
 20
0.0
 30
0.0
  9
$UCSYDIR
 10
0.0
 20
1.0
 30
0.0
  9
$UCSORTHOREF
  2

  9
$UCSORTHOVIEW
 70
     0
  9
$UCSORGTOP
 10
0.0
 20
0.0
 30
0.0
  9
$UCSORGBOTTOM
 10
0.0
 20
0.0
 30
0.0
  9
$UCSORGLEFT
 10
0.0
 20
0.0
 30
0.0
  9
$UCSORGRIGHT
 10
0.0
 20
0.0
 30
0.0
  9
$UCSORGFRONT
 10
0.0
 20
0.0
 30
0.0
  9
$UCSORGBACK
 10
0.0
 20
0.0
 30
0.0
  9
$PUCSBASE
  2

  9
$PUCSNAME
  2

  9
$PUCSORG
 10
0.0
 20
0.0
 30
0.0
  9
$PUCSXDIR
 10
1.0
 20
0.0
 30
0.0
  9
$PUCSYDIR
 10
0.0
 20
1.0
 30
0.0
  9
$PUCSORTHOREF
  2

  9
$PUCSORTHOVIEW
 70
     0
  9
$PUCSORGTOP
 10
0.0
 20
0.0
 30
0.0
  9
$PUCSORGBOTTOM
 10
0.0
 20
0.0
 30
0.0
  9
$PUCSORGLEFT
 10
0.0
 20
0.0
 30
0.0
  9
$PUCSORGRIGHT
 10
0.0
 20
0.0
 30
0.0
  9
$PUCSORGFRONT
 10
0.0
 20
0.0
 30
0.0
  9
$PUCSORGBACK
 10
0.0
 20
0.0
 30
0.0
  9
$USERI1
 70
     0
  9
$USERI2
 70
     0
  9
$USERI3
 70
     0
  9
$USERI4
 70
     0
  9
$USERI5
 70
     0
  9
$USERR1
 40
0.0
  9
$USERR2
 40
0.0
  9
$USERR3
 40
0.0
  9
$USERR4
 40
0.0
  9
$USERR5
 40
0.0
  9
$WORLDVIEW
 70
     1
  9
$SHADEDGE
 70
     3
  9
$SHADEDIF
 70
    70
  9
$TILEMODE
 70
     1
  9
$MAXACTVP
 70
    64
  9
$PINSBASE
 10
0.0
 20
0.0
 30
0.0
  9
$PLIMCHECK
 70
     0
  9
$PEXTMIN
 10
1.000000000000E+20
 20
1.000000000000E+20
 30
1.000000000000E+20
  9
$PEXTMAX
 10
-1.000000000000E+20
 20
-1.000000000000E+20
 30
-1.000000000000E+20
  9
$PLIMMIN
 10
0.0
 20
0.0
  9
$PLIMMAX
 10
12.0
 20
9.0
  9
$UNITMODE
 70
     0
  9
$VISRETAIN
 70
     1
  9
$PLINEGEN
 70
     0
  9
$PSLTSCALE
 70
     1
  9
$TREEDEPTH
 70
  3020
  9
$CMLSTYLE
  2
Standard
  9
$CMLJUST
 70
     0
  9
$CMLSCALE
 40
1.0
  9
$PROXYGRAPHICS
 70
     1
  9
$MEASUREMENT
 70
     0
  9
$CELWEIGHT
370
    -1
  9
$ENDCAPS
280
     0
  9
$JOINSTYLE
280
     0
  9
$LWDISPLAY
290
     0
  9
$INSUNITS
 70
     0
  9
$HYPERLINKBASE
  1

  9
$STYLESHEET
  1

  9
$XEDIT
290
     1
  9
$CEPSNTYPE
380
     0
  9
$PSTYLEMODE
290
     1
  9
$FINGERPRINTGUID
  2
{9A384744-CE7D-427B-B070-57C16E4C4DE2}
  9
$VERSIONGUID
  2
{FAEB1C32-E019-11D5-929B-00C0DF256EC4}
  9
$EXTNAMES
290
     1
  9
$PSVPSCALE
 40
0.0
  9
$OLESTARTUP
290
     0
  0
ENDSEC
  0
SECTION
  2
CLASSES
  0
CLASS
  1
ACDBDICTIONARYWDFLT
  2
AcDbDictionaryWithDefault
  3
ObjectDBX Classes
 90
        0
280
     0
281
     0
  0
CLASS
  1
SCALE
  2
AcDbScale
  3
ObjectDBX Classes
 90
     1153
280
     0
281
     0
  0
CLASS
  1
DICTIONARYVAR
  2
AcDbDictionaryVar
  3
ObjectDBX Classes
 90
        0
280
     0
281
     0
  0
CLASS
  1
ACDBPLACEHOLDER
  2
AcDbPlaceHolder
  3
ObjectDBX Classes
 90
        0
280
     0
281
     0
  0
CLASS
  1
LAYOUT
  2
AcDbLayout
  3
ObjectDBX Classes
 90
        0
280
     0
281
     0
  0
ENDSEC
  0
SECTION
  2
TABLES
  0
TABLE
  2
VPORT
  5
8
330
0
100
AcDbSymbolTable
 70
     1
  0
VPORT
  5
4B9
330
8
100
AcDbSymbolTableRecord
100
AcDbViewportTableRecord
  2
*Active
 70
     0
 10
0.0
 20
0.0
 11
1.0
 21
1.0
 12
175.0
 22
130.68422
 13
0.0
 23
0.0
 14
0.5
 24
0.5
 15
0.5
 25
0.5
 16
0.0
 26
0.0
 36
1.0
 17
0.0
 27
0.0
 37
0.0
 40
265.6144056
 41
1.790857142857
 42
50.0
 43
0.0
 44
0.0
 50
0.0
 51
0.0
 71
    16
 72
   100
 73
     1
 74
     3
 75
     0
 76
     0
 77
     0
 78
     0
281
     0
 65
     1
110
0.0
120
0.0
130
0.0
111
1.0
121
0.0
131
0.0
112
0.0
122
1.0
132
0.0
 79
     0
146
0.0
  0
ENDTAB
  0
TABLE
  2
LTYPE
  5
5
330
0
100
AcDbSymbolTable
 70
     1
  0
LTYPE
  5
14
330
5
100
AcDbSymbolTableRecord
100
AcDbLinetypeTableRecord
  2
ByBlock
 70
     0
  3

 72
    65
 73
     0
 40
0.0
  0
LTYPE
  5
15
330
5
100
AcDbSymbolTableRecord
100
AcDbLinetypeTableRecord
  2
ByLayer
 70
     0
  3

 72
    65
 73
     0
 40
0.0
  0
LTYPE
  5
16
330
5
100
AcDbSymbolTableRecord
100
AcDbLinetypeTableRecord
  2
Continuous
 70
     0
  3
Solid line
 72
    65
 73
     0
 40
0.0
  0
ENDTAB
  0
TABLE
  2
LAYER
  5
2
330
0
100
AcDbSymbolTable
 70
     1
  0
LAYER
  5
10
330
2
100
AcDbSymbolTableRecord
100
AcDbLayerTableRecord
  2
0
 70
     0
 62
     7
  6
Continuous
370
    -3
390
F
  0
ENDTAB
  0
TABLE
  2
STYLE
  5
3
330
0
100
AcDbSymbolTable
 70
     1
  0
STYLE
  5
11
330
3
100
AcDbSymbolTableRecord
100
AcDbTextStyleTableRecord
  2
Standard
 70
     0
 40
0.0
 41
1.0
 50
0.0
 71
     0
 42
0.2
  3
txt
  4

  0
ENDTAB
  0
TABLE
  2
VIEW
  5
6
330
0
100
AcDbSymbolTable
 70
     0
  0
ENDTAB
  0
TABLE
  2
UCS
  5
7
330
0
100
AcDbSymbolTable
 70
     0
  0
ENDTAB
  0
TABLE
  2
APPID
  5
9
330
0
100
AcDbSymbolTable
 70
     1
  0
APPID
  5
12
330
9
100
AcDbSymbolTableRecord
100
AcDbRegAppTableRecord
  2
ACAD
 70
     0
  0
ENDTAB
  0
TABLE
  2
DIMSTYLE
  5
A
330
0
100
AcDbSymbolTable
 70
     1
100
AcDbDimStyleTable
  0
DIMSTYLE
105
20
330
A
100
AcDbSymbolTableRecord
100
AcDbDimStyleTableRecord
  2
Standard
 70
     0
340
11
  0
ENDTAB
  0
TABLE
  2
BLOCK_RECORD
  5
1
330
0
100
AcDbSymbolTable
 70
     2
  0
BLOCK_RECORD
  5
1D
330
1
100
AcDbSymbolTableRecord
100
AcDbBlockTableRecord
  2
*Model_Space
340
1E
  0
BLOCK_RECORD
  5
1B
330
1
100
AcDbSymbolTableRecord
100
AcDbBlockTableRecord
  2
*Paper_Space
340
1C
  0
ENDTAB
  0
ENDSEC
  0
SECTION
  2
BLOCKS
  0
BLOCK
  5
4BC
330
1D
100
AcDbEntity
  8
0
100
AcDbBlockBegin
  2
*Model_Space
 70
     0
 10
0.0
 20
0.0
 30
0.0
  3
*Model_Space
  1
*Model_Space
  0
ENDBLK
  5
4BD
330
1D
100
AcDbEntity
  8
0
100
AcDbBlockEnd
  0
BLOCK
  5
4BA
330
1B
100
AcDbEntity
 67
     1
  8
0
100
AcDbBlockBegin
  2
*Paper_Space
 70
     0
 10
0.0
 20
0.0
 30
0.0
  3
*Paper_Space
  1
*Paper_Space
  0
ENDBLK
  5
4BB
330
1B
100
AcDbEntity
 67
     1
  8
0
100
AcDbBlockEnd
  0
ENDSEC
  0
SECTION
  2
ENTITIES
  0
LINE
  5
DC
330
1D
100
AcDbEntity
  8
0
100
AcDbLine
 10
44.923235
 20
260.88736
 30
0.0
 11
55.923235
 21
260.88736
 31
0.0
  0
LINE
  5
DD
330
1D
100
AcDbEntity
  8
0
100
AcDbLine
 10
44.923235
 20
260.88736
 30
0.0
 11
45.423235
 21
260.38736
 31
0.0
  0
LINE
  5
F2
330
1D
100
AcDbEntity
  8
0
100
AcDbLine
 10
45.423235
 20
260.38736
 30
0.0
 11
55.923235
 21
260.38736
 31
0.0
  0
LINE
  5
F6
330
1D
100
AcDbEntity
  8
0
100
AcDbLine
 10
55.923235
 20
260.38736
 30
0.0
 11
66.423235
 21
260.38736
 31
0.0
  0
LINE
  5
FE
330
1D
100
AcDbEntity
  8
0
100
AcDbLine
 10
55.923235
 20
260.88736
 30
0.0
 11
66.923235
 21
260.88736
 31
0.0
  0
LINE
  5
12C
330
1D
100
AcDbEntity
  8
0
100
AcDbLine
 10
66.423235
 20
260.38736
 30
0.0
 11
66.923235
 21
260.88736
 31
0.0
  0
LINE
  5
491
330
1D
100
AcDbEntity
  8
0
100
AcDbLine
 10
248.923235
 20
260.88736
 30
0.0
 11
256.023235
 21
260.88736
 31
0.0
  0
LINE
  5
492
330
1D
100
AcDbEntity
  8
0
100
AcDbLine
 10
256.023235
 20
260.88736
 30
0.0
 11
264.223235
 21
260.88736
 31
0.0
  0
LINE
  5
493
330
1D
100
AcDbEntity
  8
0
100
AcDbLine
 10
289.823235
 20
260.88736
 30
0.0
 11
296.923235
 21
260.88736
 31
0.0
  0
LINE
  5
494
330
1D
100
AcDbEntity
  8
0
100
AcDbLine
 10
281.623235
 20
260.88736
 30
0.0
 11
289.823235
 21
260.88736
 31
0.0
  0
LINE
  5
495
330
1D
100
AcDbEntity
  8
0
100
AcDbLine
 10
272.923235
 20
260.88736
 30
0.0
 11
281.623235
 21
260.88736
 31
0.0
  0
LINE
  5
496
330
1D
100
AcDbEntity
  8
0
100
AcDbLine
 10
296.923235
 20
260.88736
 30
0.0
 11
302.323235
 21
260.88736
 31
0.0
  0
LINE
  5
497
330
1D
100
AcDbEntity
  8
0
100
AcDbLine
 10
302.323235
 20
260.88736
 30
0.0
 11
305.723235
 21
260.88736
 31
0.0
  0
LINE
  5
499
330
1D
100
AcDbEntity
  8
0
100
AcDbLine
 10
305.723235
 20
260.88736
 30
0.0
 11
306.923235
 21
260.88736
 31
0.0
  0
LINE
  5
49B
330
1D
100
AcDbEntity
  8
0
100
AcDbLine
 10
264.223235
 20
260.88736
 30
0.0
 11
272.923235
 21
260.88736
 31
0.0
  0
LINE
  5
49E
330
1D
100
AcDbEntity
  8
0
100
AcDbLine
 10
243.523235
 20
260.88736
 30
0.0
 11
248.923235
 21
260.88736
 31
0.0
  0
LINE
  5
49F
330
1D
100
AcDbEntity
  8
0
100
AcDbLine
 10
240.123235
 20
260.88736
 30
0.0
 11
243.523235
 21
260.88736
 31
0.0
  0
LINE
  5
4A0
330
1D
100
AcDbEntity
  8
0
100
AcDbLine
 10
238.923235
 20
260.88736
 30
0.0
 11
240.123235
 21
260.88736
 31
0.0
  0
LINE
  5
696
330
1D
100
AcDbEntity
  8
0
100
AcDbLine
 10
2.923235
 20
144.88736
 30
0.0
 11
3.423235
 21
137.98736
 31
0.0
  0
LINE
  5
697
330
1D
100
AcDbEntity
  8
0
100
AcDbLine
 10
2.923235
 20
144.88736
 30
0.0
 11
3.423235
 21
151.78736
 31
0.0
  0
LINE
  5
698
330
1D
100
AcDbEntity
  8
0
100
AcDbLine
 10
1.523235
 20
137.68736
 30
0.0
 11
2.923235
 21
130.68736
 31
0.0
  0
LINE
  5
699
330
1D
100
AcDbEntity
  8
0
100
AcDbLine
 10
1.463745
 20
214.35536
 30
0.0
 11
2.117775
 21
214.06736
 31
0.0
  0
LINE
  5
69A
330
1D
100
AcDbEntity
  8
0
100
AcDbLine
 10
0.888655
 20
214.82336
 30
0.0
 11
1.463745
 21
214.35536
 31
0.0
  0
LINE
  5
69B
330
1D
100
AcDbEntity
  8
0
100
AcDbLine
 10
0.448875
 20
215.43536
 30
0.0
 11
0.888655
 21
214.82336
 31
0.0
  0
LINE
  5
69C
330
1D
100
AcDbEntity
  8
0
100
AcDbLine
 10
0.178245
 20
216.13136
 30
0.0
 11
0.448875
 21
215.43536
 31
0.0
  0
LINE
  5
69D
330
1D
100
AcDbEntity
  8
0
100
AcDbLine
 10
1.463745
 20
219.41936
 30
0.0
 11
2.117775
 21
219.70736
 31
0.0
  0
LINE
  5
69E
330
1D
100
AcDbEntity
  8
0
100
AcDbLine
 10
0.888655
 20
218.95136
 30
0.0
 11
1.463745
 21
219.41936
 31
0.0
  0
LINE
  5
69F
330
1D
100
AcDbEntity
  8
0
100
AcDbLine
 10
0.448875
 20
218.33936
 30
0.0
 11
0.888655
 21
218.95136
 31
0.0
  0
LINE
  5
6A0
330
1D
100
AcDbEntity
  8
0
100
AcDbLine
 10
0.178245
 20
217.64336
 30
0.0
 11
0.448875
 21
218.33936
 31
0.0
  0
LINE
  5
6A1
330
1D
100
AcDbEntity
  8
0
100
AcDbLine
 10
0.076765
 20
216.88736
 30
0.0
 11
0.178245
 21
217.64336
 31
0.0
  0
LINE
  5
6A2
330
1D
100
AcDbEntity
  8
0
100
AcDbLine
 10
0.076765
 20
216.88736
 30
0.0
 11
0.178245
 21
216.13136
 31
0.0
  0
LINE
  5
6A3
330
1D
100
AcDbEntity
  8
0
100
AcDbLine
 10
2.117775
 20
214.06736
 30
0.0
 11
2.311705
 21
213.99536
 31
0.0
  0
LINE
  5
6A4
330
1D
100
AcDbEntity
  8
0
100
AcDbLine
 10
2.117775
 20
214.06736
 30
0.0
 11
2.828185
 21
213.95936
 31
0.0
  0
LINE
  5
6A5
330
1D
100
AcDbEntity
  8
0
100
AcDbLine
 10
2.311705
 20
213.99536
 30
0.0
 11
3.033395
 21
213.88736
 31
0.0
  0
LINE
  5
6A6
330
1D
100
AcDbEntity
  8
0
100
AcDbLine
 10
2.828185
 20
213.95936
 30
0.0
 11
3.538595
 21
214.06736
 31
0.0
  0
LINE
  5
6A7
330
1D
100
AcDbEntity
  8
0
100
AcDbLine
 10
2.117775
 20
219.70736
 30
0.0
 11
2.311705
 21
219.77936
 31
0.0
  0
LINE
  5
6A8
330
1D
100
AcDbEntity
  8
0
100
AcDbLine
 10
2.117775
 20
219.70736
 30
0.0
 11
2.828185
 21
219.81536
 31
0.0
  0
LINE
  5
6A9
330
1D
100
AcDbEntity
  8
0
100
AcDbLine
 10
2.311705
 20
219.77936
 30
0.0
 11
3.033395
 21
219.88736
 31
0.0
  0
LINE
  5
6AA
330
1D
100
AcDbEntity
  8
0
100
AcDbLine
 10
2.828185
 20
219.81536
 30
0.0
 11
3.538595
 21
219.70736
 31
0.0
  0
LINE
  5
6AB
330
1D
100
AcDbEntity
  8
0
100
AcDbLine
 10
2.923235
 20
159.08736
 30
0.0
 11
5.223235
 21
165.88736
 31
0.0
  0
LINE
  5
6AC
330
1D
100
AcDbEntity
  8
0
100
AcDbLine
 10
1.523235
 20
152.08736
 30
0.0
 11
2.923235
 21
159.08736
 31
0.0
  0
LINE
  5
6AD
330
1D
100
AcDbEntity
  8
0
100
AcDbLine
 10
0.923235
 20
144.88736
 30
0.0
 11
1.523235
 21
137.68736
 31
0.0
  0
LINE
  5
6AE
330
1D
100
AcDbEntity
  8
0
100
AcDbLine
 10
0.923235
 20
144.88736
 30
0.0
 11
1.523235
 21
152.08736
 31
0.0
  0
LINE
  5
6AF
330
1D
100
AcDbEntity
  8
0
100
AcDbLine
 10
41.723235
 20
33.61706
 30
0.0
 11
46.623235
 21
23.70536
 31
0.0
  0
LINE
  5
6B0
330
1D
100
AcDbEntity
  8
0
100
AcDbLine
 10
41.723235
 20
32.18316
 30
0.0
 11
42.223235
 21
30.83106
 31
0.0
  0
LINE
  5
6B1
330
1D
100
AcDbEntity
  8
0
100
AcDbLine
 10
39.923235
 20
44.10216
 30
0.0
 11
39.972470347134
 21
44.388961367648
 31
0.0
  0
LINE
  5
6B2
330
1D
100
AcDbEntity
  8
0
100
AcDbLine
 10
39.923235
 20
44.10216
 30
0.0
 11
39.923235
 21
42.66826
 31
0.0
  0
LINE
  5
6B3
330
1D
100
AcDbEntity
  8
0
100
AcDbLine
 10
39.923235
 20
44.10216
 30
0.0
 11
41.723235
 21
33.61706
 31
0.0
  0
LINE
  5
6B4
330
1D
100
AcDbEntity
  8
0
100
AcDbLine
 10
39.923235
 20
42.66826
 30
0.0
 11
39.923235
 21
44.10216
 31
0.0
  0
LINE
  5
6B5
330
1D
100
AcDbEntity
  8
0
100
AcDbLine
 10
39.923235
 20
42.66826
 30
0.0
 11
41.723235
 21
32.18316
 31
0.0
  0
LINE
  5
6B6
330
1D
100
AcDbEntity
  8
0
100
AcDbLine
 10
41.723235
 20
34.19066
 30
0.0
 11
46.623235
 21
24.27886
 31
0.0
  0
LINE
  5
6B7
330
1D
100
AcDbEntity
  8
0
100
AcDbLine
 10
41.723235
 20
61.18346
 30
0.0
 11
46.623235
 21
71.37506
 31
0.0
  0
LINE
  5
6B8
330
1D
100
AcDbEntity
  8
0
100
AcDbLine
 10
39.923235
 20
50.69836
 30
0.0
 11
41.723235
 21
61.18346
 31
0.0
  0
LINE
  5
6B9
330
1D
100
AcDbEntity
  8
0
100
AcDbLine
 10
39.923235
 20
50.69836
 30
0.0
 11
39.923235
 21
44.67576
 31
0.0
  0
LINE
  5
6BA
330
1D
100
AcDbEntity
  8
0
100
AcDbLine
 10
39.923235
 20
44.67576
 30
0.0
 11
39.923235
 21
50.69836
 31
0.0
  0
LINE
  5
6BB
330
1D
100
AcDbEntity
  8
0
100
AcDbLine
 10
39.923235
 20
44.67576
 30
0.0
 11
41.723235
 21
34.19066
 31
0.0
  0
LINE
  5
6BC
330
1D
100
AcDbEntity
  8
0
100
AcDbLine
 10
46.623235
 20
23.70536
 30
0.0
 11
54.623235
 21
15.18616
 31
0.0
  0
LINE
  5
6BD
330
1D
100
AcDbEntity
  8
0
100
AcDbLine
 10
42.223235
 20
30.83106
 30
0.0
 11
47.023235
 21
21.08316
 31
0.0
  0
LINE
  5
6BE
330
1D
100
AcDbEntity
  8
0
100
AcDbLine
 10
46.623235
 20
24.27886
 30
0.0
 11
54.623235
 21
15.75966
 31
0.0
  0
LINE
  5
6BF
330
1D
100
AcDbEntity
  8
0
100
AcDbLine
 10
47.023235
 20
21.08316
 30
0.0
 11
54.923235
 21
12.56396
 31
0.0
  0
LINE
  5
6C0
330
1D
100
AcDbEntity
  8
0
100
AcDbLine
 10
46.623235
 20
71.37506
 30
0.0
 11
54.623235
 21
80.45076
 31
0.0
  0
LINE
  5
6C1
330
1D
100
AcDbEntity
  8
0
100
AcDbLine
 10
42.223235
 20
93.78736
 30
0.0
 11
49.023235
 21
92.38736
 31
0.0
  0
LINE
  5
6C2
330
1D
100
AcDbEntity
  8
0
100
AcDbLine
 10
41.723235
 20
91.88736
 30
0.0
 11
48.723235
 21
90.48736
 31
0.0
  0
LINE
  5
6C3
330
1D
100
AcDbEntity
  8
0
100
AcDbLine
 10
18.523235
 20
107.48736
 30
0.0
 11
23.723235
 21
102.88736
 31
0.0
  0
LINE
  5
6C4
330
1D
100
AcDbEntity
  8
0
100
AcDbLine
 10
23.723235
 20
102.88736
 30
0.0
 11
29.523235
 21
98.98736
 31
0.0
  0
LINE
  5
6C5
330
1D
100
AcDbEntity
  8
0
100
AcDbLine
 10
17.123235
 20
106.08736
 30
0.0
 11
22.523235
 21
101.28736
 31
0.0
  0
LINE
  5
6C6
330
1D
100
AcDbEntity
  8
0
100
AcDbLine
 10
22.523235
 20
101.28736
 30
0.0
 11
28.523235
 21
97.28736
 31
0.0
  0
LINE
  5
6C7
330
1D
100
AcDbEntity
  8
0
100
AcDbLine
 10
29.523235
 20
98.98736
 30
0.0
 11
35.723235
 21
95.98736
 31
0.0
  0
LINE
  5
6C8
330
1D
100
AcDbEntity
  8
0
100
AcDbLine
 10
35.723235
 20
95.98736
 30
0.0
 11
42.223235
 21
93.78736
 31
0.0
  0
LINE
  5
6C9
330
1D
100
AcDbEntity
  8
0
100
AcDbLine
 10
28.523235
 20
97.28736
 30
0.0
 11
34.923235
 21
94.18736
 31
0.0
  0
LINE
  5
6CA
330
1D
100
AcDbEntity
  8
0
100
AcDbLine
 10
34.923235
 20
94.18736
 30
0.0
 11
41.723235
 21
91.88736
 31
0.0
  0
LINE
  5
6CB
330
1D
100
AcDbEntity
  8
0
100
AcDbLine
 10
54.623235
 20
15.18616
 30
0.0
 11
65.023235
 21
8.63296
 31
0.0
  0
LINE
  5
6CC
330
1D
100
AcDbEntity
  8
0
100
AcDbLine
 10
54.923235
 20
12.56396
 30
0.0
 11
65.323235
 21
6.09269
 31
0.0
  0
LINE
  5
6CD
330
1D
100
AcDbEntity
  8
0
100
AcDbLine
 10
54.623235
 20
15.75966
 30
0.0
 11
65.023235
 21
9.20646
 31
0.0
  0
LINE
  5
6CE
330
1D
100
AcDbEntity
  8
0
100
AcDbLine
 10
54.623235
 20
80.45076
 30
0.0
 11
54.923235
 21
80.74386
 31
0.0
  0
LINE
  5
6CF
330
1D
100
AcDbEntity
  8
0
100
AcDbLine
 10
54.923235
 20
80.74386
 30
0.0
 11
65.323235
 21
87.61976
 31
0.0
  0
LINE
  5
6D0
330
1D
100
AcDbEntity
  8
0
100
AcDbLine
 10
55.923235
 20
91.88736
 30
0.0
 11
62.823235
 21
92.38736
 31
0.0
  0
LINE
  5
6D1
330
1D
100
AcDbEntity
  8
0
100
AcDbLine
 10
65.023235
 20
8.63296
 30
0.0
 11
77.123235
 21
4.61907
 31
0.0
  0
LINE
  5
6D2
330
1D
100
AcDbEntity
  8
0
100
AcDbLine
 10
65.323235
 20
6.09269
 30
0.0
 11
66.023235
 21
5.72365
 31
0.0
  0
LINE
  5
6D3
330
1D
100
AcDbEntity
  8
0
100
AcDbLine
 10
65.023235
 20
9.20646
 30
0.0
 11
77.123235
 21
5.19265
 31
0.0
  0
LINE
  5
6D4
330
1D
100
AcDbEntity
  8
0
100
AcDbLine
 10
89.923235
 20
0.48108
 30
0.0
 11
102.223235
 21
1.87363
 31
0.0
  0
LINE
  5
6D5
330
1D
100
AcDbEntity
  8
0
100
AcDbLine
 10
89.923235
 20
0.48108
 30
0.0
 11
102.223235
 21
1.87363
 31
0.0
  0
LINE
  5
6D6
330
1D
100
AcDbEntity
  8
0
100
AcDbLine
 10
89.923235
 20
3.1446
 30
0.0
 11
102.723235
 21
4.61907
 31
0.0
  0
LINE
  5
6D7
330
1D
100
AcDbEntity
  8
0
100
AcDbLine
 10
77.123235
 20
4.61907
 30
0.0
 11
89.923235
 21
3.1446
 31
0.0
  0
LINE
  5
6D8
330
1D
100
AcDbEntity
  8
0
100
AcDbLine
 10
77.623235
 20
1.87363
 30
0.0
 11
89.923235
 21
0.48108
 31
0.0
  0
LINE
  5
6D9
330
1D
100
AcDbEntity
  8
0
100
AcDbLine
 10
77.623235
 20
1.87363
 30
0.0
 11
89.923235
 21
0.48108
 31
0.0
  0
LINE
  5
6DA
330
1D
100
AcDbEntity
  8
0
100
AcDbLine
 10
102.223235
 20
1.87363
 30
0.0
 11
113.823235
 21
5.72365
 31
0.0
  0
LINE
  5
6DB
330
1D
100
AcDbEntity
  8
0
100
AcDbLine
 10
102.723235
 20
4.61907
 30
0.0
 11
114.823235
 21
8.63296
 31
0.0
  0
LINE
  5
6DC
330
1D
100
AcDbEntity
  8
0
100
AcDbLine
 10
102.223235
 20
1.87363
 30
0.0
 11
113.823235
 21
5.72365
 31
0.0
  0
LINE
  5
6DD
330
1D
100
AcDbEntity
  8
0
100
AcDbLine
 10
102.723235
 20
5.19265
 30
0.0
 11
114.823235
 21
9.20646
 31
0.0
  0
LINE
  5
6DE
330
1D
100
AcDbEntity
  8
0
100
AcDbLine
 10
89.923235
 20
3.71817
 30
0.0
 11
102.723235
 21
5.19265
 31
0.0
  0
LINE
  5
6DF
330
1D
100
AcDbEntity
  8
0
100
AcDbLine
 10
66.023235
 20
5.72365
 30
0.0
 11
77.623235
 21
1.87363
 31
0.0
  0
LINE
  5
6E0
330
1D
100
AcDbEntity
  8
0
100
AcDbLine
 10
66.023235
 20
5.72365
 30
0.0
 11
77.623235
 21
1.87363
 31
0.0
  0
LINE
  5
6E1
330
1D
100
AcDbEntity
  8
0
100
AcDbLine
 10
114.823235
 20
8.63296
 30
0.0
 11
125.223235
 21
15.18616
 31
0.0
  0
LINE
  5
6E2
330
1D
100
AcDbEntity
  8
0
100
AcDbLine
 10
114.523235
 20
6.09269
 30
0.0
 11
124.923235
 21
12.56396
 31
0.0
  0
LINE
  5
6E3
330
1D
100
AcDbEntity
  8
0
100
AcDbLine
 10
113.823235
 20
5.72365
 30
0.0
 11
114.523235
 21
6.09269
 31
0.0
  0
LINE
  5
6E4
330
1D
100
AcDbEntity
  8
0
100
AcDbLine
 10
114.523235
 20
87.61976
 30
0.0
 11
124.923235
 21
80.74386
 31
0.0
  0
LINE
  5
6E5
330
1D
100
AcDbEntity
  8
0
100
AcDbLine
 10
125.223235
 20
15.18616
 30
0.0
 11
133.223235
 21
23.70536
 31
0.0
  0
LINE
  5
6E6
330
1D
100
AcDbEntity
  8
0
100
AcDbLine
 10
124.923235
 20
12.56396
 30
0.0
 11
132.823235
 21
21.08316
 31
0.0
  0
LINE
  5
6E7
330
1D
100
AcDbEntity
  8
0
100
AcDbLine
 10
133.223235
 20
23.70536
 30
0.0
 11
138.123235
 21
33.61706
 31
0.0
  0
LINE
  5
6E8
330
1D
100
AcDbEntity
  8
0
100
AcDbLine
 10
132.823235
 20
21.08316
 30
0.0
 11
137.623235
 21
30.83106
 31
0.0
  0
LINE
  5
6E9
330
1D
100
AcDbEntity
  8
0
100
AcDbLine
 10
125.223235
 20
15.75966
 30
0.0
 11
133.223235
 21
24.27886
 31
0.0
  0
LINE
  5
6EA
330
1D
100
AcDbEntity
  8
0
100
AcDbLine
 10
138.123235
 20
33.61706
 30
0.0
 11
139.923235
 21
44.10216
 31
0.0
  0
LINE
  5
6EB
330
1D
100
AcDbEntity
  8
0
100
AcDbLine
 10
138.123235
 20
32.18316
 30
0.0
 11
139.923235
 21
42.66826
 31
0.0
  0
LINE
  5
6EC
330
1D
100
AcDbEntity
  8
0
100
AcDbLine
 10
137.623235
 20
30.83106
 30
0.0
 11
138.123235
 21
32.18316
 31
0.0
  0
LINE
  5
6ED
330
1D
100
AcDbEntity
  8
0
100
AcDbLine
 10
133.223235
 20
24.27886
 30
0.0
 11
138.123235
 21
34.19066
 31
0.0
  0
LINE
  5
6EE
330
1D
100
AcDbEntity
  8
0
100
AcDbLine
 10
139.923235
 20
42.66826
 30
0.0
 11
139.923235
 21
44.10216
 31
0.0
  0
LINE
  5
6EF
330
1D
100
AcDbEntity
  8
0
100
AcDbLine
 10
139.873999652866
 20
44.388961367648
 30
0.0
 11
139.923235
 21
44.10216
 31
0.0
  0
LINE
  5
6F0
330
1D
100
AcDbEntity
  8
0
100
AcDbLine
 10
139.923235
 20
44.10216
 30
0.0
 11
139.923235
 21
42.66826
 31
0.0
  0
LINE
  5
6F1
330
1D
100
AcDbEntity
  8
0
100
AcDbLine
 10
139.923235
 20
50.69836
 30
0.0
 11
139.923235
 21
44.67576
 31
0.0
  0
LINE
  5
6F2
330
1D
100
AcDbEntity
  8
0
100
AcDbLine
 10
139.923235
 20
44.67576
 30
0.0
 11
139.923235
 21
50.69836
 31
0.0
  0
LINE
  5
6F3
330
1D
100
AcDbEntity
  8
0
100
AcDbLine
 10
138.123235
 20
34.19066
 30
0.0
 11
139.923235
 21
44.67576
 31
0.0
  0
LINE
  5
6F4
330
1D
100
AcDbEntity
  8
0
100
AcDbLine
 10
125.223235
 20
80.45076
 30
0.0
 11
133.223235
 21
71.37506
 31
0.0
  0
LINE
  5
6F5
330
1D
100
AcDbEntity
  8
0
100
AcDbLine
 10
124.923235
 20
80.74386
 30
0.0
 11
125.223235
 21
80.45076
 31
0.0
  0
LINE
  5
6F6
330
1D
100
AcDbEntity
  8
0
100
AcDbLine
 10
133.223235
 20
71.37506
 30
0.0
 11
138.123235
 21
61.18346
 31
0.0
  0
LINE
  5
6F7
330
1D
100
AcDbEntity
  8
0
100
AcDbLine
 10
138.123235
 20
61.18346
 30
0.0
 11
139.923235
 21
50.69836
 31
0.0
  0
LINE
  5
6F8
330
1D
100
AcDbEntity
  8
0
100
AcDbLine
 10
114.823235
 20
9.20646
 30
0.0
 11
125.223235
 21
15.75966
 31
0.0
  0
LINE
  5
6F9
330
1D
100
AcDbEntity
  8
0
100
AcDbLine
 10
110.526618806582
 20
88.991841999713
 30
0.0
 11
114.523235
 21
87.61976
 31
0.0
  0
LINE
  5
6FA
330
1D
100
AcDbEntity
  8
0
100
AcDbLine
 10
69.319281578418
 20
88.991646444661
 30
0.0
 11
73.551435
 21
93.12736
 31
0.0
  0
LINE
  5
6FB
330
1D
100
AcDbEntity
  8
0
100
AcDbLine
 10
77.123235
 20
5.19265
 30
0.0
 11
89.923235
 21
3.71817
 31
0.0
  0
LINE
  5
6FC
330
1D
100
AcDbEntity
  8
0
100
AcDbLine
 10
65.323235
 20
87.61976
 30
0.0
 11
69.319281578418
 21
88.991646444661
 31
0.0
  0
LINE
  5
6FD
330
1D
100
AcDbEntity
  8
0
100
AcDbLine
 10
62.823235
 20
92.38736
 30
0.0
 11
69.623235
 21
93.78736
 31
0.0
  0
LINE
  5
6FE
330
1D
100
AcDbEntity
  8
0
100
AcDbLine
 10
70.123235
 20
91.88736
 30
0.0
 11
73.425512268875
 21
93.004306723296
 31
0.0
  0
LINE
  5
6FF
330
1D
100
AcDbEntity
  8
0
100
AcDbLine
 10
63.123235
 20
90.48736
 30
0.0
 11
70.123235
 21
91.88736
 31
0.0
  0
LINE
  5
700
330
1D
100
AcDbEntity
  8
0
100
AcDbLine
 10
55.923235
 20
89.88736
 30
0.0
 11
63.123235
 21
90.48736
 31
0.0
  0
LINE
  5
701
330
1D
100
AcDbEntity
  8
0
100
AcDbLine
 10
73.551435
 20
93.12736
 30
0.0
 11
76.180035
 21
97.20236
 31
0.0
  0
LINE
  5
702
330
1D
100
AcDbEntity
  8
0
100
AcDbLine
 10
106.295235
 20
93.12736
 30
0.0
 11
110.526618806582
 21
88.991841999713
 31
0.0
  0
LINE
  5
703
330
1D
100
AcDbEntity
  8
0
100
AcDbLine
 10
103.666235
 20
97.20236
 30
0.0
 11
106.295235
 21
93.12736
 31
0.0
  0
LINE
  5
704
330
1D
100
AcDbEntity
  8
0
100
AcDbLine
 10
101.923235
 20
104.01536
 30
0.0
 11
101.923235
 21
113.05536
 31
0.0
  0
LINE
  5
705
330
1D
100
AcDbEntity
  8
0
100
AcDbLine
 10
101.923235
 20
104.01536
 30
0.0
 11
103.666235
 21
97.20236
 31
0.0
  0
LINE
  5
706
330
1D
100
AcDbEntity
  8
0
100
AcDbLine
 10
76.180035
 20
97.20236
 30
0.0
 11
77.923235
 21
104.01536
 31
0.0
  0
LINE
  5
707
330
1D
100
AcDbEntity
  8
0
100
AcDbLine
 10
77.923235
 20
104.01536
 30
0.0
 11
77.923235
 21
111.62836
 31
0.0
  0
LINE
  5
708
330
1D
100
AcDbEntity
  8
0
100
AcDbLine
 10
69.623235
 20
93.78736
 30
0.0
 11
75.193253396896
 21
95.672596995872
 31
0.0
  0
LINE
  5
709
330
1D
100
AcDbEntity
  8
0
100
AcDbLine
 10
49.023235
 20
92.38736
 30
0.0
 11
55.923235
 21
91.88736
 31
0.0
  0
LINE
  5
70A
330
1D
100
AcDbEntity
  8
0
100
AcDbLine
 10
48.723235
 20
90.48736
 30
0.0
 11
55.923235
 21
89.88736
 31
0.0
  0
LINE
  5
70B
330
1D
100
AcDbEntity
  8
0
100
AcDbLine
 10
77.923235
 20
111.62836
 30
0.0
 11
77.923235
 21
120.48936
 31
0.0
  0
LINE
  5
70C
330
1D
100
AcDbEntity
  8
0
100
AcDbLine
 10
77.923235
 20
111.62836
 30
0.0
 11
77.923235
 21
104.01536
 31
0.0
  0
LINE
  5
70D
330
1D
100
AcDbEntity
  8
0
100
AcDbLine
 10
101.923235
 20
113.05536
 30
0.0
 11
101.923235
 21
104.01536
 31
0.0
  0
LINE
  5
70E
330
1D
100
AcDbEntity
  8
0
100
AcDbLine
 10
101.923235
 20
113.05536
 30
0.0
 11
101.923235
 21
170.76036
 31
0.0
  0
LINE
  5
70F
330
1D
100
AcDbEntity
  8
0
100
AcDbLine
 10
77.923235
 20
120.48936
 30
0.0
 11
77.923235
 21
131.55636
 31
0.0
  0
LINE
  5
710
330
1D
100
AcDbEntity
  8
0
100
AcDbLine
 10
77.923235
 20
120.48936
 30
0.0
 11
77.923235
 21
111.62836
 31
0.0
  0
LINE
  5
711
330
1D
100
AcDbEntity
  8
0
100
AcDbLine
 10
101.923235
 20
118.694026666667
 30
0.0
 11
104.823235
 21
124.68736
 31
0.0
  0
LINE
  5
712
330
1D
100
AcDbEntity
  8
0
100
AcDbLine
 10
101.923235
 20
115.08736
 30
0.0
 11
103.523235
 21
117.48736
 31
0.0
  0
LINE
  5
713
330
1D
100
AcDbEntity
  8
0
100
AcDbLine
 10
106.623235
 20
123.88736
 30
0.0
 11
108.923235
 21
130.68736
 31
0.0
  0
LINE
  5
714
330
1D
100
AcDbEntity
  8
0
100
AcDbLine
 10
103.523235
 20
117.48736
 30
0.0
 11
106.623235
 21
123.88736
 31
0.0
  0
LINE
  5
715
330
1D
100
AcDbEntity
  8
0
100
AcDbLine
 10
13.923235
 20
112.68736
 30
0.0
 11
18.523235
 21
107.48736
 31
0.0
  0
LINE
  5
716
330
1D
100
AcDbEntity
  8
0
100
AcDbLine
 10
10.023235
 20
118.48736
 30
0.0
 11
13.923235
 21
112.68736
 31
0.0
  0
LINE
  5
717
330
1D
100
AcDbEntity
  8
0
100
AcDbLine
 10
12.323235
 20
111.48736
 30
0.0
 11
17.123235
 21
106.08736
 31
0.0
  0
LINE
  5
718
330
1D
100
AcDbEntity
  8
0
100
AcDbLine
 10
8.323235
 20
117.48736
 30
0.0
 11
12.323235
 21
111.48736
 31
0.0
  0
LINE
  5
719
330
1D
100
AcDbEntity
  8
0
100
AcDbLine
 10
3.033395
 20
213.88736
 30
0.0
 11
6.677085
 21
213.88736
 31
0.0
  0
LINE
  5
71A
330
1D
100
AcDbEntity
  8
0
100
AcDbLine
 10
3.033395
 20
219.88736
 30
0.0
 11
6.677085
 21
219.88736
 31
0.0
  0
LINE
  5
71B
330
1D
100
AcDbEntity
  8
0
100
AcDbLine
 10
3.423235
 20
151.78736
 30
0.0
 11
4.823235
 21
158.58736
 31
0.0
  0
LINE
  5
71C
330
1D
100
AcDbEntity
  8
0
100
AcDbLine
 10
104.823235
 20
124.68736
 30
0.0
 11
107.023235
 21
131.18736
 31
0.0
  0
LINE
  5
71D
330
1D
100
AcDbEntity
  8
0
100
AcDbLine
 10
107.023235
 20
131.18736
 30
0.0
 11
108.423235
 21
137.98736
 31
0.0
  0
LINE
  5
71E
330
1D
100
AcDbEntity
  8
0
100
AcDbLine
 10
108.923235
 20
130.68736
 30
0.0
 11
110.323235
 21
137.68736
 31
0.0
  0
LINE
  5
71F
330
1D
100
AcDbEntity
  8
0
100
AcDbLine
 10
7.023235
 20
124.68736
 30
0.0
 11
10.023235
 21
118.48736
 31
0.0
  0
LINE
  5
720
330
1D
100
AcDbEntity
  8
0
100
AcDbLine
 10
3.538595
 20
214.06736
 30
0.0
 11
4.192615
 21
214.35536
 31
0.0
  0
LINE
  5
721
330
1D
100
AcDbEntity
  8
0
100
AcDbLine
 10
4.192615
 20
214.35536
 30
0.0
 11
4.767705
 21
214.82336
 31
0.0
  0
LINE
  5
722
330
1D
100
AcDbEntity
  8
0
100
AcDbLine
 10
4.767705
 20
214.82336
 30
0.0
 11
5.207485
 21
215.43536
 31
0.0
  0
LINE
  5
723
330
1D
100
AcDbEntity
  8
0
100
AcDbLine
 10
5.207485
 20
215.43536
 30
0.0
 11
5.478115
 21
216.13136
 31
0.0
  0
LINE
  5
724
330
1D
100
AcDbEntity
  8
0
100
AcDbLine
 10
3.538595
 20
219.70736
 30
0.0
 11
4.192615
 21
219.41936
 31
0.0
  0
LINE
  5
725
330
1D
100
AcDbEntity
  8
0
100
AcDbLine
 10
4.192615
 20
219.41936
 30
0.0
 11
4.767705
 21
218.95136
 31
0.0
  0
LINE
  5
726
330
1D
100
AcDbEntity
  8
0
100
AcDbLine
 10
4.767705
 20
218.95136
 30
0.0
 11
5.207485
 21
218.33936
 31
0.0
  0
LINE
  5
727
330
1D
100
AcDbEntity
  8
0
100
AcDbLine
 10
5.207485
 20
218.33936
 30
0.0
 11
5.478115
 21
217.64336
 31
0.0
  0
LINE
  5
728
330
1D
100
AcDbEntity
  8
0
100
AcDbLine
 10
4.823235
 20
158.58736
 30
0.0
 11
7.023235
 21
165.08736
 31
0.0
  0
LINE
  5
729
330
1D
100
AcDbEntity
  8
0
100
AcDbLine
 10
77.923235
 20
131.55636
 30
0.0
 11
77.923235
 21
120.48936
 31
0.0
  0
LINE
  5
72A
330
1D
100
AcDbEntity
  8
0
100
AcDbLine
 10
101.923235
 20
170.76036
 30
0.0
 11
101.923235
 21
113.05536
 31
0.0
  0
LINE
  5
72B
330
1D
100
AcDbEntity
  8
0
100
AcDbLine
 10
77.923235
 20
131.55636
 30
0.0
 11
77.923235
 21
146.11836
 31
0.0
  0
LINE
  5
72C
330
1D
100
AcDbEntity
  8
0
100
AcDbLine
 10
77.923235
 20
146.11836
 30
0.0
 11
77.923235
 21
158.33336
 31
0.0
  0
LINE
  5
72D
330
1D
100
AcDbEntity
  8
0
100
AcDbLine
 10
77.923235
 20
146.11836
 30
0.0
 11
77.923235
 21
131.55636
 31
0.0
  0
LINE
  5
72E
330
1D
100
AcDbEntity
  8
0
100
AcDbLine
 10
77.923235
 20
158.33336
 30
0.0
 11
77.923235
 21
146.11836
 31
0.0
  0
LINE
  5
72F
330
1D
100
AcDbEntity
  8
0
100
AcDbLine
 10
77.923235
 20
152.98936
 30
0.0
 11
77.923235
 21
164.22236
 31
0.0
  0
LINE
  5
730
330
1D
100
AcDbEntity
  8
0
100
AcDbLine
 10
107.023235
 20
158.58736
 30
0.0
 11
108.423235
 21
151.78736
 31
0.0
  0
LINE
  5
731
330
1D
100
AcDbEntity
  8
0
100
AcDbLine
 10
108.423235
 20
151.78736
 30
0.0
 11
108.923235
 21
144.88736
 31
0.0
  0
LINE
  5
732
330
1D
100
AcDbEntity
  8
0
100
AcDbLine
 10
77.923235
 20
164.22236
 30
0.0
 11
77.923235
 21
179.81736
 31
0.0
  0
LINE
  5
733
330
1D
100
AcDbEntity
  8
0
100
AcDbLine
 10
77.923235
 20
164.22236
 30
0.0
 11
77.923235
 21
152.98936
 31
0.0
  0
LINE
  5
734
330
1D
100
AcDbEntity
  8
0
100
AcDbLine
 10
101.923235
 20
170.76036
 30
0.0
 11
101.923235
 21
179.81736
 31
0.0
  0
LINE
  5
735
330
1D
100
AcDbEntity
  8
0
100
AcDbLine
 10
101.923235
 20
171.080693333333
 30
0.0
 11
104.823235
 21
165.08736
 31
0.0
  0
LINE
  5
736
330
1D
100
AcDbEntity
  8
0
100
AcDbLine
 10
101.923235
 20
171.080693333333
 30
0.0
 11
104.823235
 21
165.08736
 31
0.0
  0
LINE
  5
737
330
1D
100
AcDbEntity
  8
0
100
AcDbLine
 10
104.823235
 20
165.08736
 30
0.0
 11
107.023235
 21
158.58736
 31
0.0
  0
LINE
  5
738
330
1D
100
AcDbEntity
  8
0
100
AcDbLine
 10
106.623235
 20
165.88736
 30
0.0
 11
108.923235
 21
159.08736
 31
0.0
  0
LINE
  5
739
330
1D
100
AcDbEntity
  8
0
100
AcDbLine
 10
108.923235
 20
159.08736
 30
0.0
 11
110.323235
 21
152.08736
 31
0.0
  0
LINE
  5
73A
330
1D
100
AcDbEntity
  8
0
100
AcDbLine
 10
110.323235
 20
152.08736
 30
0.0
 11
110.923235
 21
144.88736
 31
0.0
  0
LINE
  5
73B
330
1D
100
AcDbEntity
  8
0
100
AcDbLine
 10
108.423235
 20
137.98736
 30
0.0
 11
108.923235
 21
144.88736
 31
0.0
  0
LINE
  5
73C
330
1D
100
AcDbEntity
  8
0
100
AcDbLine
 10
110.323235
 20
137.68736
 30
0.0
 11
110.923235
 21
144.88736
 31
0.0
  0
LINE
  5
73D
330
1D
100
AcDbEntity
  8
0
100
AcDbLine
 10
103.523235
 20
172.28736
 30
0.0
 11
106.623235
 21
165.88736
 31
0.0
  0
LINE
  5
73E
330
1D
100
AcDbEntity
  8
0
100
AcDbLine
 10
10.023235
 20
171.28736
 30
0.0
 11
13.923235
 21
177.08736
 31
0.0
  0
LINE
  5
73F
330
1D
100
AcDbEntity
  8
0
100
AcDbLine
 10
7.023235
 20
165.08736
 30
0.0
 11
10.023235
 21
171.28736
 31
0.0
  0
LINE
  5
740
330
1D
100
AcDbEntity
  8
0
100
AcDbLine
 10
5.923235
 20
199.96636
 30
0.0
 11
5.923235
 21
199.37436
 31
0.0
  0
LINE
  5
741
330
1D
100
AcDbEntity
  8
0
100
AcDbLine
 10
5.923235
 20
199.96636
 30
0.0
 11
5.923235
 21
201.67336
 31
0.0
  0
LINE
  5
742
330
1D
100
AcDbEntity
  8
0
100
AcDbLine
 10
5.923235
 20
199.37436
 30
0.0
 11
5.923235
 21
199.97036
 31
0.0
  0
LINE
  5
743
330
1D
100
AcDbEntity
  8
0
100
AcDbLine
 10
5.923235
 20
199.37436
 30
0.0
 11
6.677085
 21
198.89236
 31
0.0
  0
LINE
  5
744
330
1D
100
AcDbEntity
  8
0
100
AcDbLine
 10
5.923235
 20
199.37436
 30
0.0
 11
5.923235
 21
199.96636
 31
0.0
  0
LINE
  5
745
330
1D
100
AcDbEntity
  8
0
100
AcDbLine
 10
5.923235
 20
199.97036
 30
0.0
 11
5.923235
 21
201.74636
 31
0.0
  0
LINE
  5
746
330
1D
100
AcDbEntity
  8
0
100
AcDbLine
 10
5.923235
 20
199.97036
 30
0.0
 11
5.923235
 21
199.37436
 31
0.0
  0
LINE
  5
747
330
1D
100
AcDbEntity
  8
0
100
AcDbLine
 10
5.923235
 20
201.74636
 30
0.0
 11
5.923235
 21
204.49936
 31
0.0
  0
LINE
  5
748
330
1D
100
AcDbEntity
  8
0
100
AcDbLine
 10
5.923235
 20
201.74636
 30
0.0
 11
5.923235
 21
199.97036
 31
0.0
  0
LINE
  5
749
330
1D
100
AcDbEntity
  8
0
100
AcDbLine
 10
5.923235
 20
204.49936
 30
0.0
 11
5.923235
 21
208.10336
 31
0.0
  0
LINE
  5
74A
330
1D
100
AcDbEntity
  8
0
100
AcDbLine
 10
5.923235
 20
204.49936
 30
0.0
 11
5.923235
 21
201.74636
 31
0.0
  0
LINE
  5
74B
330
1D
100
AcDbEntity
  8
0
100
AcDbLine
 10
5.923235
 20
201.67336
 30
0.0
 11
5.923235
 21
204.50236
 31
0.0
  0
LINE
  5
74C
330
1D
100
AcDbEntity
  8
0
100
AcDbLine
 10
5.923235
 20
201.67336
 30
0.0
 11
5.923235
 21
199.96636
 31
0.0
  0
LINE
  5
74D
330
1D
100
AcDbEntity
  8
0
100
AcDbLine
 10
5.923235
 20
204.50236
 30
0.0
 11
5.923235
 21
201.67336
 31
0.0
  0
LINE
  5
74E
330
1D
100
AcDbEntity
  8
0
100
AcDbLine
 10
5.923235
 20
204.50236
 30
0.0
 11
5.923235
 21
208.08636
 31
0.0
  0
LINE
  5
74F
330
1D
100
AcDbEntity
  8
0
100
AcDbLine
 10
5.923235
 20
212.35536
 30
0.0
 11
5.923235
 21
213.88736
 31
0.0
  0
LINE
  5
750
330
1D
100
AcDbEntity
  8
0
100
AcDbLine
 10
5.923235
 20
212.35536
 30
0.0
 11
5.923235
 21
208.10336
 31
0.0
  0
LINE
  5
751
330
1D
100
AcDbEntity
  8
0
100
AcDbLine
 10
5.923235
 20
208.10336
 30
0.0
 11
5.923235
 21
204.49936
 31
0.0
  0
LINE
  5
752
330
1D
100
AcDbEntity
  8
0
100
AcDbLine
 10
5.923235
 20
208.10336
 30
0.0
 11
5.923235
 21
212.35536
 31
0.0
  0
LINE
  5
753
330
1D
100
AcDbEntity
  8
0
100
AcDbLine
 10
5.923235
 20
208.08636
 30
0.0
 11
5.923235
 21
204.50236
 31
0.0
  0
LINE
  5
754
330
1D
100
AcDbEntity
  8
0
100
AcDbLine
 10
5.923235
 20
208.08636
 30
0.0
 11
5.923235
 21
212.35436
 31
0.0
  0
LINE
  5
755
330
1D
100
AcDbEntity
  8
0
100
AcDbLine
 10
5.923235
 20
212.35436
 30
0.0
 11
5.923235
 21
208.08636
 31
0.0
  0
LINE
  5
756
330
1D
100
AcDbEntity
  8
0
100
AcDbLine
 10
5.923235
 20
212.35436
 30
0.0
 11
5.923235
 21
213.88736
 31
0.0
  0
LINE
  5
757
330
1D
100
AcDbEntity
  8
0
100
AcDbLine
 10
5.478115
 20
216.13136
 30
0.0
 11
5.579605
 21
216.88736
 31
0.0
  0
LINE
  5
758
330
1D
100
AcDbEntity
  8
0
100
AcDbLine
 10
5.478115
 20
217.64336
 30
0.0
 11
5.579605
 21
216.88736
 31
0.0
  0
LINE
  5
759
330
1D
100
AcDbEntity
  8
0
100
AcDbLine
 10
5.923235
 20
221.42036
 30
0.0
 11
5.923235
 21
225.68836
 31
0.0
  0
LINE
  5
75A
330
1D
100
AcDbEntity
  8
0
100
AcDbLine
 10
5.923235
 20
221.42036
 30
0.0
 11
5.923235
 21
219.88736
 31
0.0
  0
LINE
  5
75B
330
1D
100
AcDbEntity
  8
0
100
AcDbLine
 10
5.923235
 20
219.88736
 30
0.0
 11
5.923235
 21
221.41936
 31
0.0
  0
LINE
  5
75C
330
1D
100
AcDbEntity
  8
0
100
AcDbLine
 10
5.923235
 20
219.88736
 30
0.0
 11
5.923235
 21
221.42036
 31
0.0
  0
LINE
  5
75D
330
1D
100
AcDbEntity
  8
0
100
AcDbLine
 10
5.923235
 20
213.88736
 30
0.0
 11
5.923235
 21
212.35436
 31
0.0
  0
LINE
  5
75E
330
1D
100
AcDbEntity
  8
0
100
AcDbLine
 10
5.923235
 20
213.88736
 30
0.0
 11
5.923235
 21
212.35536
 31
0.0
  0
LINE
  5
75F
330
1D
100
AcDbEntity
  8
0
100
AcDbLine
 10
6.677085
 20
198.89236
 30
0.0
 11
37.836035
 21
198.89236
 31
0.0
  0
LINE
  5
760
330
1D
100
AcDbEntity
  8
0
100
AcDbLine
 10
6.677085
 20
198.89236
 30
0.0
 11
37.836035
 21
198.89236
 31
0.0
  0
LINE
  5
761
330
1D
100
AcDbEntity
  8
0
100
AcDbLine
 10
5.923235
 20
221.41936
 30
0.0
 11
5.923235
 21
219.88736
 31
0.0
  0
LINE
  5
762
330
1D
100
AcDbEntity
  8
0
100
AcDbLine
 10
5.923235
 20
221.41936
 30
0.0
 11
5.923235
 21
225.67136
 31
0.0
  0
LINE
  5
763
330
1D
100
AcDbEntity
  8
0
100
AcDbLine
 10
5.923235
 20
229.27236
 30
0.0
 11
5.923235
 21
232.10136
 31
0.0
  0
LINE
  5
764
330
1D
100
AcDbEntity
  8
0
100
AcDbLine
 10
5.923235
 20
229.27236
 30
0.0
 11
5.923235
 21
225.68836
 31
0.0
  0
LINE
  5
765
330
1D
100
AcDbEntity
  8
0
100
AcDbLine
 10
5.923235
 20
225.68836
 30
0.0
 11
5.923235
 21
229.27236
 31
0.0
  0
LINE
  5
766
330
1D
100
AcDbEntity
  8
0
100
AcDbLine
 10
5.923235
 20
225.68836
 30
0.0
 11
5.923235
 21
221.42036
 31
0.0
  0
LINE
  5
767
330
1D
100
AcDbEntity
  8
0
100
AcDbLine
 10
5.923235
 20
232.10136
 30
0.0
 11
5.923235
 21
233.80836
 31
0.0
  0
LINE
  5
768
330
1D
100
AcDbEntity
  8
0
100
AcDbLine
 10
5.923235
 20
232.10136
 30
0.0
 11
5.923235
 21
229.27236
 31
0.0
  0
LINE
  5
769
330
1D
100
AcDbEntity
  8
0
100
AcDbLine
 10
5.923235
 20
233.80836
 30
0.0
 11
5.923235
 21
234.40036
 31
0.0
  0
LINE
  5
76A
330
1D
100
AcDbEntity
  8
0
100
AcDbLine
 10
5.923235
 20
233.80836
 30
0.0
 11
5.923235
 21
232.10136
 31
0.0
  0
LINE
  5
76B
330
1D
100
AcDbEntity
  8
0
100
AcDbLine
 10
5.923235
 20
234.40036
 30
0.0
 11
6.677085
 21
234.88236
 31
0.0
  0
LINE
  5
76C
330
1D
100
AcDbEntity
  8
0
100
AcDbLine
 10
5.923235
 20
234.40036
 30
0.0
 11
5.923235
 21
233.80436
 31
0.0
  0
LINE
  5
76D
330
1D
100
AcDbEntity
  8
0
100
AcDbLine
 10
5.923235
 20
234.40036
 30
0.0
 11
5.923235
 21
233.80836
 31
0.0
  0
LINE
  5
76E
330
1D
100
AcDbEntity
  8
0
100
AcDbLine
 10
5.923235
 20
233.80436
 30
0.0
 11
5.923235
 21
232.02836
 31
0.0
  0
LINE
  5
76F
330
1D
100
AcDbEntity
  8
0
100
AcDbLine
 10
5.923235
 20
233.80436
 30
0.0
 11
5.923235
 21
234.40036
 31
0.0
  0
LINE
  5
770
330
1D
100
AcDbEntity
  8
0
100
AcDbLine
 10
5.923235
 20
232.02836
 30
0.0
 11
5.923235
 21
229.27536
 31
0.0
  0
LINE
  5
771
330
1D
100
AcDbEntity
  8
0
100
AcDbLine
 10
5.923235
 20
232.02836
 30
0.0
 11
5.923235
 21
233.80436
 31
0.0
  0
LINE
  5
772
330
1D
100
AcDbEntity
  8
0
100
AcDbLine
 10
5.923235
 20
229.27536
 30
0.0
 11
5.923235
 21
225.67136
 31
0.0
  0
LINE
  5
773
330
1D
100
AcDbEntity
  8
0
100
AcDbLine
 10
5.923235
 20
229.27536
 30
0.0
 11
5.923235
 21
232.02836
 31
0.0
  0
LINE
  5
774
330
1D
100
AcDbEntity
  8
0
100
AcDbLine
 10
6.677085
 20
234.88236
 30
0.0
 11
37.836035
 21
234.88236
 31
0.0
  0
LINE
  5
775
330
1D
100
AcDbEntity
  8
0
100
AcDbLine
 10
6.677085
 20
234.88236
 30
0.0
 11
37.836035
 21
234.88236
 31
0.0
  0
LINE
  5
776
330
1D
100
AcDbEntity
  8
0
100
AcDbLine
 10
5.923235
 20
225.67136
 30
0.0
 11
5.923235
 21
221.41936
 31
0.0
  0
LINE
  5
777
330
1D
100
AcDbEntity
  8
0
100
AcDbLine
 10
5.923235
 20
225.67136
 30
0.0
 11
5.923235
 21
229.27536
 31
0.0
  0
LINE
  5
778
330
1D
100
AcDbEntity
  8
0
100
AcDbLine
 10
77.923235
 20
179.81736
 30
0.0
 11
77.923235
 21
164.22236
 31
0.0
  0
LINE
  5
779
330
1D
100
AcDbEntity
  8
0
100
AcDbLine
 10
101.923235
 20
174.68736
 30
0.0
 11
103.523235
 21
172.28736
 31
0.0
  0
LINE
  5
77A
330
1D
100
AcDbEntity
  8
0
100
AcDbLine
 10
18.523235
 20
182.28736
 30
0.0
 11
23.723235
 21
186.88736
 31
0.0
  0
LINE
  5
77B
330
1D
100
AcDbEntity
  8
0
100
AcDbLine
 10
17.123235
 20
183.68736
 30
0.0
 11
22.523235
 21
188.48736
 31
0.0
  0
LINE
  5
77C
330
1D
100
AcDbEntity
  8
0
100
AcDbLine
 10
23.723235
 20
186.88736
 30
0.0
 11
29.523235
 21
190.78736
 31
0.0
  0
LINE
  5
77D
330
1D
100
AcDbEntity
  8
0
100
AcDbLine
 10
29.523235
 20
190.78736
 30
0.0
 11
35.723235
 21
193.78736
 31
0.0
  0
LINE
  5
77E
330
1D
100
AcDbEntity
  8
0
100
AcDbLine
 10
22.523235
 20
188.48736
 30
0.0
 11
28.523235
 21
192.48736
 31
0.0
  0
LINE
  5
77F
330
1D
100
AcDbEntity
  8
0
100
AcDbLine
 10
28.523235
 20
192.48736
 30
0.0
 11
34.923235
 21
195.58736
 31
0.0
  0
LINE
  5
780
330
1D
100
AcDbEntity
  8
0
100
AcDbLine
 10
35.723235
 20
193.78736
 30
0.0
 11
42.394435
 21
196.77336
 31
0.0
  0
LINE
  5
781
330
1D
100
AcDbEntity
  8
0
100
AcDbLine
 10
101.923235
 20
179.042375360983
 30
0.0
 11
102.075235
 21
178.96836
 31
0.0
  0
LINE
  5
782
330
1D
100
AcDbEntity
  8
0
100
AcDbLine
 10
101.923235
 20
179.81736
 30
0.0
 11
101.923235
 21
170.76036
 31
0.0
  0
LINE
  5
783
330
1D
100
AcDbEntity
  8
0
100
AcDbLine
 10
101.923235
 20
179.81736
 30
0.0
 11
101.923235
 21
189.44836
 31
0.0
  0
LINE
  5
784
330
1D
100
AcDbEntity
  8
0
100
AcDbLine
 10
77.923235
 20
179.81736
 30
0.0
 11
77.923235
 21
189.44836
 31
0.0
  0
LINE
  5
785
330
1D
100
AcDbEntity
  8
0
100
AcDbLine
 10
101.923235
 20
178.796681428571
 30
0.0
 11
102.075235
 21
178.96836
 31
0.0
  0
LINE
  5
786
330
1D
100
AcDbEntity
  8
0
100
AcDbLine
 10
102.075235
 20
178.96836
 30
0.0
 11
103.419235
 21
181.83236
 31
0.0
  0
LINE
  5
787
330
1D
100
AcDbEntity
  8
0
100
AcDbLine
 10
103.419235
 20
181.83236
 30
0.0
 11
103.923235
 21
184.88736
 31
0.0
  0
LINE
  5
788
330
1D
100
AcDbEntity
  8
0
100
AcDbLine
 10
77.771235
 20
178.96836
 30
0.0
 11
77.923235
 21
178.796681428571
 31
0.0
  0
LINE
  5
789
330
1D
100
AcDbEntity
  8
0
100
AcDbLine
 10
77.771235
 20
178.96836
 30
0.0
 11
77.923235
 21
179.042375360983
 31
0.0
  0
LINE
  5
78A
330
1D
100
AcDbEntity
  8
0
100
AcDbLine
 10
101.923235
 20
191.64836
 30
0.0
 11
101.923235
 21
179.81736
 31
0.0
  0
LINE
  5
78B
330
1D
100
AcDbEntity
  8
0
100
AcDbLine
 10
101.923235
 20
190.732344639017
 30
0.0
 11
102.075235
 21
190.80636
 31
0.0
  0
LINE
  5
78C
330
1D
100
AcDbEntity
  8
0
100
AcDbLine
 10
77.923235
 20
189.44836
 30
0.0
 11
77.923235
 21
179.81736
 31
0.0
  0
LINE
  5
78D
330
1D
100
AcDbEntity
  8
0
100
AcDbLine
 10
77.923235
 20
189.44836
 30
0.0
 11
77.923235
 21
191.64836
 31
0.0
  0
LINE
  5
78E
330
1D
100
AcDbEntity
  8
0
100
AcDbLine
 10
102.075235
 20
190.80636
 30
0.0
 11
103.419235
 21
187.94236
 31
0.0
  0
LINE
  5
78F
330
1D
100
AcDbEntity
  8
0
100
AcDbLine
 10
103.419235
 20
187.94236
 30
0.0
 11
103.923235
 21
184.88736
 31
0.0
  0
LINE
  5
790
330
1D
100
AcDbEntity
  8
0
100
AcDbLine
 10
103.923235
 20
184.88736
 30
0.0
 11
103.923235
 21
215.88736
 31
0.0
  0
LINE
  5
791
330
1D
100
AcDbEntity
  8
0
100
AcDbLine
 10
100.339235
 20
194.22536
 30
0.0
 11
101.491235
 21
192.97836
 31
0.0
  0
LINE
  5
792
330
1D
100
AcDbEntity
  8
0
100
AcDbLine
 10
101.491235
 20
192.97836
 30
0.0
 11
101.923235
 21
191.64836
 31
0.0
  0
LINE
  5
793
330
1D
100
AcDbEntity
  8
0
100
AcDbLine
 10
98.179235
 20
195.52236
 30
0.0
 11
100.051235
 21
194.46236
 31
0.0
  0
LINE
  5
794
330
1D
100
AcDbEntity
  8
0
100
AcDbLine
 10
100.051235
 20
194.46236
 30
0.0
 11
100.339235
 21
194.22536
 31
0.0
  0
LINE
  5
795
330
1D
100
AcDbEntity
  8
0
100
AcDbLine
 10
95.731235
 20
196.33336
 30
0.0
 11
98.179235
 21
195.52236
 31
0.0
  0
LINE
  5
796
330
1D
100
AcDbEntity
  8
0
100
AcDbLine
 10
84.115235
 20
196.33336
 30
0.0
 11
86.899235
 21
196.83236
 31
0.0
  0
LINE
  5
797
330
1D
100
AcDbEntity
  8
0
100
AcDbLine
 10
81.667235
 20
195.52236
 30
0.0
 11
84.115235
 21
196.33336
 31
0.0
  0
LINE
  5
798
330
1D
100
AcDbEntity
  8
0
100
AcDbLine
 10
79.795235
 20
194.46236
 30
0.0
 11
81.667235
 21
195.52236
 31
0.0
  0
LINE
  5
799
330
1D
100
AcDbEntity
  8
0
100
AcDbLine
 10
79.507235
 20
194.22536
 30
0.0
 11
79.795235
 21
194.46236
 31
0.0
  0
LINE
  5
79A
330
1D
100
AcDbEntity
  8
0
100
AcDbLine
 10
78.355235
 20
192.97836
 30
0.0
 11
79.507235
 21
194.22536
 31
0.0
  0
LINE
  5
79B
330
1D
100
AcDbEntity
  8
0
100
AcDbLine
 10
77.923235
 20
191.64836
 30
0.0
 11
77.923235
 21
189.44836
 31
0.0
  0
LINE
  5
79C
330
1D
100
AcDbEntity
  8
0
100
AcDbLine
 10
77.923235
 20
191.64836
 30
0.0
 11
78.355235
 21
192.97836
 31
0.0
  0
LINE
  5
79D
330
1D
100
AcDbEntity
  8
0
100
AcDbLine
 10
101.923235
 20
190.978038571429
 30
0.0
 11
102.075235
 21
190.80636
 31
0.0
  0
LINE
  5
79E
330
1D
100
AcDbEntity
  8
0
100
AcDbLine
 10
77.771235
 20
190.80636
 30
0.0
 11
77.923235
 21
190.978038571429
 31
0.0
  0
LINE
  5
79F
330
1D
100
AcDbEntity
  8
0
100
AcDbLine
 10
77.771235
 20
190.80636
 30
0.0
 11
77.923235
 21
190.732344639017
 31
0.0
  0
LINE
  5
7A0
330
1D
100
AcDbEntity
  8
0
100
AcDbLine
 10
76.427235
 20
187.94236
 30
0.0
 11
77.771235
 21
190.80636
 31
0.0
  0
LINE
  5
7A1
330
1D
100
AcDbEntity
  8
0
100
AcDbLine
 10
76.427235
 20
181.83236
 30
0.0
 11
77.771235
 21
178.96836
 31
0.0
  0
LINE
  5
7A2
330
1D
100
AcDbEntity
  8
0
100
AcDbLine
 10
75.923235
 20
184.88736
 30
0.0
 11
76.427235
 21
181.83236
 31
0.0
  0
LINE
  5
7A3
330
1D
100
AcDbEntity
  8
0
100
AcDbLine
 10
75.923235
 20
184.88736
 30
0.0
 11
75.923235
 21
206.88736
 31
0.0
  0
LINE
  5
7A4
330
1D
100
AcDbEntity
  8
0
100
AcDbLine
 10
75.923235
 20
184.88736
 30
0.0
 11
76.427235
 21
187.94236
 31
0.0
  0
LINE
  5
7A5
330
1D
100
AcDbEntity
  8
0
100
AcDbLine
 10
89.923235
 20
197.01936
 30
0.0
 11
92.947235
 21
196.83236
 31
0.0
  0
LINE
  5
7A6
330
1D
100
AcDbEntity
  8
0
100
AcDbLine
 10
92.947235
 20
196.83236
 30
0.0
 11
95.731235
 21
196.33336
 31
0.0
  0
LINE
  5
7A7
330
1D
100
AcDbEntity
  8
0
100
AcDbLine
 10
86.899235
 20
196.83236
 30
0.0
 11
89.923235
 21
197.01936
 31
0.0
  0
LINE
  5
7A8
330
1D
100
AcDbEntity
  8
0
100
AcDbLine
 10
69.452035
 20
196.77336
 30
0.0
 11
75.923235
 21
193.876879126994
 31
0.0
  0
LINE
  5
7A9
330
1D
100
AcDbEntity
  8
0
100
AcDbLine
 10
65.423235
 20
197.88736
 30
0.0
 11
69.452035
 21
196.77336
 31
0.0
  0
LINE
  5
7AA
330
1D
100
AcDbEntity
  8
0
100
AcDbLine
 10
55.923235
 20
197.88736
 30
0.0
 11
65.423235
 21
197.88736
 31
0.0
  0
LINE
  5
7AB
330
1D
100
AcDbEntity
  8
0
100
AcDbLine
 10
42.394435
 20
196.77336
 30
0.0
 11
46.423235
 21
197.88736
 31
0.0
  0
LINE
  5
7AC
330
1D
100
AcDbEntity
  8
0
100
AcDbLine
 10
38.589935
 20
199.37436
 30
0.0
 11
38.589935
 21
199.97036
 31
0.0
  0
LINE
  5
7AD
330
1D
100
AcDbEntity
  8
0
100
AcDbLine
 10
38.589935
 20
199.37436
 30
0.0
 11
39.343735
 21
198.89236
 31
0.0
  0
LINE
  5
7AE
330
1D
100
AcDbEntity
  8
0
100
AcDbLine
 10
38.589935
 20
199.97036
 30
0.0
 11
38.589935
 21
199.37436
 31
0.0
  0
LINE
  5
7AF
330
1D
100
AcDbEntity
  8
0
100
AcDbLine
 10
38.589935
 20
199.97036
 30
0.0
 11
38.589935
 21
201.74636
 31
0.0
  0
LINE
  5
7B0
330
1D
100
AcDbEntity
  8
0
100
AcDbLine
 10
37.836035
 20
198.89236
 30
0.0
 11
38.589935
 21
199.37436
 31
0.0
  0
LINE
  5
7B1
330
1D
100
AcDbEntity
  8
0
100
AcDbLine
 10
38.589935
 20
201.74636
 30
0.0
 11
38.589935
 21
199.97036
 31
0.0
  0
LINE
  5
7B2
330
1D
100
AcDbEntity
  8
0
100
AcDbLine
 10
38.589935
 20
201.74636
 30
0.0
 11
38.589935
 21
204.49936
 31
0.0
  0
LINE
  5
7B3
330
1D
100
AcDbEntity
  8
0
100
AcDbLine
 10
38.589935
 20
216.83636
 30
0.0
 11
38.589935
 21
212.35536
 31
0.0
  0
LINE
  5
7B4
330
1D
100
AcDbEntity
  8
0
100
AcDbLine
 10
38.589935
 20
216.83636
 30
0.0
 11
38.589935
 21
221.42036
 31
0.0
  0
LINE
  5
7B5
330
1D
100
AcDbEntity
  8
0
100
AcDbLine
 10
38.589935
 20
212.35536
 30
0.0
 11
38.589935
 21
208.10336
 31
0.0
  0
LINE
  5
7B6
330
1D
100
AcDbEntity
  8
0
100
AcDbLine
 10
38.589935
 20
212.35536
 30
0.0
 11
38.589935
 21
216.83636
 31
0.0
  0
LINE
  5
7B7
330
1D
100
AcDbEntity
  8
0
100
AcDbLine
 10
38.589935
 20
204.49936
 30
0.0
 11
38.589935
 21
201.74636
 31
0.0
  0
LINE
  5
7B8
330
1D
100
AcDbEntity
  8
0
100
AcDbLine
 10
38.589935
 20
204.49936
 30
0.0
 11
38.589935
 21
208.10336
 31
0.0
  0
LINE
  5
7B9
330
1D
100
AcDbEntity
  8
0
100
AcDbLine
 10
39.343735
 20
198.89236
 30
0.0
 11
75.923235
 21
198.89236
 31
0.0
  0
LINE
  5
7BA
330
1D
100
AcDbEntity
  8
0
100
AcDbLine
 10
38.589935
 20
208.10336
 30
0.0
 11
38.589935
 21
204.49936
 31
0.0
  0
LINE
  5
7BB
330
1D
100
AcDbEntity
  8
0
100
AcDbLine
 10
38.589935
 20
208.10336
 30
0.0
 11
38.589935
 21
212.35536
 31
0.0
  0
LINE
  5
7BC
330
1D
100
AcDbEntity
  8
0
100
AcDbLine
 10
38.589935
 20
232.10136
 30
0.0
 11
38.589935
 21
229.27236
 31
0.0
  0
LINE
  5
7BD
330
1D
100
AcDbEntity
  8
0
100
AcDbLine
 10
38.589935
 20
232.10136
 30
0.0
 11
38.589935
 21
233.80836
 31
0.0
  0
LINE
  5
7BE
330
1D
100
AcDbEntity
  8
0
100
AcDbLine
 10
38.589935
 20
229.27236
 30
0.0
 11
38.589935
 21
225.68836
 31
0.0
  0
LINE
  5
7BF
330
1D
100
AcDbEntity
  8
0
100
AcDbLine
 10
38.589935
 20
229.27236
 30
0.0
 11
38.589935
 21
232.10136
 31
0.0
  0
LINE
  5
7C0
330
1D
100
AcDbEntity
  8
0
100
AcDbLine
 10
38.589935
 20
225.68836
 30
0.0
 11
38.589935
 21
221.42036
 31
0.0
  0
LINE
  5
7C1
330
1D
100
AcDbEntity
  8
0
100
AcDbLine
 10
38.589935
 20
225.68836
 30
0.0
 11
38.589935
 21
229.27236
 31
0.0
  0
LINE
  5
7C2
330
1D
100
AcDbEntity
  8
0
100
AcDbLine
 10
38.589935
 20
221.42036
 30
0.0
 11
38.589935
 21
216.83636
 31
0.0
  0
LINE
  5
7C3
330
1D
100
AcDbEntity
  8
0
100
AcDbLine
 10
38.589935
 20
221.42036
 30
0.0
 11
38.589935
 21
225.68836
 31
0.0
  0
LINE
  5
7C4
330
1D
100
AcDbEntity
  8
0
100
AcDbLine
 10
38.589935
 20
233.80836
 30
0.0
 11
38.589935
 21
232.10136
 31
0.0
  0
LINE
  5
7C5
330
1D
100
AcDbEntity
  8
0
100
AcDbLine
 10
38.589935
 20
233.80836
 30
0.0
 11
38.589935
 21
234.40036
 31
0.0
  0
LINE
  5
7C6
330
1D
100
AcDbEntity
  8
0
100
AcDbLine
 10
39.343735
 20
234.88236
 30
0.0
 11
44.923235
 21
234.88236
 31
0.0
  0
LINE
  5
7C7
330
1D
100
AcDbEntity
  8
0
100
AcDbLine
 10
38.589935
 20
234.40036
 30
0.0
 11
38.589935
 21
233.80836
 31
0.0
  0
LINE
  5
7C8
330
1D
100
AcDbEntity
  8
0
100
AcDbLine
 10
38.589935
 20
234.40036
 30
0.0
 11
39.343735
 21
234.88236
 31
0.0
  0
LINE
  5
7C9
330
1D
100
AcDbEntity
  8
0
100
AcDbLine
 10
37.836035
 20
234.88236
 30
0.0
 11
38.589935
 21
234.40036
 31
0.0
  0
LINE
  5
7CA
330
1D
100
AcDbEntity
  8
0
100
AcDbLine
 10
44.923235
 20
216.88736
 30
0.0
 11
45.323235
 21
214.08736
 31
0.0
  0
LINE
  5
7CB
330
1D
100
AcDbEntity
  8
0
100
AcDbLine
 10
44.923235
 20
216.88736
 30
0.0
 11
44.923235
 21
260.88736
 31
0.0
  0
LINE
  5
7CC
330
1D
100
AcDbEntity
  8
0
100
AcDbLine
 10
53.123235
 20
206.28736
 30
0.0
 11
55.923235
 21
205.88736
 31
0.0
  0
LINE
  5
7CD
330
1D
100
AcDbEntity
  8
0
100
AcDbLine
 10
53.223235
 20
206.78736
 30
0.0
 11
55.923235
 21
206.38736
 31
0.0
  0
LINE
  5
7CE
330
1D
100
AcDbEntity
  8
0
100
AcDbLine
 10
50.423235
 20
207.38736
 30
0.0
 11
53.123235
 21
206.28736
 31
0.0
  0
LINE
  5
7CF
330
1D
100
AcDbEntity
  8
0
100
AcDbLine
 10
55.923235
 20
206.38736
 30
0.0
 11
58.623235
 21
206.78736
 31
0.0
  0
LINE
  5
7D0
330
1D
100
AcDbEntity
  8
0
100
AcDbLine
 10
58.623235
 20
206.78736
 30
0.0
 11
61.123235
 21
207.78736
 31
0.0
  0
LINE
  5
7D1
330
1D
100
AcDbEntity
  8
0
100
AcDbLine
 10
55.923235
 20
205.88736
 30
0.0
 11
58.723235
 21
206.28736
 31
0.0
  0
LINE
  5
7D2
330
1D
100
AcDbEntity
  8
0
100
AcDbLine
 10
58.723235
 20
206.28736
 30
0.0
 11
61.423235
 21
207.38736
 31
0.0
  0
LINE
  5
7D3
330
1D
100
AcDbEntity
  8
0
100
AcDbLine
 10
50.723235
 20
207.78736
 30
0.0
 11
53.223235
 21
206.78736
 31
0.0
  0
LINE
  5
7D4
330
1D
100
AcDbEntity
  8
0
100
AcDbLine
 10
48.523235
 20
209.48736
 30
0.0
 11
50.723235
 21
207.78736
 31
0.0
  0
LINE
  5
7D5
330
1D
100
AcDbEntity
  8
0
100
AcDbLine
 10
48.123235
 20
209.08736
 30
0.0
 11
50.423235
 21
207.38736
 31
0.0
  0
LINE
  5
7D6
330
1D
100
AcDbEntity
  8
0
100
AcDbLine
 10
46.423235
 20
211.38736
 30
0.0
 11
48.123235
 21
209.08736
 31
0.0
  0
LINE
  5
7D7
330
1D
100
AcDbEntity
  8
0
100
AcDbLine
 10
61.123235
 20
207.78736
 30
0.0
 11
63.323235
 21
209.48736
 31
0.0
  0
LINE
  5
7D8
330
1D
100
AcDbEntity
  8
0
100
AcDbLine
 10
63.323235
 20
209.48736
 30
0.0
 11
65.023235
 21
211.68736
 31
0.0
  0
LINE
  5
7D9
330
1D
100
AcDbEntity
  8
0
100
AcDbLine
 10
61.423235
 20
207.38736
 30
0.0
 11
63.723235
 21
209.08736
 31
0.0
  0
LINE
  5
7DA
330
1D
100
AcDbEntity
  8
0
100
AcDbLine
 10
63.723235
 20
209.08736
 30
0.0
 11
65.423235
 21
211.38736
 31
0.0
  0
LINE
  5
7DB
330
1D
100
AcDbEntity
  8
0
100
AcDbLine
 10
46.823235
 20
211.68736
 30
0.0
 11
48.523235
 21
209.48736
 31
0.0
  0
LINE
  5
7DC
330
1D
100
AcDbEntity
  8
0
100
AcDbLine
 10
45.323235
 20
214.08736
 30
0.0
 11
46.423235
 21
211.38736
 31
0.0
  0
LINE
  5
7DD
330
1D
100
AcDbEntity
  8
0
100
AcDbLine
 10
65.023235
 20
211.68736
 30
0.0
 11
66.023235
 21
214.18736
 31
0.0
  0
LINE
  5
7DE
330
1D
100
AcDbEntity
  8
0
100
AcDbLine
 10
45.823235
 20
214.18736
 30
0.0
 11
46.823235
 21
211.68736
 31
0.0
  0
LINE
  5
7DF
330
1D
100
AcDbEntity
  8
0
100
AcDbLine
 10
45.423235
 20
216.88736
 30
0.0
 11
45.823235
 21
214.18736
 31
0.0
  0
LINE
  5
7E0
330
1D
100
AcDbEntity
  8
0
100
AcDbLine
 10
45.423235
 20
216.88736
 30
0.0
 11
45.423235
 21
260.38736
 31
0.0
  0
LINE
  5
7E1
330
1D
100
AcDbEntity
  8
0
100
AcDbLine
 10
66.023235
 20
214.18736
 30
0.0
 11
66.423235
 21
216.88736
 31
0.0
  0
LINE
  5
7E2
330
1D
100
AcDbEntity
  8
0
100
AcDbLine
 10
66.923235
 20
234.88236
 30
0.0
 11
75.923235
 21
234.88236
 31
0.0
  0
LINE
  5
7E3
330
1D
100
AcDbEntity
  8
0
100
AcDbLine
 10
66.423235
 20
216.88736
 30
0.0
 11
66.423235
 21
260.38736
 31
0.0
  0
LINE
  5
7E4
330
1D
100
AcDbEntity
  8
0
100
AcDbLine
 10
66.523235
 20
214.08736
 30
0.0
 11
66.923235
 21
216.88736
 31
0.0
  0
LINE
  5
7E5
330
1D
100
AcDbEntity
  8
0
100
AcDbLine
 10
66.923235
 20
216.88736
 30
0.0
 11
66.923235
 21
260.88736
 31
0.0
  0
LINE
  5
7E6
330
1D
100
AcDbEntity
  8
0
100
AcDbLine
 10
65.423235
 20
211.38736
 30
0.0
 11
66.523235
 21
214.08736
 31
0.0
  0
LINE
  5
7E7
330
1D
100
AcDbEntity
  8
0
100
AcDbLine
 10
44.923235
 20
234.88236
 30
0.0
 11
44.923235
 21
260.88736
 31
0.0
  0
LINE
  5
7E8
330
1D
100
AcDbEntity
  8
0
100
AcDbLine
 10
44.923235
 20
260.88736
 30
0.0
 11
44.923235
 21
216.88736
 31
0.0
  0
LINE
  5
7E9
330
1D
100
AcDbEntity
  8
0
100
AcDbLine
 10
44.923235
 20
260.88736
 30
0.0
 11
55.923235
 21
260.88736
 31
0.0
  0
LINE
  5
7EA
330
1D
100
AcDbEntity
  8
0
100
AcDbLine
 10
44.923235
 20
260.88736
 30
0.0
 11
45.423235
 21
260.38736
 31
0.0
  0
LINE
  5
7EB
330
1D
100
AcDbEntity
  8
0
100
AcDbLine
 10
45.423235
 20
260.38736
 30
0.0
 11
55.923235
 21
260.38736
 31
0.0
  0
LINE
  5
7EC
330
1D
100
AcDbEntity
  8
0
100
AcDbLine
 10
45.423235
 20
260.38736
 30
0.0
 11
45.423235
 21
216.88736
 31
0.0
  0
LINE
  5
7ED
330
1D
100
AcDbEntity
  8
0
100
AcDbLine
 10
66.923235
 20
260.88736
 30
0.0
 11
66.923235
 21
216.88736
 31
0.0
  0
LINE
  5
7EE
330
1D
100
AcDbEntity
  8
0
100
AcDbLine
 10
66.423235
 20
260.38736
 30
0.0
 11
66.923235
 21
260.88736
 31
0.0
  0
LINE
  5
7EF
330
1D
100
AcDbEntity
  8
0
100
AcDbLine
 10
66.423235
 20
260.38736
 30
0.0
 11
66.423235
 21
216.88736
 31
0.0
  0
LINE
  5
7F0
330
1D
100
AcDbEntity
  8
0
100
AcDbLine
 10
55.923235
 20
260.38736
 30
0.0
 11
66.423235
 21
260.38736
 31
0.0
  0
LINE
  5
7F1
330
1D
100
AcDbEntity
  8
0
100
AcDbLine
 10
55.923235
 20
260.88736
 30
0.0
 11
66.923235
 21
260.88736
 31
0.0
  0
LINE
  5
7F2
330
1D
100
AcDbEntity
  8
0
100
AcDbLine
 10
44.923235
 20
260.88736
 30
0.0
 11
44.923235
 21
234.88236
 31
0.0
  0
LINE
  5
7F3
330
1D
100
AcDbEntity
  8
0
100
AcDbLine
 10
75.923235
 20
204.22036
 30
0.0
 11
75.923235
 21
207.88736
 31
0.0
  0
LINE
  5
7F4
330
1D
100
AcDbEntity
  8
0
100
AcDbLine
 10
75.923235
 20
204.22036
 30
0.0
 11
75.923235
 21
201.34336
 31
0.0
  0
LINE
  5
7F5
330
1D
100
AcDbEntity
  8
0
100
AcDbLine
 10
75.923235
 20
201.34336
 30
0.0
 11
75.923235
 21
204.22036
 31
0.0
  0
LINE
  5
7F6
330
1D
100
AcDbEntity
  8
0
100
AcDbLine
 10
75.923235
 20
201.34336
 30
0.0
 11
75.923235
 21
199.47836
 31
0.0
  0
LINE
  5
7F7
330
1D
100
AcDbEntity
  8
0
100
AcDbLine
 10
75.923235
 20
199.47836
 30
0.0
 11
75.923235
 21
201.34336
 31
0.0
  0
LINE
  5
7F8
330
1D
100
AcDbEntity
  8
0
100
AcDbLine
 10
75.923235
 20
199.47836
 30
0.0
 11
75.923235
 21
198.89236
 31
0.0
  0
LINE
  5
7F9
330
1D
100
AcDbEntity
  8
0
100
AcDbLine
 10
75.923235
 20
198.89236
 30
0.0
 11
75.923235
 21
199.47836
 31
0.0
  0
LINE
  5
7FA
330
1D
100
AcDbEntity
  8
0
100
AcDbLine
 10
75.923235
 20
212.20236
 30
0.0
 11
75.923235
 21
216.80736
 31
0.0
  0
LINE
  5
7FB
330
1D
100
AcDbEntity
  8
0
100
AcDbLine
 10
75.923235
 20
212.20236
 30
0.0
 11
75.923235
 21
207.88736
 31
0.0
  0
LINE
  5
7FC
330
1D
100
AcDbEntity
  8
0
100
AcDbLine
 10
75.923235
 20
216.80736
 30
0.0
 11
75.923235
 21
221.55236
 31
0.0
  0
LINE
  5
7FD
330
1D
100
AcDbEntity
  8
0
100
AcDbLine
 10
75.923235
 20
216.80736
 30
0.0
 11
75.923235
 21
212.20236
 31
0.0
  0
LINE
  5
7FE
330
1D
100
AcDbEntity
  8
0
100
AcDbLine
 10
75.923235
 20
216.80736
 30
0.0
 11
78.923235
 21
216.80736
 31
0.0
  0
LINE
  5
7FF
330
1D
100
AcDbEntity
  8
0
100
AcDbLine
 10
75.923235
 20
221.55236
 30
0.0
 11
75.923235
 21
225.95436
 31
0.0
  0
LINE
  5
800
330
1D
100
AcDbEntity
  8
0
100
AcDbLine
 10
75.923235
 20
221.55236
 30
0.0
 11
75.923235
 21
216.80736
 31
0.0
  0
LINE
  5
801
330
1D
100
AcDbEntity
  8
0
100
AcDbLine
 10
75.923235
 20
234.88236
 30
0.0
 11
75.923235
 21
234.21836
 31
0.0
  0
LINE
  5
802
330
1D
100
AcDbEntity
  8
0
100
AcDbLine
 10
75.923235
 20
234.88236
 30
0.0
 11
78.923235
 21
234.88236
 31
0.0
  0
LINE
  5
803
330
1D
100
AcDbEntity
  8
0
100
AcDbLine
 10
75.923235
 20
234.21836
 30
0.0
 11
75.923235
 21
234.88236
 31
0.0
  0
LINE
  5
804
330
1D
100
AcDbEntity
  8
0
100
AcDbLine
 10
75.923235
 20
234.21836
 30
0.0
 11
75.923235
 21
232.47636
 31
0.0
  0
LINE
  5
805
330
1D
100
AcDbEntity
  8
0
100
AcDbLine
 10
75.923235
 20
232.47636
 30
0.0
 11
75.923235
 21
229.61036
 31
0.0
  0
LINE
  5
806
330
1D
100
AcDbEntity
  8
0
100
AcDbLine
 10
75.923235
 20
232.47636
 30
0.0
 11
75.923235
 21
234.21836
 31
0.0
  0
LINE
  5
807
330
1D
100
AcDbEntity
  8
0
100
AcDbLine
 10
75.923235
 20
225.95436
 30
0.0
 11
75.923235
 21
229.61036
 31
0.0
  0
LINE
  5
808
330
1D
100
AcDbEntity
  8
0
100
AcDbLine
 10
75.923235
 20
225.95436
 30
0.0
 11
75.923235
 21
221.55236
 31
0.0
  0
LINE
  5
809
330
1D
100
AcDbEntity
  8
0
100
AcDbLine
 10
75.923235
 20
229.61036
 30
0.0
 11
75.923235
 21
232.47636
 31
0.0
  0
LINE
  5
80A
330
1D
100
AcDbEntity
  8
0
100
AcDbLine
 10
75.923235
 20
229.61036
 30
0.0
 11
75.923235
 21
225.95436
 31
0.0
  0
LINE
  5
80B
330
1D
100
AcDbEntity
  8
0
100
AcDbLine
 10
75.923235
 20
207.88736
 30
0.0
 11
75.923235
 21
206.88736
 31
0.0
  0
LINE
  5
80C
330
1D
100
AcDbEntity
  8
0
100
AcDbLine
 10
75.923235
 20
207.88736
 30
0.0
 11
75.923235
 21
212.20236
 31
0.0
  0
LINE
  5
80D
330
1D
100
AcDbEntity
  8
0
100
AcDbLine
 10
75.923235
 20
207.88736
 30
0.0
 11
75.923235
 21
204.22036
 31
0.0
  0
LINE
  5
80E
330
1D
100
AcDbEntity
  8
0
100
AcDbLine
 10
102.075235
 20
212.80636
 30
0.0
 11
103.419235
 21
209.94236
 31
0.0
  0
LINE
  5
80F
330
1D
100
AcDbEntity
  8
0
100
AcDbLine
 10
78.923235
 20
216.80736
 30
0.0
 11
78.923235
 21
221.55236
 31
0.0
  0
LINE
  5
810
330
1D
100
AcDbEntity
  8
0
100
AcDbLine
 10
78.923235
 20
221.55236
 30
0.0
 11
78.923235
 21
225.95436
 31
0.0
  0
LINE
  5
811
330
1D
100
AcDbEntity
  8
0
100
AcDbLine
 10
78.923235
 20
221.55236
 30
0.0
 11
78.923235
 21
216.80736
 31
0.0
  0
LINE
  5
812
330
1D
100
AcDbEntity
  8
0
100
AcDbLine
 10
78.923235
 20
225.95436
 30
0.0
 11
78.923235
 21
229.61036
 31
0.0
  0
LINE
  5
813
330
1D
100
AcDbEntity
  8
0
100
AcDbLine
 10
78.923235
 20
225.95436
 30
0.0
 11
78.923235
 21
221.55236
 31
0.0
  0
LINE
  5
814
330
1D
100
AcDbEntity
  8
0
100
AcDbLine
 10
78.923235
 20
234.88236
 30
0.0
 11
78.923235
 21
234.21836
 31
0.0
  0
LINE
  5
815
330
1D
100
AcDbEntity
  8
0
100
AcDbLine
 10
78.923235
 20
234.21836
 30
0.0
 11
78.923235
 21
234.88236
 31
0.0
  0
LINE
  5
816
330
1D
100
AcDbEntity
  8
0
100
AcDbLine
 10
78.923235
 20
234.21836
 30
0.0
 11
78.923235
 21
232.47636
 31
0.0
  0
LINE
  5
817
330
1D
100
AcDbEntity
  8
0
100
AcDbLine
 10
78.923235
 20
232.47636
 30
0.0
 11
78.923235
 21
229.61036
 31
0.0
  0
LINE
  5
818
330
1D
100
AcDbEntity
  8
0
100
AcDbLine
 10
78.923235
 20
232.47636
 30
0.0
 11
78.923235
 21
234.21836
 31
0.0
  0
LINE
  5
819
330
1D
100
AcDbEntity
  8
0
100
AcDbLine
 10
78.923235
 20
229.61036
 30
0.0
 11
78.923235
 21
232.47636
 31
0.0
  0
LINE
  5
81A
330
1D
100
AcDbEntity
  8
0
100
AcDbLine
 10
78.923235
 20
229.61036
 30
0.0
 11
78.923235
 21
225.95436
 31
0.0
  0
LINE
  5
81B
330
1D
100
AcDbEntity
  8
0
100
AcDbLine
 10
79.977035
 20
230.18336
 30
0.0
 11
82.931535
 21
231.72436
 31
0.0
  0
LINE
  5
81C
330
1D
100
AcDbEntity
  8
0
100
AcDbLine
 10
78.923235
 20
229.047770826004
 30
0.0
 11
79.977035
 21
230.18336
 31
0.0
  0
LINE
  5
81D
330
1D
100
AcDbEntity
  8
0
100
AcDbLine
 10
96.867235
 20
217.24536
 30
0.0
 11
99.835235
 21
215.33636
 31
0.0
  0
LINE
  5
81E
330
1D
100
AcDbEntity
  8
0
100
AcDbLine
 10
99.835235
 20
215.33636
 30
0.0
 11
102.075235
 21
212.80636
 31
0.0
  0
LINE
  5
81F
330
1D
100
AcDbEntity
  8
0
100
AcDbLine
 10
103.923235
 20
215.88736
 30
0.0
 11
103.923235
 21
184.88736
 31
0.0
  0
LINE
  5
820
330
1D
100
AcDbEntity
  8
0
100
AcDbLine
 10
81.376135
 20
231.22736
 30
0.0
 11
81.502978452761
 21
230.979257397429
 31
0.0
  0
LINE
  5
821
330
1D
100
AcDbEntity
  8
0
100
AcDbLine
 10
84.086935
 20
239.66836
 30
0.0
 11
86.884735
 21
241.09736
 31
0.0
  0
LINE
  5
822
330
1D
100
AcDbEntity
  8
0
100
AcDbLine
 10
82.149035
 20
237.27636
 30
0.0
 11
84.086935
 21
239.66836
 31
0.0
  0
LINE
  5
823
330
1D
100
AcDbEntity
  8
0
100
AcDbLine
 10
81.113035
 20
234.37036
 30
0.0
 11
81.376135
 21
231.22736
 31
0.0
  0
LINE
  5
824
330
1D
100
AcDbEntity
  8
0
100
AcDbLine
 10
81.113035
 20
234.37036
 30
0.0
 11
82.149035
 21
237.27636
 31
0.0
  0
LINE
  5
825
330
1D
100
AcDbEntity
  8
0
100
AcDbLine
 10
86.256035
 20
232.30836
 30
0.0
 11
90.164535
 21
231.95236
 31
0.0
  0
LINE
  5
826
330
1D
100
AcDbEntity
  8
0
100
AcDbLine
 10
82.931535
 20
231.72436
 30
0.0
 11
86.256035
 21
232.30836
 31
0.0
  0
LINE
  5
827
330
1D
100
AcDbEntity
  8
0
100
AcDbLine
 10
86.884735
 20
241.09736
 30
0.0
 11
90.028535
 21
241.36036
 31
0.0
  0
LINE
  5
828
330
1D
100
AcDbEntity
  8
0
100
AcDbLine
 10
90.028535
 20
241.36036
 30
0.0
 11
93.162035
 21
240.42536
 31
0.0
  0
LINE
  5
829
330
1D
100
AcDbEntity
  8
0
100
AcDbLine
 10
93.162035
 20
240.42536
 30
0.0
 11
95.645935
 21
238.60436
 31
0.0
  0
LINE
  5
82A
330
1D
100
AcDbEntity
  8
0
100
AcDbLine
 10
95.645935
 20
238.60436
 30
0.0
 11
97.424835
 21
236.08836
 31
0.0
  0
LINE
  5
82B
330
1D
100
AcDbEntity
  8
0
100
AcDbLine
 10
90.164535
 20
231.95236
 30
0.0
 11
93.668735
 21
230.64736
 31
0.0
  0
LINE
  5
82C
330
1D
100
AcDbEntity
  8
0
100
AcDbLine
 10
93.668735
 20
230.64736
 30
0.0
 11
96.993135
 21
228.64836
 31
0.0
  0
LINE
  5
82D
330
1D
100
AcDbEntity
  8
0
100
AcDbLine
 10
97.424835
 20
236.08836
 30
0.0
 11
97.999035
 21
232.98436
 31
0.0
  0
LINE
  5
82E
330
1D
100
AcDbEntity
  8
0
100
AcDbLine
 10
97.982835
 20
231.08336
 30
0.0
 11
97.999035
 21
232.98436
 31
0.0
  0
LINE
  5
82F
330
1D
100
AcDbEntity
  8
0
100
AcDbLine
 10
97.953835
 20
227.78436
 30
0.0
 11
97.982835
 21
231.08336
 31
0.0
  0
LINE
  5
830
330
1D
100
AcDbEntity
  8
0
100
AcDbLine
 10
97.953221833374
 20
227.711079110603
 30
0.0
 11
97.953835
 21
227.78436
 31
0.0
  0
LINE
  5
831
330
1D
100
AcDbEntity
  8
0
100
AcDbLine
 10
96.993135
 20
228.64836
 30
0.0
 11
99.868435
 21
225.84136
 31
0.0
  0
LINE
  5
832
330
1D
100
AcDbEntity
  8
0
100
AcDbLine
 10
99.868435
 20
225.84136
 30
0.0
 11
102.384235
 21
222.43536
 31
0.0
  0
LINE
  5
833
330
1D
100
AcDbEntity
  8
0
100
AcDbLine
 10
102.384235
 20
222.43536
 30
0.0
 11
103.553235
 21
219.14736
 31
0.0
  0
LINE
  5
834
330
1D
100
AcDbEntity
  8
0
100
AcDbLine
 10
103.553235
 20
219.14736
 30
0.0
 11
103.923235
 21
215.88736
 31
0.0
  0
LINE
  5
835
330
1D
100
AcDbEntity
  8
0
100
AcDbLine
 10
89.923235
 20
218.82036
 30
0.0
 11
93.507235
 21
218.39136
 31
0.0
  0
LINE
  5
836
330
1D
100
AcDbEntity
  8
0
100
AcDbLine
 10
93.507235
 20
218.39136
 30
0.0
 11
96.867235
 21
217.24536
 31
0.0
  0
LINE
  5
837
330
1D
100
AcDbEntity
  8
0
100
AcDbLine
 10
86.339235
 20
218.39136
 30
0.0
 11
89.923235
 21
218.82036
 31
0.0
  0
LINE
  5
838
330
1D
100
AcDbEntity
  8
0
100
AcDbLine
 10
82.979235
 20
217.24536
 30
0.0
 11
86.339235
 21
218.39136
 31
0.0
  0
LINE
  5
839
330
1D
100
AcDbEntity
  8
0
100
AcDbLine
 10
80.011235
 20
215.33636
 30
0.0
 11
82.979235
 21
217.24536
 31
0.0
  0
LINE
  5
83A
330
1D
100
AcDbEntity
  8
0
100
AcDbLine
 10
77.771235
 20
212.80636
 30
0.0
 11
80.011235
 21
215.33636
 31
0.0
  0
LINE
  5
83B
330
1D
100
AcDbEntity
  8
0
100
AcDbLine
 10
76.427235
 20
209.94236
 30
0.0
 11
77.771235
 21
212.80636
 31
0.0
  0
LINE
  5
83C
330
1D
100
AcDbEntity
  8
0
100
AcDbLine
 10
75.923235
 20
206.88736
 30
0.0
 11
75.923235
 21
184.88736
 31
0.0
  0
LINE
  5
83D
330
1D
100
AcDbEntity
  8
0
100
AcDbLine
 10
75.923235
 20
206.88736
 30
0.0
 11
76.427235
 21
209.94236
 31
0.0
  0
LINE
  5
83E
330
1D
100
AcDbEntity
  8
0
100
AcDbLine
 10
75.923235
 20
206.88736
 30
0.0
 11
75.923235
 21
207.88736
 31
0.0
  0
LINE
  5
83F
330
1D
100
AcDbEntity
  8
0
100
AcDbLine
 10
46.423235
 20
197.88736
 30
0.0
 11
55.923235
 21
197.88736
 31
0.0
  0
LINE
  5
840
330
1D
100
AcDbEntity
  8
0
100
AcDbLine
 10
34.923235
 20
195.58736
 30
0.0
 11
40.211235
 21
198.89236
 31
0.0
  0
LINE
  5
841
330
1D
100
AcDbEntity
  8
0
100
AcDbLine
 10
13.923235
 20
177.08736
 30
0.0
 11
18.523235
 21
182.28736
 31
0.0
  0
LINE
  5
842
330
1D
100
AcDbEntity
  8
0
100
AcDbLine
 10
12.323235
 20
178.28736
 30
0.0
 11
17.123235
 21
183.68736
 31
0.0
  0
LINE
  5
843
330
1D
100
AcDbEntity
  8
0
100
AcDbLine
 10
8.323235
 20
172.28736
 30
0.0
 11
12.323235
 21
178.28736
 31
0.0
  0
LINE
  5
844
330
1D
100
AcDbEntity
  8
0
100
AcDbLine
 10
5.223235
 20
165.88736
 30
0.0
 11
8.323235
 21
172.28736
 31
0.0
  0
LINE
  5
845
330
1D
100
AcDbEntity
  8
0
100
AcDbLine
 10
4.823235
 20
131.18736
 30
0.0
 11
7.023235
 21
124.68736
 31
0.0
  0
LINE
  5
846
330
1D
100
AcDbEntity
  8
0
100
AcDbLine
 10
3.423235
 20
137.98736
 30
0.0
 11
4.823235
 21
131.18736
 31
0.0
  0
LINE
  5
847
330
1D
100
AcDbEntity
  8
0
100
AcDbLine
 10
5.223235
 20
123.88736
 30
0.0
 11
8.323235
 21
117.48736
 31
0.0
  0
LINE
  5
848
330
1D
100
AcDbEntity
  8
0
100
AcDbLine
 10
2.923235
 20
130.68736
 30
0.0
 11
5.223235
 21
123.88736
 31
0.0
  0
LINE
  5
B96
330
1D
100
AcDbEntity
  8
0
100
AcDbLine
 10
104.447335
 20
205.88736
 30
0.0
 11
105.923235
 21
205.88736
 31
0.0
  0
LINE
  5
B9C
330
1D
100
AcDbEntity
  8
0
100
AcDbLine
 10
106.623235
 20
165.88736
 30
0.0
 11
197.923235
 21
165.88736
 31
0.0
  0
LINE
  5
B9D
330
1D
100
AcDbEntity
  8
0
100
AcDbLine
 10
104.447335
 20
205.88736
 30
0.0
 11
105.923235
 21
205.88736
 31
0.0
  0
LINE
  5
B9E
330
1D
100
AcDbEntity
  8
0
100
AcDbLine
 10
106.623235
 20
165.88736
 30
0.0
 11
197.923235
 21
165.88736
 31
0.0
  0
LINE
  5
B9F
330
1D
100
AcDbEntity
  8
0
100
AcDbLine
 10
106.331235
 20
218.88736
 30
0.0
 11
106.943235
 21
218.88736
 31
0.0
  0
LINE
  5
BA0
330
1D
100
AcDbEntity
  8
0
100
AcDbLine
 10
105.923235
 20
218.28736
 30
0.0
 11
106.331235
 21
218.88736
 31
0.0
  0
LINE
  5
BA1
330
1D
100
AcDbEntity
  8
0
100
AcDbLine
 10
105.923235
 20
218.28736
 30
0.0
 11
105.923235
 21
205.88736
 31
0.0
  0
LINE
  5
BA2
330
1D
100
AcDbEntity
  8
0
100
AcDbLine
 10
105.923235
 20
205.88736
 30
0.0
 11
105.923235
 21
218.28736
 31
0.0
  0
LINE
  5
BA3
330
1D
100
AcDbEntity
  8
0
100
AcDbLine
 10
93.523235
 20
260.88736
 30
0.0
 11
98.923235
 21
260.88736
 31
0.0
  0
LINE
  5
BA4
330
1D
100
AcDbEntity
  8
0
100
AcDbLine
 10
90.123235
 20
260.88736
 30
0.0
 11
93.523235
 21
260.88736
 31
0.0
  0
LINE
  5
BA5
330
1D
100
AcDbEntity
  8
0
100
AcDbLine
 10
98.923235
 20
260.88736
 30
0.0
 11
106.023235
 21
260.88736
 31
0.0
  0
LINE
  5
BA6
330
1D
100
AcDbEntity
  8
0
100
AcDbLine
 10
106.023235
 20
260.88736
 30
0.0
 11
114.223235
 21
260.88736
 31
0.0
  0
LINE
  5
BA7
330
1D
100
AcDbEntity
  8
0
100
AcDbLine
 10
88.923235
 20
260.88736
 30
0.0
 11
90.123235
 21
260.88736
 31
0.0
  0
LINE
  5
BA8
330
1D
100
AcDbEntity
  8
0
100
AcDbLine
 10
106.943235
 20
218.88736
 30
0.0
 11
108.575235
 21
218.88736
 31
0.0
  0
LINE
  5
BA9
330
1D
100
AcDbEntity
  8
0
100
AcDbLine
 10
107.933735
 20
220.88736
 30
0.0
 11
108.923235
 21
220.88736
 31
0.0
  0
LINE
  5
BAA
330
1D
100
AcDbEntity
  8
0
100
AcDbLine
 10
108.575235
 20
218.88736
 30
0.0
 11
111.227235
 21
218.88736
 31
0.0
  0
LINE
  5
BAB
330
1D
100
AcDbEntity
  8
0
100
AcDbLine
 10
111.227235
 20
218.88736
 30
0.0
 11
114.695235
 21
218.88736
 31
0.0
  0
LINE
  5
BAC
330
1D
100
AcDbEntity
  8
0
100
AcDbLine
 10
114.695235
 20
218.88736
 30
0.0
 11
118.639235
 21
218.88736
 31
0.0
  0
LINE
  5
BAD
330
1D
100
AcDbEntity
  8
0
100
AcDbLine
 10
108.923235
 20
220.88736
 30
0.0
 11
108.923235
 21
218.88736
 31
0.0
  0
LINE
  5
BAE
330
1D
100
AcDbEntity
  8
0
100
AcDbLine
 10
108.923235
 20
218.88736
 30
0.0
 11
108.923235
 21
220.88736
 31
0.0
  0
LINE
  5
BAF
330
1D
100
AcDbEntity
  8
0
100
AcDbLine
 10
118.639235
 20
218.88736
 30
0.0
 11
122.923235
 21
218.88736
 31
0.0
  0
LINE
  5
BB0
330
1D
100
AcDbEntity
  8
0
100
AcDbLine
 10
122.923235
 20
218.88736
 30
0.0
 11
127.207235
 21
218.88736
 31
0.0
  0
LINE
  5
BB1
330
1D
100
AcDbEntity
  8
0
100
AcDbLine
 10
127.207235
 20
218.88736
 30
0.0
 11
131.151235
 21
218.88736
 31
0.0
  0
LINE
  5
BB2
330
1D
100
AcDbEntity
  8
0
100
AcDbLine
 10
134.619235
 20
218.88736
 30
0.0
 11
137.271235
 21
218.88736
 31
0.0
  0
LINE
  5
BB3
330
1D
100
AcDbEntity
  8
0
100
AcDbLine
 10
131.151235
 20
218.88736
 30
0.0
 11
134.619235
 21
218.88736
 31
0.0
  0
LINE
  5
BB4
330
1D
100
AcDbEntity
  8
0
100
AcDbLine
 10
137.271235
 20
218.88736
 30
0.0
 11
138.903235
 21
218.88736
 31
0.0
  0
LINE
  5
BB5
330
1D
100
AcDbEntity
  8
0
100
AcDbLine
 10
136.923235
 20
218.88736
 30
0.0
 11
136.923235
 21
220.88736
 31
0.0
  0
LINE
  5
BB6
330
1D
100
AcDbEntity
  8
0
100
AcDbLine
 10
136.923235
 20
220.88736
 30
0.0
 11
136.923235
 21
218.88736
 31
0.0
  0
LINE
  5
BB7
330
1D
100
AcDbEntity
  8
0
100
AcDbLine
 10
138.903235
 20
218.88736
 30
0.0
 11
139.515235
 21
218.88736
 31
0.0
  0
LINE
  5
BB8
330
1D
100
AcDbEntity
  8
0
100
AcDbLine
 10
139.923235
 20
205.88736
 30
0.0
 11
139.923235
 21
218.28736
 31
0.0
  0
LINE
  5
BB9
330
1D
100
AcDbEntity
  8
0
100
AcDbLine
 10
139.923235
 20
205.88736
 30
0.0
 11
197.923235
 21
205.88736
 31
0.0
  0
LINE
  5
BBA
330
1D
100
AcDbEntity
  8
0
100
AcDbLine
 10
139.515235
 20
218.88736
 30
0.0
 11
139.923235
 21
218.28736
 31
0.0
  0
LINE
  5
BBB
330
1D
100
AcDbEntity
  8
0
100
AcDbLine
 10
139.923235
 20
218.28736
 30
0.0
 11
139.923235
 21
205.88736
 31
0.0
  0
LINE
  5
BBC
330
1D
100
AcDbEntity
  8
0
100
AcDbLine
 10
114.223235
 20
260.88736
 30
0.0
 11
122.923235
 21
260.88736
 31
0.0
  0
LINE
  5
BBD
330
1D
100
AcDbEntity
  8
0
100
AcDbLine
 10
146.923235
 20
260.88736
 30
0.0
 11
152.323235
 21
260.88736
 31
0.0
  0
LINE
  5
BBE
330
1D
100
AcDbEntity
  8
0
100
AcDbLine
 10
152.323235
 20
260.88736
 30
0.0
 11
155.723235
 21
260.88736
 31
0.0
  0
LINE
  5
BBF
330
1D
100
AcDbEntity
  8
0
100
AcDbLine
 10
155.723235
 20
260.88736
 30
0.0
 11
156.923235
 21
260.88736
 31
0.0
  0
LINE
  5
BC0
330
1D
100
AcDbEntity
  8
0
100
AcDbLine
 10
139.823235
 20
260.88736
 30
0.0
 11
146.923235
 21
260.88736
 31
0.0
  0
LINE
  5
BC1
330
1D
100
AcDbEntity
  8
0
100
AcDbLine
 10
131.623235
 20
260.88736
 30
0.0
 11
139.823235
 21
260.88736
 31
0.0
  0
LINE
  5
BC2
330
1D
100
AcDbEntity
  8
0
100
AcDbLine
 10
122.923235
 20
260.88736
 30
0.0
 11
131.623235
 21
260.88736
 31
0.0
  0
LINE
  5
BC3
330
1D
100
AcDbEntity
  8
0
100
AcDbLine
 10
106.923235
 20
222.88736
 30
0.0
 11
106.923235
 21
232.88736
 31
0.0
  0
LINE
  5
BC4
330
1D
100
AcDbEntity
  8
0
100
AcDbLine
 10
106.923235
 20
222.88736
 30
0.0
 11
106.923235
 21
221.88736
 31
0.0
  0
LINE
  5
BC5
330
1D
100
AcDbEntity
  8
0
100
AcDbLine
 10
106.923235
 20
232.88736
 30
0.0
 11
106.923235
 21
233.88736
 31
0.0
  0
LINE
  5
BC6
330
1D
100
AcDbEntity
  8
0
100
AcDbLine
 10
106.923235
 20
232.88736
 30
0.0
 11
106.923235
 21
222.88736
 31
0.0
  0
LINE
  5
BC7
330
1D
100
AcDbEntity
  8
0
100
AcDbLine
 10
106.923235
 20
232.88736
 30
0.0
 11
108.294535
 21
233.88736
 31
0.0
  0
LINE
  5
BC8
330
1D
100
AcDbEntity
  8
0
100
AcDbLine
 10
106.923235
 20
221.88736
 30
0.0
 11
106.923235
 21
222.88736
 31
0.0
  0
LINE
  5
BC9
330
1D
100
AcDbEntity
  8
0
100
AcDbLine
 10
106.923235
 20
221.88736
 30
0.0
 11
106.923235
 21
221.12736
 31
0.0
  0
LINE
  5
BCA
330
1D
100
AcDbEntity
  8
0
100
AcDbLine
 10
106.923235
 20
221.88736
 30
0.0
 11
107.260035
 21
221.88736
 31
0.0
  0
LINE
  5
BCB
330
1D
100
AcDbEntity
  8
0
100
AcDbLine
 10
106.923235
 20
233.88736
 30
0.0
 11
106.923235
 21
234.64736
 31
0.0
  0
LINE
  5
BCC
330
1D
100
AcDbEntity
  8
0
100
AcDbLine
 10
106.923235
 20
233.88736
 30
0.0
 11
106.923235
 21
232.88736
 31
0.0
  0
LINE
  5
BCD
330
1D
100
AcDbEntity
  8
0
100
AcDbLine
 10
106.923235
 20
221.12736
 30
0.0
 11
106.923235
 21
221.88736
 31
0.0
  0
LINE
  5
BCE
330
1D
100
AcDbEntity
  8
0
100
AcDbLine
 10
106.923235
 20
221.12736
 30
0.0
 11
106.923235
 21
220.98736
 31
0.0
  0
LINE
  5
BCF
330
1D
100
AcDbEntity
  8
0
100
AcDbLine
 10
99.923235
 20
234.88736
 30
0.0
 11
106.723235
 21
234.88736
 31
0.0
  0
LINE
  5
BD0
330
1D
100
AcDbEntity
  8
0
100
AcDbLine
 10
106.723235
 20
234.88736
 30
0.0
 11
107.344335
 21
234.88736
 31
0.0
  0
LINE
  5
BD1
330
1D
100
AcDbEntity
  8
0
100
AcDbLine
 10
97.647004523196
 20
234.88736
 30
0.0
 11
99.923235
 21
234.88736
 31
0.0
  0
LINE
  5
BD4
330
1D
100
AcDbEntity
  8
0
100
AcDbLine
 10
97.554510966495
 20
235.38736
 30
0.0
 11
99.223235
 21
235.38736
 31
0.0
  0
LINE
  5
BD5
330
1D
100
AcDbEntity
  8
0
100
AcDbLine
 10
93.523235
 20
260.88736
 30
0.0
 11
98.923235
 21
260.88736
 31
0.0
  0
LINE
  5
BD6
330
1D
100
AcDbEntity
  8
0
100
AcDbLine
 10
90.123235
 20
260.88736
 30
0.0
 11
93.523235
 21
260.88736
 31
0.0
  0
LINE
  5
BD7
330
1D
100
AcDbEntity
  8
0
100
AcDbLine
 10
99.223235
 20
235.38736
 30
0.0
 11
106.223235
 21
235.38736
 31
0.0
  0
LINE
  5
BD8
330
1D
100
AcDbEntity
  8
0
100
AcDbLine
 10
106.223235
 20
235.38736
 30
0.0
 11
114.323235
 21
235.38736
 31
0.0
  0
LINE
  5
BD9
330
1D
100
AcDbEntity
  8
0
100
AcDbLine
 10
98.923235
 20
260.88736
 30
0.0
 11
106.023235
 21
260.88736
 31
0.0
  0
LINE
  5
BDA
330
1D
100
AcDbEntity
  8
0
100
AcDbLine
 10
106.023235
 20
260.88736
 30
0.0
 11
114.223235
 21
260.88736
 31
0.0
  0
LINE
  5
BDF
330
1D
100
AcDbEntity
  8
0
100
AcDbLine
 10
88.923235
 20
241.267894226096
 30
0.0
 11
88.923235
 21
260.88736
 31
0.0
  0
LINE
  5
BE0
330
1D
100
AcDbEntity
  8
0
100
AcDbLine
 10
88.923235
 20
260.88736
 30
0.0
 11
88.923235
 21
241.267894226096
 31
0.0
  0
LINE
  5
BE1
330
1D
100
AcDbEntity
  8
0
100
AcDbLine
 10
88.923235
 20
260.88736
 30
0.0
 11
90.123235
 21
260.88736
 31
0.0
  0
LINE
  5
BE2
330
1D
100
AcDbEntity
  8
0
100
AcDbLine
 10
106.923235
 20
234.78736
 30
0.0
 11
106.923235
 21
234.64736
 31
0.0
  0
LINE
  5
BE3
330
1D
100
AcDbEntity
  8
0
100
AcDbLine
 10
106.923235
 20
234.78736
 30
0.0
 11
107.344335
 21
234.88736
 31
0.0
  0
LINE
  5
BE4
330
1D
100
AcDbEntity
  8
0
100
AcDbLine
 10
106.923235
 20
234.64736
 30
0.0
 11
106.923235
 21
234.78736
 31
0.0
  0
LINE
  5
BE5
330
1D
100
AcDbEntity
  8
0
100
AcDbLine
 10
106.923235
 20
234.64736
 30
0.0
 11
106.923235
 21
233.88736
 31
0.0
  0
LINE
  5
BE6
330
1D
100
AcDbEntity
  8
0
100
AcDbLine
 10
107.344335
 20
220.88736
 30
0.0
 11
107.933735
 21
220.88736
 31
0.0
  0
LINE
  5
BE7
330
1D
100
AcDbEntity
  8
0
100
AcDbLine
 10
107.933735
 20
220.88736
 30
0.0
 11
108.923235
 21
220.88736
 31
0.0
  0
LINE
  5
BE8
330
1D
100
AcDbEntity
  8
0
100
AcDbLine
 10
107.260035
 20
221.88736
 30
0.0
 11
108.294535
 21
221.88736
 31
0.0
  0
LINE
  5
BE9
330
1D
100
AcDbEntity
  8
0
100
AcDbLine
 10
108.923235
 20
220.88736
 30
0.0
 11
108.923235
 21
218.88736
 31
0.0
  0
LINE
  5
BEA
330
1D
100
AcDbEntity
  8
0
100
AcDbLine
 10
108.923235
 20
218.88736
 30
0.0
 11
108.923235
 21
220.88736
 31
0.0
  0
LINE
  5
BEB
330
1D
100
AcDbEntity
  8
0
100
AcDbLine
 10
110.965335
 20
221.25136
 30
0.0
 11
114.778735
 21
221.08936
 31
0.0
  0
LINE
  5
BEC
330
1D
100
AcDbEntity
  8
0
100
AcDbLine
 10
108.294535
 20
221.88736
 30
0.0
 11
110.965335
 21
221.25136
 31
0.0
  0
LINE
  5
BED
330
1D
100
AcDbEntity
  8
0
100
AcDbLine
 10
110.965335
 20
234.52336
 30
0.0
 11
114.778735
 21
234.68536
 31
0.0
  0
LINE
  5
BEE
330
1D
100
AcDbEntity
  8
0
100
AcDbLine
 10
108.294535
 20
233.88736
 30
0.0
 11
110.965335
 21
234.52336
 31
0.0
  0
LINE
  5
BEF
330
1D
100
AcDbEntity
  8
0
100
AcDbLine
 10
114.778735
 20
221.08936
 30
0.0
 11
118.571335
 21
221.30636
 31
0.0
  0
LINE
  5
BF0
330
1D
100
AcDbEntity
  8
0
100
AcDbLine
 10
107.933735
 20
234.88736
 30
0.0
 11
109.449535
 21
234.88736
 31
0.0
  0
LINE
  5
BF1
330
1D
100
AcDbEntity
  8
0
100
AcDbLine
 10
109.449535
 20
234.88736
 30
0.0
 11
111.891635
 21
234.88736
 31
0.0
  0
LINE
  5
BF2
330
1D
100
AcDbEntity
  8
0
100
AcDbLine
 10
111.891635
 20
234.88736
 30
0.0
 11
115.175835
 21
234.88736
 31
0.0
  0
LINE
  5
BF3
330
1D
100
AcDbEntity
  8
0
100
AcDbLine
 10
114.778735
 20
234.68536
 30
0.0
 11
118.571335
 21
234.46836
 31
0.0
  0
LINE
  5
BF4
330
1D
100
AcDbEntity
  8
0
100
AcDbLine
 10
122.923235
 20
221.88736
 30
0.0
 11
124.901235
 21
221.88736
 31
0.0
  0
LINE
  5
BF5
330
1D
100
AcDbEntity
  8
0
100
AcDbLine
 10
136.923235
 20
218.88736
 30
0.0
 11
136.923235
 21
220.88736
 31
0.0
  0
LINE
  5
BF6
330
1D
100
AcDbEntity
  8
0
100
AcDbLine
 10
136.923235
 20
220.88736
 30
0.0
 11
137.913235
 21
220.88736
 31
0.0
  0
LINE
  5
BF7
330
1D
100
AcDbEntity
  8
0
100
AcDbLine
 10
136.923235
 20
220.88736
 30
0.0
 11
136.923235
 21
218.88736
 31
0.0
  0
LINE
  5
BF8
330
1D
100
AcDbEntity
  8
0
100
AcDbLine
 10
138.923235
 20
220.98736
 30
0.0
 11
138.923235
 21
221.12736
 31
0.0
  0
LINE
  5
BF9
330
1D
100
AcDbEntity
  8
0
100
AcDbLine
 10
138.502235
 20
220.88736
 30
0.0
 11
138.923235
 21
220.98736
 31
0.0
  0
LINE
  5
BFA
330
1D
100
AcDbEntity
  8
0
100
AcDbLine
 10
137.913235
 20
220.88736
 30
0.0
 11
138.502235
 21
220.88736
 31
0.0
  0
LINE
  5
BFB
330
1D
100
AcDbEntity
  8
0
100
AcDbLine
 10
138.923235
 20
221.12736
 30
0.0
 11
138.923235
 21
220.98736
 31
0.0
  0
LINE
  5
BFC
330
1D
100
AcDbEntity
  8
0
100
AcDbLine
 10
138.923235
 20
221.12736
 30
0.0
 11
138.923235
 21
221.88736
 31
0.0
  0
LINE
  5
BFD
330
1D
100
AcDbEntity
  8
0
100
AcDbLine
 10
131.068235
 20
221.08936
 30
0.0
 11
134.881235
 21
221.25136
 31
0.0
  0
LINE
  5
BFE
330
1D
100
AcDbEntity
  8
0
100
AcDbLine
 10
124.901235
 20
221.88736
 30
0.0
 11
127.275235
 21
221.30636
 31
0.0
  0
LINE
  5
BFF
330
1D
100
AcDbEntity
  8
0
100
AcDbLine
 10
137.552235
 20
221.88736
 30
0.0
 11
138.586235
 21
221.88736
 31
0.0
  0
LINE
  5
C00
330
1D
100
AcDbEntity
  8
0
100
AcDbLine
 10
138.586235
 20
221.88736
 30
0.0
 11
138.923235
 21
221.88736
 31
0.0
  0
LINE
  5
C01
330
1D
100
AcDbEntity
  8
0
100
AcDbLine
 10
138.923235
 20
221.88736
 30
0.0
 11
138.923235
 21
221.12736
 31
0.0
  0
LINE
  5
C02
330
1D
100
AcDbEntity
  8
0
100
AcDbLine
 10
138.923235
 20
221.88736
 30
0.0
 11
138.923235
 21
222.88736
 31
0.0
  0
LINE
  5
C03
330
1D
100
AcDbEntity
  8
0
100
AcDbLine
 10
127.275235
 20
221.30636
 30
0.0
 11
131.068235
 21
221.08936
 31
0.0
  0
LINE
  5
C04
330
1D
100
AcDbEntity
  8
0
100
AcDbLine
 10
134.881235
 20
221.25136
 30
0.0
 11
137.552235
 21
221.88736
 31
0.0
  0
LINE
  5
C05
330
1D
100
AcDbEntity
  8
0
100
AcDbLine
 10
120.945735
 20
233.88736
 30
0.0
 11
122.923235
 21
233.88736
 31
0.0
  0
LINE
  5
C06
330
1D
100
AcDbEntity
  8
0
100
AcDbLine
 10
138.923235
 20
233.88736
 30
0.0
 11
138.923235
 21
232.88736
 31
0.0
  0
LINE
  5
C07
330
1D
100
AcDbEntity
  8
0
100
AcDbLine
 10
138.923235
 20
233.88736
 30
0.0
 11
138.923235
 21
234.64736
 31
0.0
  0
LINE
  5
C08
330
1D
100
AcDbEntity
  8
0
100
AcDbLine
 10
138.923235
 20
232.88736
 30
0.0
 11
138.923235
 21
222.88736
 31
0.0
  0
LINE
  5
C09
330
1D
100
AcDbEntity
  8
0
100
AcDbLine
 10
138.923235
 20
232.88736
 30
0.0
 11
138.923235
 21
233.88736
 31
0.0
  0
LINE
  5
C0A
330
1D
100
AcDbEntity
  8
0
100
AcDbLine
 10
138.923235
 20
222.88736
 30
0.0
 11
138.923235
 21
221.88736
 31
0.0
  0
LINE
  5
C0B
330
1D
100
AcDbEntity
  8
0
100
AcDbLine
 10
138.923235
 20
222.88736
 30
0.0
 11
138.923235
 21
232.88736
 31
0.0
  0
LINE
  5
C0C
330
1D
100
AcDbEntity
  8
0
100
AcDbLine
 10
124.901235
 20
233.88736
 30
0.0
 11
127.275235
 21
234.46836
 31
0.0
  0
LINE
  5
C0D
330
1D
100
AcDbEntity
  8
0
100
AcDbLine
 10
127.275235
 20
234.46836
 30
0.0
 11
131.068235
 21
234.68536
 31
0.0
  0
LINE
  5
C0E
330
1D
100
AcDbEntity
  8
0
100
AcDbLine
 10
137.552235
 20
233.88736
 30
0.0
 11
138.923235
 21
232.88736
 31
0.0
  0
LINE
  5
C0F
330
1D
100
AcDbEntity
  8
0
100
AcDbLine
 10
122.923235
 20
233.88736
 30
0.0
 11
124.901235
 21
233.88736
 31
0.0
  0
LINE
  5
C10
330
1D
100
AcDbEntity
  8
0
100
AcDbLine
 10
120.945735
 20
221.88736
 30
0.0
 11
122.923235
 21
221.88736
 31
0.0
  0
LINE
  5
C11
330
1D
100
AcDbEntity
  8
0
100
AcDbLine
 10
118.571335
 20
221.30636
 30
0.0
 11
120.945735
 21
221.88736
 31
0.0
  0
LINE
  5
C12
330
1D
100
AcDbEntity
  8
0
100
AcDbLine
 10
134.881235
 20
234.52336
 30
0.0
 11
137.552235
 21
233.88736
 31
0.0
  0
LINE
  5
C13
330
1D
100
AcDbEntity
  8
0
100
AcDbLine
 10
138.923235
 20
234.64736
 30
0.0
 11
138.923235
 21
233.88736
 31
0.0
  0
LINE
  5
C14
330
1D
100
AcDbEntity
  8
0
100
AcDbLine
 10
130.670235
 20
234.88736
 30
0.0
 11
133.955235
 21
234.88736
 31
0.0
  0
LINE
  5
C15
330
1D
100
AcDbEntity
  8
0
100
AcDbLine
 10
145.923235
 20
234.88736
 30
0.0
 11
151.023235
 21
234.88736
 31
0.0
  0
LINE
  5
C16
330
1D
100
AcDbEntity
  8
0
100
AcDbLine
 10
151.023235
 20
234.88736
 30
0.0
 11
154.223235
 21
234.88736
 31
0.0
  0
LINE
  5
C17
330
1D
100
AcDbEntity
  8
0
100
AcDbLine
 10
154.223235
 20
234.88736
 30
0.0
 11
155.423235
 21
234.88736
 31
0.0
  0
LINE
  5
C18
330
1D
100
AcDbEntity
  8
0
100
AcDbLine
 10
155.423235
 20
234.88736
 30
0.0
 11
156.423235
 21
235.38736
 31
0.0
  0
LINE
  5
C19
330
1D
100
AcDbEntity
  8
0
100
AcDbLine
 10
139.123235
 20
234.88736
 30
0.0
 11
145.923235
 21
234.88736
 31
0.0
  0
LINE
  5
C1A
330
1D
100
AcDbEntity
  8
0
100
AcDbLine
 10
138.502235
 20
234.88736
 30
0.0
 11
138.923235
 21
234.78736
 31
0.0
  0
LINE
  5
C1B
330
1D
100
AcDbEntity
  8
0
100
AcDbLine
 10
138.502235
 20
234.88736
 30
0.0
 11
139.123235
 21
234.88736
 31
0.0
  0
LINE
  5
C1C
330
1D
100
AcDbEntity
  8
0
100
AcDbLine
 10
137.913235
 20
234.88736
 30
0.0
 11
138.502235
 21
234.88736
 31
0.0
  0
LINE
  5
C1D
330
1D
100
AcDbEntity
  8
0
100
AcDbLine
 10
138.923235
 20
234.78736
 30
0.0
 11
138.923235
 21
234.64736
 31
0.0
  0
LINE
  5
C1E
330
1D
100
AcDbEntity
  8
0
100
AcDbLine
 10
133.955235
 20
234.88736
 30
0.0
 11
136.397235
 21
234.88736
 31
0.0
  0
LINE
  5
C1F
330
1D
100
AcDbEntity
  8
0
100
AcDbLine
 10
136.397235
 20
234.88736
 30
0.0
 11
137.913235
 21
234.88736
 31
0.0
  0
LINE
  5
C20
330
1D
100
AcDbEntity
  8
0
100
AcDbLine
 10
126.965235
 20
234.88736
 30
0.0
 11
130.670235
 21
234.88736
 31
0.0
  0
LINE
  5
C21
330
1D
100
AcDbEntity
  8
0
100
AcDbLine
 10
131.068235
 20
234.68536
 30
0.0
 11
134.881235
 21
234.52336
 31
0.0
  0
LINE
  5
C22
330
1D
100
AcDbEntity
  8
0
100
AcDbLine
 10
122.923235
 20
234.88736
 30
0.0
 11
126.965235
 21
234.88736
 31
0.0
  0
LINE
  5
C23
330
1D
100
AcDbEntity
  8
0
100
AcDbLine
 10
118.881135
 20
234.88736
 30
0.0
 11
122.923235
 21
234.88736
 31
0.0
  0
LINE
  5
C24
330
1D
100
AcDbEntity
  8
0
100
AcDbLine
 10
118.571335
 20
234.46836
 30
0.0
 11
120.945735
 21
233.88736
 31
0.0
  0
LINE
  5
C25
330
1D
100
AcDbEntity
  8
0
100
AcDbLine
 10
115.175835
 20
234.88736
 30
0.0
 11
118.881135
 21
234.88736
 31
0.0
  0
LINE
  5
C26
330
1D
100
AcDbEntity
  8
0
100
AcDbLine
 10
114.323235
 20
235.38736
 30
0.0
 11
122.923235
 21
235.38736
 31
0.0
  0
LINE
  5
C27
330
1D
100
AcDbEntity
  8
0
100
AcDbLine
 10
146.623235
 20
235.38736
 30
0.0
 11
151.923235
 21
235.38736
 31
0.0
  0
LINE
  5
C28
330
1D
100
AcDbEntity
  8
0
100
AcDbLine
 10
151.923235
 20
235.38736
 30
0.0
 11
155.223235
 21
235.38736
 31
0.0
  0
LINE
  5
C29
330
1D
100
AcDbEntity
  8
0
100
AcDbLine
 10
155.223235
 20
235.38736
 30
0.0
 11
156.423235
 21
235.38736
 31
0.0
  0
LINE
  5
C2A
330
1D
100
AcDbEntity
  8
0
100
AcDbLine
 10
139.623235
 20
235.38736
 30
0.0
 11
146.623235
 21
235.38736
 31
0.0
  0
LINE
  5
C2B
330
1D
100
AcDbEntity
  8
0
100
AcDbLine
 10
131.523235
 20
235.38736
 30
0.0
 11
139.623235
 21
235.38736
 31
0.0
  0
LINE
  5
C2C
330
1D
100
AcDbEntity
  8
0
100
AcDbLine
 10
122.923235
 20
235.38736
 30
0.0
 11
131.523235
 21
235.38736
 31
0.0
  0
LINE
  5
C2D
330
1D
100
AcDbEntity
  8
0
100
AcDbLine
 10
114.223235
 20
260.88736
 30
0.0
 11
122.923235
 21
260.88736
 31
0.0
  0
LINE
  5
C2E
330
1D
100
AcDbEntity
  8
0
100
AcDbLine
 10
146.923235
 20
260.88736
 30
0.0
 11
152.323235
 21
260.88736
 31
0.0
  0
LINE
  5
C2F
330
1D
100
AcDbEntity
  8
0
100
AcDbLine
 10
156.923235
 20
260.88736
 30
0.0
 11
156.923235
 21
236.38736
 31
0.0
  0
LINE
  5
C30
330
1D
100
AcDbEntity
  8
0
100
AcDbLine
 10
152.323235
 20
260.88736
 30
0.0
 11
155.723235
 21
260.88736
 31
0.0
  0
LINE
  5
C31
330
1D
100
AcDbEntity
  8
0
100
AcDbLine
 10
155.723235
 20
260.88736
 30
0.0
 11
156.923235
 21
260.88736
 31
0.0
  0
LINE
  5
C32
330
1D
100
AcDbEntity
  8
0
100
AcDbLine
 10
139.823235
 20
260.88736
 30
0.0
 11
146.923235
 21
260.88736
 31
0.0
  0
LINE
  5
C33
330
1D
100
AcDbEntity
  8
0
100
AcDbLine
 10
131.623235
 20
260.88736
 30
0.0
 11
139.823235
 21
260.88736
 31
0.0
  0
LINE
  5
C34
330
1D
100
AcDbEntity
  8
0
100
AcDbLine
 10
122.923235
 20
260.88736
 30
0.0
 11
131.623235
 21
260.88736
 31
0.0
  0
LINE
  5
C35
330
1D
100
AcDbEntity
  8
0
100
AcDbLine
 10
156.423235
 20
235.38736
 30
0.0
 11
156.923235
 21
236.38736
 31
0.0
  0
LINE
  5
C36
330
1D
100
AcDbEntity
  8
0
100
AcDbLine
 10
156.923235
 20
236.38736
 30
0.0
 11
156.923235
 21
260.88736
 31
0.0
  0
LINE
  5
C37
330
1D
100
AcDbEntity
  8
0
100
AcDbLine
 10
107.344335
 20
234.88736
 30
0.0
 11
107.933735
 21
234.88736
 31
0.0
  0
LINE
  5
C38
330
1D
100
AcDbEntity
  8
0
100
AcDbLine
 10
106.923235
 20
220.98736
 30
0.0
 11
106.923235
 21
221.12736
 31
0.0
  0
LINE
  5
C39
330
1D
100
AcDbEntity
  8
0
100
AcDbLine
 10
106.923235
 20
220.98736
 30
0.0
 11
107.344335
 21
220.88736
 31
0.0
  0
LINE
  5
C3A
330
1D
100
AcDbEntity
  8
0
100
AcDbLine
 10
108.923235
 20
220.88736
 30
0.0
 11
136.923235
 21
220.88736
 31
0.0
  0
LINE
  5
C3C
330
1D
100
AcDbEntity
  8
0
100
AcDbLine
 10
348.399175
 20
165.97366
 30
0.0
 11
326.923235
 21
165.97366
 31
0.0
  0
LINE
  5
C3D
330
1D
100
AcDbEntity
  8
0
100
AcDbLine
 10
305.447335
 20
165.97366
 30
0.0
 11
304.431235
 21
166.36636
 31
0.0
  0
LINE
  5
C3E
330
1D
100
AcDbEntity
  8
0
100
AcDbLine
 10
326.923235
 20
165.97366
 30
0.0
 11
305.447335
 21
165.97366
 31
0.0
  0
LINE
  5
C3F
330
1D
100
AcDbEntity
  8
0
100
AcDbLine
 10
348.399175
 20
165.97366
 30
0.0
 11
326.923235
 21
165.97366
 31
0.0
  0
LINE
  5
C40
330
1D
100
AcDbEntity
  8
0
100
AcDbLine
 10
349.923235
 20
167.94956
 30
0.0
 11
349.923235
 21
167.36026
 31
0.0
  0
LINE
  5
C41
330
1D
100
AcDbEntity
  8
0
100
AcDbLine
 10
349.923235
 20
167.94956
 30
0.0
 11
349.923235
 21
169.79066
 31
0.0
  0
LINE
  5
C42
330
1D
100
AcDbEntity
  8
0
100
AcDbLine
 10
349.923235
 20
167.36026
 30
0.0
 11
349.415214
 21
166.36636
 31
0.0
  0
LINE
  5
C43
330
1D
100
AcDbEntity
  8
0
100
AcDbLine
 10
349.923235
 20
167.36026
 30
0.0
 11
349.923235
 21
167.94956
 31
0.0
  0
LINE
  5
C44
330
1D
100
AcDbEntity
  8
0
100
AcDbLine
 10
349.415214
 20
168.97426
 30
0.0
 11
349.415214
 21
166.99836
 31
0.0
  0
LINE
  5
C45
330
1D
100
AcDbEntity
  8
0
100
AcDbLine
 10
349.415214
 20
168.97426
 30
0.0
 11
349.415214
 21
172.11646
 31
0.0
  0
LINE
  5
C46
330
1D
100
AcDbEntity
  8
0
100
AcDbLine
 10
349.415214
 20
166.99836
 30
0.0
 11
349.415214
 21
166.36636
 31
0.0
  0
LINE
  5
C47
330
1D
100
AcDbEntity
  8
0
100
AcDbLine
 10
349.415214
 20
166.99836
 30
0.0
 11
349.415214
 21
168.97426
 31
0.0
  0
LINE
  5
C48
330
1D
100
AcDbEntity
  8
0
100
AcDbLine
 10
304.431235
 20
168.97426
 30
0.0
 11
304.431235
 21
166.99836
 31
0.0
  0
LINE
  5
C49
330
1D
100
AcDbEntity
  8
0
100
AcDbLine
 10
304.431235
 20
168.97426
 30
0.0
 11
304.431235
 21
172.11646
 31
0.0
  0
LINE
  5
C4A
330
1D
100
AcDbEntity
  8
0
100
AcDbLine
 10
304.16494261646
 20
166.88736
 30
0.0
 11
292.694624332213
 21
166.88736
 31
0.0
  0
LINE
  5
C4B
330
1D
100
AcDbEntity
  8
0
100
AcDbLine
 10
304.16494261646
 20
166.88736
 30
0.0
 11
292.694624332213
 21
166.88736
 31
0.0
  0
LINE
  5
C4C
330
1D
100
AcDbEntity
  8
0
100
AcDbLine
 10
304.431235
 20
166.99836
 30
0.0
 11
304.431235
 21
168.97426
 31
0.0
  0
LINE
  5
C4D
330
1D
100
AcDbEntity
  8
0
100
AcDbLine
 10
304.431235
 20
166.99836
 30
0.0
 11
304.431235
 21
166.36636
 31
0.0
  0
LINE
  5
C4E
330
1D
100
AcDbEntity
  8
0
100
AcDbLine
 10
304.431235
 20
166.36636
 30
0.0
 11
304.431235
 21
166.99836
 31
0.0
  0
LINE
  5
C4F
330
1D
100
AcDbEntity
  8
0
100
AcDbLine
 10
304.431235
 20
166.36636
 30
0.0
 11
304.16494261646
 21
166.88736
 31
0.0
  0
LINE
  5
C50
330
1D
100
AcDbEntity
  8
0
100
AcDbLine
 10
349.415214
 20
166.36636
 30
0.0
 11
348.399175
 21
165.97366
 31
0.0
  0
LINE
  5
C51
330
1D
100
AcDbEntity
  8
0
100
AcDbLine
 10
349.415214
 20
166.36636
 30
0.0
 11
349.415214
 21
166.99836
 31
0.0
  0
LINE
  5
C52
330
1D
100
AcDbEntity
  8
0
100
AcDbLine
 10
349.923235
 20
172.79826
 30
0.0
 11
349.923235
 21
169.79066
 31
0.0
  0
LINE
  5
C53
330
1D
100
AcDbEntity
  8
0
100
AcDbLine
 10
349.923235
 20
172.79826
 30
0.0
 11
349.923235
 21
176.65366
 31
0.0
  0
LINE
  5
C54
330
1D
100
AcDbEntity
  8
0
100
AcDbLine
 10
349.923235
 20
199.04336
 30
0.0
 11
349.923235
 21
195.18036
 31
0.0
  0
LINE
  5
C55
330
1D
100
AcDbEntity
  8
0
100
AcDbLine
 10
349.923235
 20
199.04336
 30
0.0
 11
349.923235
 21
201.94936
 31
0.0
  0
LINE
  5
C56
330
1D
100
AcDbEntity
  8
0
100
AcDbLine
 10
349.923235
 20
201.94936
 30
0.0
 11
349.923235
 21
199.04336
 31
0.0
  0
LINE
  5
C57
330
1D
100
AcDbEntity
  8
0
100
AcDbLine
 10
349.923235
 20
201.94936
 30
0.0
 11
349.923235
 21
203.82636
 31
0.0
  0
LINE
  5
C58
330
1D
100
AcDbEntity
  8
0
100
AcDbLine
 10
349.923235
 20
195.18036
 30
0.0
 11
349.923235
 21
190.64536
 31
0.0
  0
LINE
  5
C59
330
1D
100
AcDbEntity
  8
0
100
AcDbLine
 10
349.923235
 20
195.18036
 30
0.0
 11
349.923235
 21
199.04336
 31
0.0
  0
LINE
  5
C5A
330
1D
100
AcDbEntity
  8
0
100
AcDbLine
 10
349.923235
 20
190.64536
 30
0.0
 11
349.923235
 21
185.85336
 31
0.0
  0
LINE
  5
C5B
330
1D
100
AcDbEntity
  8
0
100
AcDbLine
 10
349.923235
 20
190.64536
 30
0.0
 11
349.923235
 21
195.18036
 31
0.0
  0
LINE
  5
C5C
330
1D
100
AcDbEntity
  8
0
100
AcDbLine
 10
349.923235
 20
185.85336
 30
0.0
 11
349.923235
 21
181.08036
 31
0.0
  0
LINE
  5
C5D
330
1D
100
AcDbEntity
  8
0
100
AcDbLine
 10
349.923235
 20
185.85336
 30
0.0
 11
349.923235
 21
190.64536
 31
0.0
  0
LINE
  5
C5E
330
1D
100
AcDbEntity
  8
0
100
AcDbLine
 10
349.923235
 20
176.65366
 30
0.0
 11
349.923235
 21
172.79826
 31
0.0
  0
LINE
  5
C5F
330
1D
100
AcDbEntity
  8
0
100
AcDbLine
 10
349.923235
 20
176.65366
 30
0.0
 11
349.923235
 21
181.08036
 31
0.0
  0
LINE
  5
C60
330
1D
100
AcDbEntity
  8
0
100
AcDbLine
 10
349.923235
 20
181.08036
 30
0.0
 11
349.923235
 21
176.65366
 31
0.0
  0
LINE
  5
C61
330
1D
100
AcDbEntity
  8
0
100
AcDbLine
 10
349.923235
 20
181.08036
 30
0.0
 11
349.923235
 21
185.85336
 31
0.0
  0
LINE
  5
C62
330
1D
100
AcDbEntity
  8
0
100
AcDbLine
 10
349.923235
 20
169.79066
 30
0.0
 11
349.923235
 21
167.94956
 31
0.0
  0
LINE
  5
C63
330
1D
100
AcDbEntity
  8
0
100
AcDbLine
 10
349.923235
 20
169.79066
 30
0.0
 11
349.923235
 21
172.79826
 31
0.0
  0
LINE
  5
C64
330
1D
100
AcDbEntity
  8
0
100
AcDbLine
 10
349.415214
 20
172.11646
 30
0.0
 11
349.415214
 21
168.97426
 31
0.0
  0
LINE
  5
C65
330
1D
100
AcDbEntity
  8
0
100
AcDbLine
 10
349.415214
 20
172.11646
 30
0.0
 11
349.415214
 21
175.953234382555
 31
0.0
  0
LINE
  5
C66
330
1D
100
AcDbEntity
  8
0
100
AcDbLine
 10
349.823235
 20
176.20846
 30
0.0
 11
349.823235
 21
176.12016
 31
0.0
  0
LINE
  5
C67
330
1D
100
AcDbEntity
  8
0
100
AcDbLine
 10
349.823235
 20
176.20846
 30
0.0
 11
349.823235
 21
178.53736
 31
0.0
  0
LINE
  5
C68
330
1D
100
AcDbEntity
  8
0
100
AcDbLine
 10
349.823235
 20
176.93586
 30
0.0
 11
349.823235
 21
176.48476
 31
0.0
  0
LINE
  5
C69
330
1D
100
AcDbEntity
  8
0
100
AcDbLine
 10
349.823235
 20
176.93586
 30
0.0
 11
349.823235
 21
177.51416
 31
0.0
  0
LINE
  5
C6A
330
1D
100
AcDbEntity
  8
0
100
AcDbLine
 10
349.823235
 20
179.61336
 30
0.0
 11
349.823235
 21
178.89436
 31
0.0
  0
LINE
  5
C6B
330
1D
100
AcDbEntity
  8
0
100
AcDbLine
 10
349.823235
 20
179.61336
 30
0.0
 11
349.823235
 21
180.29336
 31
0.0
  0
LINE
  5
C6C
330
1D
100
AcDbEntity
  8
0
100
AcDbLine
 10
349.823235
 20
178.89436
 30
0.0
 11
349.823235
 21
178.17836
 31
0.0
  0
LINE
  5
C6D
330
1D
100
AcDbEntity
  8
0
100
AcDbLine
 10
349.823235
 20
178.89436
 30
0.0
 11
349.823235
 21
179.61336
 31
0.0
  0
LINE
  5
C6E
330
1D
100
AcDbEntity
  8
0
100
AcDbLine
 10
349.823235
 20
180.29336
 30
0.0
 11
349.823235
 21
180.87236
 31
0.0
  0
LINE
  5
C6F
330
1D
100
AcDbEntity
  8
0
100
AcDbLine
 10
349.823235
 20
180.29336
 30
0.0
 11
349.823235
 21
179.61336
 31
0.0
  0
LINE
  5
C70
330
1D
100
AcDbEntity
  8
0
100
AcDbLine
 10
349.823235
 20
180.87236
 30
0.0
 11
349.823235
 21
180.29336
 31
0.0
  0
LINE
  5
C71
330
1D
100
AcDbEntity
  8
0
100
AcDbLine
 10
349.823235
 20
180.87236
 30
0.0
 11
349.823235
 21
181.30836
 31
0.0
  0
LINE
  5
C72
330
1D
100
AcDbEntity
  8
0
100
AcDbLine
 10
349.823235
 20
181.30836
 30
0.0
 11
349.823235
 21
180.87236
 31
0.0
  0
LINE
  5
C73
330
1D
100
AcDbEntity
  8
0
100
AcDbLine
 10
349.823235
 20
181.30836
 30
0.0
 11
349.823235
 21
181.59036
 31
0.0
  0
LINE
  5
C74
330
1D
100
AcDbEntity
  8
0
100
AcDbLine
 10
349.823235
 20
183.91936
 30
0.0
 11
349.823235
 21
181.59036
 31
0.0
  0
LINE
  5
C75
330
1D
100
AcDbEntity
  8
0
100
AcDbLine
 10
349.823235
 20
181.59036
 30
0.0
 11
349.823235
 21
183.91936
 31
0.0
  0
LINE
  5
C76
330
1D
100
AcDbEntity
  8
0
100
AcDbLine
 10
349.823235
 20
181.59036
 30
0.0
 11
349.823235
 21
181.30836
 31
0.0
  0
LINE
  5
C77
330
1D
100
AcDbEntity
  8
0
100
AcDbLine
 10
349.823235
 20
178.53736
 30
0.0
 11
349.823235
 21
176.20846
 31
0.0
  0
LINE
  5
C78
330
1D
100
AcDbEntity
  8
0
100
AcDbLine
 10
349.823235
 20
177.51416
 30
0.0
 11
349.823235
 21
176.93586
 31
0.0
  0
LINE
  5
C79
330
1D
100
AcDbEntity
  8
0
100
AcDbLine
 10
349.823235
 20
177.51416
 30
0.0
 11
349.823235
 21
178.17836
 31
0.0
  0
LINE
  5
C7A
330
1D
100
AcDbEntity
  8
0
100
AcDbLine
 10
349.823235
 20
178.17836
 30
0.0
 11
349.823235
 21
177.51416
 31
0.0
  0
LINE
  5
C7B
330
1D
100
AcDbEntity
  8
0
100
AcDbLine
 10
349.823235
 20
178.17836
 30
0.0
 11
349.823235
 21
178.89436
 31
0.0
  0
LINE
  5
C7C
330
1D
100
AcDbEntity
  8
0
100
AcDbLine
 10
349.823235
 20
176.48476
 30
0.0
 11
349.823235
 21
176.20856
 31
0.0
  0
LINE
  5
C7D
330
1D
100
AcDbEntity
  8
0
100
AcDbLine
 10
349.823235
 20
176.48476
 30
0.0
 11
349.823235
 21
176.93586
 31
0.0
  0
LINE
  5
C7E
330
1D
100
AcDbEntity
  8
0
100
AcDbLine
 10
349.823235
 20
176.20856
 30
0.0
 11
349.823235
 21
176.12016
 31
0.0
  0
LINE
  5
C7F
330
1D
100
AcDbEntity
  8
0
100
AcDbLine
 10
349.823235
 20
176.20856
 30
0.0
 11
349.823235
 21
176.48476
 31
0.0
  0
LINE
  5
C80
330
1D
100
AcDbEntity
  8
0
100
AcDbLine
 10
349.823235
 20
176.12016
 30
0.0
 11
349.823235
 21
176.20846
 31
0.0
  0
LINE
  5
C81
330
1D
100
AcDbEntity
  8
0
100
AcDbLine
 10
349.823235
 20
176.12016
 30
0.0
 11
349.569224
 21
175.97106
 31
0.0
  0
LINE
  5
C82
330
1D
100
AcDbEntity
  8
0
100
AcDbLine
 10
349.823235
 20
176.12016
 30
0.0
 11
349.823235
 21
176.20856
 31
0.0
  0
LINE
  5
C83
330
1D
100
AcDbEntity
  8
0
100
AcDbLine
 10
349.823235
 20
176.12016
 30
0.0
 11
349.569224
 21
175.97106
 31
0.0
  0
LINE
  5
C84
330
1D
100
AcDbEntity
  8
0
100
AcDbLine
 10
349.569224
 20
175.97106
 30
0.0
 11
349.061203
 21
175.91226
 31
0.0
  0
LINE
  5
C85
330
1D
100
AcDbEntity
  8
0
100
AcDbLine
 10
349.415214
 20
184.07827781639
 30
0.0
 11
349.415214
 21
185.88236
 31
0.0
  0
LINE
  5
C86
330
1D
100
AcDbEntity
  8
0
100
AcDbLine
 10
349.415214
 20
199.74836
 30
0.0
 11
349.415214
 21
195.65236
 31
0.0
  0
LINE
  5
C87
330
1D
100
AcDbEntity
  8
0
100
AcDbLine
 10
349.415214
 20
199.74836
 30
0.0
 11
349.415214
 21
202.79536
 31
0.0
  0
LINE
  5
C88
330
1D
100
AcDbEntity
  8
0
100
AcDbLine
 10
349.415214
 20
202.79536
 30
0.0
 11
349.415214
 21
199.74836
 31
0.0
  0
LINE
  5
C89
330
1D
100
AcDbEntity
  8
0
100
AcDbLine
 10
349.415214
 20
202.79536
 30
0.0
 11
349.415214
 21
204.74636
 31
0.0
  0
LINE
  5
C8A
330
1D
100
AcDbEntity
  8
0
100
AcDbLine
 10
349.415214
 20
195.65236
 30
0.0
 11
349.415214
 21
190.88336
 31
0.0
  0
LINE
  5
C8B
330
1D
100
AcDbEntity
  8
0
100
AcDbLine
 10
349.415214
 20
195.65236
 30
0.0
 11
349.415214
 21
199.74836
 31
0.0
  0
LINE
  5
C8C
330
1D
100
AcDbEntity
  8
0
100
AcDbLine
 10
349.415214
 20
190.88336
 30
0.0
 11
349.415214
 21
185.88236
 31
0.0
  0
LINE
  5
C8D
330
1D
100
AcDbEntity
  8
0
100
AcDbLine
 10
349.415214
 20
190.88336
 30
0.0
 11
349.415214
 21
195.65236
 31
0.0
  0
LINE
  5
C8E
330
1D
100
AcDbEntity
  8
0
100
AcDbLine
 10
349.415214
 20
185.88236
 30
0.0
 11
349.415214
 21
184.07827781639
 31
0.0
  0
LINE
  5
C8F
330
1D
100
AcDbEntity
  8
0
100
AcDbLine
 10
349.415214
 20
185.88236
 30
0.0
 11
349.415214
 21
190.88336
 31
0.0
  0
LINE
  5
C90
330
1D
100
AcDbEntity
  8
0
100
AcDbLine
 10
349.415214
 20
175.953234382555
 30
0.0
 11
349.415214
 21
172.11646
 31
0.0
  0
LINE
  5
C91
330
1D
100
AcDbEntity
  8
0
100
AcDbLine
 10
349.923235
 20
203.82636
 30
0.0
 11
349.923235
 21
204.41436
 31
0.0
  0
LINE
  5
C92
330
1D
100
AcDbEntity
  8
0
100
AcDbLine
 10
349.923235
 20
203.82636
 30
0.0
 11
349.923235
 21
201.94936
 31
0.0
  0
LINE
  5
C93
330
1D
100
AcDbEntity
  8
0
100
AcDbLine
 10
349.415214
 20
204.74636
 30
0.0
 11
349.415214
 21
205.40836
 31
0.0
  0
LINE
  5
C94
330
1D
100
AcDbEntity
  8
0
100
AcDbLine
 10
349.415214
 20
204.74636
 30
0.0
 11
349.415214
 21
202.79536
 31
0.0
  0
LINE
  5
C95
330
1D
100
AcDbEntity
  8
0
100
AcDbLine
 10
349.923235
 20
204.41436
 30
0.0
 11
349.923235
 21
203.82636
 31
0.0
  0
LINE
  5
C96
330
1D
100
AcDbEntity
  8
0
100
AcDbLine
 10
349.923235
 20
204.41436
 30
0.0
 11
349.415214
 21
205.40836
 31
0.0
  0
LINE
  5
C97
330
1D
100
AcDbEntity
  8
0
100
AcDbLine
 10
349.061203
 20
175.91226
 30
0.0
 11
339.823235
 21
175.91226
 31
0.0
  0
LINE
  5
C98
330
1D
100
AcDbEntity
  8
0
100
AcDbLine
 10
349.061203
 20
175.91226
 30
0.0
 11
339.823235
 21
175.91226
 31
0.0
  0
LINE
  5
C99
330
1D
100
AcDbEntity
  8
0
100
AcDbLine
 10
349.415214
 20
205.40836
 30
0.0
 11
349.415214
 21
204.74636
 31
0.0
  0
LINE
  5
C9A
330
1D
100
AcDbEntity
  8
0
100
AcDbLine
 10
349.415214
 20
205.40836
 30
0.0
 11
348.399175
 21
205.80136
 31
0.0
  0
LINE
  5
C9B
330
1D
100
AcDbEntity
  8
0
100
AcDbLine
 10
348.399175
 20
205.80136
 30
0.0
 11
326.923235
 21
205.80136
 31
0.0
  0
LINE
  5
C9C
330
1D
100
AcDbEntity
  8
0
100
AcDbLine
 10
330.585235
 20
175.91226
 30
0.0
 11
330.077235
 21
175.97106
 31
0.0
  0
LINE
  5
C9D
330
1D
100
AcDbEntity
  8
0
100
AcDbLine
 10
329.823235
 20
176.12016
 30
0.0
 11
329.823235
 21
176.20856
 31
0.0
  0
LINE
  5
C9E
330
1D
100
AcDbEntity
  8
0
100
AcDbLine
 10
330.077235
 20
175.97106
 30
0.0
 11
329.823235
 21
176.12016
 31
0.0
  0
LINE
  5
C9F
330
1D
100
AcDbEntity
  8
0
100
AcDbLine
 10
339.823235
 20
175.91226
 30
0.0
 11
330.585235
 21
175.91226
 31
0.0
  0
LINE
  5
CA0
330
1D
100
AcDbEntity
  8
0
100
AcDbLine
 10
304.431235
 20
172.11646
 30
0.0
 11
304.431235
 21
176.13116
 31
0.0
  0
LINE
  5
CA1
330
1D
100
AcDbEntity
  8
0
100
AcDbLine
 10
304.431235
 20
172.11646
 30
0.0
 11
304.431235
 21
168.97426
 31
0.0
  0
LINE
  5
CA2
330
1D
100
AcDbEntity
  8
0
100
AcDbLine
 10
329.823235
 20
176.93586
 30
0.0
 11
329.823235
 21
177.51416
 31
0.0
  0
LINE
  5
CA3
330
1D
100
AcDbEntity
  8
0
100
AcDbLine
 10
329.823235
 20
176.93586
 30
0.0
 11
329.823235
 21
176.48476
 31
0.0
  0
LINE
  5
CA4
330
1D
100
AcDbEntity
  8
0
100
AcDbLine
 10
329.823235
 20
177.51416
 30
0.0
 11
329.823235
 21
178.17836
 31
0.0
  0
LINE
  5
CA5
330
1D
100
AcDbEntity
  8
0
100
AcDbLine
 10
329.823235
 20
177.51416
 30
0.0
 11
329.823235
 21
176.93586
 31
0.0
  0
LINE
  5
CA6
330
1D
100
AcDbEntity
  8
0
100
AcDbLine
 10
329.823235
 20
176.48476
 30
0.0
 11
329.823235
 21
176.20856
 31
0.0
  0
LINE
  5
CA7
330
1D
100
AcDbEntity
  8
0
100
AcDbLine
 10
329.823235
 20
176.48476
 30
0.0
 11
329.823235
 21
176.93586
 31
0.0
  0
LINE
  5
CA8
330
1D
100
AcDbEntity
  8
0
100
AcDbLine
 10
329.823235
 20
176.20856
 30
0.0
 11
329.823235
 21
176.48476
 31
0.0
  0
LINE
  5
CA9
330
1D
100
AcDbEntity
  8
0
100
AcDbLine
 10
329.823235
 20
176.20856
 30
0.0
 11
329.823235
 21
176.12016
 31
0.0
  0
LINE
  5
CAA
330
1D
100
AcDbEntity
  8
0
100
AcDbLine
 10
329.823235
 20
179.61336
 30
0.0
 11
329.823235
 21
180.29336
 31
0.0
  0
LINE
  5
CAB
330
1D
100
AcDbEntity
  8
0
100
AcDbLine
 10
329.823235
 20
179.61336
 30
0.0
 11
329.823235
 21
178.89436
 31
0.0
  0
LINE
  5
CAC
330
1D
100
AcDbEntity
  8
0
100
AcDbLine
 10
329.823235
 20
178.89436
 30
0.0
 11
329.823235
 21
179.61336
 31
0.0
  0
LINE
  5
CAD
330
1D
100
AcDbEntity
  8
0
100
AcDbLine
 10
329.823235
 20
178.89436
 30
0.0
 11
329.823235
 21
178.17836
 31
0.0
  0
LINE
  5
CAE
330
1D
100
AcDbEntity
  8
0
100
AcDbLine
 10
329.823235
 20
178.17836
 30
0.0
 11
329.823235
 21
178.89436
 31
0.0
  0
LINE
  5
CAF
330
1D
100
AcDbEntity
  8
0
100
AcDbLine
 10
329.823235
 20
178.17836
 30
0.0
 11
329.823235
 21
177.51416
 31
0.0
  0
LINE
  5
CB0
330
1D
100
AcDbEntity
  8
0
100
AcDbLine
 10
329.823235
 20
180.29336
 30
0.0
 11
329.823235
 21
180.87236
 31
0.0
  0
LINE
  5
CB1
330
1D
100
AcDbEntity
  8
0
100
AcDbLine
 10
329.823235
 20
180.29336
 30
0.0
 11
329.823235
 21
179.61336
 31
0.0
  0
LINE
  5
CB2
330
1D
100
AcDbEntity
  8
0
100
AcDbLine
 10
329.823235
 20
180.87236
 30
0.0
 11
329.823235
 21
181.30836
 31
0.0
  0
LINE
  5
CB3
330
1D
100
AcDbEntity
  8
0
100
AcDbLine
 10
329.823235
 20
180.87236
 30
0.0
 11
329.823235
 21
180.29336
 31
0.0
  0
LINE
  5
CB4
330
1D
100
AcDbEntity
  8
0
100
AcDbLine
 10
329.823235
 20
181.30836
 30
0.0
 11
329.823235
 21
181.59036
 31
0.0
  0
LINE
  5
CB5
330
1D
100
AcDbEntity
  8
0
100
AcDbLine
 10
329.823235
 20
181.30836
 30
0.0
 11
329.823235
 21
180.87236
 31
0.0
  0
LINE
  5
CB6
330
1D
100
AcDbEntity
  8
0
100
AcDbLine
 10
329.823235
 20
181.59036
 30
0.0
 11
329.823235
 21
183.91936
 31
0.0
  0
LINE
  5
CB7
330
1D
100
AcDbEntity
  8
0
100
AcDbLine
 10
329.823235
 20
181.59036
 30
0.0
 11
329.823235
 21
181.30836
 31
0.0
  0
LINE
  5
CB8
330
1D
100
AcDbEntity
  8
0
100
AcDbLine
 10
329.823235
 20
183.91936
 30
0.0
 11
329.823235
 21
181.59036
 31
0.0
  0
LINE
  5
CB9
330
1D
100
AcDbEntity
  8
0
100
AcDbLine
 10
304.431235
 20
199.74836
 30
0.0
 11
304.431235
 21
202.79536
 31
0.0
  0
LINE
  5
CBA
330
1D
100
AcDbEntity
  8
0
100
AcDbLine
 10
304.431235
 20
199.74836
 30
0.0
 11
304.431235
 21
195.65236
 31
0.0
  0
LINE
  5
CBB
330
1D
100
AcDbEntity
  8
0
100
AcDbLine
 10
304.431235
 20
202.79536
 30
0.0
 11
304.431235
 21
204.74636
 31
0.0
  0
LINE
  5
CBC
330
1D
100
AcDbEntity
  8
0
100
AcDbLine
 10
304.431235
 20
202.79536
 30
0.0
 11
304.431235
 21
199.74836
 31
0.0
  0
LINE
  5
CBD
330
1D
100
AcDbEntity
  8
0
100
AcDbLine
 10
304.431235
 20
195.65236
 30
0.0
 11
304.431235
 21
190.88336
 31
0.0
  0
LINE
  5
CBE
330
1D
100
AcDbEntity
  8
0
100
AcDbLine
 10
304.431235
 20
195.65236
 30
0.0
 11
304.431235
 21
199.74836
 31
0.0
  0
LINE
  5
CBF
330
1D
100
AcDbEntity
  8
0
100
AcDbLine
 10
304.431235
 20
190.88336
 30
0.0
 11
304.431235
 21
195.65236
 31
0.0
  0
LINE
  5
CC0
330
1D
100
AcDbEntity
  8
0
100
AcDbLine
 10
304.431235
 20
190.88336
 30
0.0
 11
304.431235
 21
185.88236
 31
0.0
  0
LINE
  5
CC1
330
1D
100
AcDbEntity
  8
0
100
AcDbLine
 10
304.431235
 20
185.88236
 30
0.0
 11
304.431235
 21
190.88336
 31
0.0
  0
LINE
  5
CC2
330
1D
100
AcDbEntity
  8
0
100
AcDbLine
 10
304.431235
 20
185.88236
 30
0.0
 11
304.431235
 21
180.83436
 31
0.0
  0
LINE
  5
CC3
330
1D
100
AcDbEntity
  8
0
100
AcDbLine
 10
304.431235
 20
180.83436
 30
0.0
 11
304.431235
 21
176.13116
 31
0.0
  0
LINE
  5
CC4
330
1D
100
AcDbEntity
  8
0
100
AcDbLine
 10
304.431235
 20
180.83436
 30
0.0
 11
304.431235
 21
185.88236
 31
0.0
  0
LINE
  5
CC5
330
1D
100
AcDbEntity
  8
0
100
AcDbLine
 10
304.431235
 20
176.13116
 30
0.0
 11
304.431235
 21
180.83436
 31
0.0
  0
LINE
  5
CC6
330
1D
100
AcDbEntity
  8
0
100
AcDbLine
 10
304.431235
 20
176.13116
 30
0.0
 11
304.431235
 21
172.11646
 31
0.0
  0
LINE
  5
CC7
330
1D
100
AcDbEntity
  8
0
100
AcDbLine
 10
304.431235
 20
205.40836
 30
0.0
 11
304.431235
 21
204.74636
 31
0.0
  0
LINE
  5
CC8
330
1D
100
AcDbEntity
  8
0
100
AcDbLine
 10
304.431235
 20
205.40836
 30
0.0
 11
304.164969406439
 21
204.88736
 31
0.0
  0
LINE
  5
CC9
330
1D
100
AcDbEntity
  8
0
100
AcDbLine
 10
305.447335
 20
205.80136
 30
0.0
 11
304.431235
 21
205.40836
 31
0.0
  0
LINE
  5
CCA
330
1D
100
AcDbEntity
  8
0
100
AcDbLine
 10
304.164969406439
 20
204.88736
 30
0.0
 11
292.694555041973
 21
204.88736
 31
0.0
  0
LINE
  5
CCB
330
1D
100
AcDbEntity
  8
0
100
AcDbLine
 10
304.431235
 20
204.74636
 30
0.0
 11
304.431235
 21
205.40836
 31
0.0
  0
LINE
  5
CCC
330
1D
100
AcDbEntity
  8
0
100
AcDbLine
 10
304.431235
 20
204.74636
 30
0.0
 11
304.431235
 21
202.79536
 31
0.0
  0
LINE
  5
CCD
330
1D
100
AcDbEntity
  8
0
100
AcDbLine
 10
326.923235
 20
205.80136
 30
0.0
 11
305.447335
 21
205.80136
 31
0.0
  0
LINE
  5
CCE
330
1D
100
AcDbEntity
  8
0
100
AcDbLine
 10
348.399175
 20
205.80136
 30
0.0
 11
326.923235
 21
205.80136
 31
0.0
  0
LINE
  5
CCF
330
1D
100
AcDbEntity
  8
0
100
AcDbLine
 10
292.415235
 20
176.17306
 30
0.0
 11
292.415235
 21
172.07786
 31
0.0
  0
LINE
  5
CD0
330
1D
100
AcDbEntity
  8
0
100
AcDbLine
 10
292.415235
 20
176.17306
 30
0.0
 11
292.415235
 21
180.83936
 31
0.0
  0
LINE
  5
CD1
330
1D
100
AcDbEntity
  8
0
100
AcDbLine
 10
292.415235
 20
202.83936
 30
0.0
 11
292.415235
 21
199.69736
 31
0.0
  0
LINE
  5
CD2
330
1D
100
AcDbEntity
  8
0
100
AcDbLine
 10
292.415235
 20
202.83936
 30
0.0
 11
292.415235
 21
204.74436
 31
0.0
  0
LINE
  5
CD3
330
1D
100
AcDbEntity
  8
0
100
AcDbLine
 10
292.415235
 20
204.74436
 30
0.0
 11
292.415235
 21
202.83936
 31
0.0
  0
LINE
  5
CD4
330
1D
100
AcDbEntity
  8
0
100
AcDbLine
 10
292.415235
 20
204.74436
 30
0.0
 11
292.415235
 21
205.41136
 31
0.0
  0
LINE
  5
CD5
330
1D
100
AcDbEntity
  8
0
100
AcDbLine
 10
292.415235
 20
199.69736
 30
0.0
 11
292.415235
 21
195.60136
 31
0.0
  0
LINE
  5
CD6
330
1D
100
AcDbEntity
  8
0
100
AcDbLine
 10
292.415235
 20
199.69736
 30
0.0
 11
292.415235
 21
202.83936
 31
0.0
  0
LINE
  5
CD7
330
1D
100
AcDbEntity
  8
0
100
AcDbLine
 10
292.415235
 20
195.60136
 30
0.0
 11
292.415235
 21
190.93536
 31
0.0
  0
LINE
  5
CD8
330
1D
100
AcDbEntity
  8
0
100
AcDbLine
 10
292.415235
 20
195.60136
 30
0.0
 11
292.415235
 21
199.69736
 31
0.0
  0
LINE
  5
CD9
330
1D
100
AcDbEntity
  8
0
100
AcDbLine
 10
292.415235
 20
190.93536
 30
0.0
 11
292.415235
 21
185.88736
 31
0.0
  0
LINE
  5
CDA
330
1D
100
AcDbEntity
  8
0
100
AcDbLine
 10
292.415235
 20
190.93536
 30
0.0
 11
292.415235
 21
195.60136
 31
0.0
  0
LINE
  5
CDB
330
1D
100
AcDbEntity
  8
0
100
AcDbLine
 10
292.415235
 20
180.83936
 30
0.0
 11
292.415235
 21
176.17306
 31
0.0
  0
LINE
  5
CDC
330
1D
100
AcDbEntity
  8
0
100
AcDbLine
 10
292.415235
 20
180.83936
 30
0.0
 11
292.415235
 21
185.88736
 31
0.0
  0
LINE
  5
CDD
330
1D
100
AcDbEntity
  8
0
100
AcDbLine
 10
292.415235
 20
185.88736
 30
0.0
 11
292.415235
 21
180.83936
 31
0.0
  0
LINE
  5
CDE
330
1D
100
AcDbEntity
  8
0
100
AcDbLine
 10
292.415235
 20
185.88736
 30
0.0
 11
292.415235
 21
190.93536
 31
0.0
  0
LINE
  5
CDF
330
1D
100
AcDbEntity
  8
0
100
AcDbLine
 10
292.415235
 20
172.07786
 30
0.0
 11
292.415235
 21
168.93496
 31
0.0
  0
LINE
  5
CE0
330
1D
100
AcDbEntity
  8
0
100
AcDbLine
 10
292.415235
 20
172.07786
 30
0.0
 11
292.415235
 21
176.17306
 31
0.0
  0
LINE
  5
CE1
330
1D
100
AcDbEntity
  8
0
100
AcDbLine
 10
292.415235
 20
168.93496
 30
0.0
 11
292.415235
 21
167.03026
 31
0.0
  0
LINE
  5
CE2
330
1D
100
AcDbEntity
  8
0
100
AcDbLine
 10
292.415235
 20
168.93496
 30
0.0
 11
292.415235
 21
172.07786
 31
0.0
  0
LINE
  5
CE3
330
1D
100
AcDbEntity
  8
0
100
AcDbLine
 10
292.415235
 20
167.03026
 30
0.0
 11
292.415235
 21
166.36356
 31
0.0
  0
LINE
  5
CE4
330
1D
100
AcDbEntity
  8
0
100
AcDbLine
 10
292.415235
 20
167.03026
 30
0.0
 11
292.415235
 21
168.93496
 31
0.0
  0
LINE
  5
CE5
330
1D
100
AcDbEntity
  8
0
100
AcDbLine
 10
292.694555041973
 20
204.88736
 30
0.0
 11
292.415235
 21
205.41136
 31
0.0
  0
LINE
  5
CE6
330
1D
100
AcDbEntity
  8
0
100
AcDbLine
 10
291.399135
 20
205.88736
 30
0.0
 11
289.923235
 21
205.88736
 31
0.0
  0
LINE
  5
CE7
330
1D
100
AcDbEntity
  8
0
100
AcDbLine
 10
292.415235
 20
205.41136
 30
0.0
 11
291.399135
 21
205.88736
 31
0.0
  0
LINE
  5
CE8
330
1D
100
AcDbEntity
  8
0
100
AcDbLine
 10
292.415235
 20
205.41136
 30
0.0
 11
292.415235
 21
204.74436
 31
0.0
  0
LINE
  5
CE9
330
1D
100
AcDbEntity
  8
0
100
AcDbLine
 10
292.694624332213
 20
166.88736
 30
0.0
 11
292.415235
 21
166.36356
 31
0.0
  0
LINE
  5
CEA
330
1D
100
AcDbEntity
  8
0
100
AcDbLine
 10
292.415235
 20
166.36356
 30
0.0
 11
291.399135
 21
165.88736
 31
0.0
  0
LINE
  5
CEB
330
1D
100
AcDbEntity
  8
0
100
AcDbLine
 10
292.415235
 20
166.36356
 30
0.0
 11
292.415235
 21
167.03026
 31
0.0
  0
LINE
  5
CEC
330
1D
100
AcDbEntity
  8
0
100
AcDbLine
 10
291.399135
 20
165.88736
 30
0.0
 11
197.923235
 21
165.88736
 31
0.0
  0
LINE
  5
CED
330
1D
100
AcDbEntity
  8
0
100
AcDbLine
 10
291.399135
 20
205.88736
 30
0.0
 11
289.923235
 21
205.88736
 31
0.0
  0
LINE
  5
CEE
330
1D
100
AcDbEntity
  8
0
100
AcDbLine
 10
291.399135
 20
165.88736
 30
0.0
 11
197.923235
 21
165.88736
 31
0.0
  0
LINE
  5
CEF
330
1D
100
AcDbEntity
  8
0
100
AcDbLine
 10
289.515235
 20
218.88736
 30
0.0
 11
288.903235
 21
218.88736
 31
0.0
  0
LINE
  5
CF0
330
1D
100
AcDbEntity
  8
0
100
AcDbLine
 10
289.923235
 20
218.28736
 30
0.0
 11
289.515235
 21
218.88736
 31
0.0
  0
LINE
  5
CF1
330
1D
100
AcDbEntity
  8
0
100
AcDbLine
 10
289.923235
 20
218.28736
 30
0.0
 11
289.923235
 21
205.88736
 31
0.0
  0
LINE
  5
CF2
330
1D
100
AcDbEntity
  8
0
100
AcDbLine
 10
289.923235
 20
205.88736
 30
0.0
 11
289.923235
 21
218.28736
 31
0.0
  0
LINE
  5
CF3
330
1D
100
AcDbEntity
  8
0
100
AcDbLine
 10
302.323235
 20
260.88736
 30
0.0
 11
296.923235
 21
260.88736
 31
0.0
  0
LINE
  5
CF4
330
1D
100
AcDbEntity
  8
0
100
AcDbLine
 10
305.723235
 20
260.88736
 30
0.0
 11
302.323235
 21
260.88736
 31
0.0
  0
LINE
  5
CF5
330
1D
100
AcDbEntity
  8
0
100
AcDbLine
 10
296.923235
 20
260.88736
 30
0.0
 11
289.823235
 21
260.88736
 31
0.0
  0
LINE
  5
CF6
330
1D
100
AcDbEntity
  8
0
100
AcDbLine
 10
289.823235
 20
260.88736
 30
0.0
 11
281.623235
 21
260.88736
 31
0.0
  0
LINE
  5
CF7
330
1D
100
AcDbEntity
  8
0
100
AcDbLine
 10
306.923235
 20
260.88736
 30
0.0
 11
305.723235
 21
260.88736
 31
0.0
  0
LINE
  5
CF8
330
1D
100
AcDbEntity
  8
0
100
AcDbLine
 10
288.903235
 20
218.88736
 30
0.0
 11
287.271235
 21
218.88736
 31
0.0
  0
LINE
  5
CF9
330
1D
100
AcDbEntity
  8
0
100
AcDbLine
 10
287.912735
 20
220.88736
 30
0.0
 11
286.923235
 21
220.88736
 31
0.0
  0
LINE
  5
CFA
330
1D
100
AcDbEntity
  8
0
100
AcDbLine
 10
287.271235
 20
218.88736
 30
0.0
 11
284.619235
 21
218.88736
 31
0.0
  0
LINE
  5
CFB
330
1D
100
AcDbEntity
  8
0
100
AcDbLine
 10
284.619235
 20
218.88736
 30
0.0
 11
281.151235
 21
218.88736
 31
0.0
  0
LINE
  5
CFC
330
1D
100
AcDbEntity
  8
0
100
AcDbLine
 10
281.151235
 20
218.88736
 30
0.0
 11
277.207235
 21
218.88736
 31
0.0
  0
LINE
  5
CFD
330
1D
100
AcDbEntity
  8
0
100
AcDbLine
 10
286.923235
 20
220.88736
 30
0.0
 11
286.923235
 21
218.88736
 31
0.0
  0
LINE
  5
CFE
330
1D
100
AcDbEntity
  8
0
100
AcDbLine
 10
286.923235
 20
218.88736
 30
0.0
 11
286.923235
 21
220.88736
 31
0.0
  0
LINE
  5
CFF
330
1D
100
AcDbEntity
  8
0
100
AcDbLine
 10
277.207235
 20
218.88736
 30
0.0
 11
272.923235
 21
218.88736
 31
0.0
  0
LINE
  5
D00
330
1D
100
AcDbEntity
  8
0
100
AcDbLine
 10
272.923235
 20
218.88736
 30
0.0
 11
268.639235
 21
218.88736
 31
0.0
  0
LINE
  5
D01
330
1D
100
AcDbEntity
  8
0
100
AcDbLine
 10
268.639235
 20
218.88736
 30
0.0
 11
264.695235
 21
218.88736
 31
0.0
  0
LINE
  5
D02
330
1D
100
AcDbEntity
  8
0
100
AcDbLine
 10
261.227235
 20
218.88736
 30
0.0
 11
258.575235
 21
218.88736
 31
0.0
  0
LINE
  5
D03
330
1D
100
AcDbEntity
  8
0
100
AcDbLine
 10
264.695235
 20
218.88736
 30
0.0
 11
261.227235
 21
218.88736
 31
0.0
  0
LINE
  5
D04
330
1D
100
AcDbEntity
  8
0
100
AcDbLine
 10
258.575235
 20
218.88736
 30
0.0
 11
256.943235
 21
218.88736
 31
0.0
  0
LINE
  5
D05
330
1D
100
AcDbEntity
  8
0
100
AcDbLine
 10
258.923235
 20
218.88736
 30
0.0
 11
258.923235
 21
220.88736
 31
0.0
  0
LINE
  5
D06
330
1D
100
AcDbEntity
  8
0
100
AcDbLine
 10
258.923235
 20
220.88736
 30
0.0
 11
258.923235
 21
218.88736
 31
0.0
  0
LINE
  5
D07
330
1D
100
AcDbEntity
  8
0
100
AcDbLine
 10
256.943235
 20
218.88736
 30
0.0
 11
256.331235
 21
218.88736
 31
0.0
  0
LINE
  5
D08
330
1D
100
AcDbEntity
  8
0
100
AcDbLine
 10
255.923235
 20
205.88736
 30
0.0
 11
255.923235
 21
218.28736
 31
0.0
  0
LINE
  5
D09
330
1D
100
AcDbEntity
  8
0
100
AcDbLine
 10
255.923235
 20
205.88736
 30
0.0
 11
197.923235
 21
205.88736
 31
0.0
  0
LINE
  5
D0A
330
1D
100
AcDbEntity
  8
0
100
AcDbLine
 10
256.331235
 20
218.88736
 30
0.0
 11
255.923235
 21
218.28736
 31
0.0
  0
LINE
  5
D0B
330
1D
100
AcDbEntity
  8
0
100
AcDbLine
 10
255.923235
 20
218.28736
 30
0.0
 11
255.923235
 21
205.88736
 31
0.0
  0
LINE
  5
D0C
330
1D
100
AcDbEntity
  8
0
100
AcDbLine
 10
281.623235
 20
260.88736
 30
0.0
 11
272.923235
 21
260.88736
 31
0.0
  0
LINE
  5
D0D
330
1D
100
AcDbEntity
  8
0
100
AcDbLine
 10
248.923235
 20
260.88736
 30
0.0
 11
243.523235
 21
260.88736
 31
0.0
  0
LINE
  5
D0E
330
1D
100
AcDbEntity
  8
0
100
AcDbLine
 10
243.523235
 20
260.88736
 30
0.0
 11
240.123235
 21
260.88736
 31
0.0
  0
LINE
  5
D0F
330
1D
100
AcDbEntity
  8
0
100
AcDbLine
 10
240.123235
 20
260.88736
 30
0.0
 11
238.923235
 21
260.88736
 31
0.0
  0
LINE
  5
D10
330
1D
100
AcDbEntity
  8
0
100
AcDbLine
 10
256.023235
 20
260.88736
 30
0.0
 11
248.923235
 21
260.88736
 31
0.0
  0
LINE
  5
D11
330
1D
100
AcDbEntity
  8
0
100
AcDbLine
 10
264.223235
 20
260.88736
 30
0.0
 11
256.023235
 21
260.88736
 31
0.0
  0
LINE
  5
D12
330
1D
100
AcDbEntity
  8
0
100
AcDbLine
 10
272.923235
 20
260.88736
 30
0.0
 11
264.223235
 21
260.88736
 31
0.0
  0
LINE
  5
D13
330
1D
100
AcDbEntity
  8
0
100
AcDbLine
 10
288.923235
 20
222.88736
 30
0.0
 11
288.923235
 21
232.88736
 31
0.0
  0
LINE
  5
D14
330
1D
100
AcDbEntity
  8
0
100
AcDbLine
 10
288.923235
 20
222.88736
 30
0.0
 11
288.923235
 21
221.88736
 31
0.0
  0
LINE
  5
D15
330
1D
100
AcDbEntity
  8
0
100
AcDbLine
 10
288.923235
 20
232.88736
 30
0.0
 11
288.923235
 21
233.88736
 31
0.0
  0
LINE
  5
D16
330
1D
100
AcDbEntity
  8
0
100
AcDbLine
 10
288.923235
 20
232.88736
 30
0.0
 11
288.923235
 21
222.88736
 31
0.0
  0
LINE
  5
D17
330
1D
100
AcDbEntity
  8
0
100
AcDbLine
 10
288.923235
 20
232.88736
 30
0.0
 11
287.551935
 21
233.88736
 31
0.0
  0
LINE
  5
D18
330
1D
100
AcDbEntity
  8
0
100
AcDbLine
 10
288.923235
 20
221.88736
 30
0.0
 11
288.923235
 21
222.88736
 31
0.0
  0
LINE
  5
D19
330
1D
100
AcDbEntity
  8
0
100
AcDbLine
 10
288.923235
 20
221.88736
 30
0.0
 11
288.923235
 21
221.12736
 31
0.0
  0
LINE
  5
D1A
330
1D
100
AcDbEntity
  8
0
100
AcDbLine
 10
288.923235
 20
221.88736
 30
0.0
 11
288.586435
 21
221.88736
 31
0.0
  0
LINE
  5
D1B
330
1D
100
AcDbEntity
  8
0
100
AcDbLine
 10
288.923235
 20
233.88736
 30
0.0
 11
288.923235
 21
234.64736
 31
0.0
  0
LINE
  5
D1C
330
1D
100
AcDbEntity
  8
0
100
AcDbLine
 10
288.923235
 20
233.88736
 30
0.0
 11
288.923235
 21
232.88736
 31
0.0
  0
LINE
  5
D1D
330
1D
100
AcDbEntity
  8
0
100
AcDbLine
 10
288.923235
 20
221.12736
 30
0.0
 11
288.923235
 21
221.88736
 31
0.0
  0
LINE
  5
D1E
330
1D
100
AcDbEntity
  8
0
100
AcDbLine
 10
288.923235
 20
221.12736
 30
0.0
 11
288.923235
 21
220.98736
 31
0.0
  0
LINE
  5
D1F
330
1D
100
AcDbEntity
  8
0
100
AcDbLine
 10
295.923235
 20
234.88736
 30
0.0
 11
289.123235
 21
234.88736
 31
0.0
  0
LINE
  5
D20
330
1D
100
AcDbEntity
  8
0
100
AcDbLine
 10
289.123235
 20
234.88736
 30
0.0
 11
288.502135
 21
234.88736
 31
0.0
  0
LINE
  5
D21
330
1D
100
AcDbEntity
  8
0
100
AcDbLine
 10
301.023235
 20
234.88736
 30
0.0
 11
295.923235
 21
234.88736
 31
0.0
  0
LINE
  5
D22
330
1D
100
AcDbEntity
  8
0
100
AcDbLine
 10
304.223235
 20
234.88736
 30
0.0
 11
301.023235
 21
234.88736
 31
0.0
  0
LINE
  5
D23
330
1D
100
AcDbEntity
  8
0
100
AcDbLine
 10
305.223235
 20
235.38736
 30
0.0
 11
301.923235
 21
235.38736
 31
0.0
  0
LINE
  5
D24
330
1D
100
AcDbEntity
  8
0
100
AcDbLine
 10
301.923235
 20
235.38736
 30
0.0
 11
296.623235
 21
235.38736
 31
0.0
  0
LINE
  5
D25
330
1D
100
AcDbEntity
  8
0
100
AcDbLine
 10
302.323235
 20
260.88736
 30
0.0
 11
296.923235
 21
260.88736
 31
0.0
  0
LINE
  5
D26
330
1D
100
AcDbEntity
  8
0
100
AcDbLine
 10
305.723235
 20
260.88736
 30
0.0
 11
302.323235
 21
260.88736
 31
0.0
  0
LINE
  5
D27
330
1D
100
AcDbEntity
  8
0
100
AcDbLine
 10
296.623235
 20
235.38736
 30
0.0
 11
289.623235
 21
235.38736
 31
0.0
  0
LINE
  5
D28
330
1D
100
AcDbEntity
  8
0
100
AcDbLine
 10
289.623235
 20
235.38736
 30
0.0
 11
281.523235
 21
235.38736
 31
0.0
  0
LINE
  5
D29
330
1D
100
AcDbEntity
  8
0
100
AcDbLine
 10
296.923235
 20
260.88736
 30
0.0
 11
289.823235
 21
260.88736
 31
0.0
  0
LINE
  5
D2A
330
1D
100
AcDbEntity
  8
0
100
AcDbLine
 10
289.823235
 20
260.88736
 30
0.0
 11
281.623235
 21
260.88736
 31
0.0
  0
LINE
  5
D2B
330
1D
100
AcDbEntity
  8
0
100
AcDbLine
 10
306.423235
 20
235.38736
 30
0.0
 11
305.423235
 21
234.88736
 31
0.0
  0
LINE
  5
D2C
330
1D
100
AcDbEntity
  8
0
100
AcDbLine
 10
306.423235
 20
235.38736
 30
0.0
 11
305.223235
 21
235.38736
 31
0.0
  0
LINE
  5
D2D
330
1D
100
AcDbEntity
  8
0
100
AcDbLine
 10
305.423235
 20
234.88736
 30
0.0
 11
304.223235
 21
234.88736
 31
0.0
  0
LINE
  5
D2E
330
1D
100
AcDbEntity
  8
0
100
AcDbLine
 10
306.923235
 20
236.38736
 30
0.0
 11
306.423235
 21
235.38736
 31
0.0
  0
LINE
  5
D2F
330
1D
100
AcDbEntity
  8
0
100
AcDbLine
 10
306.923235
 20
236.38736
 30
0.0
 11
306.923235
 21
260.88736
 31
0.0
  0
LINE
  5
D30
330
1D
100
AcDbEntity
  8
0
100
AcDbLine
 10
306.923235
 20
260.88736
 30
0.0
 11
306.923235
 21
236.38736
 31
0.0
  0
LINE
  5
D31
330
1D
100
AcDbEntity
  8
0
100
AcDbLine
 10
306.923235
 20
260.88736
 30
0.0
 11
305.723235
 21
260.88736
 31
0.0
  0
LINE
  5
D32
330
1D
100
AcDbEntity
  8
0
100
AcDbLine
 10
288.923235
 20
234.78736
 30
0.0
 11
288.923235
 21
234.64736
 31
0.0
  0
LINE
  5
D33
330
1D
100
AcDbEntity
  8
0
100
AcDbLine
 10
288.923235
 20
234.78736
 30
0.0
 11
288.502135
 21
234.88736
 31
0.0
  0
LINE
  5
D34
330
1D
100
AcDbEntity
  8
0
100
AcDbLine
 10
288.923235
 20
234.64736
 30
0.0
 11
288.923235
 21
234.78736
 31
0.0
  0
LINE
  5
D35
330
1D
100
AcDbEntity
  8
0
100
AcDbLine
 10
288.923235
 20
234.64736
 30
0.0
 11
288.923235
 21
233.88736
 31
0.0
  0
LINE
  5
D36
330
1D
100
AcDbEntity
  8
0
100
AcDbLine
 10
288.502135
 20
220.88736
 30
0.0
 11
287.912735
 21
220.88736
 31
0.0
  0
LINE
  5
D37
330
1D
100
AcDbEntity
  8
0
100
AcDbLine
 10
287.912735
 20
220.88736
 30
0.0
 11
286.923235
 21
220.88736
 31
0.0
  0
LINE
  5
D38
330
1D
100
AcDbEntity
  8
0
100
AcDbLine
 10
288.586435
 20
221.88736
 30
0.0
 11
287.551935
 21
221.88736
 31
0.0
  0
LINE
  5
D39
330
1D
100
AcDbEntity
  8
0
100
AcDbLine
 10
286.923235
 20
220.88736
 30
0.0
 11
286.923235
 21
218.88736
 31
0.0
  0
LINE
  5
D3A
330
1D
100
AcDbEntity
  8
0
100
AcDbLine
 10
286.923235
 20
218.88736
 30
0.0
 11
286.923235
 21
220.88736
 31
0.0
  0
LINE
  5
D3B
330
1D
100
AcDbEntity
  8
0
100
AcDbLine
 10
284.881135
 20
221.25136
 30
0.0
 11
281.067735
 21
221.08936
 31
0.0
  0
LINE
  5
D3C
330
1D
100
AcDbEntity
  8
0
100
AcDbLine
 10
287.551935
 20
221.88736
 30
0.0
 11
284.881135
 21
221.25136
 31
0.0
  0
LINE
  5
D3D
330
1D
100
AcDbEntity
  8
0
100
AcDbLine
 10
284.881135
 20
234.52336
 30
0.0
 11
281.067735
 21
234.68536
 31
0.0
  0
LINE
  5
D3E
330
1D
100
AcDbEntity
  8
0
100
AcDbLine
 10
287.551935
 20
233.88736
 30
0.0
 11
284.881135
 21
234.52336
 31
0.0
  0
LINE
  5
D3F
330
1D
100
AcDbEntity
  8
0
100
AcDbLine
 10
281.067735
 20
221.08936
 30
0.0
 11
277.275135
 21
221.30636
 31
0.0
  0
LINE
  5
D40
330
1D
100
AcDbEntity
  8
0
100
AcDbLine
 10
287.912735
 20
234.88736
 30
0.0
 11
286.396935
 21
234.88736
 31
0.0
  0
LINE
  5
D41
330
1D
100
AcDbEntity
  8
0
100
AcDbLine
 10
286.396935
 20
234.88736
 30
0.0
 11
283.954835
 21
234.88736
 31
0.0
  0
LINE
  5
D42
330
1D
100
AcDbEntity
  8
0
100
AcDbLine
 10
283.954835
 20
234.88736
 30
0.0
 11
280.670635
 21
234.88736
 31
0.0
  0
LINE
  5
D43
330
1D
100
AcDbEntity
  8
0
100
AcDbLine
 10
281.067735
 20
234.68536
 30
0.0
 11
277.275135
 21
234.46836
 31
0.0
  0
LINE
  5
D44
330
1D
100
AcDbEntity
  8
0
100
AcDbLine
 10
272.923235
 20
221.88736
 30
0.0
 11
270.945235
 21
221.88736
 31
0.0
  0
LINE
  5
D45
330
1D
100
AcDbEntity
  8
0
100
AcDbLine
 10
258.923235
 20
218.88736
 30
0.0
 11
258.923235
 21
220.88736
 31
0.0
  0
LINE
  5
D46
330
1D
100
AcDbEntity
  8
0
100
AcDbLine
 10
258.923235
 20
220.88736
 30
0.0
 11
257.933235
 21
220.88736
 31
0.0
  0
LINE
  5
D47
330
1D
100
AcDbEntity
  8
0
100
AcDbLine
 10
258.923235
 20
220.88736
 30
0.0
 11
258.923235
 21
218.88736
 31
0.0
  0
LINE
  5
D48
330
1D
100
AcDbEntity
  8
0
100
AcDbLine
 10
256.923235
 20
220.98736
 30
0.0
 11
256.923235
 21
221.12736
 31
0.0
  0
LINE
  5
D49
330
1D
100
AcDbEntity
  8
0
100
AcDbLine
 10
257.344235
 20
220.88736
 30
0.0
 11
256.923235
 21
220.98736
 31
0.0
  0
LINE
  5
D4A
330
1D
100
AcDbEntity
  8
0
100
AcDbLine
 10
257.933235
 20
220.88736
 30
0.0
 11
257.344235
 21
220.88736
 31
0.0
  0
LINE
  5
D4B
330
1D
100
AcDbEntity
  8
0
100
AcDbLine
 10
256.923235
 20
221.12736
 30
0.0
 11
256.923235
 21
220.98736
 31
0.0
  0
LINE
  5
D4C
330
1D
100
AcDbEntity
  8
0
100
AcDbLine
 10
256.923235
 20
221.12736
 30
0.0
 11
256.923235
 21
221.88736
 31
0.0
  0
LINE
  5
D4D
330
1D
100
AcDbEntity
  8
0
100
AcDbLine
 10
264.778235
 20
221.08936
 30
0.0
 11
260.965235
 21
221.25136
 31
0.0
  0
LINE
  5
D4E
330
1D
100
AcDbEntity
  8
0
100
AcDbLine
 10
270.945235
 20
221.88736
 30
0.0
 11
268.571235
 21
221.30636
 31
0.0
  0
LINE
  5
D4F
330
1D
100
AcDbEntity
  8
0
100
AcDbLine
 10
258.294235
 20
221.88736
 30
0.0
 11
257.260235
 21
221.88736
 31
0.0
  0
LINE
  5
D50
330
1D
100
AcDbEntity
  8
0
100
AcDbLine
 10
257.260235
 20
221.88736
 30
0.0
 11
256.923235
 21
221.88736
 31
0.0
  0
LINE
  5
D51
330
1D
100
AcDbEntity
  8
0
100
AcDbLine
 10
256.923235
 20
221.88736
 30
0.0
 11
256.923235
 21
221.12736
 31
0.0
  0
LINE
  5
D52
330
1D
100
AcDbEntity
  8
0
100
AcDbLine
 10
256.923235
 20
221.88736
 30
0.0
 11
256.923235
 21
222.88736
 31
0.0
  0
LINE
  5
D53
330
1D
100
AcDbEntity
  8
0
100
AcDbLine
 10
268.571235
 20
221.30636
 30
0.0
 11
264.778235
 21
221.08936
 31
0.0
  0
LINE
  5
D54
330
1D
100
AcDbEntity
  8
0
100
AcDbLine
 10
260.965235
 20
221.25136
 30
0.0
 11
258.294235
 21
221.88736
 31
0.0
  0
LINE
  5
D55
330
1D
100
AcDbEntity
  8
0
100
AcDbLine
 10
274.900735
 20
233.88736
 30
0.0
 11
272.923235
 21
233.88736
 31
0.0
  0
LINE
  5
D56
330
1D
100
AcDbEntity
  8
0
100
AcDbLine
 10
256.923235
 20
233.88736
 30
0.0
 11
256.923235
 21
232.88736
 31
0.0
  0
LINE
  5
D57
330
1D
100
AcDbEntity
  8
0
100
AcDbLine
 10
256.923235
 20
233.88736
 30
0.0
 11
256.923235
 21
234.64736
 31
0.0
  0
LINE
  5
D58
330
1D
100
AcDbEntity
  8
0
100
AcDbLine
 10
256.923235
 20
232.88736
 30
0.0
 11
256.923235
 21
222.88736
 31
0.0
  0
LINE
  5
D59
330
1D
100
AcDbEntity
  8
0
100
AcDbLine
 10
256.923235
 20
232.88736
 30
0.0
 11
256.923235
 21
233.88736
 31
0.0
  0
LINE
  5
D5A
330
1D
100
AcDbEntity
  8
0
100
AcDbLine
 10
256.923235
 20
222.88736
 30
0.0
 11
256.923235
 21
221.88736
 31
0.0
  0
LINE
  5
D5B
330
1D
100
AcDbEntity
  8
0
100
AcDbLine
 10
256.923235
 20
222.88736
 30
0.0
 11
256.923235
 21
232.88736
 31
0.0
  0
LINE
  5
D5C
330
1D
100
AcDbEntity
  8
0
100
AcDbLine
 10
270.945235
 20
233.88736
 30
0.0
 11
268.571235
 21
234.46836
 31
0.0
  0
LINE
  5
D5D
330
1D
100
AcDbEntity
  8
0
100
AcDbLine
 10
268.571235
 20
234.46836
 30
0.0
 11
264.778235
 21
234.68536
 31
0.0
  0
LINE
  5
D5E
330
1D
100
AcDbEntity
  8
0
100
AcDbLine
 10
258.294235
 20
233.88736
 30
0.0
 11
256.923235
 21
232.88736
 31
0.0
  0
LINE
  5
D5F
330
1D
100
AcDbEntity
  8
0
100
AcDbLine
 10
272.923235
 20
233.88736
 30
0.0
 11
270.945235
 21
233.88736
 31
0.0
  0
LINE
  5
D60
330
1D
100
AcDbEntity
  8
0
100
AcDbLine
 10
274.900735
 20
221.88736
 30
0.0
 11
272.923235
 21
221.88736
 31
0.0
  0
LINE
  5
D61
330
1D
100
AcDbEntity
  8
0
100
AcDbLine
 10
277.275135
 20
221.30636
 30
0.0
 11
274.900735
 21
221.88736
 31
0.0
  0
LINE
  5
D62
330
1D
100
AcDbEntity
  8
0
100
AcDbLine
 10
260.965235
 20
234.52336
 30
0.0
 11
258.294235
 21
233.88736
 31
0.0
  0
LINE
  5
D63
330
1D
100
AcDbEntity
  8
0
100
AcDbLine
 10
256.923235
 20
234.64736
 30
0.0
 11
256.923235
 21
233.88736
 31
0.0
  0
LINE
  5
D64
330
1D
100
AcDbEntity
  8
0
100
AcDbLine
 10
265.176235
 20
234.88736
 30
0.0
 11
261.891235
 21
234.88736
 31
0.0
  0
LINE
  5
D65
330
1D
100
AcDbEntity
  8
0
100
AcDbLine
 10
249.923235
 20
234.88736
 30
0.0
 11
244.823235
 21
234.88736
 31
0.0
  0
LINE
  5
D66
330
1D
100
AcDbEntity
  8
0
100
AcDbLine
 10
244.823235
 20
234.88736
 30
0.0
 11
241.623235
 21
234.88736
 31
0.0
  0
LINE
  5
D67
330
1D
100
AcDbEntity
  8
0
100
AcDbLine
 10
241.623235
 20
234.88736
 30
0.0
 11
240.423235
 21
234.88736
 31
0.0
  0
LINE
  5
D68
330
1D
100
AcDbEntity
  8
0
100
AcDbLine
 10
240.423235
 20
234.88736
 30
0.0
 11
239.423235
 21
235.38736
 31
0.0
  0
LINE
  5
D69
330
1D
100
AcDbEntity
  8
0
100
AcDbLine
 10
256.723235
 20
234.88736
 30
0.0
 11
249.923235
 21
234.88736
 31
0.0
  0
LINE
  5
D6A
330
1D
100
AcDbEntity
  8
0
100
AcDbLine
 10
257.344235
 20
234.88736
 30
0.0
 11
256.923235
 21
234.78736
 31
0.0
  0
LINE
  5
D6B
330
1D
100
AcDbEntity
  8
0
100
AcDbLine
 10
257.344235
 20
234.88736
 30
0.0
 11
256.723235
 21
234.88736
 31
0.0
  0
LINE
  5
D6C
330
1D
100
AcDbEntity
  8
0
100
AcDbLine
 10
257.933235
 20
234.88736
 30
0.0
 11
257.344235
 21
234.88736
 31
0.0
  0
LINE
  5
D6D
330
1D
100
AcDbEntity
  8
0
100
AcDbLine
 10
256.923235
 20
234.78736
 30
0.0
 11
256.923235
 21
234.64736
 31
0.0
  0
LINE
  5
D6E
330
1D
100
AcDbEntity
  8
0
100
AcDbLine
 10
261.891235
 20
234.88736
 30
0.0
 11
259.449235
 21
234.88736
 31
0.0
  0
LINE
  5
D6F
330
1D
100
AcDbEntity
  8
0
100
AcDbLine
 10
259.449235
 20
234.88736
 30
0.0
 11
257.933235
 21
234.88736
 31
0.0
  0
LINE
  5
D70
330
1D
100
AcDbEntity
  8
0
100
AcDbLine
 10
268.881235
 20
234.88736
 30
0.0
 11
265.176235
 21
234.88736
 31
0.0
  0
LINE
  5
D71
330
1D
100
AcDbEntity
  8
0
100
AcDbLine
 10
264.778235
 20
234.68536
 30
0.0
 11
260.965235
 21
234.52336
 31
0.0
  0
LINE
  5
D72
330
1D
100
AcDbEntity
  8
0
100
AcDbLine
 10
272.923235
 20
234.88736
 30
0.0
 11
268.881235
 21
234.88736
 31
0.0
  0
LINE
  5
D73
330
1D
100
AcDbEntity
  8
0
100
AcDbLine
 10
276.965335
 20
234.88736
 30
0.0
 11
272.923235
 21
234.88736
 31
0.0
  0
LINE
  5
D74
330
1D
100
AcDbEntity
  8
0
100
AcDbLine
 10
277.275135
 20
234.46836
 30
0.0
 11
274.900735
 21
233.88736
 31
0.0
  0
LINE
  5
D75
330
1D
100
AcDbEntity
  8
0
100
AcDbLine
 10
280.670635
 20
234.88736
 30
0.0
 11
276.965335
 21
234.88736
 31
0.0
  0
LINE
  5
D76
330
1D
100
AcDbEntity
  8
0
100
AcDbLine
 10
281.523235
 20
235.38736
 30
0.0
 11
272.923235
 21
235.38736
 31
0.0
  0
LINE
  5
D77
330
1D
100
AcDbEntity
  8
0
100
AcDbLine
 10
249.223235
 20
235.38736
 30
0.0
 11
243.923235
 21
235.38736
 31
0.0
  0
LINE
  5
D78
330
1D
100
AcDbEntity
  8
0
100
AcDbLine
 10
243.923235
 20
235.38736
 30
0.0
 11
240.623235
 21
235.38736
 31
0.0
  0
LINE
  5
D79
330
1D
100
AcDbEntity
  8
0
100
AcDbLine
 10
240.623235
 20
235.38736
 30
0.0
 11
239.423235
 21
235.38736
 31
0.0
  0
LINE
  5
D7A
330
1D
100
AcDbEntity
  8
0
100
AcDbLine
 10
256.223235
 20
235.38736
 30
0.0
 11
249.223235
 21
235.38736
 31
0.0
  0
LINE
  5
D7B
330
1D
100
AcDbEntity
  8
0
100
AcDbLine
 10
264.323235
 20
235.38736
 30
0.0
 11
256.223235
 21
235.38736
 31
0.0
  0
LINE
  5
D7C
330
1D
100
AcDbEntity
  8
0
100
AcDbLine
 10
272.923235
 20
235.38736
 30
0.0
 11
264.323235
 21
235.38736
 31
0.0
  0
LINE
  5
D7D
330
1D
100
AcDbEntity
  8
0
100
AcDbLine
 10
281.623235
 20
260.88736
 30
0.0
 11
272.923235
 21
260.88736
 31
0.0
  0
LINE
  5
D7E
330
1D
100
AcDbEntity
  8
0
100
AcDbLine
 10
248.923235
 20
260.88736
 30
0.0
 11
243.523235
 21
260.88736
 31
0.0
  0
LINE
  5
D7F
330
1D
100
AcDbEntity
  8
0
100
AcDbLine
 10
238.923235
 20
260.88736
 30
0.0
 11
238.923235
 21
236.38736
 31
0.0
  0
LINE
  5
D80
330
1D
100
AcDbEntity
  8
0
100
AcDbLine
 10
243.523235
 20
260.88736
 30
0.0
 11
240.123235
 21
260.88736
 31
0.0
  0
LINE
  5
D81
330
1D
100
AcDbEntity
  8
0
100
AcDbLine
 10
240.123235
 20
260.88736
 30
0.0
 11
238.923235
 21
260.88736
 31
0.0
  0
LINE
  5
D82
330
1D
100
AcDbEntity
  8
0
100
AcDbLine
 10
256.023235
 20
260.88736
 30
0.0
 11
248.923235
 21
260.88736
 31
0.0
  0
LINE
  5
D83
330
1D
100
AcDbEntity
  8
0
100
AcDbLine
 10
264.223235
 20
260.88736
 30
0.0
 11
256.023235
 21
260.88736
 31
0.0
  0
LINE
  5
D84
330
1D
100
AcDbEntity
  8
0
100
AcDbLine
 10
272.923235
 20
260.88736
 30
0.0
 11
264.223235
 21
260.88736
 31
0.0
  0
LINE
  5
D85
330
1D
100
AcDbEntity
  8
0
100
AcDbLine
 10
239.423235
 20
235.38736
 30
0.0
 11
238.923235
 21
236.38736
 31
0.0
  0
LINE
  5
D86
330
1D
100
AcDbEntity
  8
0
100
AcDbLine
 10
238.923235
 20
236.38736
 30
0.0
 11
238.923235
 21
260.88736
 31
0.0
  0
LINE
  5
D87
330
1D
100
AcDbEntity
  8
0
100
AcDbLine
 10
288.502135
 20
234.88736
 30
0.0
 11
287.912735
 21
234.88736
 31
0.0
  0
LINE
  5
D88
330
1D
100
AcDbEntity
  8
0
100
AcDbLine
 10
288.923235
 20
220.98736
 30
0.0
 11
288.923235
 21
221.12736
 31
0.0
  0
LINE
  5
D89
330
1D
100
AcDbEntity
  8
0
100
AcDbLine
 10
288.923235
 20
220.98736
 30
0.0
 11
288.502135
 21
220.88736
 31
0.0
  0
LINE
  5
D8A
330
1D
100
AcDbEntity
  8
0
100
AcDbLine
 10
286.923235
 20
220.88736
 30
0.0
 11
258.923235
 21
220.88736
 31
0.0
  0
LINE
  5
D8B
330
1D
100
AcDbEntity
  8
0
100
AcDbLine
 10
349.823235
 20
183.91936
 30
0.0
 11
329.823235
 21
183.91936
 31
0.0
  0
ENDSEC
  0
SECTION
  2
OBJECTS
  0
DICTIONARY
  5
C
330
0
100
AcDbDictionary
281
     1
  3
ACAD_GROUP
350
D
  3
ACAD_LAYOUT
350
1A
  3
ACAD_MLEADERSTYLE
350
D8E
  3
ACAD_MLINESTYLE
350
17
  3
ACAD_PLOTSETTINGS
350
19
  3
ACAD_PLOTSTYLENAME
350
E
  3
ACAD_SCALELIST
350
4BE
  3
AcDbVariableDictionary
350
D8C
  3
DWGPROPS
350
D96
  0
DICTIONARY
  5
D
102
{ACAD_REACTORS
330
C
102
}
330
C
100
AcDbDictionary
281
     1
  0
DICTIONARY
  5
1A
102
{ACAD_REACTORS
330
C
102
}
330
C
100
AcDbDictionary
281
     1
  3
Layout1
350
1C
  3
Model
350
1E
  0
DICTIONARY
  5
D8E
102
{ACAD_REACTORS
330
C
102
}
330
C
100
AcDbDictionary
281
     1
  0
DICTIONARY
  5
17
102
{ACAD_REACTORS
330
C
102
}
330
C
100
AcDbDictionary
281
     1
  3
Standard
350
18
  0
DICTIONARY
  5
19
102
{ACAD_REACTORS
330
C
102
}
330
C
100
AcDbDictionary
281
     1
  0
ACDBDICTIONARYWDFLT
  5
E
102
{ACAD_REACTORS
330
C
102
}
330
C
100
AcDbDictionary
281
     1
  3
Normal
350
F
100
AcDbDictionaryWithDefault
340
F
  0
DICTIONARY
  5
4BE
102
{ACAD_REACTORS
330
C
102
}
330
C
100
AcDbDictionary
281
     1
  3
A0
350
4BF
  3
A1
350
4C0
  3
A2
350
4C1
  3
A3
350
4C2
  3
A4
350
4C3
  3
A5
350
4C4
  3
A6
350
4C5
  3
A7
350
4C6
  3
A8
350
4C7
  3
A9
350
4C8
  3
B0
350
4C9
  3
B1
350
4CA
  3
B2
350
4CB
  3
B3
350
4CC
  3
B4
350
4CD
  3
B5
350
4CE
  3
B6
350
4CF
  3
B7
350
4D0
  3
B8
350
4D1
  3
B9
350
4D2
  3
C0
350
4D3
  3
C1
350
4D4
  3
C2
350
4D5
  3
C3
350
4D6
  3
C4
350
4D7
  3
C5
350
4D8
  3
C6
350
4D9
  3
C7
350
4DA
  3
C8
350
4DB
  3
C9
350
4DC
  3
D0
350
4DD
  3
D1
350
4DE
  3
D2
350
4DF
  0
DICTIONARY
  5
D8C
102
{ACAD_REACTORS
330
C
102
}
330
C
100
AcDbDictionary
281
     1
  3
CANNOSCALE
350
D8F
  0
XRECORD
  5
D96
102
{ACAD_REACTORS
330
C
102
}
330
C
100
AcDbXrecord
280
     1
  1
DWGPROPS COOKIE
  2

  3

  4

  6

  7

  8
MARTIN
  9

300
=
301
=
302
=
303
=
304
=
305
=
306
=
307
=
308
=
309
=
 40
0.0
 41
2455824.565933877
 42
2455824.641089583
  1

 90
        0
  0
LAYOUT
  5
1C
102
{ACAD_REACTORS
330
1A
102
}
330
1A
100
AcDbPlotSettings
  1

  2
none_device
  4

  6

 40
0.0
 41
0.0
 42
0.0
 43
0.0
 44
0.0
 45
0.0
 46
0.0
 47
0.0
 48
0.0
 49
0.0
140
0.0
141
0.0
142
1.0
143
1.0
 70
   688
 72
     0
 73
     0
 74
     5
  7

 75
    16
147
1.0
148
0.0
149
0.0
100
AcDbLayout
  1
Layout1
 70
     1
 71
     1
 10
0.0
 20
0.0
 11
12.0
 21
9.0
 12
0.0
 22
0.0
 32
0.0
 14
1.000000000000E+20
 24
1.000000000000E+20
 34
1.000000000000E+20
 15
-1.000000000000E+20
 25
-1.000000000000E+20
 35
-1.000000000000E+20
146
0.0
 13
0.0
 23
0.0
 33
0.0
 16
1.0
 26
0.0
 36
0.0
 17
0.0
 27
1.0
 37
0.0
 76
     0
330
1B
  0
LAYOUT
  5
1E
102
{ACAD_REACTORS
330
1A
102
}
330
1A
100
AcDbPlotSettings
  1

  2
none_device
  4

  6

 40
0.0
 41
0.0
 42
0.0
 43
0.0
 44
0.0
 45
0.0
 46
0.0
 47
0.0
 48
0.0
 49
0.0
140
0.0
141
0.0
142
1.0
143
1.0
 70
  1712
 72
     0
 73
     0
 74
     0
  7

 75
     0
147
1.0
148
0.0
149
0.0
100
AcDbLayout
  1
Model
 70
     1
 71
     0
 10
0.0
 20
0.0
 11
12.0
 21
9.0
 12
0.0
 22
0.0
 32
0.0
 14
0.076765
 24
0.48108
 34
0.0
 15
349.923235
 25
260.88736
 35
0.0
146
0.0
 13
0.0
 23
0.0
 33
0.0
 16
1.0
 26
0.0
 36
0.0
 17
0.0
 27
1.0
 37
0.0
 76
     0
330
1D
331
4B9
  0
MLINESTYLE
  5
18
102
{ACAD_REACTORS
330
17
102
}
330
17
100
AcDbMlineStyle
  2
Standard
 70
     0
  3

 62
   256
 51
90.0
 52
90.0
 71
     2
 49
0.5
 62
   256
  6
BYLAYER
 49
-0.5
 62
   256
  6
BYLAYER
  0
ACDBPLACEHOLDER
  5
F
102
{ACAD_REACTORS
330
E
102
}
330
E
  0
SCALE
  5
4BF
102
{ACAD_REACTORS
330
4BE
102
}
330
4BE
100
AcDbScale
 70
     0
300
1:1
140
1.0
141
1.0
290
     1
  0
SCALE
  5
4C0
102
{ACAD_REACTORS
330
4BE
102
}
330
4BE
100
AcDbScale
 70
     0
300
1:2
140
1.0
141
2.0
290
     0
  0
SCALE
  5
4C1
102
{ACAD_REACTORS
330
4BE
102
}
330
4BE
100
AcDbScale
 70
     0
300
1:4
140
1.0
141
4.0
290
     0
  0
SCALE
  5
4C2
102
{ACAD_REACTORS
330
4BE
102
}
330
4BE
100
AcDbScale
 70
     0
300
1:5
140
1.0
141
5.0
290
     0
  0
SCALE
  5
4C3
102
{ACAD_REACTORS
330
4BE
102
}
330
4BE
100
AcDbScale
 70
     0
300
1:8
140
1.0
141
8.0
290
     0
  0
SCALE
  5
4C4
102
{ACAD_REACTORS
330
4BE
102
}
330
4BE
100
AcDbScale
 70
     0
300
1:10
140
1.0
141
10.0
290
     0
  0
SCALE
  5
4C5
102
{ACAD_REACTORS
330
4BE
102
}
330
4BE
100
AcDbScale
 70
     0
300
1:16
140
1.0
141
16.0
290
     0
  0
SCALE
  5
4C6
102
{ACAD_REACTORS
330
4BE
102
}
330
4BE
100
AcDbScale
 70
     0
300
1:20
140
1.0
141
20.0
290
     0
  0
SCALE
  5
4C7
102
{ACAD_REACTORS
330
4BE
102
}
330
4BE
100
AcDbScale
 70
     0
300
1:30
140
1.0
141
30.0
290
     0
  0
SCALE
  5
4C8
102
{ACAD_REACTORS
330
4BE
102
}
330
4BE
100
AcDbScale
 70
     0
300
1:40
140
1.0
141
40.0
290
     0
  0
SCALE
  5
4C9
102
{ACAD_REACTORS
330
4BE
102
}
330
4BE
100
AcDbScale
 70
     0
300
1:50
140
1.0
141
50.0
290
     0
  0
SCALE
  5
4CA
102
{ACAD_REACTORS
330
4BE
102
}
330
4BE
100
AcDbScale
 70
     0
300
1:100
140
1.0
141
100.0
290
     0
  0
SCALE
  5
4CB
102
{ACAD_REACTORS
330
4BE
102
}
330
4BE
100
AcDbScale
 70
     0
300
2:1
140
2.0
141
1.0
290
     0
  0
SCALE
  5
4CC
102
{ACAD_REACTORS
330
4BE
102
}
330
4BE
100
AcDbScale
 70
     0
300
4:1
140
4.0
141
1.0
290
     0
  0
SCALE
  5
4CD
102
{ACAD_REACTORS
330
4BE
102
}
330
4BE
100
AcDbScale
 70
     0
300
8:1
140
8.0
141
1.0
290
     0
  0
SCALE
  5
4CE
102
{ACAD_REACTORS
330
4BE
102
}
330
4BE
100
AcDbScale
 70
     0
300
10:1
140
10.0
141
1.0
290
     0
  0
SCALE
  5
4CF
102
{ACAD_REACTORS
330
4BE
102
}
330
4BE
100
AcDbScale
 70
     0
300
100:1
140
100.0
141
1.0
290
     0
  0
SCALE
  5
4D0
102
{ACAD_REACTORS
330
4BE
102
}
330
4BE
100
AcDbScale
 70
     0
300
1/128" = 1'-0"
140
0.0078125
141
12.0
290
     0
  0
SCALE
  5
4D1
102
{ACAD_REACTORS
330
4BE
102
}
330
4BE
100
AcDbScale
 70
     0
300
1/64" = 1'-0"
140
0.015625
141
12.0
290
     0
  0
SCALE
  5
4D2
102
{ACAD_REACTORS
330
4BE
102
}
330
4BE
100
AcDbScale
 70
     0
300
1/32" = 1'-0"
140
0.03125
141
12.0
290
     0
  0
SCALE
  5
4D3
102
{ACAD_REACTORS
330
4BE
102
}
330
4BE
100
AcDbScale
 70
     0
300
1/16" = 1'-0"
140
0.0625
141
12.0
290
     0
  0
SCALE
  5
4D4
102
{ACAD_REACTORS
330
4BE
102
}
330
4BE
100
AcDbScale
 70
     0
300
3/32" = 1'-0"
140
0.09375
141
12.0
290
     0
  0
SCALE
  5
4D5
102
{ACAD_REACTORS
330
4BE
102
}
330
4BE
100
AcDbScale
 70
     0
300
1/8" = 1'-0"
140
0.125
141
12.0
290
     0
  0
SCALE
  5
4D6
102
{ACAD_REACTORS
330
4BE
102
}
330
4BE
100
AcDbScale
 70
     0
300
3/16" = 1'-0"
140
0.1875
141
12.0
290
     0
  0
SCALE
  5
4D7
102
{ACAD_REACTORS
330
4BE
102
}
330
4BE
100
AcDbScale
 70
     0
300
1/4" = 1'-0"
140
0.25
141
12.0
290
     0
  0
SCALE
  5
4D8
102
{ACAD_REACTORS
330
4BE
102
}
330
4BE
100
AcDbScale
 70
     0
300
3/8" = 1'-0"
140
0.375
141
12.0
290
     0
  0
SCALE
  5
4D9
102
{ACAD_REACTORS
330
4BE
102
}
330
4BE
100
AcDbScale
 70
     0
300
1/2" = 1'-0"
140
0.5
141
12.0
290
     0
  0
SCALE
  5
4DA
102
{ACAD_REACTORS
330
4BE
102
}
330
4BE
100
AcDbScale
 70
     0
300
3/4" = 1'-0"
140
0.75
141
12.0
290
     0
  0
SCALE
  5
4DB
102
{ACAD_REACTORS
330
4BE
102
}
330
4BE
100
AcDbScale
 70
     0
300
1" = 1'-0"
140
1.0
141
12.0
290
     0
  0
SCALE
  5
4DC
102
{ACAD_REACTORS
330
4BE
102
}
330
4BE
100
AcDbScale
 70
     0
300
1-1/2" = 1'-0"
140
1.5
141
12.0
290
     0
  0
SCALE
  5
4DD
102
{ACAD_REACTORS
330
4BE
102
}
330
4BE
100
AcDbScale
 70
     0
300
3" = 1'-0"
140
3.0
141
12.0
290
     0
  0
SCALE
  5
4DE
102
{ACAD_REACTORS
330
4BE
102
}
330
4BE
100
AcDbScale
 70
     0
300
6" = 1'-0"
140
6.0
141
12.0
290
     0
  0
SCALE
  5
4DF
102
{ACAD_REACTORS
330
4BE
102
}
330
4BE
100
AcDbScale
 70
     0
300
1'-0" = 1'-0"
140
12.0
141
12.0
290
     0
  0
DICTIONARYVAR
  5
D8F
102
{ACAD_REACTORS
330
D8C
102
}
330
D8C
100
DictionaryVariables
280
     0
  1
1:1
  0
ENDSEC
  0
SECTION
  2
THUMBNAILIMAGE
 90
    16364
310
28000000B40000005500000001000800000000000000000000000000000000000000000000000000FFFFFF000000FF0000FFFF0000FF0000FFFF0000FF000000FF00FF000000000080808000C0C0C0000000FF007F7FFF000000A5005252A50000007F003F3F7F0000004C0026264C000000260013132600003FFF007F9FFF
310
000029A5005267A500001F7F003F4F7F0000134C00262F4C000009260013172600007FFF007FBFFF000052A500527CA500003F7F003F5F7F0000264C0026394C0000132600131C260000BFFF007FDFFF00007CA5005291A500005F7F003F6F7F0000394C0026424C00001C26001321260000FFFF007FFFFF0000A5A50052A5
310
A500007F7F003F7F7F00004C4C00264C4C00002626001326260000FFBF007FFFDF0000A57C0052A59100007F5F003F7F6F00004C3900264C420000261C001326210000FF7F007FFFBF0000A5520052A57C00007F3F003F7F5F00004C2600264C39000026130013261C0000FF3F007FFF9F0000A5290052A56700007F1F003F
310
7F4F00004C1300264C2F00002609001326170000FF00007FFF7F0000A5000052A55200007F00003F7F3F00004C0000264C260000260000132613003FFF00009FFF7F0029A5000067A552001F7F00004F7F3F00134C00002F4C260009260000172613007FFF0000BFFF7F0052A500007CA552003F7F00005F7F3F00264C0000
310
394C2600132600001C261300BFFF0000DFFF7F007CA5000091A552005F7F00006F7F3F00394C0000424C26001C26000021261300FFFF0000FFFF7F00A5A50000A5A552007F7F00007F7F3F004C4C00004C4C26002626000026261300FFBF0000FFDF7F00A57C0000A59152007F5F00007F6F3F004C3900004C422600261C00
310
0026211300FF7F0000FFBF7F00A5520000A57C52007F3F00007F5F3F004C2600004C39260026130000261C1300FF3F0000FF9F7F00A5290000A56752007F1F00007F4F3F004C1300004C2F26002609000026171300FF000000FF7F7F00A5000000A55252007F0000007F3F3F004C0000004C2626002600000026131300FF00
310
3F00FF7F9F00A5002900A55267007F001F007F3F4F004C0013004C262F002600090026131700FF007F00FF7FBF00A5005200A5527C007F003F007F3F5F004C0026004C2639002600130026131C00FF00BF00FF7FDF00A5007C00A55291007F005F007F3F6F004C0039004C26420026001C0026132100FF00FF00FF7FFF00A5
310
00A500A552A5007F007F007F3F7F004C004C004C264C002600260026132600BF00FF00DF7FFF007C00A5009152A5005F007F006F3F7F0039004C0042264C001C002600211326007F00FF00BF7FFF005200A5007C52A5003F007F005F3F7F0026004C0039264C00130026001C1326003F00FF009F7FFF002900A5006752A500
310
1F007F004F3F7F0013004C002F264C000900260017132600000000002D2D2D005B5B5B0089898900B7B7B700B3B3B30000000000000000000000000000000000000000000000000000000000000000000000000000000000000000000000000000000000000000000000000707070707070707070000000000000000000000
310
00000000000000000000000000000000000000000000000000000000000000000000000000000000000000000000000000000000000000000000000000000000000000000000000000000000000000000000000000000000000000000000000000000000000000000000000000000000000000000000000000000000000000
310
00000000000000000000000000000000000000000000000000000000000000070707070707070707070707070000000000000000000000000000000000000000000000000000000000000000000000000000000000000000000000000000000000000000000000000000000000000000000000000000000000000000000000
310
00000000000000000000000000000000000000000000000000000000000000000000000000000000000000000000000000000000000000000000000000000000000000000000000000000000000000000000070707070000000000000000000707070700000000000000000000000000000000000000000000000000000000
310
00000000000000000000000000000000000000000000000000000000000000000000000000000000000000000000000000000000000000000000000000000000000000000000000000000000000000000000000000000000000000000000000000000000000000000000000000000000000000000000000000000000000000
310
00000000000007070707000000000000000000000000000707070700000000000000000000000000000000000000000000000000000000000000000000000000000000000000000000000000000000000000000000000000000000000000000000000000000000000000000000000000000000000000000000000000000000
310
00000000000000000000000000000000000000000000000000000000000000000000000000000000000000000000000000000000000000000000070707000000000000000000000000000000000007070700000000000000000000000000000000000000000000000000000000000000000000000000000000000000000000
310
00000000000000000000000000000000000000000000000000000000000000000000000000000000000000000000000000000000000000000000000000000000000000000000000000000000000000000000000000000000000000000000000000000000000000000000000000070707000000000000000000000000000000
310
00000000000007070700000000000000000000000000000000000000000000000000000000000000000000000000000000000000000000000000000000000000000000000000000000000000000000000000000000000000000000000000000000000000000000000000000000000000000000000000000000000000000000
310
00000000000000000000000000000000000000000000000000000000000000000000070700000000000000000000000000000000000000000000000007070700000000000000000000000000000000000000000000000000000000000000000000000000000000000000000000000000000000000000000000000000000000
310
00000000000000000000000000000000000000000000000000000000000000000000000000000000000000000000000000000000000000000000000000000000000000000000000000000000000000000000000000000007000000000000000000000000000000000000000000000000000000070000000000000000000000
310
00000000000000000000000000000000000000000000000000000000000000000000000000000000000000000000000000000000000000000000000000000000000000000000000000000000000000000000000000000000000000000000000000000000000000000000000000000000000000000000000000000000000000
310
00000000000000000000000007000000000000000000000000000000000000000000000000000000000700000000000000000000000000000000000000000000000000000000000000000000000000000000000000000000000000000000000000000000000000000000000000000000000000000000000000000000000000
310
00000000000000000000000000000000000000000000000000000000000000000000000000000000000000000000000000000000000000000000000000000000000700000000000000000000000000000000000000000000000000000000070700000000000000000000000000000000000000000000000000000000000000
310
00000000000000000000000000000000000000000000000000000000000000000000000000000000000000000000000000000000000000000000000000000000000000000000000000000000000000000000000000000000000000000000000000000000000000000000000000000000000000000007070000000000000000
310
00000000000000000000000000000000000000000007000000000000000000000000000000000000000000000000000000000000000000000000000000000000000000000000000000000000000000000000000000000000000000000000000000000000000000000000000000000000000000000000000000000000000000
310
00000000000000000000000000000000000000000000000000000000000000000000000000000000000000070000000000000000000000000000000000000000000000000000000000000700000000000000000000000000000000000000000000000000000000000000000000000000000000000000000000000000000000
310
00000000000000000000000000000000000000000000000000000000000000000000000000000000000000000000000000000000000000000000000000000000000000000000000000000000000000000000000000000000000000000000000007000000000000000000000000000000000000000000000000000000000000
310
07070000000000000000000000000000000000000000000000000000000000000000000000000000000000000000000000000000000000000000000000000000000000000000000000000000000000000000000000000000000000000000000000000000000000000000000000000000000000000000000000000000000000
310
00000000000000000000000000000000000000000000070000000000000000000000000000000000000000000000000000000000000007000000000000000000000000000000000000000000000000000000000000000000000000000000000000000000000000000000000000000000000000000000000000000000000000
310
00000000000000000000000000000000000000000000000000000000000000000000000000000000000000000000000000000000000000000000000000000000000000000000000000000007000000000000000000000000000000000000000000000000000000000000000700000000000000000000000000000000000000
310
00000000000000000000000000000000000000000000000000000000000000000000000000000000000000000000000000000000000000000000000000000000000000000000000000000000000000000000000000000000000000000000000000000000000000000000000000000000000000000000000000000000000000
310
00070000000000000000000000000000000000000000000000000000000000000007000000000000000000000000000000000000000000000000000000000000000000000000000000000000000000000000000000000000000000000000000000000000000000000000000000000000000000000000000000000000000000
310
00000000000000000000000000000000000000000000000000000000000000000000000000000000000000000000000000000000000007000000000000000000000000000000000000000000000000000000000000000700000000000000000000000000000000000000000000000000000000000000000000000000000000
310
00000000000000000000000000000000000000000000000000000000000000000000000000000000000000000000000000000000000000000000000000000000000000000000000000000000000000000000000000000000000000000000000000000000000000000000000700000000000000000000000000000000000000
310
00000000000000000000000007000000000000000000000000000000000000000000000000000000000000000000000000000000000000000000000000000000000000000000000000000000000000000000000000000000000000000000000000000000000000000000000000000000000000000000000000000000000000
310
00000000000000000000000000000000000000000000000000000000000000000007000000000000000000000000000000000000000000000000000000000000070000000000000000000000000000000000000000000000000000000000000000000000000000000000000000000000000000000000000000000000000000
310
00000000000000000000000000000000000000000000000000000000000000000000000000000000000000000000000000000000000000000000000000000000000000000000000000000000000000000000000000000700000000000000000000000000000000000000000000000000000000000007000000000000000000
310
00000000000000000000000000000000000000000000000000000000000000000000000000000000000000000000000000000000000000000000000000000000000000000000000000000000000000000000000000000000000000000000000000000000000000000000000000000000000000000000000000000000000000
310
00000000000000000000000007000000000000000000000000000000000000000000000000000000000000070000000000000000000000000000000000000000000000000000000000000000000000000000000000000000000000000000000000000000000000000000000000000000000000000000000000000000000000
310
00000000000000000000000000000000000000000000000000000000000000000000000000000000000000000000000000000000000000000000000000000000000007000000000000000000000000000000000000000000000000000000000700000000000000000000000000000000000000000000000000000000000000
310
00000000000000000000000000000000000000000000000000000000000000000000000000000000000000000000000000000000000000000000000000000000000000000000000000000000000000000000000000000000000000000000000000000000000000000000000000000000000000000000000700000000000000
310
00000000000000000000000000000000000000000007000000000000000000000000000000000000000000000000000000000000000000000000000000000000000000000000000000000000000000000000000000000000000000000000000000000000000000000000000000000000000000000000000000000000000000
310
00000000000000000000000000000000000000000000000000000000000000000000000000000000000000000000070000000000000000000000000000000000000000000000000000000700000000000000000000000000000000000000000000000000000000000000000000000000000000000000000000000000000000
310
00000000000000000000000000000000000000000000000000000000000000000000000000000000000000000000000000000000000000000000000000000000000000000000000000000000000000000000000000000000000000000000000000000000070000000000000000000000000000000000000000000000000707
310
00000000000000000000000000000000000000000000000000000000000000000000000000000000000000000000000000000000000000000000000000000000000000000000000000000000000000000000000000000000000000000000000000000000000000000000000000000000000000000000000000000000000000
310
00000000000000000000000000000000000000000000000000000007000000000000000000000000000000000000000000000700000000000000000000000000000000000000000000000000000000000000000000000000000000000000000000000000000000000000000000000000000000000000000000000000000000
310
00000000000000000000000000000000000000000000000000000000000000000000000000000000000000000000000000000000000000000000000000000000000000000000000000000000000000000007000000000000000000000000000000000000000000070000000000000000000000000000000000000000000000
310
00000000000000000000000000000000000000000000000000000000000000000000000000000000000000000000000000000000000000000000000000000000000000000000000000000000000000000000000000000000000000000000000000000000000000000000000000000000000000000000000000000000000000
310
00000000000000000707000000000000000000000000000000000007070000000000000000000000000000000000000000000000000000000000000000000000000000000000000000000000000000000000000000000000000000000000000000000000000000000000000000000000000000000000000000000000000000
310
00000000000000000000000000000000000000000000000000000000000000000000000000000000000000000000000000000000000000000000000007000007070000000000000000000000000707070000000000000000000000000000000000000000000000000000000000000000000000000000000000000000000000
310
00000000000000000000000000000000000000000000000000000000000000000000000000000000000000000000000000000000000000000000000000000000000000000000000000000000000000000000000000000000000000000000000000000000000000000000000007070707070707070707070700000000000000
310
00000700000000000000000000000000000000000000000000000000000000000000000000000000000000000000000000000000000000000000000000000000000000000000000000000000000000000000000000000000000000000000000000000000000000000000000000000000000000000000000000000000000000
310
00000000000000000000000000000000000000000000000000000000000000000707070707000000000007070707000000000000000007000000000000000000000000000000000000000000000000000000000000000000000000000000000000000000000000000000000000000000000000000000000000000000000000
310
00000000000000000000000000000000000000000000000000000000000000000000000000000000000000000000000000000000000000000000000000000000000000000000000000000000000000000000000707000000000000000000000000000700000000000000000700000000000000000000000000000000000000
310
00000000000000000000000000000000000000000000000000000000000000000000000000000000000000000000000000000000000000000000000000000000000000000000000000000000000000000000000000000000000000000000000000000000000000000000000000000000000000000000000000000000000000
310
00000000000000070700000000000000000000000000000007000000000000000007000000000000000000000000000000000000000000000000000000000000000000000000000000000000000000000000000000000000000000000000000000000000000000000000000000000000000000000000000000000000000000
310
00000000000000000000000000000000000000000000000000000000000000000000000000000000000000000000000000000000000000000000000700070000000000000000000000000000000007000000000000000700000000000000000000000000000000000000000000000000000000000000000000000000000000
310
00000000000000000000000000000000000000000000000000000000000000000000000000000000000000000000000000000000000000000000000000000000000000000000000000000000000000000000000000000000000000000000000000000000000000000000000000000007070700000000000000000000000000
310
00000000070000000000000007000000000000000000000000000000000000000000000000000000000000000000000000000000000000000000000000000000000000000000000000000000000000000000000000000000000000000000000000000000000000000000000000000000000000000000000000000000000000
310
00000000000000000000000000000000000000000000000000000000000000000000000007070000000000000000000000000000000000000007000000000000000700000000000000000000000000000000000000000000000000000000000000000000000000000000000000000000000000000000000000000000000000
310
00000000000000000000000000000000000000000000000000000000000000000000000000000000000000000000000000000000000000000000000000000000000000000000000000000000000000000000000000000000070700000000000000000000000000000000000000000700000000000000070000000000000000
310
00000000000000000000000000000000000000000000000000000000000000000000000000000000000000000000000000000000000000000000000000000000000000000000000000000000000000000000000000000000000000000000000000000000000000000000000000000000000000000000000000000000000000
310
00000000000000000000000000000700000000000000000000000000000000000000000007000000000000000700000000000000000000000000000000000000000000000000000000000000000000000000000000000000000000000000000000000000000000000000000000000000000000000000000000000000000000
310
00000000000000000000000000000000000000000000000000000000000000000000000000000000000000000000000000000000000000000000000000000000000007070000000000000000000000000000000000000000000700000000000000070000000000000000000000000000000000000000000000000000000000
310
00000000000000000000000000000000000000000000000000000000000000000000000000000000000000000000000000000000000000000000000000000000000000000000000000000000000000000000000000000000000000000000000000000000000000000000000000000000000000000000000700000000000000
310
00000000000000000000000000000007000000000000000707000000000000000000000000000000000000000000000000000000000000000000000000000000000000000000000000000000000000000000000000000000000000000000000000000000000000000000000000000000000000000000000000000000000000
310
00000000000000000000000000000000000000000000000000000000000000000000000000000000000000000007000000000000000000000000000000000000000000000700000000000000070700000000000000000000000000000000000000000000000000000000000000000000000000000000000000000000000000
310
00000000000000000000000000000000000000000000000000000000000000000000000000000000000000000000000000000000000000000000000000000000000000000000000000000000000000000000000000000000000000000000000000070700000000000000000000000000000000000000000000070000000000
310
00000707070000000000000000000000000000000000000000000000000000000000000000000000000000000000000000000000000000000000000000000000000000000000000000000000000000000000000000000000000000000000000000000000000000000000000000000000000000000000000000000000000000
310
00000000000000000000000000000000000000000000000707000000000000000000000000000000000000000000000700000000000000070707000000000000000000000000000000000000000000000000000000000000000000000000000000000000000000000000000000000000000000000000000000000000000000
310
00000000000000000000000000000000000000000000000000000000000000000000000000000000000000000000000000000000000000000000000000000000000000000000000000000007070000000000000000000000000000000000000000000000070000000000000007070700000000000000000000000000000000
310
00000000000000000000000000000000000000000000000000000000000000000000000000000000000000000000000000000000000000000000000000000000000000000000000000000000000000000000000000000000000000000000000000000000000000000000000000000000000000000000000000000000000000
310
00070700000000000000000000000000000000000000000000000700000000000000070007000000000000000000000000000000000000000000000000000000000000000000000000000000000000000000000000000000000000000000000000000000000000000000000000000000000000000000000000000000000000
310
00000000000000000000000000000000000000000000000000000000000000000000000000000000000000000000000000000000000007070000000000000000000000000000000000000000000000070000000000000007000700000000000000000000000000000000000000000000000000000000000000000000000000
310
00000000000000000000000000000000000000000000000000000000000000000000000000000000000000000000000000000000000000000000000000000000000000000000000000000000000000000000000000000000000000000000000000000000000000000000000707000000000000000000000000000000000000
310
00000000000700000000000000070000000000000000000000000000000000000000000000000000000000000000000000000000000000000000000000000000000000000000000000000000000000000000000000000000000000000000000000000000000000000000000000000000000000000000000000000000000000
310
00000000000000000000000000000000000000000000000000000000000000000007070000000000000000000000000000000000000000000000070000000000000007000700000000000000000000000000000000000000000000000000000000000000000000000000000000000000000000000000000000000000000000
310
00000000000000000000000000000000000000000000000000000000000000000000000000000000000000000000000000000000000000000000000000000000000000000000000000000000000000000000000000000707000000000000000000000000000000000000000000000007000000000000000700070000000000
310
00000000000000000000000000000000000000000000000000000000000000000000000000000000000000000000000000000000000000000000000000000000000000000000000000000000000000000000000000000000000000000000000000000000000000000000000000000000000000000000000000000000000000
310
00000000000000000000000007070000000000000000000000000000000000000000000000070000000000000007070700000000000000000000000000000000000000000000000000000000000000000000000000000000000000000000000000000000000000000000000000000000000000000000000000000000000000
310
00000000000000000000000000000000000000000000000000000000000000000000000000000000000000000000000000000000000000000000000000000000000007070000000000000000000000000000000000000000000007000000000000000707070000000000000000000000000000000000000000000000000000
310
00000000000000000000000000000000000000000000000000000000000000000000000000000000000000000000000000000000000000000000000000000000000000000000000000000000000000000000000000000000000000000000000000000000000000000000000000000000000000000000000707000000000000
310
00000000000000000000000000000000070000000000000007070700000000000000000000000000000000000000000000000000000000000000000000000000000000000000000000000000000000000000000000000000000000000000000000000000000000000000000000000000000000000000000000000000000000
310
00000000000000000000000000000000000000000000000000000000000000000000000000000000000000000007070000000000000000000000000000000000000000000007000000000000000707000000000000000000000000000000000000000000000000000000000000000000000000000000000000000000000000
310
00000000000000000000000000000000000000000000000000000000000000000000000000000000000000000000000000000000000000000000000000000000000000000000000000000000000000000000000000000000000000000000000000000007000000000000000000000000000000000000000000000700000000
310
00000007070707070707070707070707070707070707070707070707070707070700070707070707070707070707070707070707070707070707070707070707070707070707070707070707070707070707070000000000000000000000000000000000000000000000000000000000000000000000000000000000000000
310
00000000000000000000000000000000000000000000000000070700000000000000000000000000000000000000000007000000000000000700000000000000000000000000000000000000000000000000000000000000000000000000000000000000000000000000000000000000000000000007000007000000000000
310
00000000000000000700000000000000000000000000000000000000000000000000000000000000000000000000000000000000000000000000000000000000000000000000000000000000000000070000000000000000000000000000000000000000000700000000000000070000000000000000000000000000000000
310
00000000000000000000000000000000000000000000000000000000000000000000000000000000000000070000070000000000000000000000000000070000000000000000000000000000000000000000000000000000000000000000000000000000000000000000000000000000000000000000000000000000000000
310
00000000000707000000000000000000000000000000000000000007000000000000000700000000000000000000000000000000000000000000000000000000000000000000000000000000000000000000000000000000000000000000000007000007000000000000000007070707070707000000000000000000000000
310
00000000000000000000000000000000000000000000000000000000000000000000000000000000000000000000000000000000000000000000000707000000000000000000000000000000000000000700000000000000070000000000000000000000000000000000000000000000000000000000000000000000000000
310
00000000000000000000000000000000000000000000070000070000000000000000070000000000070000000000000000000000000000000000000000000000000000000000000000000000000000000000000000000000000000000000000000000000000000000000000000000000000707000000000000000000000000
310
00000000000707000000000000000700000000000000000000000000000000000000000000000000000000000000000000000000000000000000000000000000000000000000000000000007000007000000000000000007000000000007000000000000000000000000000000000000000000000000000000000000000000
310
00000000000000000000000000000000000000000000000000000000000000000000000000000000070707000000000000000000000000000000070700000000000000070000000000000000000000000000000000000000000000000000000000000000000000000000000000000000000000000000000000000000000000
310
00070000070000000000000000070707070707070000000000000000000000000000000000000000000000000000000000000000000000000000000000000000000000000000000000000000000000000000000000000000000000000000070700000000000000000000000000000007070000000000000007000000000000
310
00000000000000000000000000000000000000000000000000000000000000000000000000000000000000000000000000000000000007000007000000000000000000000000000007000000000000000000000000000000000000000000000000000000000000000000000000000000000000000000000000000000000000
310
00000000000000000000000000000000000000000007070000000000000000000000000000070700000000000007070000000000000000000000000000000000000000000000000000000000000000000000000000000000000000000000000000000000000000000000000700000700000000000000000000000000000700
310
00000000000000000000000000000000000000000000000000000000000000000000000000000000000000000000000000000000000000000000000000000000000000000000000000000000070707000000000000000000000007070700000000070707000000000000000000000000000000000000000000000000000000
310
00000000000000000000000000000000000000000000000000000000000000000007000007000000000000000000000000000007000000000000000000000000000000000000000000000000000000000000000000000000000000000000000000000000000000000000000000000000000000000000000000070707070707
310
07070707070707070707070707070707070000070707070700070000000000000000000000000000000000000000000000000000000000000000000000000000000000000000000000000000000000000000000000000700000700000000000000000000000000000700000000000000000000000000000000000000000000
310
00000000000000000000000000000000000000000000000000000000000000000000000000000000000000000000000700000000000000000007000000000000000000000007000000000000000007000000000000000000000000000000000000000000000000000000000000000000000000000000000000000000000000
310
00000000000000000000000007000007000000000000000000000000000007000000000000000000000000000000000000000000000000000000000000000000000000000000000000000000000000000000000000000000000000000000000000000000070000000000000000000700000000000000000000000700000000
310
00000000070000000000000000000000000000000000000000000000000000000000000000000000000000000000000000000000000000000000000000000000000707070700000000000000000000000000000700000000000000000000000000000000000000000000000000000000000000000000000000000000000000
310
00000000000000000000000000000000000000000000000000000700000000000000000007000000070707070700000007000000000000000007070000000000000000000007070707070707070707070707070707070700070707070707070707070707070707070707070000000000000000000007000000000707070707
310
07070707070707070700000000000000000000000000000000000000000000000000000000000000000000000000000000000000000000000000000000000000000000000000000000000000000000070000000000000000000700000707000000070700000700000000000000000707000000000000000000000700000000
310
00000000000000000000000000000000000000000000000000000000000000000700000000000000000000070000000000000000000000000000000000000000000000000000000000000000000000000000000000000000000000000000000000000000000000000000000000000000000000000000000000000000000000
310
00000007070700000000000000000007000007000000000007000007070000000000000007070000000000000000000007000000000000000000000000000000000000000000000000000000000000000000000000070000000000000000000007000000000000000000000000000000000000000000000000000000000000
310
00000000000000000000000000000000000000000000000000000000000000000000000000000000000000000000000000000000000000000700070000000000000000000700070700000000000700000707070700000007070707000000000000000000000700000000000000000000000000000000000000000000000000
310
00000000000000000000000700000000000000000000070000000000000000000000000000000000000000000000000000000000000000000000000000000000000000000000000000000000000000000000000000000000000000000000000000000000000000000000000000070707000000000000000000070007070000
310
00000007000007070000070707000007070707070707070707070707000000000000000000000000000000000000000000000000000000000000000000000000070707070707070707070707000000000000000000000000000000000000000000000000000000000000000000000000000000000000000000000000000000
310
00000000000000000000000000000000000000000000000000000000000000000000000000070000000000000000000700070700000000000700000707000000000000000707070000070707070000070000000000000000000000000000000000000000000000000000000000000000000000000007070000070707070000
310
07000000000000000000000000000000000000000000000000000000000000000000000000000000000000000000000000000000000000000000000000000000000000000000000000000000000000000000000000000000000007000000000000000000070007070000000000070000070700000000000007000700000000
310
00000000000700000000000000000000000000000000000000000000000000000000000000000000000000070000000000000000000700000000000000000000000000000000000000000000000000000000000000000000000000000000000000000000000000000000000000000000000000000000000000000000000000
310
00000000000000000000000000000000070000000000000000000700070700000000000700000707070000000707000007000000000000000000070000000000000000000000000000000000000000000000000000000000000000000000000007000000000000000000070000000000000000000000000000000000000000
310
00000000000000000000000000000000000000000000000000000000000000000000000000000000000000000000000000000000000000000000000000000000000000000007000000000000000000070007070000000000070000070707070707000700000700000000000000000007000000000000000000000000000000
310
00000000000000000000000000000000000000000000070000000000000000000700000000000000000000000000000000000000000000000000000000000000000000000000000000000000000000000000000000000000000000000000000000000000000000000000000000000000000000000000000000000707070707
310
07070707070707070700000000000707070707070000000007070707070707070707070707070707070707070000000000000000000000000000000000000000000000000007070707070707070707070707070707070707070707070000000000000000000000000000000000000000000000000000000000000000000000
310
00000000000000000000000000000000000000000000000000000000000000000000000000000000000000000000000000000000000000000000000007070000000000070000000007070000000700000000000000000000000000000000000007000000000000000000000000000000000000000000000000000700000000
310
00000000000000000000000000000000000700000000000000000000000000000000000000000000000000000000000000000000000000000000000000000000000000000000000000000000000000000000000000000000000000000000000000000000000000000000000000000000000707000000000007000000000000
310
07070700000000000000000000000000000000000000070000000000000000000000000000000000000000000000000007000000000000000000000000000000000000000000070000000000000000000000000000000000000000000000000000000000000000000000000000000000000000000000000000000000000000
310
00000000000000000000000000000000000000000000000000000000000000000000000000000007070000000000070000000000000700000000000000000000000000000000000000000007000000000000000000000000000000000000000000000000000700000000000000000000000000000000000000000007000000
310
00000000000000000000000000000000000000000000000000000000000000000000000000000000000000000000000000000000000000000000000000000000000000000000000000000000000000000000000000000000000000000707000000000007000000000000070000000000000000000000000000000000000000
310
00070000000000000000000000000000000000000000000000000007000000000000000000000000000000000000000000070000000000000000000000000000000000000000000000000000000000000000000000000000000000000000000000000000000000000000000000000000000000000000000000000000000000
310
00000000000000000000000000000000000007070000000000070000000000000700000000000000000000000000000000000000000007000000000000000000000000000000000000000000000000000700000000000000000000000000000000000000000007000000000000000000000000000000000000000000000000
310
00000000000000000000000000000000000000000000000000000000000000000000000000000000000000000000000000000000000000000000000000000000000000000000000707000000000007000000000000070000000000000000000000000000000000000000000700000000000000000000000000000000000000
310
00000000000007000000000000000000000000000000000000000000070000000000000000000000000000000000000000000000000000000000000000000000000000000000000000000000000000000000000000000000000000000000000000000000000000000000000000000000000000000000000000000000070700
310
00000000070000000000000700000000000000000000000000000000000000000007000000000000000000000000000000000000000000000000000700000000000000000000000000000000000000000007000000000000000000000000000000000000000000000000000000000000000000000000000000000000000000
310
00000000000000000000000000000000000000000000000000000000000000000000000000000000000000000000000000000707070707070707000000000000070707070707070707070707070707070707070707070700000000000000000000000000000000000000000000000000070707070707070707070707070707
310
07070707070707070000000000000000000000000000000000000000000000000000000000000000000000000000000000000000000000000000000000000000000000000000000000000000000000000000000000000000000000000000000000000000000000000000000000000000000000000000000000000000000000
310
000000000000000000000000000000000000000000000000000000000000000000000000000000000000000000000000000000000000000000000000000000000000000000000000000000000000000000000000000000000000000000000000000000000000000000000000
  0
ENDSEC
  0
EOF
