  0
SECTION
  2
HEADER
  9
$ACADVER
  1
AC1015
  9
$ACADMAINTVER
 70
     6
  9
$DWGCODEPAGE
  3
ANSI_1252
  9
$INSBASE
 10
0.0
 20
0.0
 30
0.0
  9
$EXTMIN
 10
0.0
 20
-0.1305
 30
0.0
  9
$EXTMAX
 10
350.0
 20
153.1305
 30
0.0
  9
$LIMMIN
 10
0.0
 20
0.0
  9
$LIMMAX
 10
12.0
 20
9.0
  9
$ORTHOMODE
 70
     0
  9
$REGENMODE
 70
     1
  9
$FILLMODE
 70
     1
  9
$QTEXTMODE
 70
     0
  9
$MIRRTEXT
 70
     1
  9
$LTSCALE
 40
1.0
  9
$ATTMODE
 70
     1
  9
$TEXTSIZE
 40
0.2
  9
$TRACEWID
 40
0.05
  9
$TEXTSTYLE
  7
Standard
  9
$CLAYER
  8
0
  9
$CELTYPE
  6
ByBlock
  9
$CECOLOR
 62
   256
  9
$CELTSCALE
 40
1.0
  9
$DISPSILH
 70
     0
  9
$DIMSCALE
 40
1.0
  9
$DIMASZ
 40
0.18
  9
$DIMEXO
 40
0.0625
  9
$DIMDLI
 40
0.38
  9
$DIMRND
 40
0.0
  9
$DIMDLE
 40
0.0
  9
$DIMEXE
 40
0.18
  9
$DIMTP
 40
0.0
  9
$DIMTM
 40
0.0
  9
$DIMTXT
 40
0.18
  9
$DIMCEN
 40
0.09
  9
$DIMTSZ
 40
0.0
  9
$DIMTOL
 70
     0
  9
$DIMLIM
 70
     0
  9
$DIMTIH
 70
     1
  9
$DIMTOH
 70
     1
  9
$DIMSE1
 70
     0
  9
$DIMSE2
 70
     0
  9
$DIMTAD
 70
     0
  9
$DIMZIN
 70
     0
  9
$DIMBLK
  1

  9
$DIMASO
 70
     1
  9
$DIMSHO
 70
     1
  9
$DIMPOST
  1

  9
$DIMAPOST
  1

  9
$DIMALT
 70
     0
  9
$DIMALTD
 70
     2
  9
$DIMALTF
 40
25.4
  9
$DIMLFAC
 40
1.0
  9
$DIMTOFL
 70
     0
  9
$DIMTVP
 40
0.0
  9
$DIMTIX
 70
     0
  9
$DIMSOXD
 70
     0
  9
$DIMSAH
 70
     0
  9
$DIMBLK1
  1

  9
$DIMBLK2
  1

  9
$DIMSTYLE
  2
Standard
  9
$DIMCLRD
 70
     0
  9
$DIMCLRE
 70
     0
  9
$DIMCLRT
 70
     0
  9
$DIMTFAC
 40
1.0
  9
$DIMGAP
 40
0.09
  9
$DIMJUST
 70
     0
  9
$DIMSD1
 70
     0
  9
$DIMSD2
 70
     0
  9
$DIMTOLJ
 70
     1
  9
$DIMTZIN
 70
     0
  9
$DIMALTZ
 70
     0
  9
$DIMALTTZ
 70
     0
  9
$DIMUPT
 70
     0
  9
$DIMDEC
 70
     4
  9
$DIMTDEC
 70
     4
  9
$DIMALTU
 70
     2
  9
$DIMALTTD
 70
     2
  9
$DIMTXSTY
  7
Standard
  9
$DIMAUNIT
 70
     0
  9
$DIMADEC
 70
     0
  9
$DIMALTRND
 40
0.0
  9
$DIMAZIN
 70
     0
  9
$DIMDSEP
 70
    46
  9
$DIMATFIT
 70
     3
  9
$DIMFRAC
 70
     0
  9
$DIMLDRBLK
  1

  9
$DIMLUNIT
 70
     2
  9
$DIMLWD
 70
    -2
  9
$DIMLWE
 70
    -2
  9
$DIMTMOVE
 70
     2
  9
$LUNITS
 70
     2
  9
$LUPREC
 70
     4
  9
$SKETCHINC
 40
0.1
  9
$FILLETRAD
 40
0.5
  9
$AUNITS
 70
     0
  9
$AUPREC
 70
     0
  9
$MENU
  1
.
  9
$ELEVATION
 40
0.0
  9
$PELEVATION
 40
0.0
  9
$THICKNESS
 40
0.0
  9
$LIMCHECK
 70
     0
  9
$CHAMFERA
 40
0.5
  9
$CHAMFERB
 40
0.5
  9
$CHAMFERC
 40
1.0
  9
$CHAMFERD
 40
0.0
  9
$SKPOLY
 70
     0
  9
$TDCREATE
 40
2455824.645885417
  9
$TDUCREATE
 40
2455824.562552083
  9
$TDUPDATE
 40
2455824.646658704
  9
$TDUUPDATE
 40
2455824.56332537
  9
$TDINDWG
 40
0.000773125
  9
$TDUSRTIMER
 40
0.000773125
  9
$USRTIMER
 70
     1
  9
$ANGBASE
 50
0.0
  9
$ANGDIR
 70
     0
  9
$PDMODE
 70
     0
  9
$PDSIZE
 40
0.0
  9
$PLINEWID
 40
0.0
  9
$SPLFRAME
 70
     0
  9
$SPLINETYPE
 70
     6
  9
$SPLINESEGS
 70
     8
  9
$HANDSEED
  5
C2F
  9
$SURFTAB1
 70
     6
  9
$SURFTAB2
 70
     6
  9
$SURFTYPE
 70
     6
  9
$SURFU
 70
     6
  9
$SURFV
 70
     6
  9
$UCSBASE
  2

  9
$UCSNAME
  2

  9
$UCSORG
 10
0.0
 20
0.0
 30
0.0
  9
$UCSXDIR
 10
1.0
 20
0.0
 30
0.0
  9
$UCSYDIR
 10
0.0
 20
1.0
 30
0.0
  9
$UCSORTHOREF
  2

  9
$UCSORTHOVIEW
 70
     0
  9
$UCSORGTOP
 10
0.0
 20
0.0
 30
0.0
  9
$UCSORGBOTTOM
 10
0.0
 20
0.0
 30
0.0
  9
$UCSORGLEFT
 10
0.0
 20
0.0
 30
0.0
  9
$UCSORGRIGHT
 10
0.0
 20
0.0
 30
0.0
  9
$UCSORGFRONT
 10
0.0
 20
0.0
 30
0.0
  9
$UCSORGBACK
 10
0.0
 20
0.0
 30
0.0
  9
$PUCSBASE
  2

  9
$PUCSNAME
  2

  9
$PUCSORG
 10
0.0
 20
0.0
 30
0.0
  9
$PUCSXDIR
 10
1.0
 20
0.0
 30
0.0
  9
$PUCSYDIR
 10
0.0
 20
1.0
 30
0.0
  9
$PUCSORTHOREF
  2

  9
$PUCSORTHOVIEW
 70
     0
  9
$PUCSORGTOP
 10
0.0
 20
0.0
 30
0.0
  9
$PUCSORGBOTTOM
 10
0.0
 20
0.0
 30
0.0
  9
$PUCSORGLEFT
 10
0.0
 20
0.0
 30
0.0
  9
$PUCSORGRIGHT
 10
0.0
 20
0.0
 30
0.0
  9
$PUCSORGFRONT
 10
0.0
 20
0.0
 30
0.0
  9
$PUCSORGBACK
 10
0.0
 20
0.0
 30
0.0
  9
$USERI1
 70
     0
  9
$USERI2
 70
     0
  9
$USERI3
 70
     0
  9
$USERI4
 70
     0
  9
$USERI5
 70
     0
  9
$USERR1
 40
0.0
  9
$USERR2
 40
0.0
  9
$USERR3
 40
0.0
  9
$USERR4
 40
0.0
  9
$USERR5
 40
0.0
  9
$WORLDVIEW
 70
     1
  9
$SHADEDGE
 70
     3
  9
$SHADEDIF
 70
    70
  9
$TILEMODE
 70
     1
  9
$MAXACTVP
 70
    64
  9
$PINSBASE
 10
0.0
 20
0.0
 30
0.0
  9
$PLIMCHECK
 70
     0
  9
$PEXTMIN
 10
1.000000000000E+20
 20
1.000000000000E+20
 30
1.000000000000E+20
  9
$PEXTMAX
 10
-1.000000000000E+20
 20
-1.000000000000E+20
 30
-1.000000000000E+20
  9
$PLIMMIN
 10
0.0
 20
0.0
  9
$PLIMMAX
 10
12.0
 20
9.0
  9
$UNITMODE
 70
     0
  9
$VISRETAIN
 70
     1
  9
$PLINEGEN
 70
     0
  9
$PSLTSCALE
 70
     1
  9
$TREEDEPTH
 70
  3020
  9
$CMLSTYLE
  2
Standard
  9
$CMLJUST
 70
     0
  9
$CMLSCALE
 40
1.0
  9
$PROXYGRAPHICS
 70
     1
  9
$MEASUREMENT
 70
     0
  9
$CELWEIGHT
370
    -1
  9
$ENDCAPS
280
     0
  9
$JOINSTYLE
280
     0
  9
$LWDISPLAY
290
     0
  9
$INSUNITS
 70
     0
  9
$HYPERLINKBASE
  1

  9
$STYLESHEET
  1

  9
$XEDIT
290
     1
  9
$CEPSNTYPE
380
     0
  9
$PSTYLEMODE
290
     1
  9
$FINGERPRINTGUID
  2
{B6B800DD-AC6B-4D36-855E-B87D3A57A71E}
  9
$VERSIONGUID
  2
{FAEB1C32-E019-11D5-929B-00C0DF256EC4}
  9
$EXTNAMES
290
     1
  9
$PSVPSCALE
 40
0.0
  9
$OLESTARTUP
290
     0
  0
ENDSEC
  0
SECTION
  2
CLASSES
  0
CLASS
  1
ACDBDICTIONARYWDFLT
  2
AcDbDictionaryWithDefault
  3
ObjectDBX Classes
 90
        0
280
     0
281
     0
  0
CLASS
  1
SCALE
  2
AcDbScale
  3
ObjectDBX Classes
 90
     1153
280
     0
281
     0
  0
CLASS
  1
DICTIONARYVAR
  2
AcDbDictionaryVar
  3
ObjectDBX Classes
 90
        0
280
     0
281
     0
  0
CLASS
  1
ACDBPLACEHOLDER
  2
AcDbPlaceHolder
  3
ObjectDBX Classes
 90
        0
280
     0
281
     0
  0
CLASS
  1
LAYOUT
  2
AcDbLayout
  3
ObjectDBX Classes
 90
        0
280
     0
281
     0
  0
ENDSEC
  0
SECTION
  2
TABLES
  0
TABLE
  2
VPORT
  5
8
330
0
100
AcDbSymbolTable
 70
     1
  0
VPORT
  5
31D
330
8
100
AcDbSymbolTableRecord
100
AcDbViewportTableRecord
  2
*Active
 70
     0
 10
0.0
 20
0.0
 11
1.0
 21
1.0
 12
175.0
 22
76.5
 13
0.0
 23
0.0
 14
0.5
 24
0.5
 15
0.5
 25
0.5
 16
0.0
 26
0.0
 36
1.0
 17
0.0
 27
0.0
 37
0.0
 40
199.345883854499
 41
1.790857142857
 42
50.0
 43
0.0
 44
0.0
 50
0.0
 51
0.0
 71
    16
 72
   100
 73
     1
 74
     3
 75
     0
 76
     0
 77
     0
 78
     0
281
     0
 65
     1
110
0.0
120
0.0
130
0.0
111
1.0
121
0.0
131
0.0
112
0.0
122
1.0
132
0.0
 79
     0
146
0.0
  0
ENDTAB
  0
TABLE
  2
LTYPE
  5
5
330
0
100
AcDbSymbolTable
 70
     1
  0
LTYPE
  5
14
330
5
100
AcDbSymbolTableRecord
100
AcDbLinetypeTableRecord
  2
ByBlock
 70
     0
  3

 72
    65
 73
     0
 40
0.0
  0
LTYPE
  5
15
330
5
100
AcDbSymbolTableRecord
100
AcDbLinetypeTableRecord
  2
ByLayer
 70
     0
  3

 72
    65
 73
     0
 40
0.0
  0
LTYPE
  5
16
330
5
100
AcDbSymbolTableRecord
100
AcDbLinetypeTableRecord
  2
Continuous
 70
     0
  3
Solid line
 72
    65
 73
     0
 40
0.0
  0
ENDTAB
  0
TABLE
  2
LAYER
  5
2
330
0
100
AcDbSymbolTable
 70
     1
  0
LAYER
  5
10
330
2
100
AcDbSymbolTableRecord
100
AcDbLayerTableRecord
  2
0
 70
     0
 62
     7
  6
Continuous
370
    -3
390
F
  0
ENDTAB
  0
TABLE
  2
STYLE
  5
3
330
0
100
AcDbSymbolTable
 70
     1
  0
STYLE
  5
11
330
3
100
AcDbSymbolTableRecord
100
AcDbTextStyleTableRecord
  2
Standard
 70
     0
 40
0.0
 41
1.0
 50
0.0
 71
     0
 42
0.2
  3
txt
  4

  0
ENDTAB
  0
TABLE
  2
VIEW
  5
6
330
0
100
AcDbSymbolTable
 70
     0
  0
ENDTAB
  0
TABLE
  2
UCS
  5
7
330
0
100
AcDbSymbolTable
 70
     0
  0
ENDTAB
  0
TABLE
  2
APPID
  5
9
330
0
100
AcDbSymbolTable
 70
     1
  0
APPID
  5
12
330
9
100
AcDbSymbolTableRecord
100
AcDbRegAppTableRecord
  2
ACAD
 70
     0
  0
ENDTAB
  0
TABLE
  2
DIMSTYLE
  5
A
330
0
100
AcDbSymbolTable
 70
     1
100
AcDbDimStyleTable
  0
DIMSTYLE
105
20
330
A
100
AcDbSymbolTableRecord
100
AcDbDimStyleTableRecord
  2
Standard
 70
     0
340
11
  0
ENDTAB
  0
TABLE
  2
BLOCK_RECORD
  5
1
330
0
100
AcDbSymbolTable
 70
     1
  0
BLOCK_RECORD
  5
1D
330
1
100
AcDbSymbolTableRecord
100
AcDbBlockTableRecord
  2
*Model_Space
340
1E
  0
BLOCK_RECORD
  5
1B
330
1
100
AcDbSymbolTableRecord
100
AcDbBlockTableRecord
  2
*Paper_Space
340
1C
  0
ENDTAB
  0
ENDSEC
  0
SECTION
  2
BLOCKS
  0
BLOCK
  5
320
330
1D
100
AcDbEntity
  8
0
100
AcDbBlockBegin
  2
*Model_Space
 70
     0
 10
0.0
 20
0.0
 30
0.0
  3
*Model_Space
  1
*Model_Space
  0
ENDBLK
  5
321
330
1D
100
AcDbEntity
  8
0
100
AcDbBlockEnd
  0
BLOCK
  5
31E
330
1B
100
AcDbEntity
 67
     1
  8
0
100
AcDbBlockBegin
  2
*Paper_Space
 70
     0
 10
0.0
 20
0.0
 30
0.0
  3
*Paper_Space
  1
*Paper_Space
  0
ENDBLK
  5
31F
330
1B
100
AcDbEntity
 67
     1
  8
0
100
AcDbBlockEnd
  0
ENDSEC
  0
SECTION
  2
ENTITIES
  0
LINE
  5
14D
330
1D
100
AcDbEntity
  8
0
100
AcDbLine
 10
166.024
 20
89.905133333333
 30
0.0
 11
166.024
 21
91.1305
 31
0.0
  0
LINE
  5
14E
330
1D
100
AcDbEntity
  8
0
100
AcDbLine
 10
166.024
 20
91.1305
 30
0.0
 11
166.024
 21
89.905133333333
 31
0.0
  0
LINE
  5
14F
330
1D
100
AcDbEntity
  8
0
100
AcDbLine
 10
165.424
 20
89.89
 30
0.0
 11
166.324
 21
89.9127
 31
0.0
  0
LINE
  5
150
330
1D
100
AcDbEntity
  8
0
100
AcDbLine
 10
165.024
 20
89.8654
 30
0.0
 11
165.424
 21
89.89
 31
0.0
  0
LINE
  5
151
330
1D
100
AcDbEntity
  8
0
100
AcDbLine
 10
164.024
 20
87.8655
 30
0.0
 11
166.024
 21
59.8667
 31
0.0
  0
LINE
  5
152
330
1D
100
AcDbEntity
  8
0
100
AcDbLine
 10
164.024
 20
87.8655
 30
0.0
 11
165.024
 21
89.8654
 31
0.0
  0
LINE
  5
153
330
1D
100
AcDbEntity
  8
0
100
AcDbLine
 10
167.887
 20
-0.1225
 30
0.0
 11
168.562
 21
-0.0645
 31
0.0
  0
LINE
  5
154
330
1D
100
AcDbEntity
  8
0
100
AcDbLine
 10
168.562
 20
-0.0645
 30
0.0
 11
169.8
 21
0.2955
 31
0.0
  0
LINE
  5
155
330
1D
100
AcDbEntity
  8
0
100
AcDbLine
 10
169.8
 20
0.2955
 30
0.0
 11
171.301
 21
0.9585
 31
0.0
  0
LINE
  5
156
330
1D
100
AcDbEntity
  8
0
100
AcDbLine
 10
171.301
 20
0.9585
 30
0.0
 11
173.101
 21
2.0765
 31
0.0
  0
LINE
  5
157
330
1D
100
AcDbEntity
  8
0
100
AcDbLine
 10
173.101
 20
2.0765
 30
0.0
 11
175.052
 21
4.0595
 31
0.0
  0
LINE
  5
158
330
1D
100
AcDbEntity
  8
0
100
AcDbLine
 10
175.052
 20
4.0595
 30
0.0
 11
176.815
 21
5.4125
 31
0.0
  0
LINE
  5
159
330
1D
100
AcDbEntity
  8
0
100
AcDbLine
 10
176.815
 20
5.4125
 30
0.0
 11
178.653
 21
6.6185
 31
0.0
  0
LINE
  5
15A
330
1D
100
AcDbEntity
  8
0
100
AcDbLine
 10
175.052
 20
4.2025
 30
0.0
 11
176.815
 21
5.5485
 31
0.0
  0
LINE
  5
15B
330
1D
100
AcDbEntity
  8
0
100
AcDbLine
 10
178.653
 20
6.6185
 30
0.0
 11
180.454
 21
7.8285
 31
0.0
  0
LINE
  5
15C
330
1D
100
AcDbEntity
  8
0
100
AcDbLine
 10
176.815
 20
5.5485
 30
0.0
 11
178.653
 21
6.7415
 31
0.0
  0
LINE
  5
15D
330
1D
100
AcDbEntity
  8
0
100
AcDbLine
 10
180.454
 20
7.8285
 30
0.0
 11
181.542
 21
8.8935
 31
0.0
  0
LINE
  5
15E
330
1D
100
AcDbEntity
  8
0
100
AcDbLine
 10
178.653
 20
6.7415
 30
0.0
 11
180.454
 21
7.9295
 31
0.0
  0
LINE
  5
15F
330
1D
100
AcDbEntity
  8
0
100
AcDbLine
 10
181.542
 20
8.8935
 30
0.0
 11
182.255
 21
9.6225
 31
0.0
  0
LINE
  5
160
330
1D
100
AcDbEntity
  8
0
100
AcDbLine
 10
180.454
 20
7.9295
 30
0.0
 11
181.542
 21
8.9635
 31
0.0
  0
LINE
  5
161
330
1D
100
AcDbEntity
  8
0
100
AcDbLine
 10
182.255
 20
9.6225
 30
0.0
 11
182.524
 21
9.8685
 31
0.0
  0
LINE
  5
162
330
1D
100
AcDbEntity
  8
0
100
AcDbLine
 10
181.542
 20
8.9635
 30
0.0
 11
182.255
 21
9.6585
 31
0.0
  0
LINE
  5
163
330
1D
100
AcDbEntity
  8
0
100
AcDbLine
 10
182.524
 20
9.8685
 30
0.0
 11
182.524
 21
59.8667
 31
0.0
  0
LINE
  5
164
330
1D
100
AcDbEntity
  8
0
100
AcDbLine
 10
182.255
 20
9.6585
 30
0.0
 11
182.524
 21
9.8685
 31
0.0
  0
LINE
  5
165
330
1D
100
AcDbEntity
  8
0
100
AcDbLine
 10
173.101
 20
2.2125
 30
0.0
 11
175.052
 21
4.2025
 31
0.0
  0
LINE
  5
166
330
1D
100
AcDbEntity
  8
0
100
AcDbLine
 10
171.301
 20
1.0815
 30
0.0
 11
173.101
 21
2.2125
 31
0.0
  0
LINE
  5
167
330
1D
100
AcDbEntity
  8
0
100
AcDbLine
 10
169.8
 20
0.3955
 30
0.0
 11
171.301
 21
1.0815
 31
0.0
  0
LINE
  5
168
330
1D
100
AcDbEntity
  8
0
100
AcDbLine
 10
168.562
 20
0.0055
 30
0.0
 11
169.8
 21
0.3955
 31
0.0
  0
LINE
  5
169
330
1D
100
AcDbEntity
  8
0
100
AcDbLine
 10
167.887
 20
-0.0865
 30
0.0
 11
168.562
 21
0.0055
 31
0.0
  0
LINE
  5
16A
330
1D
100
AcDbEntity
  8
0
100
AcDbLine
 10
167.524
 20
-0.1305
 30
0.0
 11
167.887
 21
-0.0865
 31
0.0
  0
LINE
  5
16B
330
1D
100
AcDbEntity
  8
0
100
AcDbLine
 10
167.524
 20
-0.1305
 30
0.0
 11
167.524
 21
59.8667
 31
0.0
  0
LINE
  5
16C
330
1D
100
AcDbEntity
  8
0
100
AcDbLine
 10
167.524
 20
-0.1305
 30
0.0
 11
167.887
 21
-0.1225
 31
0.0
  0
LINE
  5
16D
330
1D
100
AcDbEntity
  8
0
100
AcDbLine
 10
182.524
 20
59.820242857143
 30
0.0
 11
182.824
 21
59.8241
 31
0.0
  0
LINE
  5
16E
330
1D
100
AcDbEntity
  8
0
100
AcDbLine
 10
182.824
 20
59.8241
 30
0.0
 11
183.724
 21
59.8449
 31
0.0
  0
LINE
  5
16F
330
1D
100
AcDbEntity
  8
0
100
AcDbLine
 10
182.524
 20
59.8667
 30
0.0
 11
182.524
 21
9.8685
 31
0.0
  0
LINE
  5
170
330
1D
100
AcDbEntity
  8
0
100
AcDbLine
 10
182.224
 20
59.8847
 30
0.0
 11
182.524
 21
59.8667
 31
0.0
  0
LINE
  5
171
330
1D
100
AcDbEntity
  8
0
100
AcDbLine
 10
167.824
 20
59.8847
 30
0.0
 11
168.524
 21
59.9018
 31
0.0
  0
LINE
  5
172
330
1D
100
AcDbEntity
  8
0
100
AcDbLine
 10
167.524
 20
59.8667
 30
0.0
 11
167.524
 21
-0.1305
 31
0.0
  0
LINE
  5
173
330
1D
100
AcDbEntity
  8
0
100
AcDbLine
 10
167.524
 20
59.8667
 30
0.0
 11
167.824
 21
59.8847
 31
0.0
  0
LINE
  5
174
330
1D
100
AcDbEntity
  8
0
100
AcDbLine
 10
183.724
 20
59.8885
 30
0.0
 11
184.024
 21
59.8667
 31
0.0
  0
LINE
  5
175
330
1D
100
AcDbEntity
  8
0
100
AcDbLine
 10
184.024
 20
59.8667
 30
0.0
 11
186.024
 21
87.8655
 31
0.0
  0
LINE
  5
176
330
1D
100
AcDbEntity
  8
0
100
AcDbLine
 10
183.724
 20
59.8449
 30
0.0
 11
184.024
 21
59.8667
 31
0.0
  0
LINE
  5
177
330
1D
100
AcDbEntity
  8
0
100
AcDbLine
 10
167.224
 20
59.8241
 30
0.0
 11
167.524
 21
59.820242857143
 31
0.0
  0
LINE
  5
178
330
1D
100
AcDbEntity
  8
0
100
AcDbLine
 10
166.324
 20
59.8449
 30
0.0
 11
167.224
 21
59.8241
 31
0.0
  0
LINE
  5
179
330
1D
100
AcDbEntity
  8
0
100
AcDbLine
 10
166.324
 20
89.9127
 30
0.0
 11
167.924
 21
89.9326
 31
0.0
  0
LINE
  5
17A
330
1D
100
AcDbEntity
  8
0
100
AcDbLine
 10
169.724
 20
59.9169
 30
0.0
 11
171.324
 21
59.9283
 31
0.0
  0
LINE
  5
17B
330
1D
100
AcDbEntity
  8
0
100
AcDbLine
 10
168.524
 20
59.9018
 30
0.0
 11
169.724
 21
59.9169
 31
0.0
  0
LINE
  5
17C
330
1D
100
AcDbEntity
  8
0
100
AcDbLine
 10
168.624
 20
59.9273
 30
0.0
 11
170.524
 21
59.9406
 31
0.0
  0
LINE
  5
17D
330
1D
100
AcDbEntity
  8
0
100
AcDbLine
 10
178.724
 20
59.9283
 30
0.0
 11
180.324
 21
59.9169
 31
0.0
  0
LINE
  5
17E
330
1D
100
AcDbEntity
  8
0
100
AcDbLine
 10
175.024
 20
59.9378
 30
0.0
 11
176.924
 21
59.9349
 31
0.0
  0
LINE
  5
17F
330
1D
100
AcDbEntity
  8
0
100
AcDbLine
 10
176.924
 20
59.9349
 30
0.0
 11
178.724
 21
59.9283
 31
0.0
  0
LINE
  5
180
330
1D
100
AcDbEntity
  8
0
100
AcDbLine
 10
173.124
 20
59.9349
 30
0.0
 11
175.024
 21
59.9378
 31
0.0
  0
LINE
  5
181
330
1D
100
AcDbEntity
  8
0
100
AcDbLine
 10
171.324
 20
59.9283
 30
0.0
 11
173.124
 21
59.9349
 31
0.0
  0
LINE
  5
182
330
1D
100
AcDbEntity
  8
0
100
AcDbLine
 10
181.524
 20
59.9018
 30
0.0
 11
182.224
 21
59.8847
 31
0.0
  0
LINE
  5
183
330
1D
100
AcDbEntity
  8
0
100
AcDbLine
 10
180.324
 20
59.9169
 30
0.0
 11
181.524
 21
59.9018
 31
0.0
  0
LINE
  5
184
330
1D
100
AcDbEntity
  8
0
100
AcDbLine
 10
181.424
 20
59.9273
 30
0.0
 11
182.824
 21
59.9093
 31
0.0
  0
LINE
  5
185
330
1D
100
AcDbEntity
  8
0
100
AcDbLine
 10
182.824
 20
59.9093
 30
0.0
 11
183.724
 21
59.8885
 31
0.0
  0
LINE
  5
186
330
1D
100
AcDbEntity
  8
0
100
AcDbLine
 10
179.524
 20
59.9406
 30
0.0
 11
181.424
 21
59.9273
 31
0.0
  0
LINE
  5
187
330
1D
100
AcDbEntity
  8
0
100
AcDbLine
 10
177.324
 20
59.9491
 30
0.0
 11
179.524
 21
59.9406
 31
0.0
  0
LINE
  5
188
330
1D
100
AcDbEntity
  8
0
100
AcDbLine
 10
170.524
 20
59.9406
 30
0.0
 11
172.724
 21
59.9491
 31
0.0
  0
LINE
  5
189
330
1D
100
AcDbEntity
  8
0
100
AcDbLine
 10
167.924
 20
89.9326
 30
0.0
 11
170.024
 21
89.9478
 31
0.0
  0
LINE
  5
18A
330
1D
100
AcDbEntity
  8
0
100
AcDbLine
 10
170.024
 20
89.9478
 30
0.0
 11
172.424
 21
89.9563
 31
0.0
  0
LINE
  5
18B
330
1D
100
AcDbEntity
  8
0
100
AcDbLine
 10
175.024
 20
59.952
 30
0.0
 11
177.324
 21
59.9491
 31
0.0
  0
LINE
  5
18C
330
1D
100
AcDbEntity
  8
0
100
AcDbLine
 10
182.124
 20
89.9326
 30
0.0
 11
183.724
 21
89.9127
 31
0.0
  0
LINE
  5
18D
330
1D
100
AcDbEntity
  8
0
100
AcDbLine
 10
184.024
 20
89.905133333333
 30
0.0
 11
184.024
 21
91.1305
 31
0.0
  0
LINE
  5
18E
330
1D
100
AcDbEntity
  8
0
100
AcDbLine
 10
183.724
 20
89.9127
 30
0.0
 11
184.624
 21
89.89
 31
0.0
  0
LINE
  5
18F
330
1D
100
AcDbEntity
  8
0
100
AcDbLine
 10
184.624
 20
89.89
 30
0.0
 11
185.024
 21
89.8654
 31
0.0
  0
LINE
  5
190
330
1D
100
AcDbEntity
  8
0
100
AcDbLine
 10
180.024
 20
89.9478
 30
0.0
 11
182.124
 21
89.9326
 31
0.0
  0
LINE
  5
191
330
1D
100
AcDbEntity
  8
0
100
AcDbLine
 10
184.024
 20
91.1305
 30
0.0
 11
184.024
 21
89.905133333333
 31
0.0
  0
LINE
  5
192
330
1D
100
AcDbEntity
  8
0
100
AcDbLine
 10
177.624
 20
89.9563
 30
0.0
 11
180.024
 21
89.9478
 31
0.0
  0
LINE
  5
193
330
1D
100
AcDbEntity
  8
0
100
AcDbLine
 10
175.024
 20
89.9601
 30
0.0
 11
177.624
 21
89.9563
 31
0.0
  0
LINE
  5
194
330
1D
100
AcDbEntity
  8
0
100
AcDbLine
 10
185.024
 20
89.8654
 30
0.0
 11
186.024
 21
87.8655
 31
0.0
  0
LINE
  5
195
330
1D
100
AcDbEntity
  8
0
100
AcDbLine
 10
172.424
 20
89.9563
 30
0.0
 11
175.024
 21
89.9601
 31
0.0
  0
LINE
  5
196
330
1D
100
AcDbEntity
  8
0
100
AcDbLine
 10
172.724
 20
59.9491
 30
0.0
 11
175.024
 21
59.952
 31
0.0
  0
LINE
  5
197
330
1D
100
AcDbEntity
  8
0
100
AcDbLine
 10
167.224
 20
59.9093
 30
0.0
 11
168.624
 21
59.9273
 31
0.0
  0
LINE
  5
198
330
1D
100
AcDbEntity
  8
0
100
AcDbLine
 10
166.324
 20
59.8885
 30
0.0
 11
167.224
 21
59.9093
 31
0.0
  0
LINE
  5
199
330
1D
100
AcDbEntity
  8
0
100
AcDbLine
 10
166.024
 20
59.8667
 30
0.0
 11
166.324
 21
59.8885
 31
0.0
  0
LINE
  5
19A
330
1D
100
AcDbEntity
  8
0
100
AcDbLine
 10
166.024
 20
59.8667
 30
0.0
 11
166.324
 21
59.8449
 31
0.0
  0
LINE
  5
2FD
330
1D
100
AcDbEntity
  8
0
100
AcDbLine
 10
25.35259
 20
152.8275
 30
0.0
 11
25.498008
 21
153.1305
 31
0.0
  0
LINE
  5
2FE
330
1D
100
AcDbEntity
  8
0
100
AcDbLine
 10
25.0
 20
151.1305
 30
0.0
 11
25.35259
 21
152.8275
 31
0.0
  0
LINE
  5
303
330
1D
100
AcDbEntity
  8
0
100
AcDbLine
 10
25.498008
 20
153.1305
 30
0.0
 11
25.986056
 21
153.1305
 31
0.0
  0
LINE
  5
734
330
1D
100
AcDbEntity
  8
0
100
AcDbLine
 10
13.2941
 20
95.1305
 30
0.0
 11
14.0941
 21
95.1305
 31
0.0
  0
LINE
  5
735
330
1D
100
AcDbEntity
  8
0
100
AcDbLine
 10
14.0941
 20
95.1305
 30
0.0
 11
15.0118
 21
95.1305
 31
0.0
  0
LINE
  5
736
330
1D
100
AcDbEntity
  8
0
100
AcDbLine
 10
15.0118
 20
95.1305
 30
0.0
 11
16.0
 21
95.1305
 31
0.0
  0
LINE
  5
737
330
1D
100
AcDbEntity
  8
0
100
AcDbLine
 10
12.6941
 20
95.1305
 30
0.0
 11
13.2941
 21
95.1305
 31
0.0
  0
LINE
  5
738
330
1D
100
AcDbEntity
  8
0
100
AcDbLine
 10
12.3176
 20
95.1305
 30
0.0
 11
12.6941
 21
95.1305
 31
0.0
  0
LINE
  5
739
330
1D
100
AcDbEntity
  8
0
100
AcDbLine
 10
12.1765
 20
95.1305
 30
0.0
 11
12.3176
 21
95.1305
 31
0.0
  0
LINE
  5
73A
330
1D
100
AcDbEntity
  8
0
100
AcDbLine
 10
18.70588
 20
95.1305
 30
0.0
 11
19.30588
 21
95.1305
 31
0.0
  0
LINE
  5
73B
330
1D
100
AcDbEntity
  8
0
100
AcDbLine
 10
19.30588
 20
95.1305
 30
0.0
 11
19.68235
 21
95.1305
 31
0.0
  0
LINE
  5
73C
330
1D
100
AcDbEntity
  8
0
100
AcDbLine
 10
19.82353
 20
95.1305
 30
0.0
 11
19.94118
 21
95.2843
 31
0.0
  0
LINE
  5
73D
330
1D
100
AcDbEntity
  8
0
100
AcDbLine
 10
19.68235
 20
95.1305
 30
0.0
 11
19.82353
 21
95.1305
 31
0.0
  0
LINE
  5
73E
330
1D
100
AcDbEntity
  8
0
100
AcDbLine
 10
17.90588
 20
95.1305
 30
0.0
 11
18.70588
 21
95.1305
 31
0.0
  0
LINE
  5
73F
330
1D
100
AcDbEntity
  8
0
100
AcDbLine
 10
16.98823
 20
95.1305
 30
0.0
 11
17.90588
 21
95.1305
 31
0.0
  0
LINE
  5
740
330
1D
100
AcDbEntity
  8
0
100
AcDbLine
 10
12.0588
 20
95.2843
 30
0.0
 11
12.1765
 21
95.1305
 31
0.0
  0
LINE
  5
741
330
1D
100
AcDbEntity
  8
0
100
AcDbLine
 10
12.0
 20
95.592
 30
0.0
 11
12.0
 21
99.1305
 31
0.0
  0
LINE
  5
742
330
1D
100
AcDbEntity
  8
0
100
AcDbLine
 10
12.0
 20
95.592
 30
0.0
 11
12.0588
 21
95.2843
 31
0.0
  0
LINE
  5
743
330
1D
100
AcDbEntity
  8
0
100
AcDbLine
 10
20.0
 20
95.592
 30
0.0
 11
20.0
 21
99.1305
 31
0.0
  0
LINE
  5
744
330
1D
100
AcDbEntity
  8
0
100
AcDbLine
 10
19.94118
 20
95.2843
 30
0.0
 11
20.0
 21
95.592
 31
0.0
  0
LINE
  5
745
330
1D
100
AcDbEntity
  8
0
100
AcDbLine
 10
16.0
 20
95.1305
 30
0.0
 11
16.98823
 21
95.1305
 31
0.0
  0
LINE
  5
746
330
1D
100
AcDbEntity
  8
0
100
AcDbLine
 10
25.0
 20
96.8707
 30
0.0
 11
25.0
 21
96.9753
 31
0.0
  0
LINE
  5
747
330
1D
100
AcDbEntity
  8
0
100
AcDbLine
 10
13.1765
 20
99.1305
 30
0.0
 11
14.0118
 21
99.1305
 31
0.0
  0
LINE
  5
748
330
1D
100
AcDbEntity
  8
0
100
AcDbLine
 10
12.5412
 20
99.1305
 30
0.0
 11
13.1765
 21
99.1305
 31
0.0
  0
LINE
  5
749
330
1D
100
AcDbEntity
  8
0
100
AcDbLine
 10
12.1412
 20
99.1305
 30
0.0
 11
12.5412
 21
99.1305
 31
0.0
  0
LINE
  5
74A
330
1D
100
AcDbEntity
  8
0
100
AcDbLine
 10
12.0
 20
99.1305
 30
0.0
 11
12.0
 21
95.592
 31
0.0
  0
LINE
  5
74B
330
1D
100
AcDbEntity
  8
0
100
AcDbLine
 10
12.0
 20
99.1305
 30
0.0
 11
12.1412
 21
99.1305
 31
0.0
  0
LINE
  5
74C
330
1D
100
AcDbEntity
  8
0
100
AcDbLine
 10
12.6177
 20
99.1305
 30
0.0
 11
13.6177
 21
99.1305
 31
0.0
  0
LINE
  5
74D
330
1D
100
AcDbEntity
  8
0
100
AcDbLine
 10
14.0118
 20
99.1305
 30
0.0
 11
14.9765
 21
99.1305
 31
0.0
  0
LINE
  5
74E
330
1D
100
AcDbEntity
  8
0
100
AcDbLine
 10
14.9765
 20
99.1305
 30
0.0
 11
16.0
 21
99.1305
 31
0.0
  0
LINE
  5
74F
330
1D
100
AcDbEntity
  8
0
100
AcDbLine
 10
17.02353
 20
99.1305
 30
0.0
 11
17.98823
 21
99.1305
 31
0.0
  0
LINE
  5
750
330
1D
100
AcDbEntity
  8
0
100
AcDbLine
 10
13.6177
 20
99.1305
 30
0.0
 11
14.7647
 21
99.1305
 31
0.0
  0
LINE
  5
751
330
1D
100
AcDbEntity
  8
0
100
AcDbLine
 10
14.7647
 20
99.1305
 30
0.0
 11
16.0
 21
99.1305
 31
0.0
  0
LINE
  5
752
330
1D
100
AcDbEntity
  8
0
100
AcDbLine
 10
18.82353
 20
99.1305
 30
0.0
 11
19.45882
 21
99.1305
 31
0.0
  0
LINE
  5
753
330
1D
100
AcDbEntity
  8
0
100
AcDbLine
 10
17.98823
 20
99.1305
 30
0.0
 11
18.82353
 21
99.1305
 31
0.0
  0
LINE
  5
754
330
1D
100
AcDbEntity
  8
0
100
AcDbLine
 10
19.45882
 20
99.1305
 30
0.0
 11
19.85882
 21
99.1305
 31
0.0
  0
LINE
  5
755
330
1D
100
AcDbEntity
  8
0
100
AcDbLine
 10
19.85882
 20
99.1305
 30
0.0
 11
20.0
 21
99.1305
 31
0.0
  0
LINE
  5
756
330
1D
100
AcDbEntity
  8
0
100
AcDbLine
 10
19.38235
 20
99.1305
 30
0.0
 11
20.13235
 21
99.1305
 31
0.0
  0
LINE
  5
757
330
1D
100
AcDbEntity
  8
0
100
AcDbLine
 10
18.38235
 20
99.1305
 30
0.0
 11
19.38235
 21
99.1305
 31
0.0
  0
LINE
  5
758
330
1D
100
AcDbEntity
  8
0
100
AcDbLine
 10
17.23529
 20
99.1305
 30
0.0
 11
18.38235
 21
99.1305
 31
0.0
  0
LINE
  5
759
330
1D
100
AcDbEntity
  8
0
100
AcDbLine
 10
16.0
 20
99.1305
 30
0.0
 11
17.23529
 21
99.1305
 31
0.0
  0
LINE
  5
75A
330
1D
100
AcDbEntity
  8
0
100
AcDbLine
 10
16.0
 20
99.1305
 30
0.0
 11
17.02353
 21
99.1305
 31
0.0
  0
LINE
  5
75B
330
1D
100
AcDbEntity
  8
0
100
AcDbLine
 10
11.8677
 20
99.1305
 30
0.0
 11
12.0
 21
99.1305
 31
0.0
  0
LINE
  5
75C
330
1D
100
AcDbEntity
  8
0
100
AcDbLine
 10
11.8677
 20
99.1305
 30
0.0
 11
12.6177
 21
99.1305
 31
0.0
  0
LINE
  5
75D
330
1D
100
AcDbEntity
  8
0
100
AcDbLine
 10
11.3971
 20
99.1305
 30
0.0
 11
11.8677
 21
99.1305
 31
0.0
  0
LINE
  5
75E
330
1D
100
AcDbEntity
  8
0
100
AcDbLine
 10
11.2206
 20
99.1305
 30
0.0
 11
11.3971
 21
99.1305
 31
0.0
  0
LINE
  5
75F
330
1D
100
AcDbEntity
  8
0
100
AcDbLine
 10
20.13235
 20
99.1305
 30
0.0
 11
20.60294
 21
99.1305
 31
0.0
  0
LINE
  5
760
330
1D
100
AcDbEntity
  8
0
100
AcDbLine
 10
20.77941
 20
99.1305
 30
0.0
 11
20.92647
 21
99.3228
 31
0.0
  0
LINE
  5
761
330
1D
100
AcDbEntity
  8
0
100
AcDbLine
 10
20.60294
 20
99.1305
 30
0.0
 11
20.77941
 21
99.1305
 31
0.0
  0
LINE
  5
762
330
1D
100
AcDbEntity
  8
0
100
AcDbLine
 10
24.0
 20
99.1305
 30
0.0
 11
24.0
 21
99.3516
 31
0.0
  0
LINE
  5
763
330
1D
100
AcDbEntity
  8
0
100
AcDbLine
 10
24.0
 20
99.1305
 30
0.0
 11
25.0
 21
99.1305
 31
0.0
  0
LINE
  5
764
330
1D
100
AcDbEntity
  8
0
100
AcDbLine
 10
20.0
 20
99.1305
 30
0.0
 11
20.0
 21
95.592
 31
0.0
  0
LINE
  5
765
330
1D
100
AcDbEntity
  8
0
100
AcDbLine
 10
20.0
 20
99.1305
 30
0.0
 11
20.13235
 21
99.1305
 31
0.0
  0
LINE
  5
766
330
1D
100
AcDbEntity
  8
0
100
AcDbLine
 10
25.0
 20
98.6341
 30
0.0
 11
25.0
 21
99.1305
 31
0.0
  0
LINE
  5
767
330
1D
100
AcDbEntity
  8
0
100
AcDbLine
 10
25.0
 20
98.1701
 30
0.0
 11
25.0
 21
97.4015
 31
0.0
  0
LINE
  5
768
330
1D
100
AcDbEntity
  8
0
100
AcDbLine
 10
25.0
 20
98.1701
 30
0.0
 11
25.0
 21
100.1048
 31
0.0
  0
LINE
  5
769
330
1D
100
AcDbEntity
  8
0
100
AcDbLine
 10
25.0
 20
97.4015
 30
0.0
 11
25.0
 21
96.9753
 31
0.0
  0
LINE
  5
76A
330
1D
100
AcDbEntity
  8
0
100
AcDbLine
 10
25.0
 20
97.4015
 30
0.0
 11
25.0
 21
98.1701
 31
0.0
  0
LINE
  5
76B
330
1D
100
AcDbEntity
  8
0
100
AcDbLine
 10
25.0
 20
96.9753
 30
0.0
 11
25.0
 21
96.8707
 31
0.0
  0
LINE
  5
76C
330
1D
100
AcDbEntity
  8
0
100
AcDbLine
 10
25.0
 20
96.9753
 30
0.0
 11
25.0
 21
97.4015
 31
0.0
  0
LINE
  5
76D
330
1D
100
AcDbEntity
  8
0
100
AcDbLine
 10
11.0735
 20
99.3228
 30
0.0
 11
11.2206
 21
99.1305
 31
0.0
  0
LINE
  5
76E
330
1D
100
AcDbEntity
  8
0
100
AcDbLine
 10
20.92647
 20
99.3228
 30
0.0
 11
21.0
 21
99.7074
 31
0.0
  0
LINE
  5
76F
330
1D
100
AcDbEntity
  8
0
100
AcDbLine
 10
21.0
 20
99.7074
 30
0.0
 11
21.0
 21
100.1305
 31
0.0
  0
LINE
  5
770
330
1D
100
AcDbEntity
  8
0
100
AcDbLine
 10
11.0
 20
99.7074
 30
0.0
 11
11.0
 21
100.1305
 31
0.0
  0
LINE
  5
771
330
1D
100
AcDbEntity
  8
0
100
AcDbLine
 10
11.0
 20
99.7074
 30
0.0
 11
11.0735
 21
99.3228
 31
0.0
  0
LINE
  5
772
330
1D
100
AcDbEntity
  8
0
100
AcDbLine
 10
24.0
 20
99.8821
 30
0.0
 11
24.0
 21
100.1305
 31
0.0
  0
LINE
  5
773
330
1D
100
AcDbEntity
  8
0
100
AcDbLine
 10
24.0
 20
99.8821
 30
0.0
 11
24.0
 21
99.3516
 31
0.0
  0
LINE
  5
774
330
1D
100
AcDbEntity
  8
0
100
AcDbLine
 10
24.0
 20
99.8821
 30
0.0
 11
24.0
 21
100.7663
 31
0.0
  0
LINE
  5
775
330
1D
100
AcDbEntity
  8
0
100
AcDbLine
 10
24.0
 20
99.3516
 30
0.0
 11
24.0
 21
99.8821
 31
0.0
  0
LINE
  5
776
330
1D
100
AcDbEntity
  8
0
100
AcDbLine
 10
24.0
 20
99.3516
 30
0.0
 11
24.0
 21
99.1305
 31
0.0
  0
LINE
  5
777
330
1D
100
AcDbEntity
  8
0
100
AcDbLine
 10
25.0
 20
100.1048
 30
0.0
 11
25.0
 21
98.1701
 31
0.0
  0
LINE
  5
778
330
1D
100
AcDbEntity
  8
0
100
AcDbLine
 10
25.0
 20
100.1048
 30
0.0
 11
25.0
 21
101.8383
 31
0.0
  0
LINE
  5
779
330
1D
100
AcDbEntity
  8
0
100
AcDbLine
 10
11.0
 20
100.1305
 30
0.0
 11
11.0
 21
99.7074
 31
0.0
  0
LINE
  5
77A
330
1D
100
AcDbEntity
  8
0
100
AcDbLine
 10
0.5769
 20
100.1305
 30
0.0
 11
11.016883441478
 21
100.1305
 31
0.0
  0
LINE
  5
77B
330
1D
100
AcDbEntity
  8
0
100
AcDbLine
 10
21.0
 20
100.1305
 30
0.0
 11
24.0
 21
100.1305
 31
0.0
  0
LINE
  5
77C
330
1D
100
AcDbEntity
  8
0
100
AcDbLine
 10
21.0
 20
100.1305
 30
0.0
 11
24.0
 21
100.1305
 31
0.0
  0
LINE
  5
77D
330
1D
100
AcDbEntity
  8
0
100
AcDbLine
 10
21.0
 20
100.1305
 30
0.0
 11
21.0
 21
99.7074
 31
0.0
  0
LINE
  5
77E
330
1D
100
AcDbEntity
  8
0
100
AcDbLine
 10
0.0
 20
103.2717
 30
0.0
 11
0.0
 21
104.6481
 31
0.0
  0
LINE
  5
77F
330
1D
100
AcDbEntity
  8
0
100
AcDbLine
 10
0.0
 20
103.2717
 30
0.0
 11
0.0
 21
102.0717
 31
0.0
  0
LINE
  5
780
330
1D
100
AcDbEntity
  8
0
100
AcDbLine
 10
0.0
 20
106.1305
 30
0.0
 11
0.0
 21
104.6481
 31
0.0
  0
LINE
  5
781
330
1D
100
AcDbEntity
  8
0
100
AcDbLine
 10
0.0
 20
106.1305
 30
0.0
 11
0.0
 21
134.1305
 31
0.0
  0
LINE
  5
782
330
1D
100
AcDbEntity
  8
0
100
AcDbLine
 10
0.0
 20
104.6481
 30
0.0
 11
0.0
 21
106.1305
 31
0.0
  0
LINE
  5
783
330
1D
100
AcDbEntity
  8
0
100
AcDbLine
 10
0.0
 20
104.6481
 30
0.0
 11
0.0
 21
103.2717
 31
0.0
  0
LINE
  5
784
330
1D
100
AcDbEntity
  8
0
100
AcDbLine
 10
0.0
 20
102.0717
 30
0.0
 11
0.0
 21
101.1717
 31
0.0
  0
LINE
  5
785
330
1D
100
AcDbEntity
  8
0
100
AcDbLine
 10
0.0
 20
102.0717
 30
0.0
 11
0.0
 21
103.2717
 31
0.0
  0
LINE
  5
786
330
1D
100
AcDbEntity
  8
0
100
AcDbLine
 10
0.0
 20
101.1717
 30
0.0
 11
0.0
 21
102.0717
 31
0.0
  0
LINE
  5
787
330
1D
100
AcDbEntity
  8
0
100
AcDbLine
 10
0.0
 20
101.1717
 30
0.0
 11
0.0
 21
100.607
 31
0.0
  0
LINE
  5
788
330
1D
100
AcDbEntity
  8
0
100
AcDbLine
 10
0.0
 20
100.607
 30
0.0
 11
0.0
 21
101.1717
 31
0.0
  0
LINE
  5
789
330
1D
100
AcDbEntity
  8
0
100
AcDbLine
 10
0.0
 20
100.607
 30
0.0
 11
0.0
 21
100.3952
 31
0.0
  0
LINE
  5
78A
330
1D
100
AcDbEntity
  8
0
100
AcDbLine
 10
0.0
 20
100.3952
 30
0.0
 11
0.1923
 21
100.2187
 31
0.0
  0
LINE
  5
78B
330
1D
100
AcDbEntity
  8
0
100
AcDbLine
 10
0.0
 20
100.3952
 30
0.0
 11
0.0
 21
100.607
 31
0.0
  0
LINE
  5
78C
330
1D
100
AcDbEntity
  8
0
100
AcDbLine
 10
24.0
 20
100.3423
 30
0.0
 11
24.0
 21
100.1305
 31
0.0
  0
LINE
  5
78D
330
1D
100
AcDbEntity
  8
0
100
AcDbLine
 10
24.0
 20
100.3423
 30
0.0
 11
24.0
 21
100.9423
 31
0.0
  0
LINE
  5
78E
330
1D
100
AcDbEntity
  8
0
100
AcDbLine
 10
24.0
 20
103.1481
 30
0.0
 11
24.0
 21
101.8952
 31
0.0
  0
LINE
  5
78F
330
1D
100
AcDbEntity
  8
0
100
AcDbLine
 10
24.0
 20
103.1481
 30
0.0
 11
24.0
 21
104.5952
 31
0.0
  0
LINE
  5
790
330
1D
100
AcDbEntity
  8
0
100
AcDbLine
 10
24.0
 20
101.8952
 30
0.0
 11
24.0
 21
100.9423
 31
0.0
  0
LINE
  5
791
330
1D
100
AcDbEntity
  8
0
100
AcDbLine
 10
24.0
 20
101.8952
 30
0.0
 11
24.0
 21
103.1481
 31
0.0
  0
LINE
  5
792
330
1D
100
AcDbEntity
  8
0
100
AcDbLine
 10
24.0
 20
100.9423
 30
0.0
 11
24.0
 21
100.3423
 31
0.0
  0
LINE
  5
793
330
1D
100
AcDbEntity
  8
0
100
AcDbLine
 10
24.0
 20
100.9423
 30
0.0
 11
24.0
 21
101.8952
 31
0.0
  0
LINE
  5
794
330
1D
100
AcDbEntity
  8
0
100
AcDbLine
 10
24.0
 20
104.5952
 30
0.0
 11
24.0
 21
103.1481
 31
0.0
  0
LINE
  5
795
330
1D
100
AcDbEntity
  8
0
100
AcDbLine
 10
24.0
 20
104.5952
 30
0.0
 11
24.0
 21
106.1305
 31
0.0
  0
LINE
  5
796
330
1D
100
AcDbEntity
  8
0
100
AcDbLine
 10
24.0
 20
106.1305
 30
0.0
 11
24.0
 21
134.1305
 31
0.0
  0
LINE
  5
797
330
1D
100
AcDbEntity
  8
0
100
AcDbLine
 10
24.0
 20
106.1305
 30
0.0
 11
24.0
 21
104.5952
 31
0.0
  0
LINE
  5
798
330
1D
100
AcDbEntity
  8
0
100
AcDbLine
 10
24.0
 20
107.3537
 30
0.0
 11
24.0
 21
105.2979
 31
0.0
  0
LINE
  5
799
330
1D
100
AcDbEntity
  8
0
100
AcDbLine
 10
24.0
 20
107.3537
 30
0.0
 11
24.0
 21
109.6747
 31
0.0
  0
LINE
  5
79A
330
1D
100
AcDbEntity
  8
0
100
AcDbLine
 10
24.0
 20
109.6747
 30
0.0
 11
24.0
 21
107.3537
 31
0.0
  0
LINE
  5
79B
330
1D
100
AcDbEntity
  8
0
100
AcDbLine
 10
24.0
 20
109.6747
 30
0.0
 11
24.0
 21
112.1063
 31
0.0
  0
LINE
  5
79C
330
1D
100
AcDbEntity
  8
0
100
AcDbLine
 10
24.0
 20
112.1063
 30
0.0
 11
24.0
 21
109.6747
 31
0.0
  0
LINE
  5
79D
330
1D
100
AcDbEntity
  8
0
100
AcDbLine
 10
24.0
 20
112.1063
 30
0.0
 11
24.0
 21
114.7147
 31
0.0
  0
LINE
  5
79E
330
1D
100
AcDbEntity
  8
0
100
AcDbLine
 10
24.0
 20
105.2979
 30
0.0
 11
24.0
 21
103.5073
 31
0.0
  0
LINE
  5
79F
330
1D
100
AcDbEntity
  8
0
100
AcDbLine
 10
24.0
 20
105.2979
 30
0.0
 11
24.0
 21
107.3537
 31
0.0
  0
LINE
  5
7A0
330
1D
100
AcDbEntity
  8
0
100
AcDbLine
 10
24.0
 20
103.5073
 30
0.0
 11
24.0
 21
101.9379
 31
0.0
  0
LINE
  5
7A1
330
1D
100
AcDbEntity
  8
0
100
AcDbLine
 10
24.0
 20
103.5073
 30
0.0
 11
24.0
 21
105.2979
 31
0.0
  0
LINE
  5
7A2
330
1D
100
AcDbEntity
  8
0
100
AcDbLine
 10
24.0
 20
101.9379
 30
0.0
 11
24.0
 21
100.7663
 31
0.0
  0
LINE
  5
7A3
330
1D
100
AcDbEntity
  8
0
100
AcDbLine
 10
24.0
 20
101.9379
 30
0.0
 11
24.0
 21
103.5073
 31
0.0
  0
LINE
  5
7A4
330
1D
100
AcDbEntity
  8
0
100
AcDbLine
 10
24.0
 20
100.7663
 30
0.0
 11
24.0
 21
99.8821
 31
0.0
  0
LINE
  5
7A5
330
1D
100
AcDbEntity
  8
0
100
AcDbLine
 10
24.0
 20
100.7663
 30
0.0
 11
24.0
 21
101.9379
 31
0.0
  0
LINE
  5
7A6
330
1D
100
AcDbEntity
  8
0
100
AcDbLine
 10
0.1923
 20
100.2187
 30
0.0
 11
0.5769
 21
100.1305
 31
0.0
  0
LINE
  5
7A7
330
1D
100
AcDbEntity
  8
0
100
AcDbLine
 10
24.0
 20
100.1305
 30
0.0
 11
24.0
 21
99.8821
 31
0.0
  0
LINE
  5
7A8
330
1D
100
AcDbEntity
  8
0
100
AcDbLine
 10
24.0
 20
100.1305
 30
0.0
 11
24.0
 21
100.3423
 31
0.0
  0
LINE
  5
7A9
330
1D
100
AcDbEntity
  8
0
100
AcDbLine
 10
25.0
 20
101.8383
 30
0.0
 11
25.0
 21
100.1048
 31
0.0
  0
LINE
  5
7AA
330
1D
100
AcDbEntity
  8
0
100
AcDbLine
 10
25.0
 20
101.8383
 30
0.0
 11
25.0
 21
105.0714
 31
0.0
  0
LINE
  5
7AB
330
1D
100
AcDbEntity
  8
0
100
AcDbLine
 10
25.0
 20
105.0714
 30
0.0
 11
25.0
 21
101.8383
 31
0.0
  0
LINE
  5
7AC
330
1D
100
AcDbEntity
  8
0
100
AcDbLine
 10
25.0
 20
105.0714
 30
0.0
 11
25.0
 21
106.5739
 31
0.0
  0
LINE
  5
7AD
330
1D
100
AcDbEntity
  8
0
100
AcDbLine
 10
24.0
 20
114.7147
 30
0.0
 11
24.0
 21
112.1063
 31
0.0
  0
LINE
  5
7AE
330
1D
100
AcDbEntity
  8
0
100
AcDbLine
 10
24.0
 20
114.7147
 30
0.0
 11
24.0
 21
117.3894
 31
0.0
  0
LINE
  5
7AF
330
1D
100
AcDbEntity
  8
0
100
AcDbLine
 10
24.0
 20
117.3894
 30
0.0
 11
24.0
 21
114.7147
 31
0.0
  0
LINE
  5
7B0
330
1D
100
AcDbEntity
  8
0
100
AcDbLine
 10
24.0
 20
117.3894
 30
0.0
 11
24.0
 21
120.1305
 31
0.0
  0
LINE
  5
7B1
330
1D
100
AcDbEntity
  8
0
100
AcDbLine
 10
24.0
 20
120.1305
 30
0.0
 11
24.0
 21
117.3894
 31
0.0
  0
LINE
  5
7B2
330
1D
100
AcDbEntity
  8
0
100
AcDbLine
 10
24.0
 20
120.1305
 30
0.0
 11
24.0
 21
122.8716
 31
0.0
  0
LINE
  5
7B3
330
1D
100
AcDbEntity
  8
0
100
AcDbLine
 10
25.0
 20
119.2842
 30
0.0
 11
25.0
 21
116.0859
 31
0.0
  0
LINE
  5
7B4
330
1D
100
AcDbEntity
  8
0
100
AcDbLine
 10
25.0
 20
119.2842
 30
0.0
 11
25.0
 21
121.6977
 31
0.0
  0
LINE
  5
7B5
330
1D
100
AcDbEntity
  8
0
100
AcDbLine
 10
25.0
 20
116.0859
 30
0.0
 11
25.0
 21
113.2054
 31
0.0
  0
LINE
  5
7B6
330
1D
100
AcDbEntity
  8
0
100
AcDbLine
 10
25.0
 20
116.0859
 30
0.0
 11
25.0
 21
119.2842
 31
0.0
  0
LINE
  5
7B7
330
1D
100
AcDbEntity
  8
0
100
AcDbLine
 10
25.0
 20
113.2054
 30
0.0
 11
25.0
 21
109.7492
 31
0.0
  0
LINE
  5
7B8
330
1D
100
AcDbEntity
  8
0
100
AcDbLine
 10
25.0
 20
113.2054
 30
0.0
 11
25.0
 21
116.0859
 31
0.0
  0
LINE
  5
7B9
330
1D
100
AcDbEntity
  8
0
100
AcDbLine
 10
25.0
 20
109.7492
 30
0.0
 11
25.0
 21
106.5739
 31
0.0
  0
LINE
  5
7BA
330
1D
100
AcDbEntity
  8
0
100
AcDbLine
 10
25.0
 20
109.7492
 30
0.0
 11
25.0
 21
113.2054
 31
0.0
  0
LINE
  5
7BB
330
1D
100
AcDbEntity
  8
0
100
AcDbLine
 10
24.0
 20
128.1547
 30
0.0
 11
24.0
 21
125.5463
 31
0.0
  0
LINE
  5
7BC
330
1D
100
AcDbEntity
  8
0
100
AcDbLine
 10
24.0
 20
128.1547
 30
0.0
 11
24.0
 21
130.5863
 31
0.0
  0
LINE
  5
7BD
330
1D
100
AcDbEntity
  8
0
100
AcDbLine
 10
24.0
 20
125.5463
 30
0.0
 11
24.0
 21
122.8716
 31
0.0
  0
LINE
  5
7BE
330
1D
100
AcDbEntity
  8
0
100
AcDbLine
 10
24.0
 20
125.5463
 30
0.0
 11
24.0
 21
128.1547
 31
0.0
  0
LINE
  5
7BF
330
1D
100
AcDbEntity
  8
0
100
AcDbLine
 10
24.0
 20
122.8716
 30
0.0
 11
24.0
 21
120.1305
 31
0.0
  0
LINE
  5
7C0
330
1D
100
AcDbEntity
  8
0
100
AcDbLine
 10
24.0
 20
122.8716
 30
0.0
 11
24.0
 21
125.5463
 31
0.0
  0
LINE
  5
7C1
330
1D
100
AcDbEntity
  8
0
100
AcDbLine
 10
25.0
 20
121.6977
 30
0.0
 11
25.0
 21
119.2842
 31
0.0
  0
LINE
  5
7C2
330
1D
100
AcDbEntity
  8
0
100
AcDbLine
 10
25.0
 20
121.6977
 30
0.0
 11
25.0
 21
125.3301
 31
0.0
  0
LINE
  5
7C3
330
1D
100
AcDbEntity
  8
0
100
AcDbLine
 10
25.0
 20
125.3301
 30
0.0
 11
25.0
 21
121.6977
 31
0.0
  0
LINE
  5
7C4
330
1D
100
AcDbEntity
  8
0
100
AcDbLine
 10
25.0
 20
125.3301
 30
0.0
 11
25.0
 21
129.0451
 31
0.0
  0
LINE
  5
7C5
330
1D
100
AcDbEntity
  8
0
100
AcDbLine
 10
24.0
 20
134.1305
 30
0.0
 11
24.0
 21
106.1305
 31
0.0
  0
LINE
  5
7C6
330
1D
100
AcDbEntity
  8
0
100
AcDbLine
 10
24.0
 20
134.1305
 30
0.0
 11
24.0
 21
135.6658
 31
0.0
  0
LINE
  5
7C7
330
1D
100
AcDbEntity
  8
0
100
AcDbLine
 10
24.0
 20
132.9073
 30
0.0
 11
24.0
 21
130.5863
 31
0.0
  0
LINE
  5
7C8
330
1D
100
AcDbEntity
  8
0
100
AcDbLine
 10
24.0
 20
132.9073
 30
0.0
 11
24.0
 21
134.9631
 31
0.0
  0
LINE
  5
7C9
330
1D
100
AcDbEntity
  8
0
100
AcDbLine
 10
24.0
 20
130.5863
 30
0.0
 11
24.0
 21
128.1547
 31
0.0
  0
LINE
  5
7CA
330
1D
100
AcDbEntity
  8
0
100
AcDbLine
 10
24.0
 20
130.5863
 30
0.0
 11
24.0
 21
132.9073
 31
0.0
  0
LINE
  5
7CB
330
1D
100
AcDbEntity
  8
0
100
AcDbLine
 10
0.0
 20
134.1305
 30
0.0
 11
0.0
 21
135.6129
 31
0.0
  0
LINE
  5
7CC
330
1D
100
AcDbEntity
  8
0
100
AcDbLine
 10
0.0
 20
134.1305
 30
0.0
 11
0.0
 21
106.1305
 31
0.0
  0
LINE
  5
7CD
330
1D
100
AcDbEntity
  8
0
100
AcDbLine
 10
25.0
 20
129.0451
 30
0.0
 11
25.0
 21
125.3301
 31
0.0
  0
LINE
  5
7CE
330
1D
100
AcDbEntity
  8
0
100
AcDbLine
 10
25.0
 20
129.0451
 30
0.0
 11
25.0
 21
131.5124
 31
0.0
  0
LINE
  5
7CF
330
1D
100
AcDbEntity
  8
0
100
AcDbLine
 10
25.0
 20
131.5124
 30
0.0
 11
25.0
 21
134.2626
 31
0.0
  0
LINE
  5
7D0
330
1D
100
AcDbEntity
  8
0
100
AcDbLine
 10
25.0
 20
131.5124
 30
0.0
 11
25.0
 21
129.0451
 31
0.0
  0
LINE
  5
7D1
330
1D
100
AcDbEntity
  8
0
100
AcDbLine
 10
0.0
 20
136.9893
 30
0.0
 11
0.0
 21
138.1893
 31
0.0
  0
LINE
  5
7D2
330
1D
100
AcDbEntity
  8
0
100
AcDbLine
 10
0.0
 20
136.9893
 30
0.0
 11
0.0
 21
135.6129
 31
0.0
  0
LINE
  5
7D3
330
1D
100
AcDbEntity
  8
0
100
AcDbLine
 10
0.0
 20
135.6129
 30
0.0
 11
0.0
 21
136.9893
 31
0.0
  0
LINE
  5
7D4
330
1D
100
AcDbEntity
  8
0
100
AcDbLine
 10
0.0
 20
135.6129
 30
0.0
 11
0.0
 21
134.1305
 31
0.0
  0
LINE
  5
7D5
330
1D
100
AcDbEntity
  8
0
100
AcDbLine
 10
24.0
 20
137.1129
 30
0.0
 11
24.0
 21
135.6658
 31
0.0
  0
LINE
  5
7D6
330
1D
100
AcDbEntity
  8
0
100
AcDbLine
 10
24.0
 20
137.1129
 30
0.0
 11
24.0
 21
138.3658
 31
0.0
  0
LINE
  5
7D7
330
1D
100
AcDbEntity
  8
0
100
AcDbLine
 10
24.0
 20
135.6658
 30
0.0
 11
24.0
 21
134.1305
 31
0.0
  0
LINE
  5
7D8
330
1D
100
AcDbEntity
  8
0
100
AcDbLine
 10
24.0
 20
135.6658
 30
0.0
 11
24.0
 21
137.1129
 31
0.0
  0
LINE
  5
7D9
330
1D
100
AcDbEntity
  8
0
100
AcDbLine
 10
24.0
 20
134.9631
 30
0.0
 11
24.0
 21
136.7537
 31
0.0
  0
LINE
  5
7DA
330
1D
100
AcDbEntity
  8
0
100
AcDbLine
 10
24.0
 20
134.9631
 30
0.0
 11
24.0
 21
132.9073
 31
0.0
  0
LINE
  5
7DB
330
1D
100
AcDbEntity
  8
0
100
AcDbLine
 10
24.0
 20
136.7537
 30
0.0
 11
24.0
 21
134.9631
 31
0.0
  0
LINE
  5
7DC
330
1D
100
AcDbEntity
  8
0
100
AcDbLine
 10
24.0
 20
136.7537
 30
0.0
 11
24.0
 21
138.3231
 31
0.0
  0
LINE
  5
7DD
330
1D
100
AcDbEntity
  8
0
100
AcDbLine
 10
24.0
 20
138.3658
 30
0.0
 11
24.0
 21
139.3187
 31
0.0
  0
LINE
  5
7DE
330
1D
100
AcDbEntity
  8
0
100
AcDbLine
 10
24.0
 20
138.3658
 30
0.0
 11
24.0
 21
137.1129
 31
0.0
  0
LINE
  5
7DF
330
1D
100
AcDbEntity
  8
0
100
AcDbLine
 10
24.0
 20
138.3231
 30
0.0
 11
24.0
 21
136.7537
 31
0.0
  0
LINE
  5
7E0
330
1D
100
AcDbEntity
  8
0
100
AcDbLine
 10
24.0
 20
138.3231
 30
0.0
 11
24.0
 21
139.4947
 31
0.0
  0
LINE
  5
7E1
330
1D
100
AcDbEntity
  8
0
100
AcDbLine
 10
0.0
 20
138.1893
 30
0.0
 11
0.0
 21
139.0893
 31
0.0
  0
LINE
  5
7E2
330
1D
100
AcDbEntity
  8
0
100
AcDbLine
 10
0.0
 20
138.1893
 30
0.0
 11
0.0
 21
136.9893
 31
0.0
  0
LINE
  5
7E3
330
1D
100
AcDbEntity
  8
0
100
AcDbLine
 10
0.0
 20
139.0893
 30
0.0
 11
0.0
 21
139.654
 31
0.0
  0
LINE
  5
7E4
330
1D
100
AcDbEntity
  8
0
100
AcDbLine
 10
0.0
 20
139.0893
 30
0.0
 11
0.0
 21
138.1893
 31
0.0
  0
LINE
  5
7E5
330
1D
100
AcDbEntity
  8
0
100
AcDbLine
 10
0.0
 20
139.8658
 30
0.0
 11
0.1923
 21
140.0423
 31
0.0
  0
LINE
  5
7E6
330
1D
100
AcDbEntity
  8
0
100
AcDbLine
 10
0.0
 20
139.8658
 30
0.0
 11
0.0
 21
139.654
 31
0.0
  0
LINE
  5
7E7
330
1D
100
AcDbEntity
  8
0
100
AcDbLine
 10
0.0
 20
139.654
 30
0.0
 11
0.0
 21
139.8658
 31
0.0
  0
LINE
  5
7E8
330
1D
100
AcDbEntity
  8
0
100
AcDbLine
 10
0.0
 20
139.654
 30
0.0
 11
0.0
 21
139.0893
 31
0.0
  0
LINE
  5
7E9
330
1D
100
AcDbEntity
  8
0
100
AcDbLine
 10
0.1923
 20
140.0423
 30
0.0
 11
0.5769
 21
140.1305
 31
0.0
  0
LINE
  5
7EA
330
1D
100
AcDbEntity
  8
0
100
AcDbLine
 10
24.0
 20
139.3187
 30
0.0
 11
24.0
 21
138.3658
 31
0.0
  0
LINE
  5
7EB
330
1D
100
AcDbEntity
  8
0
100
AcDbLine
 10
24.0
 20
139.3187
 30
0.0
 11
24.0
 21
139.9187
 31
0.0
  0
LINE
  5
7EC
330
1D
100
AcDbEntity
  8
0
100
AcDbLine
 10
24.0
 20
139.9187
 30
0.0
 11
24.0
 21
139.3187
 31
0.0
  0
LINE
  5
7ED
330
1D
100
AcDbEntity
  8
0
100
AcDbLine
 10
24.0
 20
139.9187
 30
0.0
 11
24.0
 21
140.1305
 31
0.0
  0
LINE
  5
7EE
330
1D
100
AcDbEntity
  8
0
100
AcDbLine
 10
24.0
 20
139.4947
 30
0.0
 11
24.0
 21
138.3231
 31
0.0
  0
LINE
  5
7EF
330
1D
100
AcDbEntity
  8
0
100
AcDbLine
 10
24.0
 20
139.4947
 30
0.0
 11
24.0
 21
140.3789
 31
0.0
  0
LINE
  5
7F0
330
1D
100
AcDbEntity
  8
0
100
AcDbLine
 10
24.0
 20
140.1305
 30
0.0
 11
24.0
 21
140.3789
 31
0.0
  0
LINE
  5
7F1
330
1D
100
AcDbEntity
  8
0
100
AcDbLine
 10
24.0
 20
140.1305
 30
0.0
 11
24.0
 21
139.9187
 31
0.0
  0
LINE
  5
7F2
330
1D
100
AcDbEntity
  8
0
100
AcDbLine
 10
24.0
 20
140.3789
 30
0.0
 11
24.0
 21
140.9094
 31
0.0
  0
LINE
  5
7F3
330
1D
100
AcDbEntity
  8
0
100
AcDbLine
 10
24.0
 20
140.3789
 30
0.0
 11
24.0
 21
140.1305
 31
0.0
  0
LINE
  5
7F4
330
1D
100
AcDbEntity
  8
0
100
AcDbLine
 10
24.0
 20
140.3789
 30
0.0
 11
24.0
 21
139.4947
 31
0.0
  0
LINE
  5
7F5
330
1D
100
AcDbEntity
  8
0
100
AcDbLine
 10
24.0
 20
140.9094
 30
0.0
 11
24.0
 21
141.1305
 31
0.0
  0
LINE
  5
7F6
330
1D
100
AcDbEntity
  8
0
100
AcDbLine
 10
24.0
 20
140.9094
 30
0.0
 11
24.0
 21
140.3789
 31
0.0
  0
LINE
  5
7F7
330
1D
100
AcDbEntity
  8
0
100
AcDbLine
 10
24.0
 20
141.1305
 30
0.0
 11
25.0
 21
141.1305
 31
0.0
  0
LINE
  5
7F8
330
1D
100
AcDbEntity
  8
0
100
AcDbLine
 10
24.0
 20
141.1305
 30
0.0
 11
24.0
 21
140.9094
 31
0.0
  0
LINE
  5
7F9
330
1D
100
AcDbEntity
  8
0
100
AcDbLine
 10
0.5769
 20
140.1305
 30
0.0
 11
24.0
 21
140.1305
 31
0.0
  0
LINE
  5
7FA
330
1D
100
AcDbEntity
  8
0
100
AcDbLine
 10
25.0
 20
141.1305
 30
0.0
 11
25.0
 21
141.3335
 31
0.0
  0
LINE
  5
7FB
330
1D
100
AcDbEntity
  8
0
100
AcDbLine
 10
25.0
 20
141.3245
 30
0.0
 11
25.0
 21
138.8897
 31
0.0
  0
LINE
  5
7FC
330
1D
100
AcDbEntity
  8
0
100
AcDbLine
 10
25.0
 20
141.3245
 30
0.0
 11
25.0
 21
143.7685
 31
0.0
  0
LINE
  5
7FD
330
1D
100
AcDbEntity
  8
0
100
AcDbLine
 10
25.0
 20
138.8897
 30
0.0
 11
25.0
 21
136.4322
 31
0.0
  0
LINE
  5
7FE
330
1D
100
AcDbEntity
  8
0
100
AcDbLine
 10
25.0
 20
138.8897
 30
0.0
 11
25.0
 21
141.3245
 31
0.0
  0
LINE
  5
7FF
330
1D
100
AcDbEntity
  8
0
100
AcDbLine
 10
25.0
 20
136.4322
 30
0.0
 11
25.0
 21
134.2626
 31
0.0
  0
LINE
  5
800
330
1D
100
AcDbEntity
  8
0
100
AcDbLine
 10
25.0
 20
136.4322
 30
0.0
 11
25.0
 21
138.8897
 31
0.0
  0
LINE
  5
801
330
1D
100
AcDbEntity
  8
0
100
AcDbLine
 10
25.0
 20
134.2626
 30
0.0
 11
25.0
 21
136.4322
 31
0.0
  0
LINE
  5
802
330
1D
100
AcDbEntity
  8
0
100
AcDbLine
 10
25.0
 20
134.2626
 30
0.0
 11
25.0
 21
131.5124
 31
0.0
  0
LINE
  5
803
330
1D
100
AcDbEntity
  8
0
100
AcDbLine
 10
25.0
 20
106.5739
 30
0.0
 11
25.0
 21
105.0714
 31
0.0
  0
LINE
  5
804
330
1D
100
AcDbEntity
  8
0
100
AcDbLine
 10
25.0
 20
106.5739
 30
0.0
 11
25.0
 21
109.7492
 31
0.0
  0
LINE
  5
805
330
1D
100
AcDbEntity
  8
0
100
AcDbLine
 10
25.0
 20
99.1305
 30
0.0
 11
25.0
 21
98.6341
 31
0.0
  0
LINE
  5
806
330
1D
100
AcDbEntity
  8
0
100
AcDbLine
 10
25.119
 20
95.2866
 30
0.0
 11
25.146687458936
 21
95.166774080158
 31
0.0
  0
LINE
  5
807
330
1D
100
AcDbEntity
  8
0
100
AcDbLine
 10
25.0
 20
143.7685
 30
0.0
 11
25.0
 21
141.3245
 31
0.0
  0
LINE
  5
808
330
1D
100
AcDbEntity
  8
0
100
AcDbLine
 10
25.0
 20
143.7685
 30
0.0
 11
25.0
 21
146.2295
 31
0.0
  0
LINE
  5
809
330
1D
100
AcDbEntity
  8
0
100
AcDbLine
 10
25.0
 20
146.2295
 30
0.0
 11
25.0
 21
143.7685
 31
0.0
  0
LINE
  5
80A
330
1D
100
AcDbEntity
  8
0
100
AcDbLine
 10
25.0
 20
146.2295
 30
0.0
 11
25.0
 21
148.7075
 31
0.0
  0
LINE
  5
80B
330
1D
100
AcDbEntity
  8
0
100
AcDbLine
 10
25.0
 20
148.7075
 30
0.0
 11
25.0
 21
146.2295
 31
0.0
  0
LINE
  5
80C
330
1D
100
AcDbEntity
  8
0
100
AcDbLine
 10
25.0
 20
148.7075
 30
0.0
 11
25.0
 21
149.1305
 31
0.0
  0
LINE
  5
80D
330
1D
100
AcDbEntity
  8
0
100
AcDbLine
 10
25.0
 20
151.1305
 30
0.0
 11
25.35259
 21
149.4325
 31
0.0
  0
LINE
  5
80E
330
1D
100
AcDbEntity
  8
0
100
AcDbLine
 10
25.0
 20
149.1305
 30
0.0
 11
25.156
 21
149.1305
 31
0.0
  0
LINE
  5
80F
330
1D
100
AcDbEntity
  8
0
100
AcDbLine
 10
25.0
 20
149.1305
 30
0.0
 11
25.0
 21
148.7075
 31
0.0
  0
LINE
  5
810
330
1D
100
AcDbEntity
  8
0
100
AcDbLine
 10
25.0
 20
151.1305
 30
0.0
 11
25.35259
 21
152.8275
 31
0.0
  0
LINE
  5
811
330
1D
100
AcDbEntity
  8
0
100
AcDbLine
 10
25.156
 20
149.1305
 30
0.0
 11
25.577
 21
149.1305
 31
0.0
  0
LINE
  5
812
330
1D
100
AcDbEntity
  8
0
100
AcDbLine
 10
25.0
 20
141.8745
 30
0.0
 11
25.0
 21
141.3335
 31
0.0
  0
LINE
  5
813
330
1D
100
AcDbEntity
  8
0
100
AcDbLine
 10
25.0
 20
141.3335
 30
0.0
 11
25.0
 21
141.1305
 31
0.0
  0
LINE
  5
814
330
1D
100
AcDbEntity
  8
0
100
AcDbLine
 10
25.0
 20
141.3335
 30
0.0
 11
25.0
 21
141.8745
 31
0.0
  0
LINE
  5
815
330
1D
100
AcDbEntity
  8
0
100
AcDbLine
 10
25.229
 20
94.731
 30
0.0
 11
25.300520278055
 21
94.500912541369
 31
0.0
  0
LINE
  5
816
330
1D
100
AcDbEntity
  8
0
100
AcDbLine
 10
25.325560840916
 20
94.411887868142
 30
0.0
 11
25.371
 21
94.2421
 31
0.0
  0
LINE
  5
817
330
1D
100
AcDbEntity
  8
0
100
AcDbLine
 10
25.177
 20
94.967
 30
0.0
 11
25.204513571283
 21
94.864192846273
 31
0.0
  0
LINE
  5
818
330
1D
100
AcDbEntity
  8
0
100
AcDbLine
 10
26.896
 20
92.0068
 30
0.0
 11
27.546
 21
91.6095
 31
0.0
  0
LINE
  5
819
330
1D
100
AcDbEntity
  8
0
100
AcDbLine
 10
25.577
 20
149.1305
 30
0.0
 11
26.218
 21
149.1305
 31
0.0
  0
LINE
  5
81A
330
1D
100
AcDbEntity
  8
0
100
AcDbLine
 10
26.218
 20
149.1305
 30
0.0
 11
27.065
 21
149.1305
 31
0.0
  0
LINE
  5
81B
330
1D
100
AcDbEntity
  8
0
100
AcDbLine
 10
27.546
 20
91.6095
 30
0.0
 11
28.247
 21
91.3396
 31
0.0
  0
LINE
  5
81C
330
1D
100
AcDbEntity
  8
0
100
AcDbLine
 10
28.247
 20
91.3396
 30
0.0
 11
29.06
 21
91.1763
 31
0.0
  0
LINE
  5
81D
330
1D
100
AcDbEntity
  8
0
100
AcDbLine
 10
29.06
 20
91.1763
 30
0.0
 11
29.695
 21
91.1305
 31
0.0
  0
LINE
  5
81E
330
1D
100
AcDbEntity
  8
0
100
AcDbLine
 10
27.065
 20
149.1305
 30
0.0
 11
28.103
 21
149.1305
 31
0.0
  0
LINE
  5
81F
330
1D
100
AcDbEntity
  8
0
100
AcDbLine
 10
28.103
 20
149.1305
 30
0.0
 11
29.324
 21
149.1305
 31
0.0
  0
LINE
  5
820
330
1D
100
AcDbEntity
  8
0
100
AcDbLine
 10
29.695
 20
91.1305
 30
0.0
 11
182.44
 21
91.1305
 31
0.0
  0
LINE
  5
911
330
1D
100
AcDbEntity
  8
0
100
AcDbLine
 10
34.256
 20
149.1305
 30
0.0
 11
35.913
 21
149.1305
 31
0.0
  0
LINE
  5
912
330
1D
100
AcDbEntity
  8
0
100
AcDbLine
 10
30.911
 20
149.1305
 30
0.0
 11
32.666
 21
149.1305
 31
0.0
  0
LINE
  5
913
330
1D
100
AcDbEntity
  8
0
100
AcDbLine
 10
32.666
 20
149.1305
 30
0.0
 11
34.256
 21
149.1305
 31
0.0
  0
LINE
  5
914
330
1D
100
AcDbEntity
  8
0
100
AcDbLine
 10
29.324
 20
149.1305
 30
0.0
 11
30.911
 21
149.1305
 31
0.0
  0
LINE
  5
915
330
1D
100
AcDbEntity
  8
0
100
AcDbLine
 10
25.35259
 20
149.4325
 30
0.0
 11
25.498008
 21
149.1305
 31
0.0
  0
LINE
  5
916
330
1D
100
AcDbEntity
  8
0
100
AcDbLine
 10
25.35259
 20
152.8275
 30
0.0
 11
25.498008
 21
153.1305
 31
0.0
  0
LINE
  5
917
330
1D
100
AcDbEntity
  8
0
100
AcDbLine
 10
27.4004
 20
153.1305
 30
0.0
 11
29.60359
 21
153.1305
 31
0.0
  0
LINE
  5
918
330
1D
100
AcDbEntity
  8
0
100
AcDbLine
 10
29.60359
 20
153.1305
 30
0.0
 11
32.38048
 21
153.1305
 31
0.0
  0
LINE
  5
919
330
1D
100
AcDbEntity
  8
0
100
AcDbLine
 10
32.38048
 20
153.1305
 30
0.0
 11
35.4582
 21
153.1305
 31
0.0
  0
LINE
  5
91A
330
1D
100
AcDbEntity
  8
0
100
AcDbLine
 10
25.986056
 20
153.1305
 30
0.0
 11
27.4004
 21
153.1305
 31
0.0
  0
LINE
  5
91B
330
1D
100
AcDbEntity
  8
0
100
AcDbLine
 10
25.498008
 20
153.1305
 30
0.0
 11
25.986056
 21
153.1305
 31
0.0
  0
LINE
  5
91C
330
1D
100
AcDbEntity
  8
0
100
AcDbLine
 10
35.4582
 20
153.1305
 30
0.0
 11
175.0
 21
153.1305
 31
0.0
  0
LINE
  5
91D
330
1D
100
AcDbEntity
  8
0
100
AcDbLine
 10
35.913
 20
149.1305
 30
0.0
 11
175.0
 21
149.1305
 31
0.0
  0
LINE
  5
91F
330
1D
100
AcDbEntity
  8
0
100
AcDbLine
 10
26.896
 20
92.0068
 30
0.0
 11
26.509993550921
 21
92.363391262502
 31
0.0
  0
LINE
  5
920
330
1D
100
AcDbEntity
  8
0
100
AcDbLine
 10
26.509993550921
 20
92.363391262502
 30
0.0
 11
26.118242940781
 21
92.81317900007
 31
0.0
  0
LINE
  5
921
330
1D
100
AcDbEntity
  8
0
100
AcDbLine
 10
26.118242940781
 20
92.81317900007
 30
0.0
 11
25.765183748926
 21
93.277476019495
 31
0.0
  0
LINE
  5
922
330
1D
100
AcDbEntity
  8
0
100
AcDbLine
 10
25.765183748926
 20
93.277476019495
 30
0.0
 11
25.559659204653
 21
93.706364156732
 31
0.0
  0
LINE
  5
923
330
1D
100
AcDbEntity
  8
0
100
AcDbLine
 10
25.559659204653
 20
93.706364156732
 30
0.0
 11
25.371
 21
94.2421
 31
0.0
  0
LINE
  5
924
330
1D
100
AcDbEntity
  8
0
100
AcDbLine
 10
25.325560840916
 20
94.411887868142
 30
0.0
 11
25.300520278055
 21
94.500912541369
 31
0.0
  0
LINE
  5
925
330
1D
100
AcDbEntity
  8
0
100
AcDbLine
 10
25.229
 20
94.731
 30
0.0
 11
25.204513571283
 21
94.864192846273
 31
0.0
  0
LINE
  5
926
330
1D
100
AcDbEntity
  8
0
100
AcDbLine
 10
25.177
 20
94.967
 30
0.0
 11
25.146687458936
 21
95.166774080158
 31
0.0
  0
LINE
  5
927
330
1D
100
AcDbEntity
  8
0
100
AcDbLine
 10
25.0
 20
96.8707
 30
0.0
 11
25.016218708007
 21
96.347183859896
 31
0.0
  0
LINE
  5
928
330
1D
100
AcDbEntity
  8
0
100
AcDbLine
 10
25.016218708007
 20
96.347183859896
 30
0.0
 11
25.045080274359
 21
95.829717667797
 31
0.0
  0
LINE
  5
929
330
1D
100
AcDbEntity
  8
0
100
AcDbLine
 10
25.045080274359
 20
95.829717667797
 30
0.0
 11
25.119
 21
95.2866
 31
0.0
  0
LINE
  5
B21
330
1D
100
AcDbEntity
  8
0
100
AcDbLine
 10
324.954919725641
 20
95.829717667797
 30
0.0
 11
324.881
 21
95.2866
 31
0.0
  0
LINE
  5
B22
330
1D
100
AcDbEntity
  8
0
100
AcDbLine
 10
324.983781291993
 20
96.347183859896
 30
0.0
 11
324.954919725641
 21
95.829717667797
 31
0.0
  0
LINE
  5
B23
330
1D
100
AcDbEntity
  8
0
100
AcDbLine
 10
325.0
 20
96.8707
 30
0.0
 11
324.983781291993
 21
96.347183859896
 31
0.0
  0
LINE
  5
B24
330
1D
100
AcDbEntity
  8
0
100
AcDbLine
 10
324.823
 20
94.967
 30
0.0
 11
324.853312541064
 21
95.166774080158
 31
0.0
  0
LINE
  5
B25
330
1D
100
AcDbEntity
  8
0
100
AcDbLine
 10
324.771
 20
94.731
 30
0.0
 11
324.795486428717
 21
94.864192846273
 31
0.0
  0
LINE
  5
B26
330
1D
100
AcDbEntity
  8
0
100
AcDbLine
 10
324.674439159084
 20
94.411887868142
 30
0.0
 11
324.699479721945
 21
94.500912541369
 31
0.0
  0
LINE
  5
B27
330
1D
100
AcDbEntity
  8
0
100
AcDbLine
 10
324.440340795347
 20
93.706364156732
 30
0.0
 11
324.629
 21
94.2421
 31
0.0
  0
LINE
  5
B28
330
1D
100
AcDbEntity
  8
0
100
AcDbLine
 10
324.234816251074
 20
93.277476019495
 30
0.0
 11
324.440340795347
 21
93.706364156732
 31
0.0
  0
LINE
  5
B29
330
1D
100
AcDbEntity
  8
0
100
AcDbLine
 10
323.881757059219
 20
92.81317900007
 30
0.0
 11
324.234816251074
 21
93.277476019495
 31
0.0
  0
LINE
  5
B2A
330
1D
100
AcDbEntity
  8
0
100
AcDbLine
 10
323.490006449079
 20
92.363391262502
 30
0.0
 11
323.881757059219
 21
92.81317900007
 31
0.0
  0
LINE
  5
B2B
330
1D
100
AcDbEntity
  8
0
100
AcDbLine
 10
323.104
 20
92.0068
 30
0.0
 11
323.490006449079
 21
92.363391262502
 31
0.0
  0
LINE
  5
B2C
330
1D
100
AcDbEntity
  8
0
100
AcDbLine
 10
314.087
 20
149.1305
 30
0.0
 11
175.0
 21
149.1305
 31
0.0
  0
LINE
  5
B2D
330
1D
100
AcDbEntity
  8
0
100
AcDbLine
 10
314.5418
 20
153.1305
 30
0.0
 11
175.0
 21
153.1305
 31
0.0
  0
LINE
  5
B2E
330
1D
100
AcDbEntity
  8
0
100
AcDbLine
 10
324.501992
 20
153.1305
 30
0.0
 11
324.013944
 21
153.1305
 31
0.0
  0
LINE
  5
B2F
330
1D
100
AcDbEntity
  8
0
100
AcDbLine
 10
324.013944
 20
153.1305
 30
0.0
 11
322.5996
 21
153.1305
 31
0.0
  0
LINE
  5
B30
330
1D
100
AcDbEntity
  8
0
100
AcDbLine
 10
317.61952
 20
153.1305
 30
0.0
 11
314.5418
 21
153.1305
 31
0.0
  0
LINE
  5
B31
330
1D
100
AcDbEntity
  8
0
100
AcDbLine
 10
320.39641
 20
153.1305
 30
0.0
 11
317.61952
 21
153.1305
 31
0.0
  0
LINE
  5
B32
330
1D
100
AcDbEntity
  8
0
100
AcDbLine
 10
322.5996
 20
153.1305
 30
0.0
 11
320.39641
 21
153.1305
 31
0.0
  0
LINE
  5
B33
330
1D
100
AcDbEntity
  8
0
100
AcDbLine
 10
324.64741
 20
152.8275
 30
0.0
 11
324.501992
 21
153.1305
 31
0.0
  0
LINE
  5
B34
330
1D
100
AcDbEntity
  8
0
100
AcDbLine
 10
324.64741
 20
149.4325
 30
0.0
 11
324.501992
 21
149.1305
 31
0.0
  0
LINE
  5
B35
330
1D
100
AcDbEntity
  8
0
100
AcDbLine
 10
320.676
 20
149.1305
 30
0.0
 11
319.089
 21
149.1305
 31
0.0
  0
LINE
  5
B36
330
1D
100
AcDbEntity
  8
0
100
AcDbLine
 10
317.334
 20
149.1305
 30
0.0
 11
315.744
 21
149.1305
 31
0.0
  0
LINE
  5
B37
330
1D
100
AcDbEntity
  8
0
100
AcDbLine
 10
319.089
 20
149.1305
 30
0.0
 11
317.334
 21
149.1305
 31
0.0
  0
LINE
  5
B38
330
1D
100
AcDbEntity
  8
0
100
AcDbLine
 10
315.744
 20
149.1305
 30
0.0
 11
314.087
 21
149.1305
 31
0.0
  0
LINE
  5
B39
330
1D
100
AcDbEntity
  8
0
100
AcDbLine
 10
320.305
 20
91.1305
 30
0.0
 11
182.44
 21
91.1305
 31
0.0
  0
LINE
  5
B3A
330
1D
100
AcDbEntity
  8
0
100
AcDbLine
 10
321.897
 20
149.1305
 30
0.0
 11
320.676
 21
149.1305
 31
0.0
  0
LINE
  5
B3B
330
1D
100
AcDbEntity
  8
0
100
AcDbLine
 10
322.935
 20
149.1305
 30
0.0
 11
321.897
 21
149.1305
 31
0.0
  0
LINE
  5
B3C
330
1D
100
AcDbEntity
  8
0
100
AcDbLine
 10
320.94
 20
91.1763
 30
0.0
 11
320.305
 21
91.1305
 31
0.0
  0
LINE
  5
B3D
330
1D
100
AcDbEntity
  8
0
100
AcDbLine
 10
321.753
 20
91.3396
 30
0.0
 11
320.94
 21
91.1763
 31
0.0
  0
LINE
  5
B3E
330
1D
100
AcDbEntity
  8
0
100
AcDbLine
 10
322.454
 20
91.6095
 30
0.0
 11
321.753
 21
91.3396
 31
0.0
  0
LINE
  5
B3F
330
1D
100
AcDbEntity
  8
0
100
AcDbLine
 10
323.782
 20
149.1305
 30
0.0
 11
322.935
 21
149.1305
 31
0.0
  0
LINE
  5
B40
330
1D
100
AcDbEntity
  8
0
100
AcDbLine
 10
324.423
 20
149.1305
 30
0.0
 11
323.782
 21
149.1305
 31
0.0
  0
LINE
  5
B41
330
1D
100
AcDbEntity
  8
0
100
AcDbLine
 10
323.104
 20
92.0068
 30
0.0
 11
322.454
 21
91.6095
 31
0.0
  0
LINE
  5
B42
330
1D
100
AcDbEntity
  8
0
100
AcDbLine
 10
324.823
 20
94.967
 30
0.0
 11
324.795486428717
 21
94.864192846273
 31
0.0
  0
LINE
  5
B43
330
1D
100
AcDbEntity
  8
0
100
AcDbLine
 10
324.674439159084
 20
94.411887868142
 30
0.0
 11
324.629
 21
94.2421
 31
0.0
  0
LINE
  5
B44
330
1D
100
AcDbEntity
  8
0
100
AcDbLine
 10
324.771
 20
94.731
 30
0.0
 11
324.699479721945
 21
94.500912541369
 31
0.0
  0
LINE
  5
B45
330
1D
100
AcDbEntity
  8
0
100
AcDbLine
 10
325.0
 20
141.3335
 30
0.0
 11
325.0
 21
141.8745
 31
0.0
  0
LINE
  5
B46
330
1D
100
AcDbEntity
  8
0
100
AcDbLine
 10
325.0
 20
141.3335
 30
0.0
 11
325.0
 21
141.1305
 31
0.0
  0
LINE
  5
B47
330
1D
100
AcDbEntity
  8
0
100
AcDbLine
 10
325.0
 20
141.8745
 30
0.0
 11
325.0
 21
141.3335
 31
0.0
  0
LINE
  5
B48
330
1D
100
AcDbEntity
  8
0
100
AcDbLine
 10
324.844
 20
149.1305
 30
0.0
 11
324.423
 21
149.1305
 31
0.0
  0
LINE
  5
B49
330
1D
100
AcDbEntity
  8
0
100
AcDbLine
 10
325.0
 20
151.1305
 30
0.0
 11
324.64741
 21
152.8275
 31
0.0
  0
LINE
  5
B4A
330
1D
100
AcDbEntity
  8
0
100
AcDbLine
 10
325.0
 20
149.1305
 30
0.0
 11
325.0
 21
148.7075
 31
0.0
  0
LINE
  5
B4B
330
1D
100
AcDbEntity
  8
0
100
AcDbLine
 10
325.0
 20
149.1305
 30
0.0
 11
324.844
 21
149.1305
 31
0.0
  0
LINE
  5
B4C
330
1D
100
AcDbEntity
  8
0
100
AcDbLine
 10
325.0
 20
151.1305
 30
0.0
 11
324.64741
 21
149.4325
 31
0.0
  0
LINE
  5
B4D
330
1D
100
AcDbEntity
  8
0
100
AcDbLine
 10
325.0
 20
148.7075
 30
0.0
 11
325.0
 21
149.1305
 31
0.0
  0
LINE
  5
B4E
330
1D
100
AcDbEntity
  8
0
100
AcDbLine
 10
325.0
 20
148.7075
 30
0.0
 11
325.0
 21
146.2295
 31
0.0
  0
LINE
  5
B4F
330
1D
100
AcDbEntity
  8
0
100
AcDbLine
 10
325.0
 20
146.2295
 30
0.0
 11
325.0
 21
148.7075
 31
0.0
  0
LINE
  5
B50
330
1D
100
AcDbEntity
  8
0
100
AcDbLine
 10
325.0
 20
146.2295
 30
0.0
 11
325.0
 21
143.7685
 31
0.0
  0
LINE
  5
B51
330
1D
100
AcDbEntity
  8
0
100
AcDbLine
 10
325.0
 20
143.7685
 30
0.0
 11
325.0
 21
146.2295
 31
0.0
  0
LINE
  5
B52
330
1D
100
AcDbEntity
  8
0
100
AcDbLine
 10
325.0
 20
143.7685
 30
0.0
 11
325.0
 21
141.3245
 31
0.0
  0
LINE
  5
B53
330
1D
100
AcDbEntity
  8
0
100
AcDbLine
 10
324.881
 20
95.2866
 30
0.0
 11
324.853312541064
 21
95.166774080158
 31
0.0
  0
LINE
  5
B54
330
1D
100
AcDbEntity
  8
0
100
AcDbLine
 10
325.0
 20
99.1305
 30
0.0
 11
325.0
 21
98.6341
 31
0.0
  0
LINE
  5
B55
330
1D
100
AcDbEntity
  8
0
100
AcDbLine
 10
325.0
 20
106.5739
 30
0.0
 11
325.0
 21
109.7492
 31
0.0
  0
LINE
  5
B56
330
1D
100
AcDbEntity
  8
0
100
AcDbLine
 10
325.0
 20
106.5739
 30
0.0
 11
325.0
 21
105.0714
 31
0.0
  0
LINE
  5
B57
330
1D
100
AcDbEntity
  8
0
100
AcDbLine
 10
325.0
 20
134.2626
 30
0.0
 11
325.0
 21
131.5124
 31
0.0
  0
LINE
  5
B58
330
1D
100
AcDbEntity
  8
0
100
AcDbLine
 10
325.0
 20
134.2626
 30
0.0
 11
325.0
 21
136.4322
 31
0.0
  0
LINE
  5
B59
330
1D
100
AcDbEntity
  8
0
100
AcDbLine
 10
325.0
 20
136.4322
 30
0.0
 11
325.0
 21
138.8897
 31
0.0
  0
LINE
  5
B5A
330
1D
100
AcDbEntity
  8
0
100
AcDbLine
 10
325.0
 20
136.4322
 30
0.0
 11
325.0
 21
134.2626
 31
0.0
  0
LINE
  5
B5B
330
1D
100
AcDbEntity
  8
0
100
AcDbLine
 10
325.0
 20
138.8897
 30
0.0
 11
325.0
 21
141.3245
 31
0.0
  0
LINE
  5
B5C
330
1D
100
AcDbEntity
  8
0
100
AcDbLine
 10
325.0
 20
138.8897
 30
0.0
 11
325.0
 21
136.4322
 31
0.0
  0
LINE
  5
B5D
330
1D
100
AcDbEntity
  8
0
100
AcDbLine
 10
325.0
 20
141.3245
 30
0.0
 11
325.0
 21
143.7685
 31
0.0
  0
LINE
  5
B5E
330
1D
100
AcDbEntity
  8
0
100
AcDbLine
 10
325.0
 20
141.3245
 30
0.0
 11
325.0
 21
138.8897
 31
0.0
  0
LINE
  5
B5F
330
1D
100
AcDbEntity
  8
0
100
AcDbLine
 10
325.0
 20
141.1305
 30
0.0
 11
325.0
 21
141.3335
 31
0.0
  0
LINE
  5
B60
330
1D
100
AcDbEntity
  8
0
100
AcDbLine
 10
349.4231
 20
140.1305
 30
0.0
 11
326.0
 21
140.1305
 31
0.0
  0
LINE
  5
B61
330
1D
100
AcDbEntity
  8
0
100
AcDbLine
 10
326.0
 20
141.1305
 30
0.0
 11
326.0
 21
140.9094
 31
0.0
  0
LINE
  5
B62
330
1D
100
AcDbEntity
  8
0
100
AcDbLine
 10
326.0
 20
141.1305
 30
0.0
 11
325.0
 21
141.1305
 31
0.0
  0
LINE
  5
B63
330
1D
100
AcDbEntity
  8
0
100
AcDbLine
 10
326.0
 20
140.9094
 30
0.0
 11
326.0
 21
140.3789
 31
0.0
  0
LINE
  5
B64
330
1D
100
AcDbEntity
  8
0
100
AcDbLine
 10
326.0
 20
140.9094
 30
0.0
 11
326.0
 21
141.1305
 31
0.0
  0
LINE
  5
B65
330
1D
100
AcDbEntity
  8
0
100
AcDbLine
 10
326.0
 20
140.3789
 30
0.0
 11
326.0
 21
139.4947
 31
0.0
  0
LINE
  5
B66
330
1D
100
AcDbEntity
  8
0
100
AcDbLine
 10
326.0
 20
140.3789
 30
0.0
 11
326.0
 21
140.1305
 31
0.0
  0
LINE
  5
B67
330
1D
100
AcDbEntity
  8
0
100
AcDbLine
 10
326.0
 20
140.3789
 30
0.0
 11
326.0
 21
140.9094
 31
0.0
  0
LINE
  5
B68
330
1D
100
AcDbEntity
  8
0
100
AcDbLine
 10
326.0
 20
140.1305
 30
0.0
 11
326.0
 21
139.9187
 31
0.0
  0
LINE
  5
B69
330
1D
100
AcDbEntity
  8
0
100
AcDbLine
 10
326.0
 20
140.1305
 30
0.0
 11
326.0
 21
140.3789
 31
0.0
  0
LINE
  5
B6A
330
1D
100
AcDbEntity
  8
0
100
AcDbLine
 10
326.0
 20
139.4947
 30
0.0
 11
326.0
 21
140.3789
 31
0.0
  0
LINE
  5
B6B
330
1D
100
AcDbEntity
  8
0
100
AcDbLine
 10
326.0
 20
139.4947
 30
0.0
 11
326.0
 21
138.3231
 31
0.0
  0
LINE
  5
B6C
330
1D
100
AcDbEntity
  8
0
100
AcDbLine
 10
326.0
 20
139.9187
 30
0.0
 11
326.0
 21
140.1305
 31
0.0
  0
LINE
  5
B6D
330
1D
100
AcDbEntity
  8
0
100
AcDbLine
 10
326.0
 20
139.9187
 30
0.0
 11
326.0
 21
139.3187
 31
0.0
  0
LINE
  5
B6E
330
1D
100
AcDbEntity
  8
0
100
AcDbLine
 10
326.0
 20
139.3187
 30
0.0
 11
326.0
 21
139.9187
 31
0.0
  0
LINE
  5
B6F
330
1D
100
AcDbEntity
  8
0
100
AcDbLine
 10
326.0
 20
139.3187
 30
0.0
 11
326.0
 21
138.3658
 31
0.0
  0
LINE
  5
B70
330
1D
100
AcDbEntity
  8
0
100
AcDbLine
 10
349.8077
 20
140.0423
 30
0.0
 11
349.4231
 21
140.1305
 31
0.0
  0
LINE
  5
B71
330
1D
100
AcDbEntity
  8
0
100
AcDbLine
 10
350.0
 20
139.654
 30
0.0
 11
350.0
 21
139.0893
 31
0.0
  0
LINE
  5
B72
330
1D
100
AcDbEntity
  8
0
100
AcDbLine
 10
350.0
 20
139.654
 30
0.0
 11
350.0
 21
139.8658
 31
0.0
  0
LINE
  5
B73
330
1D
100
AcDbEntity
  8
0
100
AcDbLine
 10
350.0
 20
139.8658
 30
0.0
 11
350.0
 21
139.654
 31
0.0
  0
LINE
  5
B74
330
1D
100
AcDbEntity
  8
0
100
AcDbLine
 10
350.0
 20
139.8658
 30
0.0
 11
349.8077
 21
140.0423
 31
0.0
  0
LINE
  5
B75
330
1D
100
AcDbEntity
  8
0
100
AcDbLine
 10
350.0
 20
139.0893
 30
0.0
 11
350.0
 21
138.1893
 31
0.0
  0
LINE
  5
B76
330
1D
100
AcDbEntity
  8
0
100
AcDbLine
 10
350.0
 20
139.0893
 30
0.0
 11
350.0
 21
139.654
 31
0.0
  0
LINE
  5
B77
330
1D
100
AcDbEntity
  8
0
100
AcDbLine
 10
350.0
 20
138.1893
 30
0.0
 11
350.0
 21
136.9893
 31
0.0
  0
LINE
  5
B78
330
1D
100
AcDbEntity
  8
0
100
AcDbLine
 10
350.0
 20
138.1893
 30
0.0
 11
350.0
 21
139.0893
 31
0.0
  0
LINE
  5
B79
330
1D
100
AcDbEntity
  8
0
100
AcDbLine
 10
326.0
 20
138.3231
 30
0.0
 11
326.0
 21
139.4947
 31
0.0
  0
LINE
  5
B7A
330
1D
100
AcDbEntity
  8
0
100
AcDbLine
 10
326.0
 20
138.3231
 30
0.0
 11
326.0
 21
136.7537
 31
0.0
  0
LINE
  5
B7B
330
1D
100
AcDbEntity
  8
0
100
AcDbLine
 10
326.0
 20
138.3658
 30
0.0
 11
326.0
 21
137.1129
 31
0.0
  0
LINE
  5
B7C
330
1D
100
AcDbEntity
  8
0
100
AcDbLine
 10
326.0
 20
138.3658
 30
0.0
 11
326.0
 21
139.3187
 31
0.0
  0
LINE
  5
B7D
330
1D
100
AcDbEntity
  8
0
100
AcDbLine
 10
326.0
 20
136.7537
 30
0.0
 11
326.0
 21
138.3231
 31
0.0
  0
LINE
  5
B7E
330
1D
100
AcDbEntity
  8
0
100
AcDbLine
 10
326.0
 20
136.7537
 30
0.0
 11
326.0
 21
134.9631
 31
0.0
  0
LINE
  5
B7F
330
1D
100
AcDbEntity
  8
0
100
AcDbLine
 10
326.0
 20
134.9631
 30
0.0
 11
326.0
 21
132.9073
 31
0.0
  0
LINE
  5
B80
330
1D
100
AcDbEntity
  8
0
100
AcDbLine
 10
326.0
 20
134.9631
 30
0.0
 11
326.0
 21
136.7537
 31
0.0
  0
LINE
  5
B81
330
1D
100
AcDbEntity
  8
0
100
AcDbLine
 10
326.0
 20
135.6658
 30
0.0
 11
326.0
 21
137.1129
 31
0.0
  0
LINE
  5
B82
330
1D
100
AcDbEntity
  8
0
100
AcDbLine
 10
326.0
 20
135.6658
 30
0.0
 11
326.0
 21
134.1305
 31
0.0
  0
LINE
  5
B83
330
1D
100
AcDbEntity
  8
0
100
AcDbLine
 10
326.0
 20
137.1129
 30
0.0
 11
326.0
 21
138.3658
 31
0.0
  0
LINE
  5
B84
330
1D
100
AcDbEntity
  8
0
100
AcDbLine
 10
326.0
 20
137.1129
 30
0.0
 11
326.0
 21
135.6658
 31
0.0
  0
LINE
  5
B85
330
1D
100
AcDbEntity
  8
0
100
AcDbLine
 10
350.0
 20
135.6129
 30
0.0
 11
350.0
 21
134.1305
 31
0.0
  0
LINE
  5
B86
330
1D
100
AcDbEntity
  8
0
100
AcDbLine
 10
350.0
 20
135.6129
 30
0.0
 11
350.0
 21
136.9893
 31
0.0
  0
LINE
  5
B87
330
1D
100
AcDbEntity
  8
0
100
AcDbLine
 10
350.0
 20
136.9893
 30
0.0
 11
350.0
 21
135.6129
 31
0.0
  0
LINE
  5
B88
330
1D
100
AcDbEntity
  8
0
100
AcDbLine
 10
350.0
 20
136.9893
 30
0.0
 11
350.0
 21
138.1893
 31
0.0
  0
LINE
  5
B89
330
1D
100
AcDbEntity
  8
0
100
AcDbLine
 10
325.0
 20
131.5124
 30
0.0
 11
325.0
 21
129.0451
 31
0.0
  0
LINE
  5
B8A
330
1D
100
AcDbEntity
  8
0
100
AcDbLine
 10
325.0
 20
131.5124
 30
0.0
 11
325.0
 21
134.2626
 31
0.0
  0
LINE
  5
B8B
330
1D
100
AcDbEntity
  8
0
100
AcDbLine
 10
325.0
 20
129.0451
 30
0.0
 11
325.0
 21
131.5124
 31
0.0
  0
LINE
  5
B8C
330
1D
100
AcDbEntity
  8
0
100
AcDbLine
 10
325.0
 20
129.0451
 30
0.0
 11
325.0
 21
125.3301
 31
0.0
  0
LINE
  5
B8D
330
1D
100
AcDbEntity
  8
0
100
AcDbLine
 10
350.0
 20
134.1305
 30
0.0
 11
350.0
 21
106.1305
 31
0.0
  0
LINE
  5
B8E
330
1D
100
AcDbEntity
  8
0
100
AcDbLine
 10
350.0
 20
134.1305
 30
0.0
 11
350.0
 21
135.6129
 31
0.0
  0
LINE
  5
B8F
330
1D
100
AcDbEntity
  8
0
100
AcDbLine
 10
326.0
 20
130.5863
 30
0.0
 11
326.0
 21
132.9073
 31
0.0
  0
LINE
  5
B90
330
1D
100
AcDbEntity
  8
0
100
AcDbLine
 10
326.0
 20
130.5863
 30
0.0
 11
326.0
 21
128.1547
 31
0.0
  0
LINE
  5
B91
330
1D
100
AcDbEntity
  8
0
100
AcDbLine
 10
326.0
 20
132.9073
 30
0.0
 11
326.0
 21
134.9631
 31
0.0
  0
LINE
  5
B92
330
1D
100
AcDbEntity
  8
0
100
AcDbLine
 10
326.0
 20
132.9073
 30
0.0
 11
326.0
 21
130.5863
 31
0.0
  0
LINE
  5
B93
330
1D
100
AcDbEntity
  8
0
100
AcDbLine
 10
326.0
 20
134.1305
 30
0.0
 11
326.0
 21
135.6658
 31
0.0
  0
LINE
  5
B94
330
1D
100
AcDbEntity
  8
0
100
AcDbLine
 10
326.0
 20
134.1305
 30
0.0
 11
326.0
 21
106.1305
 31
0.0
  0
LINE
  5
B95
330
1D
100
AcDbEntity
  8
0
100
AcDbLine
 10
325.0
 20
125.3301
 30
0.0
 11
325.0
 21
129.0451
 31
0.0
  0
LINE
  5
B96
330
1D
100
AcDbEntity
  8
0
100
AcDbLine
 10
325.0
 20
125.3301
 30
0.0
 11
325.0
 21
121.6977
 31
0.0
  0
LINE
  5
B97
330
1D
100
AcDbEntity
  8
0
100
AcDbLine
 10
325.0
 20
121.6977
 30
0.0
 11
325.0
 21
125.3301
 31
0.0
  0
LINE
  5
B98
330
1D
100
AcDbEntity
  8
0
100
AcDbLine
 10
325.0
 20
121.6977
 30
0.0
 11
325.0
 21
119.2842
 31
0.0
  0
LINE
  5
B99
330
1D
100
AcDbEntity
  8
0
100
AcDbLine
 10
326.0
 20
122.8716
 30
0.0
 11
326.0
 21
125.5463
 31
0.0
  0
LINE
  5
B9A
330
1D
100
AcDbEntity
  8
0
100
AcDbLine
 10
326.0
 20
122.8716
 30
0.0
 11
326.0
 21
120.1305
 31
0.0
  0
LINE
  5
B9B
330
1D
100
AcDbEntity
  8
0
100
AcDbLine
 10
326.0
 20
125.5463
 30
0.0
 11
326.0
 21
128.1547
 31
0.0
  0
LINE
  5
B9C
330
1D
100
AcDbEntity
  8
0
100
AcDbLine
 10
326.0
 20
125.5463
 30
0.0
 11
326.0
 21
122.8716
 31
0.0
  0
LINE
  5
B9D
330
1D
100
AcDbEntity
  8
0
100
AcDbLine
 10
326.0
 20
128.1547
 30
0.0
 11
326.0
 21
130.5863
 31
0.0
  0
LINE
  5
B9E
330
1D
100
AcDbEntity
  8
0
100
AcDbLine
 10
326.0
 20
128.1547
 30
0.0
 11
326.0
 21
125.5463
 31
0.0
  0
LINE
  5
B9F
330
1D
100
AcDbEntity
  8
0
100
AcDbLine
 10
325.0
 20
109.7492
 30
0.0
 11
325.0
 21
113.2054
 31
0.0
  0
LINE
  5
BA0
330
1D
100
AcDbEntity
  8
0
100
AcDbLine
 10
325.0
 20
109.7492
 30
0.0
 11
325.0
 21
106.5739
 31
0.0
  0
LINE
  5
BA1
330
1D
100
AcDbEntity
  8
0
100
AcDbLine
 10
325.0
 20
113.2054
 30
0.0
 11
325.0
 21
116.0859
 31
0.0
  0
LINE
  5
BA2
330
1D
100
AcDbEntity
  8
0
100
AcDbLine
 10
325.0
 20
113.2054
 30
0.0
 11
325.0
 21
109.7492
 31
0.0
  0
LINE
  5
BA3
330
1D
100
AcDbEntity
  8
0
100
AcDbLine
 10
325.0
 20
116.0859
 30
0.0
 11
325.0
 21
119.2842
 31
0.0
  0
LINE
  5
BA4
330
1D
100
AcDbEntity
  8
0
100
AcDbLine
 10
325.0
 20
116.0859
 30
0.0
 11
325.0
 21
113.2054
 31
0.0
  0
LINE
  5
BA5
330
1D
100
AcDbEntity
  8
0
100
AcDbLine
 10
325.0
 20
119.2842
 30
0.0
 11
325.0
 21
121.6977
 31
0.0
  0
LINE
  5
BA6
330
1D
100
AcDbEntity
  8
0
100
AcDbLine
 10
325.0
 20
119.2842
 30
0.0
 11
325.0
 21
116.0859
 31
0.0
  0
LINE
  5
BA7
330
1D
100
AcDbEntity
  8
0
100
AcDbLine
 10
326.0
 20
120.1305
 30
0.0
 11
326.0
 21
122.8716
 31
0.0
  0
LINE
  5
BA8
330
1D
100
AcDbEntity
  8
0
100
AcDbLine
 10
326.0
 20
120.1305
 30
0.0
 11
326.0
 21
117.3894
 31
0.0
  0
LINE
  5
BA9
330
1D
100
AcDbEntity
  8
0
100
AcDbLine
 10
326.0
 20
117.3894
 30
0.0
 11
326.0
 21
120.1305
 31
0.0
  0
LINE
  5
BAA
330
1D
100
AcDbEntity
  8
0
100
AcDbLine
 10
326.0
 20
117.3894
 30
0.0
 11
326.0
 21
114.7147
 31
0.0
  0
LINE
  5
BAB
330
1D
100
AcDbEntity
  8
0
100
AcDbLine
 10
326.0
 20
114.7147
 30
0.0
 11
326.0
 21
117.3894
 31
0.0
  0
LINE
  5
BAC
330
1D
100
AcDbEntity
  8
0
100
AcDbLine
 10
326.0
 20
114.7147
 30
0.0
 11
326.0
 21
112.1063
 31
0.0
  0
LINE
  5
BAD
330
1D
100
AcDbEntity
  8
0
100
AcDbLine
 10
325.0
 20
105.0714
 30
0.0
 11
325.0
 21
106.5739
 31
0.0
  0
LINE
  5
BAE
330
1D
100
AcDbEntity
  8
0
100
AcDbLine
 10
325.0
 20
105.0714
 30
0.0
 11
325.0
 21
101.8383
 31
0.0
  0
LINE
  5
BAF
330
1D
100
AcDbEntity
  8
0
100
AcDbLine
 10
325.0
 20
101.8383
 30
0.0
 11
325.0
 21
105.0714
 31
0.0
  0
LINE
  5
BB0
330
1D
100
AcDbEntity
  8
0
100
AcDbLine
 10
325.0
 20
101.8383
 30
0.0
 11
325.0
 21
100.1048
 31
0.0
  0
LINE
  5
BB1
330
1D
100
AcDbEntity
  8
0
100
AcDbLine
 10
326.0
 20
100.1305
 30
0.0
 11
326.0
 21
100.3423
 31
0.0
  0
LINE
  5
BB2
330
1D
100
AcDbEntity
  8
0
100
AcDbLine
 10
326.0
 20
100.1305
 30
0.0
 11
326.0
 21
99.8821
 31
0.0
  0
LINE
  5
BB3
330
1D
100
AcDbEntity
  8
0
100
AcDbLine
 10
349.8077
 20
100.2187
 30
0.0
 11
349.4231
 21
100.1305
 31
0.0
  0
LINE
  5
BB4
330
1D
100
AcDbEntity
  8
0
100
AcDbLine
 10
326.0
 20
100.7663
 30
0.0
 11
326.0
 21
101.9379
 31
0.0
  0
LINE
  5
BB5
330
1D
100
AcDbEntity
  8
0
100
AcDbLine
 10
326.0
 20
100.7663
 30
0.0
 11
326.0
 21
99.8821
 31
0.0
  0
LINE
  5
BB6
330
1D
100
AcDbEntity
  8
0
100
AcDbLine
 10
326.0
 20
101.9379
 30
0.0
 11
326.0
 21
103.5073
 31
0.0
  0
LINE
  5
BB7
330
1D
100
AcDbEntity
  8
0
100
AcDbLine
 10
326.0
 20
101.9379
 30
0.0
 11
326.0
 21
100.7663
 31
0.0
  0
LINE
  5
BB8
330
1D
100
AcDbEntity
  8
0
100
AcDbLine
 10
326.0
 20
103.5073
 30
0.0
 11
326.0
 21
105.2979
 31
0.0
  0
LINE
  5
BB9
330
1D
100
AcDbEntity
  8
0
100
AcDbLine
 10
326.0
 20
103.5073
 30
0.0
 11
326.0
 21
101.9379
 31
0.0
  0
LINE
  5
BBA
330
1D
100
AcDbEntity
  8
0
100
AcDbLine
 10
326.0
 20
105.2979
 30
0.0
 11
326.0
 21
107.3537
 31
0.0
  0
LINE
  5
BBB
330
1D
100
AcDbEntity
  8
0
100
AcDbLine
 10
326.0
 20
105.2979
 30
0.0
 11
326.0
 21
103.5073
 31
0.0
  0
LINE
  5
BBC
330
1D
100
AcDbEntity
  8
0
100
AcDbLine
 10
326.0
 20
112.1063
 30
0.0
 11
326.0
 21
114.7147
 31
0.0
  0
LINE
  5
BBD
330
1D
100
AcDbEntity
  8
0
100
AcDbLine
 10
326.0
 20
112.1063
 30
0.0
 11
326.0
 21
109.6747
 31
0.0
  0
LINE
  5
BBE
330
1D
100
AcDbEntity
  8
0
100
AcDbLine
 10
326.0
 20
109.6747
 30
0.0
 11
326.0
 21
112.1063
 31
0.0
  0
LINE
  5
BBF
330
1D
100
AcDbEntity
  8
0
100
AcDbLine
 10
326.0
 20
109.6747
 30
0.0
 11
326.0
 21
107.3537
 31
0.0
  0
LINE
  5
BC0
330
1D
100
AcDbEntity
  8
0
100
AcDbLine
 10
326.0
 20
107.3537
 30
0.0
 11
326.0
 21
109.6747
 31
0.0
  0
LINE
  5
BC1
330
1D
100
AcDbEntity
  8
0
100
AcDbLine
 10
326.0
 20
107.3537
 30
0.0
 11
326.0
 21
105.2979
 31
0.0
  0
LINE
  5
BC2
330
1D
100
AcDbEntity
  8
0
100
AcDbLine
 10
326.0
 20
106.1305
 30
0.0
 11
326.0
 21
104.5952
 31
0.0
  0
LINE
  5
BC3
330
1D
100
AcDbEntity
  8
0
100
AcDbLine
 10
326.0
 20
106.1305
 30
0.0
 11
326.0
 21
134.1305
 31
0.0
  0
LINE
  5
BC4
330
1D
100
AcDbEntity
  8
0
100
AcDbLine
 10
326.0
 20
104.5952
 30
0.0
 11
326.0
 21
106.1305
 31
0.0
  0
LINE
  5
BC5
330
1D
100
AcDbEntity
  8
0
100
AcDbLine
 10
326.0
 20
104.5952
 30
0.0
 11
326.0
 21
103.1481
 31
0.0
  0
LINE
  5
BC6
330
1D
100
AcDbEntity
  8
0
100
AcDbLine
 10
326.0
 20
100.9423
 30
0.0
 11
326.0
 21
101.8952
 31
0.0
  0
LINE
  5
BC7
330
1D
100
AcDbEntity
  8
0
100
AcDbLine
 10
326.0
 20
100.9423
 30
0.0
 11
326.0
 21
100.3423
 31
0.0
  0
LINE
  5
BC8
330
1D
100
AcDbEntity
  8
0
100
AcDbLine
 10
326.0
 20
101.8952
 30
0.0
 11
326.0
 21
103.1481
 31
0.0
  0
LINE
  5
BC9
330
1D
100
AcDbEntity
  8
0
100
AcDbLine
 10
326.0
 20
101.8952
 30
0.0
 11
326.0
 21
100.9423
 31
0.0
  0
LINE
  5
BCA
330
1D
100
AcDbEntity
  8
0
100
AcDbLine
 10
326.0
 20
103.1481
 30
0.0
 11
326.0
 21
104.5952
 31
0.0
  0
LINE
  5
BCB
330
1D
100
AcDbEntity
  8
0
100
AcDbLine
 10
326.0
 20
103.1481
 30
0.0
 11
326.0
 21
101.8952
 31
0.0
  0
LINE
  5
BCC
330
1D
100
AcDbEntity
  8
0
100
AcDbLine
 10
326.0
 20
100.3423
 30
0.0
 11
326.0
 21
100.9423
 31
0.0
  0
LINE
  5
BCD
330
1D
100
AcDbEntity
  8
0
100
AcDbLine
 10
326.0
 20
100.3423
 30
0.0
 11
326.0
 21
100.1305
 31
0.0
  0
LINE
  5
BCE
330
1D
100
AcDbEntity
  8
0
100
AcDbLine
 10
350.0
 20
100.3952
 30
0.0
 11
350.0
 21
100.607
 31
0.0
  0
LINE
  5
BCF
330
1D
100
AcDbEntity
  8
0
100
AcDbLine
 10
350.0
 20
100.3952
 30
0.0
 11
349.8077
 21
100.2187
 31
0.0
  0
LINE
  5
BD0
330
1D
100
AcDbEntity
  8
0
100
AcDbLine
 10
350.0
 20
100.607
 30
0.0
 11
350.0
 21
100.3952
 31
0.0
  0
LINE
  5
BD1
330
1D
100
AcDbEntity
  8
0
100
AcDbLine
 10
350.0
 20
100.607
 30
0.0
 11
350.0
 21
101.1717
 31
0.0
  0
LINE
  5
BD2
330
1D
100
AcDbEntity
  8
0
100
AcDbLine
 10
350.0
 20
101.1717
 30
0.0
 11
350.0
 21
100.607
 31
0.0
  0
LINE
  5
BD3
330
1D
100
AcDbEntity
  8
0
100
AcDbLine
 10
350.0
 20
101.1717
 30
0.0
 11
350.0
 21
102.0717
 31
0.0
  0
LINE
  5
BD4
330
1D
100
AcDbEntity
  8
0
100
AcDbLine
 10
350.0
 20
102.0717
 30
0.0
 11
350.0
 21
103.2717
 31
0.0
  0
LINE
  5
BD5
330
1D
100
AcDbEntity
  8
0
100
AcDbLine
 10
350.0
 20
102.0717
 30
0.0
 11
350.0
 21
101.1717
 31
0.0
  0
LINE
  5
BD6
330
1D
100
AcDbEntity
  8
0
100
AcDbLine
 10
350.0
 20
104.6481
 30
0.0
 11
350.0
 21
103.2717
 31
0.0
  0
LINE
  5
BD7
330
1D
100
AcDbEntity
  8
0
100
AcDbLine
 10
350.0
 20
104.6481
 30
0.0
 11
350.0
 21
106.1305
 31
0.0
  0
LINE
  5
BD8
330
1D
100
AcDbEntity
  8
0
100
AcDbLine
 10
350.0
 20
106.1305
 30
0.0
 11
350.0
 21
134.1305
 31
0.0
  0
LINE
  5
BD9
330
1D
100
AcDbEntity
  8
0
100
AcDbLine
 10
350.0
 20
106.1305
 30
0.0
 11
350.0
 21
104.6481
 31
0.0
  0
LINE
  5
BDA
330
1D
100
AcDbEntity
  8
0
100
AcDbLine
 10
350.0
 20
103.2717
 30
0.0
 11
350.0
 21
102.0717
 31
0.0
  0
LINE
  5
BDB
330
1D
100
AcDbEntity
  8
0
100
AcDbLine
 10
350.0
 20
103.2717
 30
0.0
 11
350.0
 21
104.6481
 31
0.0
  0
LINE
  5
BDC
330
1D
100
AcDbEntity
  8
0
100
AcDbLine
 10
329.0
 20
100.1305
 30
0.0
 11
329.0
 21
99.7074
 31
0.0
  0
LINE
  5
BDD
330
1D
100
AcDbEntity
  8
0
100
AcDbLine
 10
329.0
 20
100.1305
 30
0.0
 11
326.0
 21
100.1305
 31
0.0
  0
LINE
  5
BDE
330
1D
100
AcDbEntity
  8
0
100
AcDbLine
 10
329.0
 20
100.1305
 30
0.0
 11
326.0
 21
100.1305
 31
0.0
  0
LINE
  5
BDF
330
1D
100
AcDbEntity
  8
0
100
AcDbLine
 10
349.4231
 20
100.1305
 30
0.0
 11
338.983116558522
 21
100.1305
 31
0.0
  0
LINE
  5
BE0
330
1D
100
AcDbEntity
  8
0
100
AcDbLine
 10
339.0
 20
100.1305
 30
0.0
 11
339.0
 21
99.7074
 31
0.0
  0
LINE
  5
BE1
330
1D
100
AcDbEntity
  8
0
100
AcDbLine
 10
325.0
 20
100.1048
 30
0.0
 11
325.0
 21
101.8383
 31
0.0
  0
LINE
  5
BE2
330
1D
100
AcDbEntity
  8
0
100
AcDbLine
 10
325.0
 20
100.1048
 30
0.0
 11
325.0
 21
98.1701
 31
0.0
  0
LINE
  5
BE3
330
1D
100
AcDbEntity
  8
0
100
AcDbLine
 10
326.0
 20
99.3516
 30
0.0
 11
326.0
 21
99.1305
 31
0.0
  0
LINE
  5
BE4
330
1D
100
AcDbEntity
  8
0
100
AcDbLine
 10
326.0
 20
99.3516
 30
0.0
 11
326.0
 21
99.8821
 31
0.0
  0
LINE
  5
BE5
330
1D
100
AcDbEntity
  8
0
100
AcDbLine
 10
326.0
 20
99.8821
 30
0.0
 11
326.0
 21
100.7663
 31
0.0
  0
LINE
  5
BE6
330
1D
100
AcDbEntity
  8
0
100
AcDbLine
 10
326.0
 20
99.8821
 30
0.0
 11
326.0
 21
99.3516
 31
0.0
  0
LINE
  5
BE7
330
1D
100
AcDbEntity
  8
0
100
AcDbLine
 10
326.0
 20
99.8821
 30
0.0
 11
326.0
 21
100.1305
 31
0.0
  0
LINE
  5
BE8
330
1D
100
AcDbEntity
  8
0
100
AcDbLine
 10
339.0
 20
99.7074
 30
0.0
 11
338.9265
 21
99.3228
 31
0.0
  0
LINE
  5
BE9
330
1D
100
AcDbEntity
  8
0
100
AcDbLine
 10
339.0
 20
99.7074
 30
0.0
 11
339.0
 21
100.1305
 31
0.0
  0
LINE
  5
BEA
330
1D
100
AcDbEntity
  8
0
100
AcDbLine
 10
329.0
 20
99.7074
 30
0.0
 11
329.0
 21
100.1305
 31
0.0
  0
LINE
  5
BEB
330
1D
100
AcDbEntity
  8
0
100
AcDbLine
 10
329.07353
 20
99.3228
 30
0.0
 11
329.0
 21
99.7074
 31
0.0
  0
LINE
  5
BEC
330
1D
100
AcDbEntity
  8
0
100
AcDbLine
 10
338.9265
 20
99.3228
 30
0.0
 11
338.7794
 21
99.1305
 31
0.0
  0
LINE
  5
BED
330
1D
100
AcDbEntity
  8
0
100
AcDbLine
 10
325.0
 20
96.9753
 30
0.0
 11
325.0
 21
97.4015
 31
0.0
  0
LINE
  5
BEE
330
1D
100
AcDbEntity
  8
0
100
AcDbLine
 10
325.0
 20
96.9753
 30
0.0
 11
325.0
 21
96.8707
 31
0.0
  0
LINE
  5
BEF
330
1D
100
AcDbEntity
  8
0
100
AcDbLine
 10
325.0
 20
97.4015
 30
0.0
 11
325.0
 21
98.1701
 31
0.0
  0
LINE
  5
BF0
330
1D
100
AcDbEntity
  8
0
100
AcDbLine
 10
325.0
 20
97.4015
 30
0.0
 11
325.0
 21
96.9753
 31
0.0
  0
LINE
  5
BF1
330
1D
100
AcDbEntity
  8
0
100
AcDbLine
 10
325.0
 20
98.1701
 30
0.0
 11
325.0
 21
100.1048
 31
0.0
  0
LINE
  5
BF2
330
1D
100
AcDbEntity
  8
0
100
AcDbLine
 10
325.0
 20
98.1701
 30
0.0
 11
325.0
 21
97.4015
 31
0.0
  0
LINE
  5
BF3
330
1D
100
AcDbEntity
  8
0
100
AcDbLine
 10
325.0
 20
98.6341
 30
0.0
 11
325.0
 21
99.1305
 31
0.0
  0
LINE
  5
BF4
330
1D
100
AcDbEntity
  8
0
100
AcDbLine
 10
330.0
 20
99.1305
 30
0.0
 11
329.86765
 21
99.1305
 31
0.0
  0
LINE
  5
BF5
330
1D
100
AcDbEntity
  8
0
100
AcDbLine
 10
330.0
 20
99.1305
 30
0.0
 11
330.0
 21
95.592
 31
0.0
  0
LINE
  5
BF6
330
1D
100
AcDbEntity
  8
0
100
AcDbLine
 10
326.0
 20
99.1305
 30
0.0
 11
325.0
 21
99.1305
 31
0.0
  0
LINE
  5
BF7
330
1D
100
AcDbEntity
  8
0
100
AcDbLine
 10
326.0
 20
99.1305
 30
0.0
 11
326.0
 21
99.3516
 31
0.0
  0
LINE
  5
BF8
330
1D
100
AcDbEntity
  8
0
100
AcDbLine
 10
329.39706
 20
99.1305
 30
0.0
 11
329.22059
 21
99.1305
 31
0.0
  0
LINE
  5
BF9
330
1D
100
AcDbEntity
  8
0
100
AcDbLine
 10
329.22059
 20
99.1305
 30
0.0
 11
329.07353
 21
99.3228
 31
0.0
  0
LINE
  5
BFA
330
1D
100
AcDbEntity
  8
0
100
AcDbLine
 10
329.86765
 20
99.1305
 30
0.0
 11
329.39706
 21
99.1305
 31
0.0
  0
LINE
  5
BFB
330
1D
100
AcDbEntity
  8
0
100
AcDbLine
 10
338.7794
 20
99.1305
 30
0.0
 11
338.6029
 21
99.1305
 31
0.0
  0
LINE
  5
BFC
330
1D
100
AcDbEntity
  8
0
100
AcDbLine
 10
338.6029
 20
99.1305
 30
0.0
 11
338.1323
 21
99.1305
 31
0.0
  0
LINE
  5
BFD
330
1D
100
AcDbEntity
  8
0
100
AcDbLine
 10
338.1323
 20
99.1305
 30
0.0
 11
337.3823
 21
99.1305
 31
0.0
  0
LINE
  5
BFE
330
1D
100
AcDbEntity
  8
0
100
AcDbLine
 10
338.1323
 20
99.1305
 30
0.0
 11
338.0
 21
99.1305
 31
0.0
  0
LINE
  5
BFF
330
1D
100
AcDbEntity
  8
0
100
AcDbLine
 10
334.0
 20
99.1305
 30
0.0
 11
332.97647
 21
99.1305
 31
0.0
  0
LINE
  5
C00
330
1D
100
AcDbEntity
  8
0
100
AcDbLine
 10
334.0
 20
99.1305
 30
0.0
 11
332.76471
 21
99.1305
 31
0.0
  0
LINE
  5
C01
330
1D
100
AcDbEntity
  8
0
100
AcDbLine
 10
332.76471
 20
99.1305
 30
0.0
 11
331.61765
 21
99.1305
 31
0.0
  0
LINE
  5
C02
330
1D
100
AcDbEntity
  8
0
100
AcDbLine
 10
331.61765
 20
99.1305
 30
0.0
 11
330.61765
 21
99.1305
 31
0.0
  0
LINE
  5
C03
330
1D
100
AcDbEntity
  8
0
100
AcDbLine
 10
330.61765
 20
99.1305
 30
0.0
 11
329.86765
 21
99.1305
 31
0.0
  0
LINE
  5
C04
330
1D
100
AcDbEntity
  8
0
100
AcDbLine
 10
330.14118
 20
99.1305
 30
0.0
 11
330.0
 21
99.1305
 31
0.0
  0
LINE
  5
C05
330
1D
100
AcDbEntity
  8
0
100
AcDbLine
 10
330.54118
 20
99.1305
 30
0.0
 11
330.14118
 21
99.1305
 31
0.0
  0
LINE
  5
C06
330
1D
100
AcDbEntity
  8
0
100
AcDbLine
 10
332.01177
 20
99.1305
 30
0.0
 11
331.17647
 21
99.1305
 31
0.0
  0
LINE
  5
C07
330
1D
100
AcDbEntity
  8
0
100
AcDbLine
 10
331.17647
 20
99.1305
 30
0.0
 11
330.54118
 21
99.1305
 31
0.0
  0
LINE
  5
C08
330
1D
100
AcDbEntity
  8
0
100
AcDbLine
 10
335.2353
 20
99.1305
 30
0.0
 11
334.0
 21
99.1305
 31
0.0
  0
LINE
  5
C09
330
1D
100
AcDbEntity
  8
0
100
AcDbLine
 10
336.3823
 20
99.1305
 30
0.0
 11
335.2353
 21
99.1305
 31
0.0
  0
LINE
  5
C0A
330
1D
100
AcDbEntity
  8
0
100
AcDbLine
 10
332.97647
 20
99.1305
 30
0.0
 11
332.01177
 21
99.1305
 31
0.0
  0
LINE
  5
C0B
330
1D
100
AcDbEntity
  8
0
100
AcDbLine
 10
335.0235
 20
99.1305
 30
0.0
 11
334.0
 21
99.1305
 31
0.0
  0
LINE
  5
C0C
330
1D
100
AcDbEntity
  8
0
100
AcDbLine
 10
335.9882
 20
99.1305
 30
0.0
 11
335.0235
 21
99.1305
 31
0.0
  0
LINE
  5
C0D
330
1D
100
AcDbEntity
  8
0
100
AcDbLine
 10
337.3823
 20
99.1305
 30
0.0
 11
336.3823
 21
99.1305
 31
0.0
  0
LINE
  5
C0E
330
1D
100
AcDbEntity
  8
0
100
AcDbLine
 10
338.0
 20
99.1305
 30
0.0
 11
337.8588
 21
99.1305
 31
0.0
  0
LINE
  5
C0F
330
1D
100
AcDbEntity
  8
0
100
AcDbLine
 10
338.0
 20
99.1305
 30
0.0
 11
338.0
 21
95.592
 31
0.0
  0
LINE
  5
C10
330
1D
100
AcDbEntity
  8
0
100
AcDbLine
 10
337.8588
 20
99.1305
 30
0.0
 11
337.4588
 21
99.1305
 31
0.0
  0
LINE
  5
C11
330
1D
100
AcDbEntity
  8
0
100
AcDbLine
 10
337.4588
 20
99.1305
 30
0.0
 11
336.8235
 21
99.1305
 31
0.0
  0
LINE
  5
C12
330
1D
100
AcDbEntity
  8
0
100
AcDbLine
 10
336.8235
 20
99.1305
 30
0.0
 11
335.9882
 21
99.1305
 31
0.0
  0
LINE
  5
C13
330
1D
100
AcDbEntity
  8
0
100
AcDbLine
 10
325.0
 20
96.8707
 30
0.0
 11
325.0
 21
96.9753
 31
0.0
  0
LINE
  5
C14
330
1D
100
AcDbEntity
  8
0
100
AcDbLine
 10
334.0
 20
95.1305
 30
0.0
 11
333.01177
 21
95.1305
 31
0.0
  0
LINE
  5
C15
330
1D
100
AcDbEntity
  8
0
100
AcDbLine
 10
330.05882
 20
95.2843
 30
0.0
 11
330.0
 21
95.592
 31
0.0
  0
LINE
  5
C16
330
1D
100
AcDbEntity
  8
0
100
AcDbLine
 10
330.0
 20
95.592
 30
0.0
 11
330.0
 21
99.1305
 31
0.0
  0
LINE
  5
C17
330
1D
100
AcDbEntity
  8
0
100
AcDbLine
 10
338.0
 20
95.592
 30
0.0
 11
337.9412
 21
95.2843
 31
0.0
  0
LINE
  5
C18
330
1D
100
AcDbEntity
  8
0
100
AcDbLine
 10
338.0
 20
95.592
 30
0.0
 11
338.0
 21
99.1305
 31
0.0
  0
LINE
  5
C19
330
1D
100
AcDbEntity
  8
0
100
AcDbLine
 10
337.9412
 20
95.2843
 30
0.0
 11
337.8235
 21
95.1305
 31
0.0
  0
LINE
  5
C1A
330
1D
100
AcDbEntity
  8
0
100
AcDbLine
 10
333.01177
 20
95.1305
 30
0.0
 11
332.09412
 21
95.1305
 31
0.0
  0
LINE
  5
C1B
330
1D
100
AcDbEntity
  8
0
100
AcDbLine
 10
332.09412
 20
95.1305
 30
0.0
 11
331.29412
 21
95.1305
 31
0.0
  0
LINE
  5
C1C
330
1D
100
AcDbEntity
  8
0
100
AcDbLine
 10
330.31765
 20
95.1305
 30
0.0
 11
330.17647
 21
95.1305
 31
0.0
  0
LINE
  5
C1D
330
1D
100
AcDbEntity
  8
0
100
AcDbLine
 10
330.17647
 20
95.1305
 30
0.0
 11
330.05882
 21
95.2843
 31
0.0
  0
LINE
  5
C1E
330
1D
100
AcDbEntity
  8
0
100
AcDbLine
 10
330.69412
 20
95.1305
 30
0.0
 11
330.31765
 21
95.1305
 31
0.0
  0
LINE
  5
C1F
330
1D
100
AcDbEntity
  8
0
100
AcDbLine
 10
331.29412
 20
95.1305
 30
0.0
 11
330.69412
 21
95.1305
 31
0.0
  0
LINE
  5
C20
330
1D
100
AcDbEntity
  8
0
100
AcDbLine
 10
337.8235
 20
95.1305
 30
0.0
 11
337.6824
 21
95.1305
 31
0.0
  0
LINE
  5
C21
330
1D
100
AcDbEntity
  8
0
100
AcDbLine
 10
337.6824
 20
95.1305
 30
0.0
 11
337.3059
 21
95.1305
 31
0.0
  0
LINE
  5
C22
330
1D
100
AcDbEntity
  8
0
100
AcDbLine
 10
337.3059
 20
95.1305
 30
0.0
 11
336.7059
 21
95.1305
 31
0.0
  0
LINE
  5
C23
330
1D
100
AcDbEntity
  8
0
100
AcDbLine
 10
334.9882
 20
95.1305
 30
0.0
 11
334.0
 21
95.1305
 31
0.0
  0
LINE
  5
C24
330
1D
100
AcDbEntity
  8
0
100
AcDbLine
 10
335.9059
 20
95.1305
 30
0.0
 11
334.9882
 21
95.1305
 31
0.0
  0
LINE
  5
C25
330
1D
100
AcDbEntity
  8
0
100
AcDbLine
 10
336.7059
 20
95.1305
 30
0.0
 11
335.9059
 21
95.1305
 31
0.0
  0
LINE
  5
C26
330
1D
100
AcDbEntity
  8
0
100
AcDbLine
 10
324.64741
 20
152.8275
 30
0.0
 11
324.501992
 21
153.1305
 31
0.0
  0
LINE
  5
C27
330
1D
100
AcDbEntity
  8
0
100
AcDbLine
 10
325.0
 20
151.1305
 30
0.0
 11
324.64741
 21
152.8275
 31
0.0
  0
LINE
  5
C28
330
1D
100
AcDbEntity
  8
0
100
AcDbLine
 10
324.501992
 20
153.1305
 30
0.0
 11
324.013944
 21
153.1305
 31
0.0
  0
ENDSEC
  0
SECTION
  2
OBJECTS
  0
DICTIONARY
  5
C
330
0
100
AcDbDictionary
281
     1
  3
ACAD_GROUP
350
D
  3
ACAD_LAYOUT
350
1A
  3
ACAD_MLEADERSTYLE
350
C2B
  3
ACAD_MLINESTYLE
350
17
  3
ACAD_PLOTSETTINGS
350
19
  3
ACAD_PLOTSTYLENAME
350
E
  3
ACAD_SCALELIST
350
322
  3
AcDbVariableDictionary
350
C29
  3
DWGPROPS
350
C2E
  0
DICTIONARY
  5
D
102
{ACAD_REACTORS
330
C
102
}
330
C
100
AcDbDictionary
281
     1
  0
DICTIONARY
  5
1A
102
{ACAD_REACTORS
330
C
102
}
330
C
100
AcDbDictionary
281
     1
  3
Layout1
350
1C
  3
Model
350
1E
  0
DICTIONARY
  5
C2B
102
{ACAD_REACTORS
330
C
102
}
330
C
100
AcDbDictionary
281
     1
  0
DICTIONARY
  5
17
102
{ACAD_REACTORS
330
C
102
}
330
C
100
AcDbDictionary
281
     1
  3
Standard
350
18
  0
DICTIONARY
  5
19
102
{ACAD_REACTORS
330
C
102
}
330
C
100
AcDbDictionary
281
     1
  0
ACDBDICTIONARYWDFLT
  5
E
102
{ACAD_REACTORS
330
C
102
}
330
C
100
AcDbDictionary
281
     1
  3
Normal
350
F
100
AcDbDictionaryWithDefault
340
F
  0
DICTIONARY
  5
322
102
{ACAD_REACTORS
330
C
102
}
330
C
100
AcDbDictionary
281
     1
  3
A0
350
323
  3
A1
350
324
  3
A2
350
325
  3
A3
350
326
  3
A4
350
327
  3
A5
350
328
  3
A6
350
329
  3
A7
350
32A
  3
A8
350
32B
  3
A9
350
32C
  3
B0
350
32D
  3
B1
350
32E
  3
B2
350
32F
  3
B3
350
330
  3
B4
350
331
  3
B5
350
332
  3
B6
350
333
  3
B7
350
334
  3
B8
350
335
  3
B9
350
336
  3
C0
350
337
  3
C1
350
338
  3
C2
350
339
  3
C3
350
33A
  3
C4
350
33B
  3
C5
350
33C
  3
C6
350
33D
  3
C7
350
33E
  3
C8
350
33F
  3
C9
350
340
  3
D0
350
341
  3
D1
350
342
  3
D2
350
343
  0
DICTIONARY
  5
C29
102
{ACAD_REACTORS
330
C
102
}
330
C
100
AcDbDictionary
281
     1
  3
CANNOSCALE
350
C2C
  0
XRECORD
  5
C2E
102
{ACAD_REACTORS
330
C
102
}
330
C
100
AcDbXrecord
280
     1
  1
DWGPROPS COOKIE
  2

  3

  4

  6

  7

  8
MARTIN
  9

300
=
301
=
302
=
303
=
304
=
305
=
306
=
307
=
308
=
309
=
 40
0.0
 41
2455824.562552083
 42
2455824.56332537
  1

 90
        0
  0
LAYOUT
  5
1C
102
{ACAD_REACTORS
330
1A
102
}
330
1A
100
AcDbPlotSettings
  1

  2
none_device
  4

  6

 40
0.0
 41
0.0
 42
0.0
 43
0.0
 44
0.0
 45
0.0
 46
0.0
 47
0.0
 48
0.0
 49
0.0
140
0.0
141
0.0
142
1.0
143
1.0
 70
   688
 72
     0
 73
     0
 74
     5
  7

 75
    16
147
1.0
148
0.0
149
0.0
100
AcDbLayout
  1
Layout1
 70
     1
 71
     1
 10
0.0
 20
0.0
 11
12.0
 21
9.0
 12
0.0
 22
0.0
 32
0.0
 14
1.000000000000E+20
 24
1.000000000000E+20
 34
1.000000000000E+20
 15
-1.000000000000E+20
 25
-1.000000000000E+20
 35
-1.000000000000E+20
146
0.0
 13
0.0
 23
0.0
 33
0.0
 16
1.0
 26
0.0
 36
0.0
 17
0.0
 27
1.0
 37
0.0
 76
     0
330
1B
  0
LAYOUT
  5
1E
102
{ACAD_REACTORS
330
1A
102
}
330
1A
100
AcDbPlotSettings
  1

  2
none_device
  4

  6

 40
0.0
 41
0.0
 42
0.0
 43
0.0
 44
0.0
 45
0.0
 46
0.0
 47
0.0
 48
0.0
 49
0.0
140
0.0
141
0.0
142
1.0
143
1.0
 70
  1712
 72
     0
 73
     0
 74
     0
  7

 75
     0
147
1.0
148
0.0
149
0.0
100
AcDbLayout
  1
Model
 70
     1
 71
     0
 10
0.0
 20
0.0
 11
12.0
 21
9.0
 12
0.0
 22
0.0
 32
0.0
 14
0.0
 24
-0.1305
 34
0.0
 15
350.0
 25
153.1305
 35
0.0
146
0.0
 13
0.0
 23
0.0
 33
0.0
 16
1.0
 26
0.0
 36
0.0
 17
0.0
 27
1.0
 37
0.0
 76
     0
330
1D
331
31D
  0
MLINESTYLE
  5
18
102
{ACAD_REACTORS
330
17
102
}
330
17
100
AcDbMlineStyle
  2
Standard
 70
     0
  3

 62
   256
 51
90.0
 52
90.0
 71
     2
 49
0.5
 62
   256
  6
BYLAYER
 49
-0.5
 62
   256
  6
BYLAYER
  0
ACDBPLACEHOLDER
  5
F
102
{ACAD_REACTORS
330
E
102
}
330
E
  0
SCALE
  5
323
102
{ACAD_REACTORS
330
322
102
}
330
322
100
AcDbScale
 70
     0
300
1:1
140
1.0
141
1.0
290
     1
  0
SCALE
  5
324
102
{ACAD_REACTORS
330
322
102
}
330
322
100
AcDbScale
 70
     0
300
1:2
140
1.0
141
2.0
290
     0
  0
SCALE
  5
325
102
{ACAD_REACTORS
330
322
102
}
330
322
100
AcDbScale
 70
     0
300
1:4
140
1.0
141
4.0
290
     0
  0
SCALE
  5
326
102
{ACAD_REACTORS
330
322
102
}
330
322
100
AcDbScale
 70
     0
300
1:5
140
1.0
141
5.0
290
     0
  0
SCALE
  5
327
102
{ACAD_REACTORS
330
322
102
}
330
322
100
AcDbScale
 70
     0
300
1:8
140
1.0
141
8.0
290
     0
  0
SCALE
  5
328
102
{ACAD_REACTORS
330
322
102
}
330
322
100
AcDbScale
 70
     0
300
1:10
140
1.0
141
10.0
290
     0
  0
SCALE
  5
329
102
{ACAD_REACTORS
330
322
102
}
330
322
100
AcDbScale
 70
     0
300
1:16
140
1.0
141
16.0
290
     0
  0
SCALE
  5
32A
102
{ACAD_REACTORS
330
322
102
}
330
322
100
AcDbScale
 70
     0
300
1:20
140
1.0
141
20.0
290
     0
  0
SCALE
  5
32B
102
{ACAD_REACTORS
330
322
102
}
330
322
100
AcDbScale
 70
     0
300
1:30
140
1.0
141
30.0
290
     0
  0
SCALE
  5
32C
102
{ACAD_REACTORS
330
322
102
}
330
322
100
AcDbScale
 70
     0
300
1:40
140
1.0
141
40.0
290
     0
  0
SCALE
  5
32D
102
{ACAD_REACTORS
330
322
102
}
330
322
100
AcDbScale
 70
     0
300
1:50
140
1.0
141
50.0
290
     0
  0
SCALE
  5
32E
102
{ACAD_REACTORS
330
322
102
}
330
322
100
AcDbScale
 70
     0
300
1:100
140
1.0
141
100.0
290
     0
  0
SCALE
  5
32F
102
{ACAD_REACTORS
330
322
102
}
330
322
100
AcDbScale
 70
     0
300
2:1
140
2.0
141
1.0
290
     0
  0
SCALE
  5
330
102
{ACAD_REACTORS
330
322
102
}
330
322
100
AcDbScale
 70
     0
300
4:1
140
4.0
141
1.0
290
     0
  0
SCALE
  5
331
102
{ACAD_REACTORS
330
322
102
}
330
322
100
AcDbScale
 70
     0
300
8:1
140
8.0
141
1.0
290
     0
  0
SCALE
  5
332
102
{ACAD_REACTORS
330
322
102
}
330
322
100
AcDbScale
 70
     0
300
10:1
140
10.0
141
1.0
290
     0
  0
SCALE
  5
333
102
{ACAD_REACTORS
330
322
102
}
330
322
100
AcDbScale
 70
     0
300
100:1
140
100.0
141
1.0
290
     0
  0
SCALE
  5
334
102
{ACAD_REACTORS
330
322
102
}
330
322
100
AcDbScale
 70
     0
300
1/128" = 1'-0"
140
0.0078125
141
12.0
290
     0
  0
SCALE
  5
335
102
{ACAD_REACTORS
330
322
102
}
330
322
100
AcDbScale
 70
     0
300
1/64" = 1'-0"
140
0.015625
141
12.0
290
     0
  0
SCALE
  5
336
102
{ACAD_REACTORS
330
322
102
}
330
322
100
AcDbScale
 70
     0
300
1/32" = 1'-0"
140
0.03125
141
12.0
290
     0
  0
SCALE
  5
337
102
{ACAD_REACTORS
330
322
102
}
330
322
100
AcDbScale
 70
     0
300
1/16" = 1'-0"
140
0.0625
141
12.0
290
     0
  0
SCALE
  5
338
102
{ACAD_REACTORS
330
322
102
}
330
322
100
AcDbScale
 70
     0
300
3/32" = 1'-0"
140
0.09375
141
12.0
290
     0
  0
SCALE
  5
339
102
{ACAD_REACTORS
330
322
102
}
330
322
100
AcDbScale
 70
     0
300
1/8" = 1'-0"
140
0.125
141
12.0
290
     0
  0
SCALE
  5
33A
102
{ACAD_REACTORS
330
322
102
}
330
322
100
AcDbScale
 70
     0
300
3/16" = 1'-0"
140
0.1875
141
12.0
290
     0
  0
SCALE
  5
33B
102
{ACAD_REACTORS
330
322
102
}
330
322
100
AcDbScale
 70
     0
300
1/4" = 1'-0"
140
0.25
141
12.0
290
     0
  0
SCALE
  5
33C
102
{ACAD_REACTORS
330
322
102
}
330
322
100
AcDbScale
 70
     0
300
3/8" = 1'-0"
140
0.375
141
12.0
290
     0
  0
SCALE
  5
33D
102
{ACAD_REACTORS
330
322
102
}
330
322
100
AcDbScale
 70
     0
300
1/2" = 1'-0"
140
0.5
141
12.0
290
     0
  0
SCALE
  5
33E
102
{ACAD_REACTORS
330
322
102
}
330
322
100
AcDbScale
 70
     0
300
3/4" = 1'-0"
140
0.75
141
12.0
290
     0
  0
SCALE
  5
33F
102
{ACAD_REACTORS
330
322
102
}
330
322
100
AcDbScale
 70
     0
300
1" = 1'-0"
140
1.0
141
12.0
290
     0
  0
SCALE
  5
340
102
{ACAD_REACTORS
330
322
102
}
330
322
100
AcDbScale
 70
     0
300
1-1/2" = 1'-0"
140
1.5
141
12.0
290
     0
  0
SCALE
  5
341
102
{ACAD_REACTORS
330
322
102
}
330
322
100
AcDbScale
 70
     0
300
3" = 1'-0"
140
3.0
141
12.0
290
     0
  0
SCALE
  5
342
102
{ACAD_REACTORS
330
322
102
}
330
322
100
AcDbScale
 70
     0
300
6" = 1'-0"
140
6.0
141
12.0
290
     0
  0
SCALE
  5
343
102
{ACAD_REACTORS
330
322
102
}
330
322
100
AcDbScale
 70
     0
300
1'-0" = 1'-0"
140
12.0
141
12.0
290
     0
  0
DICTIONARYVAR
  5
C2C
102
{ACAD_REACTORS
330
C29
102
}
330
C29
100
DictionaryVariables
280
     0
  1
1:1
  0
ENDSEC
  0
SECTION
  2
THUMBNAILIMAGE
 90
    16364
310
28000000B40000005500000001000800000000000000000000000000000000000000000000000000FFFFFF000000FF0000FFFF0000FF0000FFFF0000FF000000FF00FF000000000080808000C0C0C0000000FF007F7FFF000000A5005252A50000007F003F3F7F0000004C0026264C000000260013132600003FFF007F9FFF
310
000029A5005267A500001F7F003F4F7F0000134C00262F4C000009260013172600007FFF007FBFFF000052A500527CA500003F7F003F5F7F0000264C0026394C0000132600131C260000BFFF007FDFFF00007CA5005291A500005F7F003F6F7F0000394C0026424C00001C26001321260000FFFF007FFFFF0000A5A50052A5
310
A500007F7F003F7F7F00004C4C00264C4C00002626001326260000FFBF007FFFDF0000A57C0052A59100007F5F003F7F6F00004C3900264C420000261C001326210000FF7F007FFFBF0000A5520052A57C00007F3F003F7F5F00004C2600264C39000026130013261C0000FF3F007FFF9F0000A5290052A56700007F1F003F
310
7F4F00004C1300264C2F00002609001326170000FF00007FFF7F0000A5000052A55200007F00003F7F3F00004C0000264C260000260000132613003FFF00009FFF7F0029A5000067A552001F7F00004F7F3F00134C00002F4C260009260000172613007FFF0000BFFF7F0052A500007CA552003F7F00005F7F3F00264C0000
310
394C2600132600001C261300BFFF0000DFFF7F007CA5000091A552005F7F00006F7F3F00394C0000424C26001C26000021261300FFFF0000FFFF7F00A5A50000A5A552007F7F00007F7F3F004C4C00004C4C26002626000026261300FFBF0000FFDF7F00A57C0000A59152007F5F00007F6F3F004C3900004C422600261C00
310
0026211300FF7F0000FFBF7F00A5520000A57C52007F3F00007F5F3F004C2600004C39260026130000261C1300FF3F0000FF9F7F00A5290000A56752007F1F00007F4F3F004C1300004C2F26002609000026171300FF000000FF7F7F00A5000000A55252007F0000007F3F3F004C0000004C2626002600000026131300FF00
310
3F00FF7F9F00A5002900A55267007F001F007F3F4F004C0013004C262F002600090026131700FF007F00FF7FBF00A5005200A5527C007F003F007F3F5F004C0026004C2639002600130026131C00FF00BF00FF7FDF00A5007C00A55291007F005F007F3F6F004C0039004C26420026001C0026132100FF00FF00FF7FFF00A5
310
00A500A552A5007F007F007F3F7F004C004C004C264C002600260026132600BF00FF00DF7FFF007C00A5009152A5005F007F006F3F7F0039004C0042264C001C002600211326007F00FF00BF7FFF005200A5007C52A5003F007F005F3F7F0026004C0039264C00130026001C1326003F00FF009F7FFF002900A5006752A500
310
1F007F004F3F7F0013004C002F264C000900260017132600000000002D2D2D005B5B5B0089898900B7B7B700B3B3B30000000000000000000000000000000000000000000000000000000000000000000000000000000000000000000000000000000000000000000000000000000000000000000000000000000000000000
310
00000000000000000000000000000000000000000000000000000000000000000000000000000000000000000000000000000000000000000000000000000000000000000000000000000000000000000000000000000000000000000000000000000000000000000000000000000000000000000000000000000000000000
310
00000000000000000000000000000000000000000000000000000000000000000000000000000000000000000000000000000000000000000000000000000000000000000000000000000000000000000000000000000000000000000000000000000000000000000000000000000000000000000000000000000000000000
310
00000000000000000000000000000000000000000000000000000000000000000000000000000000000000000000000000000000000000000000000000000000000000000000000000000000000000000000000000000000000000000000000000000000000000000000000000000000000000000000000000000000000000
310
00000000000000000000000000000000000000000000000000000000000000000000000000000000000000000000000000000000000000000000000000000000000000000000000000000000000000000000000000000000000000000000000000000000000000000000000000000000000000000000000000000000000000
310
00000000000000000000000000000000000000000000000000000000000000000000000000000000000000000000000000000000000000000000000000000000000000000000000000000000000000000000000000000000000000000000000000000000000000000000000000000000000000000000000000000000000000
310
00000000000000000000000000000000000000000000000000000000000000000000000000000000000000000000000000000000000000000000000000000000000000000000000000000000000000000000000000000000000000000000000000000000000000000000000000000000000000000000000000000000000000
310
00000000000000000000000000000000000000000000000000000000000000000000000000000000000000000000000000000000000000000000000000000000000000000000000000000000000000000000000000000000000000000000000000000000000000000000000000000000000000000000000000000000000000
310
00000000000000000000000000000000000000000000000000000000000000000000000000000000000000000000000000000000000000000000000000000000000000000000000000000000000000000000000000000000000000000000000000000000000000000000000000000000000000000000000000000000000000
310
00000000000000000000000000000000000000000000000000000000000000000000000000000000000000000000000000000000000000000000000000000000000000000000000000000000000000000000000000000000000000000000000000000000000000000000000000000000000000000000000000000000000000
310
00000000000000000000000000000000000000000000000000000000000000000000000000000000000000000000000000000000000000000000000000000000000000000000000000000000000000000000000000000000000000000000000000000000000000000000000000000000000000000000000000000000000000
310
00000000000000000000000000000000000000000000000000000000000000000000000000000000000000000000000000000000000000000000000000000000000000000000000000000000000000000000000000000000000000000000000000000000000000000000000000000000000000000000000000000000000000
310
00000000000000000000000000000000000000000000000000000000000000000000000000000000000000000000000000000000000000000000000000000000000000000000000000000000000000000000000000000000000000000000000000000000000000000000000000000000000000000000000000000000000000
310
00000000000000000000000000000000000000000000000000000000000000000000000000000000000000000000000000000000000000000000000000000000000000000000000000000000000000000000000000000000000000000000000000000000000000000707000000000000000000000000000000000000000000
310
00000000000000000000000000000000000000000000000000000000000000000000000000000000000000000000000000000000000000000000000000000000000000000000000000000000000000000000000000000000000000000000000000000000000000000000000000000000000000000000000000000000000000
310
00000000000000000000000000000000000000000000000000000000000007000700000000000000000000000000000000000000000000000000000000000000000000000000000000000000000000000000000000000000000000000000000000000000000000000000000000000000000000000000000000000000000000
310
00000000000000000000000000000000000000000000000000000000000000000000000000000000000000000000000000000000000000000000000000000000000000000000000000000000000000000000000700000707000000000000000000000000000000000000000000000000000000000000000000000000000000
310
00000000000000000000000000000000000000000000000000000000000000000000000000000000000000000000000000000000000000000000000000000000000000000000000000000000000000000000000000000000000000000000000000000000000000000000000000000000000000000000000000000000000000
310
00000000000000000007000000000700000000000000000000000000000000000000000000000000000000000000000000000000000000000000000000000000000000000000000000000000000000000000000000000000000000000000000000000000000000000000000000000000000000000000000000000000000000
310
00000000000000000000000000000000000000000000000000000000000000000000000000000000000000000000000000000000000000000000000000000700000000000700000000000000000000000000000000000000000000000000000000000000000000000000000000000000000000000000000000000000000000
310
00000000000000000000000000000000000000000000000000000000000000000000000000000000000000000000000000000000000000000000000000000000000000000000000000000000000000000000000000000000000000000000000000000000000000000000000000000000000000070000000000070000000000
310
00000000000000000000000000000000000000000000000000000000000000000000000000000000000000000000000000000000000000000000000000000000000000000000000000000000000000000000000000000000000000000000000000000000000000000000000000000000000000000000000000000000000000
310
00000000000000000000000000000000000000000000000000000000000000000000000000000000000700000000000700000000000000000000000000000000000000000000000000000000000000000000000000000000000000000000000000000000000000000000000000000000000000000000000000000000000000
310
00000000000000000000000000000000000000000000000000000000000000000000000000000000000000000000000000000000000000000000000000000000000000000000000000000000000000000000000000000000000000000000070000000000070000000000000000000000000000000000000000000000000000
310
00000000000000000000000000000000000000000000000000000000000000000000000000000000000000000000000000000000000000000000000000000000000000000000000000000000000000000000000000000000000000000000000000000000000000000000000000000000000000000000000000000000000000
310
00000000000000000000000000000000000000000700000000000700000000000000000000000000000000000000000000000000000000000000000000000000000000000000000000000000000000000000000000000000000000000000000000000000000000000000000000000000000000000000000000000000000000
310
00000000000000000000000000000000000000000000000000000000000000000000000000000000000000000000000000000000000000000000000000000000000000000000000000070000000000070000000000000000000000000000000000000000000000000000000000000000000000000000000000000000000000
310
00000000000000000000000000000000000000000000000000000000000000000000000000000000000000000000000000000000000000000000000000000000000000000000000000000000000000000000000000000000000000000000000000000000000000000000000000000000000000000000000000000000000007
310
00000000000700000000000000000000000000000000000000000000000000000000000000000000000000000000000000000000000000000000000000000000000000000000000000000000000000000000000000000000000000000000000000000000000000000000000000000000000000000000000000000000000000
310
00000000000000000000000000000000000000000000000000000000000000000000000000000000000000000000000000000000070000000000070000000000000000000000000000000000000000000000000000000000000000000000000000000000000000000000000000000000000000000000000000000000000000
310
00000000000000000000000000000000000000000000000000000000000000000000000000000000000000000000000000000000000000000000000000000000000000000000000000000000000000000000000000000000000000000000000000000000000000000007000000000007000000000000000000000000000000
310
00000000000000000000000000000000000000000000000000000000000000000000000000000000000000000000000000000000000000000000000000000000000000000000000000000000000000000000000000000000000000000000000000000000000000000000000000000000000000000000000000000000000000
310
00000000000000000000000000000000000000000000000000000000000000070000000000070000000000000000000000000000000000000000000000000000000000000000000000000000000000000000000000000000000000000000000000000000000000000000000000000000000000000000000000000000000000
310
00000000000000000000000000000000000000000000000000000000000000000000000000000000000000000000000000000000000000000000000000000000000000000000000000000000000000000000000007000000000007000000000000000000000000000000000000000000000000000000000000000000000000
310
00000000000000000000000000000000000000000000000000000000000000000000000000000000000000000000000000000000000000000000000000000000000000000000000000000000000000000000000000000000000000000000000000000000000000000000000000000000000000000000000000000000000000
310
00000000000000000000070000000000070000000000000000000000000000000000000000000000000000000000000000000000000000000000000000000000000000000000000000000000000000000000000000000000000000000000000000000000000000000000000000000000000000000000000000000000000000
310
00000000000000000000000000000000000000000000000000000000000000000000000000000000000000000000000000000000000000000000000000000007000000000007000000000000000000000000000000000000000000000000000000000000000000000000000000000000000000000000000000000000000000
310
00000000000000000000000000000000000000000000000000000000000000000000000000000000000000000000000000000000000000000000000000000000000000000000000000000000000000000000000000000000000000000000000000000000000000000000000000000000000000000700000000000700000000
310
00000000000000000000000000000000000000000000000000000000000000000000000000000000000000000000000000000000000000000000000000000000000000000000000000000000000000000000000000000000000000000000000000000000000000000000000000000000000000000000000000000000000000
310
00000000000000000000000000000000000000000000000000000000000000000000000000000000000007000000000007000000000000000000000000000000000000000000000000000000000000000000000000000000000000000000000000000000000000000000000000000000000000000000000000000000000000
310
00000000000000000000000000000000000000000000000000000000000000000000000000000000000000000000000000000000000000000000000000000000000000000000000000000000000000000000000000000000000000000000000700000000000700000000000000000000000000000000000000000000000000
310
00000000000000000000000000000000000000000000000000000000000000000000000000000000000000000000000000000000000000000000000000000000000000000000000000000000000000000000000000000000000000000000000000000000000000000000000000000000000000000000000000000000000000
310
00000000000000000000000000000000000000000007000000000007000000000000000000000000000000000000000000000000000000000000000000000000000000000000000000000000000000000000000000000000000000000000000000000000000000000000000000000000000000000000000000000000000000
310
00000000000000000000000000000000000000000000000000000000000000000000000000000000000000000000000000000000000000000000000000000000000000000000000000000700000000000700000000000000000000000000000000000000000000000000000000000000000000000000000000000000000000
310
00000000000000000000000000000000000000000000000000000000000000000000000000000000000000000000000000000000000000000000000000000000000000000000000000000000000000000000000000000000000000000000000000000000000000000000000000000000000000000000000000000000000000
310
07000000000007000000000000000000000000000000000000000000000000000000000000000000000000000000000000000000000000000000000000000000000000000000000000000000000000000000000000000000000000000000000000000000000000000000000000000000000000000000000000000000000000
310
00000000000000000000000000000000000000000000000000000000000000000000000000000000000000000000000000000000000700000000000700000000000000000000000000000000000000000000000000000000000000000000000000000000000000000000000000000000000000000000000000000000000000
310
00000000000000000000000000000000000000000000000000000000000000000000000000000000000000000000000000000000000000000000000000000000000000000000000000000000000000000000000000000000000000000000000000000000000000000000070000000000070000000000000000000000000000
310
00000000000000000000000000000000000000000000000000000000000000000000000000000000000000000000000000000000000000000000000000000000000000000000000000000000000000000000000000000000000000000000000000000000000000000000000000000000000000000000000000000000000000
310
00000000000000000000000000000000000000000000000000000000000000070707070707070707000000000000000000000000000000000000000000000000000000000000000000000000000000000000000000000000000000000000000000000000000000000000000000000000000000000000000000000000000000
310
00000000000000000000000000000000000000000000000000000000000000000000000000000000000000000000000000000000000000000000000000000000000000000000000000000000000000000000000007000000000000000700000000000000000000000000000000000000000000000000000000000000000000
310
00000000000000000000000000000000000000000000000000000000000000000000000000000000000000000000000000000000000000000000000000000000000000000000000000000000000000000000000000000000000000000000000000000000000000000000000000000000000000000000000000000000000000
310
00000000000000000000070000000000000007000000000000000000000000000000000000000000000000000000000000000000000000000000000000000000000000000000000000000000000000000000000000000000000000000000000000000000000000000000000000000000000000000000000000000000000000
310
00000000000000000000000000000000000000000000000000000000000000000000000000000000000000000000000000000000000000000000000000000007000000000000000700000000000000000000000000000000000000000000000000000000000000000000000000000000000000000000000000000000000000
310
00000000000000000000000000000000000000000000000000000000000000000000000000000000000000000000000000000000000000000000000000000000000000000000000000000000000000000000000000000000000000000000000000000000000000000000000000000000000000000700000000000000070000
310
00000000000000000000000000000000000000000000000000000000000000000000000000000000000000000000000000000000000000000000000000000000000000000000000000000000000000000000000000000000000000000000000000000000000000000000000000000000000000000000000000000000000000
310
00000000000000000000000000000000000000000000000000000000000000000000000000000000000007000000000000000700000000000000000000000000000000000000000000000000000000000000000000000000000000000000000000000000000000000000000000000000000000000000000000000000000000
310
00000000000000000000000000000000000000000000000000000000000000000000000000000000000000000000000000000000000000000000000000000000000000000000000000000000000000000000000000000000000000000000070000000000000000070000000000000000000000000000000000000000000000
310
00000000000000000000000000000000000000000000000000000000000000000000000000000000000000000000000000000000000000000000000000000000000000000000000000000000000000000000000000000000000000000000000000000000000000000000000000000000000000000000000000000000000000
310
00000000000000000000000000000000000000000700000000000000000007000000000000000000000000000000000000000000000000000000000000000000000000000000000000000000000000000000000000000000000000000000000000000000000000000000000000000000000000000000000000000000000000
310
00000000000000000000000000000000000000000000000000000000000000000000000000000000000000000000000000000000000000000000000000000000000000000000000000070000000000000000000700000000000000000000000000000000000000000000000000000000000000000000000000000000000000
310
00000000000000000000000000000000000000000000000000000000000000000000000000000000000000000000000000000000000000000000000000000000000000000000000000000000000000000000000000000000000000000000000000000000000000000000000000000000000000000000000000000000000007
310
00000000000000000007000000000000000000000000000000000000000000000000000000000000000000000000000000000000000000000000000000000000000000000000000000000000000000000000000000000000000000000000000000000000000000000000000000000000000000000000000000000000000000
310
00000000000000000000000000000000000000000000000000000000000000000000000000000000000000000000000000000000070000000000000000000700000000000000000000000000000000000000000000000000000000000000000000000000000000000000000000000000000000000000000000000000000000
310
00000000000000000000000000000000000000000000000000000000000000000000000000000000000000000000000000000000000000000000000000000000000000000000000000000000000000000000000000000000000000000000000000000000000000000007000000000000000000070000000000000000000000
310
00000000000000000000000000000000000000000000000000000000000000000000000000000000000000000000000000000000000000000000000000000000000000000000000000000000000000000000000000000000000000000000000000000000000000000000000000000000000000000000000000000000000000
310
00000000000000000000000000000000000000000000000000000000000000070000000000000000000000000000000000000000000000000000000000000000000000000000000000000000000000000000000000000000000000000000000000000000000000000000000000000000000000000000000000000000000000
310
00000000000000000000000000000000000000000000000000000000000000000000000000000000000000000000000000000000000000000000000000000000000000000000000000000000000000000000000000070707070707070707000000000000000000000000000000000000000000000000000000000000000000
310
00000000000000000000000000000000000000000000000000000000000000000000000000000000000000000000000000000000000000000000000000000000000000000000000000000000000000070707070707070707070707070707070707070707070707070707070707070707070707070707070707070707070707
310
07070707070707070707070707070707070700070707070707070707070707070707070707070707070707070707070707070707070707070707070707070707070707070707070707070707070707000000000000000000000000000000000000000000000000000000000000000000000000000000000000000000000007
310
07070700070000000000000000000000000000000000000000000000000000000000000000000000000000000000000000000000000000000000000000000000000000000000000000000000000000000000000000000000000000000000000000000000000000000000000000000000000000000000000000000000000000
310
00000000000700070707070000000000000000000000000000000000000000000000000000000000000000000000000000000007070000070007000000000000000000000000000000000000000000000000000000000000000000000000000000000000000000000000000000000000000000000000000000000000000000
310
00000000000000000000000000000000000000000000000000000000000000000000000000000000000000000000000000000000000000000000070007000007070000000000000000000000000000000000000000000000000000000000000000000000000000000707070707000700000000000000000000000000000000
310
00000000000000000000000000000000000000000000000000000000000000000000000000000000000000000000000000000000000000000000000000000000000000000000000000000000000000000000000000000000000000000000000000000000000000000000000000000007000707070707000000000000000000
310
00000000000000000000000000000000000000000000000000070707070707000000070707000000000000000000000000000000000000000000000000000000000000000000000000000000000000000000000000000000000000000000000000000000000000000000000000000000000000000000000000000000000000
310
00000000000000000000000000000000000000000000000000000000000000000000000000070707000000070707070707000000000000000000000000000000000000000000000000000000000007000000000000000000000700000000000000000000000000000000000000000000000000000000000000000000000000
310
00000000000000000000000000000000000000000000000000000000000000000000000000000000000000000000000000000000000000000000000000000000000000000000000000000000000000000000000000000000000007000000000000000000000700000000000000000000000000000000000000000000000000
310
00000000070000000000000000000007000000000000000000000000000000000000000000000000000000000000000000000000000000000000000000000000000000000000000000000000000000000000000000000000000000000000000000000000000000000000000000000000000000000000000000000000000000
310
00000000000000000000000000000000070000000000000000000007000000000000000000000000000000000000000000000000000000000007000000000000000000000700000000000000000000000000000000000000000000000000000000000000000000000000000000000000000000000000000000000000000000
310
00000000000000000000000000000000000000000000000000000000000000000000000000000000000000000000000000000000000000000000000000000000000000000007000000000000000000000700000000000000000000000000000000000000000000000000000000000700000000000000000000070000000000
310
00000000000000000000000000000000000000000000000000000000000000000000000000000000000000000000000000000000000000000000000000000000000000000000000000000000000000000000000000000000000000000000000000000000000000000000000000000000000000000000000000000700000000
310
00000000000007000000000000000000000000000000000000000000000000000000000007000000000000000000000700000000000000000000000000000000000000000000000000000000000000000000000000000000000000000000000000000000000000000000000000000000000000000000000000000000000000
310
00000000000000000000000000000000000000000000000000000000000000000000000000000000000000000000000007000000000000000000000700000000000000000000000000000000000000000000000000000000000700000000000000000000070000000000000000000000000000000000000000000000000000
310
00000000000000000000000000000000000000000000000000000000000000000000000000000000000000000000000000000000000000000000000000000000000000000000000000000000000000000000000000000000000000000000000000000000000700000000000000000000070000000000000000000000000000
310
00000000000000000000000000000007000000000000000000000700000000000000000000000000000000000000000000000000000000000000000000000000000000000000000000000000000000000000000000000000000000000000000000000000000000000000000000000000000000000000000000000000000000
310
00000000000000000000000000000000000000000000000000000007000000000000000000000700000000000000000000000000000000000000000000000000000000000700000000000000000000070000000000000000000000000000000000000000000000000000000000000000000000000000000000000000000000
310
00000000000000000000000000000000000000000000000000000000000000000000000000000000000000000000000000000000000000000000000000000000000000000000000000000000000000000700000000000000000000070000000000000000000000000000000000000000000000000000000000070000000000
310
00000000000700000000000000000000000000000000000000000000000000000000000000000000000000000000000000000000000000000000000000000000000000000000000000000000000000000000000000000000000000000000000000000000000000000000000000000000000000000000000000000000000000
310
00000000000007000000000000000000000700000000000000000000000000000000000000000000000000000000000700000000000000000000070000000000000000000000000000000000000000000000000000000000000000000000000000000000000000000000000000000000000000000000000000000000000000
310
00000000000000000000000000000000000000000000000000000000000000000000000000000000000000000000000000000000000000000000000700000000000000000000070000000000000000000000000000000000000000000000000000000000070000000000000000000007000000000000000000000000000000
310
00000000000000000000000000000000000000000000000000000000000000000000000000000000000000000000000000000000000000000000000000000000000000000000000000000000000000000000000000000000000000000000000000000000000000000000000000000000070000000000000000000007000000
310
00000000000000000000000000000000000000000000000000000700000000000000000000070000000000000000000000000000000000000000000000000000000000000000000000000000000000000000000000000000000000000000000000000000000000000000000000000000000000000000000000000000000000
310
00000000000000000000000000000000000000000000000000000000000000000000000000000700000000000000000000070000000000000000000000000000000000000000000000000000000000070000000000000000000007000000000000000000000000000000000000000000000000000000000000000000000000
310
00000000000000000000000000000000000000000000000000000000000000000000000000000000000000000000000000000000000000000000000000000000000000000000000000000000000000000000000000000000000000070000000000000000000007000000000000000000000000000000000000000000000000
310
00000000000700000000000000000000070000000000000000000000000000000000000000000000000000000000000000000000000000000000000000000000000000000000000000000000000000000000000000000000000000000000000000000000000000000000000000000000000000000000000000000000000000
310
00000000000000000000000000000000000700000000000000000000070000000000000000000000000000000000000000000000000000000000070000000000000000000007000000000000000000000000000000000000000000000000000000000000000000000000000000000000000000000000000000000000000000
310
00000000000000000000000000000000000000000000000000000000000000000000000000000000000000000000000000000000000000000000000000000000000000000000070000000000000000000007000000000000000000000000000000000000000000000000000000000007000000000000000000000700000000
310
00000000000000000000000000000000000000000000000000000000000000000000000000000000000000000000000000000000000000000000000000000000000000000000000000000000000000000000000000000000000000000000000000000000000000000000000000000000000000000000000000000007000000
310
00000000000000070000000000000000000000000000000000000000000000000000000000070707070707070707070707000000000000000000000000000000000000000000000000000000000000000000000000000000000000000000000000000000000000000000000000000000000000000000000000000000000000
310
00000000000000000000000000000000000000000000000000000000000000000000000000000000000000000000000000070707070707070707070707000000000000000000000000000000000000000000000000000000000000000000000000000000000700000000000000000000000000000000000000000000000000
310
00000000000000000000000000000000000000000000000000000000000000000000000000000000000000000000000000000000000000000000000000000000000000000000000000000000000000000000000000000000000000000000000000000000000007000000000000000000000000000000000000000000000000
310
00000000000000000000000000000000000000000000000000000007000000000000000000000000000000000000000000000000000000000000000000000000000000000000000000000000000000000000000000000000000000000000000000000000000000000000000000000000000000000000000000000000000000
310
00000000000000000000000000000000000000000000000000000000070000000000000000000000000000000000000000000000000000000000000000000000000000000000000000000000000000000707070707070707070707070707070707070707070707070707070707070707070707070707070707070707070707
310
07070707070707070707070707070707070007070707070707070707070707070707070707070707070707070707070707070707070707070707070707070707070707070707070707070707070707070707000000000000000000000000000000000000000000000000000000000000000000000000000000000000000000
310
00000000000007000000000000000000000000000000000000000000000000000000000000000000000000000000000000000000000000000000000000000000000000000000000000000000000000000000000000000000000000000000000000000000000000000000000000000000000000000000000000000000000000
310
00000000000000070000000000000000000000000000000000000000000000000000000000000000000000000000000000000000000000000000000707070707070707070707070707070707070707070707070707070707070707070707070707070707070707070707070707070707070707070707070707070700070707
310
07070707070707070707070707070707070707070707070707070707070707070707070707070707070707070707070707070707070707070707070707000000000000000000000000000000000000000000000000000000000000000000000000000000000000000000000000000000000000000000000000000000000000
310
00000000000000000000000000000000000000000000000000000000000000000000000000000000000000000000000000000000000000000000000000000000000000000000000000000000000000000000000000000000000000000000000000000000000000000000000000000000000000000000000000000000000000
310
00000000000000000000000000000000000000000000000000000000000000000000000000000000000000000000000000000000000000000000000000000000000000000000000000000000000000000000000000000000000000000000000000000000000000000000000000000000000000000000000000000000000000
310
00000000000000000000000000000000000000000000000000000000000000000000000000000000000000000000000000000000000000000000000000000000000000000000000000000000000000000000000000000000000000000000000000000000000000000000000000000000000000000000000000000000000000
310
00000000000000000000000000000000000000000000000000000000000000000000000000000000000000000000000000000000000000000000000000000000000000000000000000000000000000000000000000000000000000000000000000000000000000000000000000000000000000000000000000000000000000
310
00000000000000000000000000000000000000000000000000000000000000000000000000000000000000000000000000000000000000000000000000000000000000000000000000000000000000000000000000000000000000000000000000000000000000000000000000000000000000000000000000000000000000
310
00000000000000000000000000000000000000000000000000000000000000000000000000000000000000000000000000000000000000000000000000000000000000000000000000000000000000000000000000000000000000000000000000000000000000000000000000000000000000000000000000000000000000
310
00000000000000000000000000000000000000000000000000000000000000000000000000000000000000000000000000000000000000000000000000000000000000000000000000000000000000000000000000000000000000000000000000000000000000000000000000000000000000000000000000000000000000
310
00000000000000000000000000000000000000000000000000000000000000000000000000000000000000000000000000000000000000000000000000000000000000000000000000000000000000000000000000000000000000000000000000000000000000000000000000000000000000000000000000000000000000
310
00000000000000000000000000000000000000000000000000000000000000000000000000000000000000000000000000000000000000000000000000000000000000000000000000000000000000000000000000000000000000000000000000000000000000000000000000000000000000000000000000000000000000
310
00000000000000000000000000000000000000000000000000000000000000000000000000000000000000000000000000000000000000000000000000000000000000000000000000000000000000000000000000000000000000000000000000000000000000000000000000000000000000000000000000000000000000
310
00000000000000000000000000000000000000000000000000000000000000000000000000000000000000000000000000000000000000000000000000000000000000000000000000000000000000000000000000000000000000000000000000000000000000000000000000000000000000000000000000000000000000
310
00000000000000000000000000000000000000000000000000000000000000000000000000000000000000000000000000000000000000000000000000000000000000000000000000000000000000000000000000000000000000000000000000000000000000000000000000000000000000000000000000000000000000
310
00000000000000000000000000000000000000000000000000000000000000000000000000000000000000000000000000000000000000000000000000000000000000000000000000000000000000000000000000000000000000000000000000000000000000000000000000000000000000000000000000000000000000
310
000000000000000000000000000000000000000000000000000000000000000000000000000000000000000000000000000000000000000000000000000000000000000000000000000000000000000000000000000000000000000000000000000000000000000000000000
  0
ENDSEC
  0
EOF
