  0
SECTION
  2
HEADER
  9
$ACADVER
  1
AC1015
  9
$ACADMAINTVER
 70
     6
  9
$DWGCODEPAGE
  3
ANSI_1252
  9
$INSBASE
 10
0.0
 20
0.0
 30
0.0
  9
$EXTMIN
 10
0.0000125
 20
0.0
 30
0.0
  9
$EXTMAX
 10
349.9999875
 20
183.0
 30
0.0
  9
$LIMMIN
 10
0.0
 20
0.0
  9
$LIMMAX
 10
12.0
 20
9.0
  9
$ORTHOMODE
 70
     0
  9
$REGENMODE
 70
     1
  9
$FILLMODE
 70
     1
  9
$QTEXTMODE
 70
     0
  9
$MIRRTEXT
 70
     1
  9
$LTSCALE
 40
1.0
  9
$ATTMODE
 70
     1
  9
$TEXTSIZE
 40
0.2
  9
$TRACEWID
 40
0.05
  9
$TEXTSTYLE
  7
Standard
  9
$CLAYER
  8
0
  9
$CELTYPE
  6
ByBlock
  9
$CECOLOR
 62
   256
  9
$CELTSCALE
 40
1.0
  9
$DISPSILH
 70
     0
  9
$DIMSCALE
 40
1.0
  9
$DIMASZ
 40
0.18
  9
$DIMEXO
 40
0.0625
  9
$DIMDLI
 40
0.38
  9
$DIMRND
 40
0.0
  9
$DIMDLE
 40
0.0
  9
$DIMEXE
 40
0.18
  9
$DIMTP
 40
0.0
  9
$DIMTM
 40
0.0
  9
$DIMTXT
 40
0.18
  9
$DIMCEN
 40
0.09
  9
$DIMTSZ
 40
0.0
  9
$DIMTOL
 70
     0
  9
$DIMLIM
 70
     0
  9
$DIMTIH
 70
     1
  9
$DIMTOH
 70
     1
  9
$DIMSE1
 70
     0
  9
$DIMSE2
 70
     0
  9
$DIMTAD
 70
     0
  9
$DIMZIN
 70
     0
  9
$DIMBLK
  1

  9
$DIMASO
 70
     1
  9
$DIMSHO
 70
     1
  9
$DIMPOST
  1

  9
$DIMAPOST
  1

  9
$DIMALT
 70
     0
  9
$DIMALTD
 70
     2
  9
$DIMALTF
 40
25.4
  9
$DIMLFAC
 40
1.0
  9
$DIMTOFL
 70
     0
  9
$DIMTVP
 40
0.0
  9
$DIMTIX
 70
     0
  9
$DIMSOXD
 70
     0
  9
$DIMSAH
 70
     0
  9
$DIMBLK1
  1

  9
$DIMBLK2
  1

  9
$DIMSTYLE
  2
Standard
  9
$DIMCLRD
 70
     0
  9
$DIMCLRE
 70
     0
  9
$DIMCLRT
 70
     0
  9
$DIMTFAC
 40
1.0
  9
$DIMGAP
 40
0.09
  9
$DIMJUST
 70
     0
  9
$DIMSD1
 70
     0
  9
$DIMSD2
 70
     0
  9
$DIMTOLJ
 70
     1
  9
$DIMTZIN
 70
     0
  9
$DIMALTZ
 70
     0
  9
$DIMALTTZ
 70
     0
  9
$DIMUPT
 70
     0
  9
$DIMDEC
 70
     4
  9
$DIMTDEC
 70
     4
  9
$DIMALTU
 70
     2
  9
$DIMALTTD
 70
     2
  9
$DIMTXSTY
  7
Standard
  9
$DIMAUNIT
 70
     0
  9
$DIMADEC
 70
     0
  9
$DIMALTRND
 40
0.0
  9
$DIMAZIN
 70
     0
  9
$DIMDSEP
 70
    46
  9
$DIMATFIT
 70
     3
  9
$DIMFRAC
 70
     0
  9
$DIMLDRBLK
  1

  9
$DIMLUNIT
 70
     2
  9
$DIMLWD
 70
    -2
  9
$DIMLWE
 70
    -2
  9
$DIMTMOVE
 70
     2
  9
$LUNITS
 70
     2
  9
$LUPREC
 70
     4
  9
$SKETCHINC
 40
0.1
  9
$FILLETRAD
 40
0.5
  9
$AUNITS
 70
     0
  9
$AUPREC
 70
     0
  9
$MENU
  1
.
  9
$ELEVATION
 40
0.0
  9
$PELEVATION
 40
0.0
  9
$THICKNESS
 40
0.0
  9
$LIMCHECK
 70
     0
  9
$CHAMFERA
 40
0.5
  9
$CHAMFERB
 40
0.5
  9
$CHAMFERC
 40
1.0
  9
$CHAMFERD
 40
0.0
  9
$SKPOLY
 70
     0
  9
$TDCREATE
 40
2455824.636702651
  9
$TDUCREATE
 40
2455824.553369317
  9
$TDUPDATE
 40
2455824.63752441
  9
$TDUUPDATE
 40
2455824.554191076
  9
$TDINDWG
 40
0.0008217708
  9
$TDUSRTIMER
 40
0.0008217708
  9
$USRTIMER
 70
     1
  9
$ANGBASE
 50
0.0
  9
$ANGDIR
 70
     0
  9
$PDMODE
 70
     0
  9
$PDSIZE
 40
0.0
  9
$PLINEWID
 40
0.0
  9
$SPLFRAME
 70
     0
  9
$SPLINETYPE
 70
     6
  9
$SPLINESEGS
 70
     8
  9
$HANDSEED
  5
554
  9
$SURFTAB1
 70
     6
  9
$SURFTAB2
 70
     6
  9
$SURFTYPE
 70
     6
  9
$SURFU
 70
     6
  9
$SURFV
 70
     6
  9
$UCSBASE
  2

  9
$UCSNAME
  2

  9
$UCSORG
 10
0.0
 20
0.0
 30
0.0
  9
$UCSXDIR
 10
1.0
 20
0.0
 30
0.0
  9
$UCSYDIR
 10
0.0
 20
1.0
 30
0.0
  9
$UCSORTHOREF
  2

  9
$UCSORTHOVIEW
 70
     0
  9
$UCSORGTOP
 10
0.0
 20
0.0
 30
0.0
  9
$UCSORGBOTTOM
 10
0.0
 20
0.0
 30
0.0
  9
$UCSORGLEFT
 10
0.0
 20
0.0
 30
0.0
  9
$UCSORGRIGHT
 10
0.0
 20
0.0
 30
0.0
  9
$UCSORGFRONT
 10
0.0
 20
0.0
 30
0.0
  9
$UCSORGBACK
 10
0.0
 20
0.0
 30
0.0
  9
$PUCSBASE
  2

  9
$PUCSNAME
  2

  9
$PUCSORG
 10
0.0
 20
0.0
 30
0.0
  9
$PUCSXDIR
 10
1.0
 20
0.0
 30
0.0
  9
$PUCSYDIR
 10
0.0
 20
1.0
 30
0.0
  9
$PUCSORTHOREF
  2

  9
$PUCSORTHOVIEW
 70
     0
  9
$PUCSORGTOP
 10
0.0
 20
0.0
 30
0.0
  9
$PUCSORGBOTTOM
 10
0.0
 20
0.0
 30
0.0
  9
$PUCSORGLEFT
 10
0.0
 20
0.0
 30
0.0
  9
$PUCSORGRIGHT
 10
0.0
 20
0.0
 30
0.0
  9
$PUCSORGFRONT
 10
0.0
 20
0.0
 30
0.0
  9
$PUCSORGBACK
 10
0.0
 20
0.0
 30
0.0
  9
$USERI1
 70
     0
  9
$USERI2
 70
     0
  9
$USERI3
 70
     0
  9
$USERI4
 70
     0
  9
$USERI5
 70
     0
  9
$USERR1
 40
0.0
  9
$USERR2
 40
0.0
  9
$USERR3
 40
0.0
  9
$USERR4
 40
0.0
  9
$USERR5
 40
0.0
  9
$WORLDVIEW
 70
     1
  9
$SHADEDGE
 70
     3
  9
$SHADEDIF
 70
    70
  9
$TILEMODE
 70
     1
  9
$MAXACTVP
 70
    64
  9
$PINSBASE
 10
0.0
 20
0.0
 30
0.0
  9
$PLIMCHECK
 70
     0
  9
$PEXTMIN
 10
1.000000000000E+20
 20
1.000000000000E+20
 30
1.000000000000E+20
  9
$PEXTMAX
 10
-1.000000000000E+20
 20
-1.000000000000E+20
 30
-1.000000000000E+20
  9
$PLIMMIN
 10
0.0
 20
0.0
  9
$PLIMMAX
 10
12.0
 20
9.0
  9
$UNITMODE
 70
     0
  9
$VISRETAIN
 70
     1
  9
$PLINEGEN
 70
     0
  9
$PSLTSCALE
 70
     1
  9
$TREEDEPTH
 70
  3020
  9
$CMLSTYLE
  2
Standard
  9
$CMLJUST
 70
     0
  9
$CMLSCALE
 40
1.0
  9
$PROXYGRAPHICS
 70
     1
  9
$MEASUREMENT
 70
     0
  9
$CELWEIGHT
370
    -1
  9
$ENDCAPS
280
     0
  9
$JOINSTYLE
280
     0
  9
$LWDISPLAY
290
     0
  9
$INSUNITS
 70
     0
  9
$HYPERLINKBASE
  1

  9
$STYLESHEET
  1

  9
$XEDIT
290
     1
  9
$CEPSNTYPE
380
     0
  9
$PSTYLEMODE
290
     1
  9
$FINGERPRINTGUID
  2
{940E41EE-4BD6-4D0A-9529-84C11A7FEDC3}
  9
$VERSIONGUID
  2
{FAEB1C32-E019-11D5-929B-00C0DF256EC4}
  9
$EXTNAMES
290
     1
  9
$PSVPSCALE
 40
0.0
  9
$OLESTARTUP
290
     0
  0
ENDSEC
  0
SECTION
  2
CLASSES
  0
CLASS
  1
ACDBDICTIONARYWDFLT
  2
AcDbDictionaryWithDefault
  3
ObjectDBX Classes
 90
        0
280
     0
281
     0
  0
CLASS
  1
SCALE
  2
AcDbScale
  3
ObjectDBX Classes
 90
     1153
280
     0
281
     0
  0
CLASS
  1
DICTIONARYVAR
  2
AcDbDictionaryVar
  3
ObjectDBX Classes
 90
        0
280
     0
281
     0
  0
CLASS
  1
ACDBPLACEHOLDER
  2
AcDbPlaceHolder
  3
ObjectDBX Classes
 90
        0
280
     0
281
     0
  0
CLASS
  1
LAYOUT
  2
AcDbLayout
  3
ObjectDBX Classes
 90
        0
280
     0
281
     0
  0
ENDSEC
  0
SECTION
  2
TABLES
  0
TABLE
  2
VPORT
  5
8
330
0
100
AcDbSymbolTable
 70
     1
  0
VPORT
  5
2ED
330
8
100
AcDbSymbolTableRecord
100
AcDbViewportTableRecord
  2
*Active
 70
     0
 10
0.0
 20
0.0
 11
1.0
 21
1.0
 12
175.0
 22
91.5
 13
0.0
 23
0.0
 14
0.5
 24
0.5
 15
0.5
 25
0.5
 16
0.0
 26
0.0
 36
1.0
 17
0.0
 27
0.0
 37
0.0
 40
199.345869615507
 41
1.790857142857
 42
50.0
 43
0.0
 44
0.0
 50
0.0
 51
0.0
 71
    16
 72
   100
 73
     1
 74
     3
 75
     0
 76
     0
 77
     0
 78
     0
281
     0
 65
     1
110
0.0
120
0.0
130
0.0
111
1.0
121
0.0
131
0.0
112
0.0
122
1.0
132
0.0
 79
     0
146
0.0
  0
ENDTAB
  0
TABLE
  2
LTYPE
  5
5
330
0
100
AcDbSymbolTable
 70
     1
  0
LTYPE
  5
14
330
5
100
AcDbSymbolTableRecord
100
AcDbLinetypeTableRecord
  2
ByBlock
 70
     0
  3

 72
    65
 73
     0
 40
0.0
  0
LTYPE
  5
15
330
5
100
AcDbSymbolTableRecord
100
AcDbLinetypeTableRecord
  2
ByLayer
 70
     0
  3

 72
    65
 73
     0
 40
0.0
  0
LTYPE
  5
16
330
5
100
AcDbSymbolTableRecord
100
AcDbLinetypeTableRecord
  2
Continuous
 70
     0
  3
Solid line
 72
    65
 73
     0
 40
0.0
  0
ENDTAB
  0
TABLE
  2
LAYER
  5
2
330
0
100
AcDbSymbolTable
 70
     1
  0
LAYER
  5
10
330
2
100
AcDbSymbolTableRecord
100
AcDbLayerTableRecord
  2
0
 70
     0
 62
     7
  6
Continuous
370
    -3
390
F
  0
ENDTAB
  0
TABLE
  2
STYLE
  5
3
330
0
100
AcDbSymbolTable
 70
     1
  0
STYLE
  5
11
330
3
100
AcDbSymbolTableRecord
100
AcDbTextStyleTableRecord
  2
Standard
 70
     0
 40
0.0
 41
1.0
 50
0.0
 71
     0
 42
0.2
  3
txt
  4

  0
ENDTAB
  0
TABLE
  2
VIEW
  5
6
330
0
100
AcDbSymbolTable
 70
     0
  0
ENDTAB
  0
TABLE
  2
UCS
  5
7
330
0
100
AcDbSymbolTable
 70
     0
  0
ENDTAB
  0
TABLE
  2
APPID
  5
9
330
0
100
AcDbSymbolTable
 70
     1
  0
APPID
  5
12
330
9
100
AcDbSymbolTableRecord
100
AcDbRegAppTableRecord
  2
ACAD
 70
     0
  0
ENDTAB
  0
TABLE
  2
DIMSTYLE
  5
A
330
0
100
AcDbSymbolTable
 70
     1
100
AcDbDimStyleTable
  0
DIMSTYLE
105
20
330
A
100
AcDbSymbolTableRecord
100
AcDbDimStyleTableRecord
  2
Standard
 70
     0
340
11
  0
ENDTAB
  0
TABLE
  2
BLOCK_RECORD
  5
1
330
0
100
AcDbSymbolTable
 70
     1
  0
BLOCK_RECORD
  5
1D
330
1
100
AcDbSymbolTableRecord
100
AcDbBlockTableRecord
  2
*Model_Space
340
1E
  0
BLOCK_RECORD
  5
1B
330
1
100
AcDbSymbolTableRecord
100
AcDbBlockTableRecord
  2
*Paper_Space
340
1C
  0
ENDTAB
  0
ENDSEC
  0
SECTION
  2
BLOCKS
  0
BLOCK
  5
2F0
330
1D
100
AcDbEntity
  8
0
100
AcDbBlockBegin
  2
*Model_Space
 70
     0
 10
0.0
 20
0.0
 30
0.0
  3
*Model_Space
  1
*Model_Space
  0
ENDBLK
  5
2F1
330
1D
100
AcDbEntity
  8
0
100
AcDbBlockEnd
  0
BLOCK
  5
2EE
330
1B
100
AcDbEntity
 67
     1
  8
0
100
AcDbBlockBegin
  2
*Paper_Space
 70
     0
 10
0.0
 20
0.0
 30
0.0
  3
*Paper_Space
  1
*Paper_Space
  0
ENDBLK
  5
2EF
330
1B
100
AcDbEntity
 67
     1
  8
0
100
AcDbBlockEnd
  0
ENDSEC
  0
SECTION
  2
ENTITIES
  0
LINE
  5
21
330
1D
100
AcDbEntity
  8
0
100
AcDbLine
 10
67.4758875
 20
88.0863
 30
0.0
 11
68.4919875
 21
88.479
 31
0.0
  0
LINE
  5
22
330
1D
100
AcDbEntity
  8
0
100
AcDbLine
 10
45.9999875
 20
88.0863
 30
0.0
 11
67.4758875
 21
88.0863
 31
0.0
  0
LINE
  5
23
330
1D
100
AcDbEntity
  8
0
100
AcDbLine
 10
24.5240875
 20
88.0863
 30
0.0
 11
45.9999875
 21
88.0863
 31
0.0
  0
LINE
  5
24
330
1D
100
AcDbEntity
  8
0
100
AcDbLine
 10
22.9999875
 20
90.0622
 30
0.0
 11
22.9999875
 21
91.9033
 31
0.0
  0
LINE
  5
25
330
1D
100
AcDbEntity
  8
0
100
AcDbLine
 10
22.9999875
 20
91.9033
 30
0.0
 11
22.9999875
 21
90.0622
 31
0.0
  0
LINE
  5
26
330
1D
100
AcDbEntity
  8
0
100
AcDbLine
 10
22.9999875
 20
91.9033
 30
0.0
 11
22.9999875
 21
94.9109
 31
0.0
  0
LINE
  5
27
330
1D
100
AcDbEntity
  8
0
100
AcDbLine
 10
22.9999875
 20
89.4729
 30
0.0
 11
23.5079875
 21
88.479
 31
0.0
  0
LINE
  5
28
330
1D
100
AcDbEntity
  8
0
100
AcDbLine
 10
23.5079875
 20
91.0869
 30
0.0
 11
23.5079875
 21
89.111
 31
0.0
  0
LINE
  5
29
330
1D
100
AcDbEntity
  8
0
100
AcDbLine
 10
23.5079875
 20
91.0869
 30
0.0
 11
23.5079875
 21
94.2291
 31
0.0
  0
LINE
  5
2A
330
1D
100
AcDbEntity
  8
0
100
AcDbLine
 10
23.5079875
 20
89.111
 30
0.0
 11
23.5079875
 21
88.479
 31
0.0
  0
LINE
  5
2B
330
1D
100
AcDbEntity
  8
0
100
AcDbLine
 10
23.5079875
 20
89.111
 30
0.0
 11
23.5079875
 21
91.0869
 31
0.0
  0
LINE
  5
2C
330
1D
100
AcDbEntity
  8
0
100
AcDbLine
 10
68.4919875
 20
91.0869
 30
0.0
 11
68.4919875
 21
89.111
 31
0.0
  0
LINE
  5
2D
330
1D
100
AcDbEntity
  8
0
100
AcDbLine
 10
68.4919875
 20
91.0869
 30
0.0
 11
68.4919875
 21
94.2291
 31
0.0
  0
LINE
  5
2E
330
1D
100
AcDbEntity
  8
0
100
AcDbLine
 10
68.75827988354
 20
89.0
 30
0.0
 11
80.228598167787
 21
89.0
 31
0.0
  0
LINE
  5
2F
330
1D
100
AcDbEntity
  8
0
100
AcDbLine
 10
68.4919875
 20
89.111
 30
0.0
 11
68.4919875
 21
91.0869
 31
0.0
  0
LINE
  5
30
330
1D
100
AcDbEntity
  8
0
100
AcDbLine
 10
68.4919875
 20
89.111
 30
0.0
 11
68.4919875
 21
88.479
 31
0.0
  0
LINE
  5
31
330
1D
100
AcDbEntity
  8
0
100
AcDbLine
 10
68.4919875
 20
88.479
 30
0.0
 11
68.4919875
 21
89.111
 31
0.0
  0
LINE
  5
32
330
1D
100
AcDbEntity
  8
0
100
AcDbLine
 10
68.4919875
 20
88.479
 30
0.0
 11
68.75827988354
 21
89.0
 31
0.0
  0
LINE
  5
33
330
1D
100
AcDbEntity
  8
0
100
AcDbLine
 10
23.5079875
 20
88.479
 30
0.0
 11
24.5240875
 21
88.0863
 31
0.0
  0
LINE
  5
34
330
1D
100
AcDbEntity
  8
0
100
AcDbLine
 10
23.5079875
 20
88.479
 30
0.0
 11
23.5079875
 21
89.111
 31
0.0
  0
LINE
  5
35
330
1D
100
AcDbEntity
  8
0
100
AcDbLine
 10
22.9999875
 20
94.9109
 30
0.0
 11
22.9999875
 21
91.9033
 31
0.0
  0
LINE
  5
36
330
1D
100
AcDbEntity
  8
0
100
AcDbLine
 10
22.9999875
 20
94.9109
 30
0.0
 11
22.9999875
 21
98.7663
 31
0.0
  0
LINE
  5
37
330
1D
100
AcDbEntity
  8
0
100
AcDbLine
 10
22.9999875
 20
98.7663
 30
0.0
 11
22.9999875
 21
94.9109
 31
0.0
  0
LINE
  5
38
330
1D
100
AcDbEntity
  8
0
100
AcDbLine
 10
22.9999875
 20
98.7663
 30
0.0
 11
22.9999875
 21
103.193
 31
0.0
  0
LINE
  5
39
330
1D
100
AcDbEntity
  8
0
100
AcDbLine
 10
0.1806005
 20
106.898
 30
0.0
 11
0.6401575
 21
106.084
 31
0.0
  0
LINE
  5
3A
330
1D
100
AcDbEntity
  8
0
100
AcDbLine
 10
1.8547075
 20
105.133
 30
0.0
 11
2.6905675
 21
105.0
 31
0.0
  0
LINE
  5
3B
330
1D
100
AcDbEntity
  8
0
100
AcDbLine
 10
1.0997175
 20
105.581
 30
0.0
 11
1.8547075
 21
105.133
 31
0.0
  0
LINE
  5
3C
330
1D
100
AcDbEntity
  8
0
100
AcDbLine
 10
0.6401575
 20
106.084
 30
0.0
 11
1.0997175
 21
105.581
 31
0.0
  0
LINE
  5
3D
330
1D
100
AcDbEntity
  8
0
100
AcDbLine
 10
0.1806005
 20
109.102
 30
0.0
 11
0.6401575
 21
109.916
 31
0.0
  0
LINE
  5
3E
330
1D
100
AcDbEntity
  8
0
100
AcDbLine
 10
1.8547075
 20
110.867
 30
0.0
 11
2.6905675
 21
111.0
 31
0.0
  0
LINE
  5
3F
330
1D
100
AcDbEntity
  8
0
100
AcDbLine
 10
1.0997175
 20
110.419
 30
0.0
 11
1.8547075
 21
110.867
 31
0.0
  0
LINE
  5
40
330
1D
100
AcDbEntity
  8
0
100
AcDbLine
 10
0.6401575
 20
109.916
 30
0.0
 11
1.0997175
 21
110.419
 31
0.0
  0
LINE
  5
41
330
1D
100
AcDbEntity
  8
0
100
AcDbLine
 10
0.1806005
 20
109.102
 30
0.0
 11
0.6401575
 21
109.916
 31
0.0
  0
LINE
  5
42
330
1D
100
AcDbEntity
  8
0
100
AcDbLine
 10
0.0000125
 20
108.0
 30
0.0
 11
0.1806005
 21
106.898
 31
0.0
  0
LINE
  5
43
330
1D
100
AcDbEntity
  8
0
100
AcDbLine
 10
0.0000125
 20
108.0
 30
0.0
 11
0.1806005
 21
109.102
 31
0.0
  0
LINE
  5
44
330
1D
100
AcDbEntity
  8
0
100
AcDbLine
 10
0.1806005
 20
106.898
 30
0.0
 11
0.6401575
 21
106.084
 31
0.0
  0
LINE
  5
45
330
1D
100
AcDbEntity
  8
0
100
AcDbLine
 10
0.0000125
 20
108.0
 30
0.0
 11
0.1806005
 21
106.898
 31
0.0
  0
LINE
  5
46
330
1D
100
AcDbEntity
  8
0
100
AcDbLine
 10
0.0000125
 20
108.0
 30
0.0
 11
0.1806005
 21
109.102
 31
0.0
  0
LINE
  5
47
330
1D
100
AcDbEntity
  8
0
100
AcDbLine
 10
22.9999875
 20
121.156
 30
0.0
 11
22.9999875
 21
117.293
 31
0.0
  0
LINE
  5
48
330
1D
100
AcDbEntity
  8
0
100
AcDbLine
 10
22.9999875
 20
121.156
 30
0.0
 11
22.9999875
 21
124.062
 31
0.0
  0
LINE
  5
49
330
1D
100
AcDbEntity
  8
0
100
AcDbLine
 10
22.9999875
 20
124.062
 30
0.0
 11
22.9999875
 21
121.156
 31
0.0
  0
LINE
  5
4A
330
1D
100
AcDbEntity
  8
0
100
AcDbLine
 10
22.9999875
 20
124.062
 30
0.0
 11
22.9999875
 21
125.939
 31
0.0
  0
LINE
  5
4B
330
1D
100
AcDbEntity
  8
0
100
AcDbLine
 10
22.9999875
 20
117.293
 30
0.0
 11
22.9999875
 21
112.758
 31
0.0
  0
LINE
  5
4C
330
1D
100
AcDbEntity
  8
0
100
AcDbLine
 10
22.9999875
 20
117.293
 30
0.0
 11
22.9999875
 21
121.156
 31
0.0
  0
LINE
  5
4D
330
1D
100
AcDbEntity
  8
0
100
AcDbLine
 10
22.9999875
 20
112.758
 30
0.0
 11
22.9999875
 21
107.966
 31
0.0
  0
LINE
  5
4E
330
1D
100
AcDbEntity
  8
0
100
AcDbLine
 10
22.9999875
 20
112.758
 30
0.0
 11
22.9999875
 21
117.293
 31
0.0
  0
LINE
  5
4F
330
1D
100
AcDbEntity
  8
0
100
AcDbLine
 10
22.9999875
 20
107.966
 30
0.0
 11
22.9999875
 21
103.193
 31
0.0
  0
LINE
  5
50
330
1D
100
AcDbEntity
  8
0
100
AcDbLine
 10
22.9999875
 20
107.966
 30
0.0
 11
22.9999875
 21
112.758
 31
0.0
  0
LINE
  5
51
330
1D
100
AcDbEntity
  8
0
100
AcDbLine
 10
22.9999875
 20
103.193
 30
0.0
 11
22.9999875
 21
98.7663
 31
0.0
  0
LINE
  5
52
330
1D
100
AcDbEntity
  8
0
100
AcDbLine
 10
22.9999875
 20
103.193
 30
0.0
 11
22.9999875
 21
107.966
 31
0.0
  0
LINE
  5
53
330
1D
100
AcDbEntity
  8
0
100
AcDbLine
 10
22.9999875
 20
125.939
 30
0.0
 11
22.9999875
 21
126.527
 31
0.0
  0
LINE
  5
54
330
1D
100
AcDbEntity
  8
0
100
AcDbLine
 10
22.9999875
 20
125.939
 30
0.0
 11
22.9999875
 21
124.062
 31
0.0
  0
LINE
  5
55
330
1D
100
AcDbEntity
  8
0
100
AcDbLine
 10
22.9999875
 20
126.527
 30
0.0
 11
22.9999875
 21
125.939
 31
0.0
  0
LINE
  5
56
330
1D
100
AcDbEntity
  8
0
100
AcDbLine
 10
22.9999875
 20
126.527
 30
0.0
 11
23.5079875
 21
127.521
 31
0.0
  0
LINE
  5
57
330
1D
100
AcDbEntity
  8
0
100
AcDbLine
 10
23.5079875
 20
94.2291
 30
0.0
 11
23.5079875
 21
91.0869
 31
0.0
  0
LINE
  5
58
330
1D
100
AcDbEntity
  8
0
100
AcDbLine
 10
23.5079875
 20
94.2291
 30
0.0
 11
23.5079875
 21
98.2438
 31
0.0
  0
LINE
  5
59
330
1D
100
AcDbEntity
  8
0
100
AcDbLine
 10
23.5079875
 20
121.861
 30
0.0
 11
23.5079875
 21
117.765
 31
0.0
  0
LINE
  5
5A
330
1D
100
AcDbEntity
  8
0
100
AcDbLine
 10
23.5079875
 20
121.861
 30
0.0
 11
23.5079875
 21
124.908
 31
0.0
  0
LINE
  5
5B
330
1D
100
AcDbEntity
  8
0
100
AcDbLine
 10
23.5079875
 20
124.908
 30
0.0
 11
23.5079875
 21
121.861
 31
0.0
  0
LINE
  5
5C
330
1D
100
AcDbEntity
  8
0
100
AcDbLine
 10
23.5079875
 20
124.908
 30
0.0
 11
23.5079875
 21
126.859
 31
0.0
  0
LINE
  5
5D
330
1D
100
AcDbEntity
  8
0
100
AcDbLine
 10
23.5079875
 20
117.765
 30
0.0
 11
23.5079875
 21
112.996
 31
0.0
  0
LINE
  5
5E
330
1D
100
AcDbEntity
  8
0
100
AcDbLine
 10
23.5079875
 20
117.765
 30
0.0
 11
23.5079875
 21
121.861
 31
0.0
  0
LINE
  5
5F
330
1D
100
AcDbEntity
  8
0
100
AcDbLine
 10
23.5079875
 20
112.996
 30
0.0
 11
23.5079875
 21
107.995
 31
0.0
  0
LINE
  5
60
330
1D
100
AcDbEntity
  8
0
100
AcDbLine
 10
23.5079875
 20
112.996
 30
0.0
 11
23.5079875
 21
117.765
 31
0.0
  0
LINE
  5
61
330
1D
100
AcDbEntity
  8
0
100
AcDbLine
 10
23.5079875
 20
107.995
 30
0.0
 11
23.5079875
 21
102.947
 31
0.0
  0
LINE
  5
62
330
1D
100
AcDbEntity
  8
0
100
AcDbLine
 10
23.5079875
 20
107.995
 30
0.0
 11
23.5079875
 21
112.996
 31
0.0
  0
LINE
  5
63
330
1D
100
AcDbEntity
  8
0
100
AcDbLine
 10
23.5079875
 20
98.2438
 30
0.0
 11
23.5079875
 21
94.2291
 31
0.0
  0
LINE
  5
64
330
1D
100
AcDbEntity
  8
0
100
AcDbLine
 10
23.5079875
 20
98.2438
 30
0.0
 11
23.5079875
 21
102.947
 31
0.0
  0
LINE
  5
65
330
1D
100
AcDbEntity
  8
0
100
AcDbLine
 10
23.5079875
 20
102.947
 30
0.0
 11
23.5079875
 21
98.2438
 31
0.0
  0
LINE
  5
66
330
1D
100
AcDbEntity
  8
0
100
AcDbLine
 10
23.5079875
 20
102.947
 30
0.0
 11
23.5079875
 21
107.995
 31
0.0
  0
LINE
  5
67
330
1D
100
AcDbEntity
  8
0
100
AcDbLine
 10
23.5079875
 20
126.859
 30
0.0
 11
23.5079875
 21
127.521
 31
0.0
  0
LINE
  5
68
330
1D
100
AcDbEntity
  8
0
100
AcDbLine
 10
23.5079875
 20
126.859
 30
0.0
 11
23.5079875
 21
124.908
 31
0.0
  0
LINE
  5
69
330
1D
100
AcDbEntity
  8
0
100
AcDbLine
 10
68.4919875
 20
121.861
 30
0.0
 11
68.4919875
 21
124.908
 31
0.0
  0
LINE
  5
6A
330
1D
100
AcDbEntity
  8
0
100
AcDbLine
 10
68.4919875
 20
121.861
 30
0.0
 11
68.4919875
 21
117.765
 31
0.0
  0
LINE
  5
6B
330
1D
100
AcDbEntity
  8
0
100
AcDbLine
 10
68.4919875
 20
124.908
 30
0.0
 11
68.4919875
 21
126.859
 31
0.0
  0
LINE
  5
6C
330
1D
100
AcDbEntity
  8
0
100
AcDbLine
 10
68.4919875
 20
124.908
 30
0.0
 11
68.4919875
 21
121.861
 31
0.0
  0
LINE
  5
6D
330
1D
100
AcDbEntity
  8
0
100
AcDbLine
 10
68.4919875
 20
117.765
 30
0.0
 11
68.4919875
 21
112.996
 31
0.0
  0
LINE
  5
6E
330
1D
100
AcDbEntity
  8
0
100
AcDbLine
 10
68.4919875
 20
117.765
 30
0.0
 11
68.4919875
 21
121.861
 31
0.0
  0
LINE
  5
6F
330
1D
100
AcDbEntity
  8
0
100
AcDbLine
 10
68.4919875
 20
112.996
 30
0.0
 11
68.4919875
 21
117.765
 31
0.0
  0
LINE
  5
70
330
1D
100
AcDbEntity
  8
0
100
AcDbLine
 10
68.4919875
 20
112.996
 30
0.0
 11
68.4919875
 21
107.995
 31
0.0
  0
LINE
  5
71
330
1D
100
AcDbEntity
  8
0
100
AcDbLine
 10
68.4919875
 20
107.995
 30
0.0
 11
68.4919875
 21
112.996
 31
0.0
  0
LINE
  5
72
330
1D
100
AcDbEntity
  8
0
100
AcDbLine
 10
68.4919875
 20
107.995
 30
0.0
 11
68.4919875
 21
102.947
 31
0.0
  0
LINE
  5
73
330
1D
100
AcDbEntity
  8
0
100
AcDbLine
 10
68.4919875
 20
102.947
 30
0.0
 11
68.4919875
 21
98.2438
 31
0.0
  0
LINE
  5
74
330
1D
100
AcDbEntity
  8
0
100
AcDbLine
 10
68.4919875
 20
102.947
 30
0.0
 11
68.4919875
 21
107.995
 31
0.0
  0
LINE
  5
75
330
1D
100
AcDbEntity
  8
0
100
AcDbLine
 10
68.4919875
 20
94.2291
 30
0.0
 11
68.4919875
 21
98.2438
 31
0.0
  0
LINE
  5
76
330
1D
100
AcDbEntity
  8
0
100
AcDbLine
 10
68.4919875
 20
94.2291
 30
0.0
 11
68.4919875
 21
91.0869
 31
0.0
  0
LINE
  5
77
330
1D
100
AcDbEntity
  8
0
100
AcDbLine
 10
68.4919875
 20
98.2438
 30
0.0
 11
68.4919875
 21
102.947
 31
0.0
  0
LINE
  5
78
330
1D
100
AcDbEntity
  8
0
100
AcDbLine
 10
68.4919875
 20
98.2438
 30
0.0
 11
68.4919875
 21
94.2291
 31
0.0
  0
LINE
  5
79
330
1D
100
AcDbEntity
  8
0
100
AcDbLine
 10
68.758253093561
 20
127.0
 30
0.0
 11
80.228667458027
 21
127.0
 31
0.0
  0
LINE
  5
7A
330
1D
100
AcDbEntity
  8
0
100
AcDbLine
 10
68.4919875
 20
127.521
 30
0.0
 11
68.4919875
 21
126.859
 31
0.0
  0
LINE
  5
7B
330
1D
100
AcDbEntity
  8
0
100
AcDbLine
 10
68.4919875
 20
127.521
 30
0.0
 11
68.758253093561
 21
127.0
 31
0.0
  0
LINE
  5
7C
330
1D
100
AcDbEntity
  8
0
100
AcDbLine
 10
68.4919875
 20
126.859
 30
0.0
 11
68.4919875
 21
127.521
 31
0.0
  0
LINE
  5
7D
330
1D
100
AcDbEntity
  8
0
100
AcDbLine
 10
68.4919875
 20
126.859
 30
0.0
 11
68.4919875
 21
124.908
 31
0.0
  0
LINE
  5
7E
330
1D
100
AcDbEntity
  8
0
100
AcDbLine
 10
67.4758875
 20
127.914
 30
0.0
 11
68.4919875
 21
127.521
 31
0.0
  0
LINE
  5
7F
330
1D
100
AcDbEntity
  8
0
100
AcDbLine
 10
45.9999875
 20
127.914
 30
0.0
 11
67.4758875
 21
127.914
 31
0.0
  0
LINE
  5
80
330
1D
100
AcDbEntity
  8
0
100
AcDbLine
 10
23.5079875
 20
127.521
 30
0.0
 11
23.5079875
 21
126.859
 31
0.0
  0
LINE
  5
81
330
1D
100
AcDbEntity
  8
0
100
AcDbLine
 10
23.5079875
 20
127.521
 30
0.0
 11
24.5240875
 21
127.914
 31
0.0
  0
LINE
  5
82
330
1D
100
AcDbEntity
  8
0
100
AcDbLine
 10
24.5240875
 20
127.914
 30
0.0
 11
45.9999875
 21
127.914
 31
0.0
  0
LINE
  5
83
330
1D
100
AcDbEntity
  8
0
100
AcDbLine
 10
22.9999875
 20
94.8442
 30
0.0
 11
22.9999875
 21
91.9378
 31
0.0
  0
LINE
  5
84
330
1D
100
AcDbEntity
  8
0
100
AcDbLine
 10
22.9999875
 20
91.9378
 30
0.0
 11
22.9999875
 21
94.8442
 31
0.0
  0
LINE
  5
85
330
1D
100
AcDbEntity
  8
0
100
AcDbLine
 10
80.5079875
 20
98.2857
 30
0.0
 11
80.5079875
 21
94.1905
 31
0.0
  0
LINE
  5
86
330
1D
100
AcDbEntity
  8
0
100
AcDbLine
 10
80.5079875
 20
98.2857
 30
0.0
 11
80.5079875
 21
102.952
 31
0.0
  0
LINE
  5
87
330
1D
100
AcDbEntity
  8
0
100
AcDbLine
 10
80.5079875
 20
102.952
 30
0.0
 11
80.5079875
 21
98.2857
 31
0.0
  0
LINE
  5
88
330
1D
100
AcDbEntity
  8
0
100
AcDbLine
 10
80.5079875
 20
102.952
 30
0.0
 11
80.5079875
 21
108.0
 31
0.0
  0
LINE
  5
89
330
1D
100
AcDbEntity
  8
0
100
AcDbLine
 10
80.5079875
 20
124.952
 30
0.0
 11
80.5079875
 21
121.81
 31
0.0
  0
LINE
  5
8A
330
1D
100
AcDbEntity
  8
0
100
AcDbLine
 10
80.5079875
 20
124.952
 30
0.0
 11
80.5079875
 21
126.857
 31
0.0
  0
LINE
  5
8B
330
1D
100
AcDbEntity
  8
0
100
AcDbLine
 10
80.5079875
 20
126.857
 30
0.0
 11
80.5079875
 21
124.952
 31
0.0
  0
LINE
  5
8C
330
1D
100
AcDbEntity
  8
0
100
AcDbLine
 10
80.5079875
 20
126.857
 30
0.0
 11
80.5079875
 21
127.524
 31
0.0
  0
LINE
  5
8D
330
1D
100
AcDbEntity
  8
0
100
AcDbLine
 10
80.5079875
 20
121.81
 30
0.0
 11
80.5079875
 21
117.714
 31
0.0
  0
LINE
  5
8E
330
1D
100
AcDbEntity
  8
0
100
AcDbLine
 10
80.5079875
 20
121.81
 30
0.0
 11
80.5079875
 21
124.952
 31
0.0
  0
LINE
  5
8F
330
1D
100
AcDbEntity
  8
0
100
AcDbLine
 10
80.5079875
 20
117.714
 30
0.0
 11
80.5079875
 21
113.048
 31
0.0
  0
LINE
  5
90
330
1D
100
AcDbEntity
  8
0
100
AcDbLine
 10
80.5079875
 20
117.714
 30
0.0
 11
80.5079875
 21
121.81
 31
0.0
  0
LINE
  5
91
330
1D
100
AcDbEntity
  8
0
100
AcDbLine
 10
80.5079875
 20
113.048
 30
0.0
 11
80.5079875
 21
108.0
 31
0.0
  0
LINE
  5
92
330
1D
100
AcDbEntity
  8
0
100
AcDbLine
 10
80.5079875
 20
113.048
 30
0.0
 11
80.5079875
 21
117.714
 31
0.0
  0
LINE
  5
93
330
1D
100
AcDbEntity
  8
0
100
AcDbLine
 10
80.5079875
 20
108.0
 30
0.0
 11
80.5079875
 21
102.952
 31
0.0
  0
LINE
  5
94
330
1D
100
AcDbEntity
  8
0
100
AcDbLine
 10
80.5079875
 20
108.0
 30
0.0
 11
80.5079875
 21
113.048
 31
0.0
  0
LINE
  5
95
330
1D
100
AcDbEntity
  8
0
100
AcDbLine
 10
80.5079875
 20
94.1905
 30
0.0
 11
80.5079875
 21
91.0476
 31
0.0
  0
LINE
  5
96
330
1D
100
AcDbEntity
  8
0
100
AcDbLine
 10
80.5079875
 20
94.1905
 30
0.0
 11
80.5079875
 21
98.2857
 31
0.0
  0
LINE
  5
97
330
1D
100
AcDbEntity
  8
0
100
AcDbLine
 10
80.5079875
 20
91.0476
 30
0.0
 11
80.5079875
 21
89.1429
 31
0.0
  0
LINE
  5
98
330
1D
100
AcDbEntity
  8
0
100
AcDbLine
 10
80.5079875
 20
91.0476
 30
0.0
 11
80.5079875
 21
94.1905
 31
0.0
  0
LINE
  5
99
330
1D
100
AcDbEntity
  8
0
100
AcDbLine
 10
80.5079875
 20
89.1429
 30
0.0
 11
80.5079875
 21
88.4762
 31
0.0
  0
LINE
  5
9A
330
1D
100
AcDbEntity
  8
0
100
AcDbLine
 10
80.5079875
 20
89.1429
 30
0.0
 11
80.5079875
 21
91.0476
 31
0.0
  0
LINE
  5
9B
330
1D
100
AcDbEntity
  8
0
100
AcDbLine
 10
80.228667458027
 20
127.0
 30
0.0
 11
80.5079875
 21
127.524
 31
0.0
  0
LINE
  5
9C
330
1D
100
AcDbEntity
  8
0
100
AcDbLine
 10
80.5079875
 20
127.524
 30
0.0
 11
81.5240875
 21
128.0
 31
0.0
  0
LINE
  5
9D
330
1D
100
AcDbEntity
  8
0
100
AcDbLine
 10
80.5079875
 20
127.524
 30
0.0
 11
80.5079875
 21
126.857
 31
0.0
  0
LINE
  5
9E
330
1D
100
AcDbEntity
  8
0
100
AcDbLine
 10
81.5240875
 20
128.0
 30
0.0
 11
82.9999875
 21
128.0
 31
0.0
  0
LINE
  5
9F
330
1D
100
AcDbEntity
  8
0
100
AcDbLine
 10
80.228598167787
 20
89.0
 30
0.0
 11
80.5079875
 21
88.4762
 31
0.0
  0
LINE
  5
A0
330
1D
100
AcDbEntity
  8
0
100
AcDbLine
 10
80.5079875
 20
88.4762
 30
0.0
 11
81.5240875
 21
88.0
 31
0.0
  0
LINE
  5
A1
330
1D
100
AcDbEntity
  8
0
100
AcDbLine
 10
80.5079875
 20
88.4762
 30
0.0
 11
80.5079875
 21
89.1429
 31
0.0
  0
LINE
  5
A2
330
1D
100
AcDbEntity
  8
0
100
AcDbLine
 10
81.5240875
 20
88.0
 30
0.0
 11
157.756238909687
 21
88.0
 31
0.0
  0
LINE
  5
A3
330
1D
100
AcDbEntity
  8
0
100
AcDbLine
 10
83.4079875
 20
141.0
 30
0.0
 11
84.0199875
 21
141.0
 31
0.0
  0
LINE
  5
A5
330
1D
100
AcDbEntity
  8
0
100
AcDbLine
 10
82.9999875
 20
140.4
 30
0.0
 11
83.4079875
 21
141.0
 31
0.0
  0
LINE
  5
A6
330
1D
100
AcDbEntity
  8
0
100
AcDbLine
 10
82.9999875
 20
140.4
 30
0.0
 11
82.9999875
 21
128.0
 31
0.0
  0
LINE
  5
A7
330
1D
100
AcDbEntity
  8
0
100
AcDbLine
 10
82.9999875
 20
128.0
 30
0.0
 11
82.9999875
 21
140.4
 31
0.0
  0
LINE
  5
D1
330
1D
100
AcDbEntity
  8
0
100
AcDbLine
 10
84.0199875
 20
141.0
 30
0.0
 11
85.6519875
 21
141.0
 31
0.0
  0
LINE
  5
D7
330
1D
100
AcDbEntity
  8
0
100
AcDbLine
 10
85.6519875
 20
141.0
 30
0.0
 11
88.3039875
 21
141.0
 31
0.0
  0
LINE
  5
D8
330
1D
100
AcDbEntity
  8
0
100
AcDbLine
 10
85.9999875
 20
143.0
 30
0.0
 11
85.9999875
 21
141.0
 31
0.0
  0
LINE
  5
DA
330
1D
100
AcDbEntity
  8
0
100
AcDbLine
 10
88.3039875
 20
141.0
 30
0.0
 11
91.7719875
 21
141.0
 31
0.0
  0
LINE
  5
DB
330
1D
100
AcDbEntity
  8
0
100
AcDbLine
 10
91.7719875
 20
141.0
 30
0.0
 11
95.7159875
 21
141.0
 31
0.0
  0
LINE
  5
DD
330
1D
100
AcDbEntity
  8
0
100
AcDbLine
 10
85.9999875
 20
141.0
 30
0.0
 11
85.9999875
 21
143.0
 31
0.0
  0
LINE
  5
F2
330
1D
100
AcDbEntity
  8
0
100
AcDbLine
 10
95.7159875
 20
141.0
 30
0.0
 11
99.9999875
 21
141.0
 31
0.0
  0
LINE
  5
F3
330
1D
100
AcDbEntity
  8
0
100
AcDbLine
 10
99.9999875
 20
141.0
 30
0.0
 11
104.2839875
 21
141.0
 31
0.0
  0
LINE
  5
F7
330
1D
100
AcDbEntity
  8
0
100
AcDbLine
 10
104.2839875
 20
141.0
 30
0.0
 11
108.2279875
 21
141.0
 31
0.0
  0
LINE
  5
FE
330
1D
100
AcDbEntity
  8
0
100
AcDbLine
 10
111.6959875
 20
141.0
 30
0.0
 11
114.3479875
 21
141.0
 31
0.0
  0
LINE
  5
FF
330
1D
100
AcDbEntity
  8
0
100
AcDbLine
 10
108.2279875
 20
141.0
 30
0.0
 11
111.6959875
 21
141.0
 31
0.0
  0
LINE
  5
101
330
1D
100
AcDbEntity
  8
0
100
AcDbLine
 10
114.3479875
 20
141.0
 30
0.0
 11
115.9799875
 21
141.0
 31
0.0
  0
LINE
  5
106
330
1D
100
AcDbEntity
  8
0
100
AcDbLine
 10
115.9799875
 20
141.0
 30
0.0
 11
116.5919875
 21
141.0
 31
0.0
  0
LINE
  5
107
330
1D
100
AcDbEntity
  8
0
100
AcDbLine
 10
116.9999875
 20
128.0
 30
0.0
 11
116.9999875
 21
140.4
 31
0.0
  0
LINE
  5
108
330
1D
100
AcDbEntity
  8
0
100
AcDbLine
 10
82.9999875
 20
128.0
 30
0.0
 11
174.9999875
 21
128.0
 31
0.0
  0
LINE
  5
109
330
1D
100
AcDbEntity
  8
0
100
AcDbLine
 10
116.5919875
 20
141.0
 30
0.0
 11
116.9999875
 21
140.4
 31
0.0
  0
LINE
  5
10A
330
1D
100
AcDbEntity
  8
0
100
AcDbLine
 10
157.756238909687
 20
88.0
 30
0.0
 11
159.8419875
 21
30.0818
 31
0.0
  0
LINE
  5
10B
330
1D
100
AcDbEntity
  8
0
100
AcDbLine
 10
159.8419875
 20
15.0195
 30
0.0
 11
159.8419875
 21
15.315
 31
0.0
  0
LINE
  5
10C
330
1D
100
AcDbEntity
  8
0
100
AcDbLine
 10
159.8419875
 20
15.0195
 30
0.0
 11
159.863146405223
 21
15.168503645758
 31
0.0
  0
LINE
  5
10D
330
1D
100
AcDbEntity
  8
0
100
AcDbLine
 10
159.8419875
 20
15.0195
 30
0.0
 11
160.3879875
 21
11.1745
 31
0.0
  0
LINE
  5
10E
330
1D
100
AcDbEntity
  8
0
100
AcDbLine
 10
159.8419875
 20
23.9652
 30
0.0
 11
159.8419875
 21
22.0901
 31
0.0
  0
LINE
  5
10F
330
1D
100
AcDbEntity
  8
0
100
AcDbLine
 10
159.8419875
 20
23.9652
 30
0.0
 11
159.8419875
 21
25.945
 31
0.0
  0
LINE
  5
110
330
1D
100
AcDbEntity
  8
0
100
AcDbLine
 10
159.8419875
 20
22.0901
 30
0.0
 11
159.8419875
 21
20.3517
 31
0.0
  0
LINE
  5
111
330
1D
100
AcDbEntity
  8
0
100
AcDbLine
 10
159.8419875
 20
22.0901
 30
0.0
 11
159.8419875
 21
23.9652
 31
0.0
  0
LINE
  5
112
330
1D
100
AcDbEntity
  8
0
100
AcDbLine
 10
159.8419875
 20
20.3517
 30
0.0
 11
159.8419875
 21
18.7798
 31
0.0
  0
LINE
  5
113
330
1D
100
AcDbEntity
  8
0
100
AcDbLine
 10
159.8419875
 20
20.3517
 30
0.0
 11
159.8419875
 21
22.0901
 31
0.0
  0
LINE
  5
114
330
1D
100
AcDbEntity
  8
0
100
AcDbLine
 10
159.8419875
 20
18.7798
 30
0.0
 11
159.8419875
 21
17.4013
 31
0.0
  0
LINE
  5
115
330
1D
100
AcDbEntity
  8
0
100
AcDbLine
 10
159.8419875
 20
18.7798
 30
0.0
 11
159.8419875
 21
20.3517
 31
0.0
  0
LINE
  5
116
330
1D
100
AcDbEntity
  8
0
100
AcDbLine
 10
159.8419875
 20
17.4013
 30
0.0
 11
159.8419875
 21
16.2397
 31
0.0
  0
LINE
  5
117
330
1D
100
AcDbEntity
  8
0
100
AcDbLine
 10
159.8419875
 20
17.4013
 30
0.0
 11
159.8419875
 21
18.7798
 31
0.0
  0
LINE
  5
118
330
1D
100
AcDbEntity
  8
0
100
AcDbLine
 10
159.8419875
 20
16.2397
 30
0.0
 11
159.8419875
 21
15.315
 31
0.0
  0
LINE
  5
119
330
1D
100
AcDbEntity
  8
0
100
AcDbLine
 10
159.8419875
 20
16.2397
 30
0.0
 11
159.8419875
 21
17.4013
 31
0.0
  0
LINE
  5
11A
330
1D
100
AcDbEntity
  8
0
100
AcDbLine
 10
159.8419875
 20
15.315
 30
0.0
 11
159.8419875
 21
16.2397
 31
0.0
  0
LINE
  5
11B
330
1D
100
AcDbEntity
  8
0
100
AcDbLine
 10
159.8419875
 20
15.315
 30
0.0
 11
159.8419875
 21
15.0195
 31
0.0
  0
LINE
  5
11C
330
1D
100
AcDbEntity
  8
0
100
AcDbLine
 10
174.9999875
 20
0.0
 30
0.0
 11
178.8799875
 21
0.540703
 31
0.0
  0
LINE
  5
11D
330
1D
100
AcDbEntity
  8
0
100
AcDbLine
 10
178.8799875
 20
0.540703
 30
0.0
 11
182.5179875
 21
1.98258
 31
0.0
  0
LINE
  5
11E
330
1D
100
AcDbEntity
  8
0
100
AcDbLine
 10
178.8799875
 20
0.540703
 30
0.0
 11
182.5179875
 21
1.98258
 31
0.0
  0
LINE
  5
11F
330
1D
100
AcDbEntity
  8
0
100
AcDbLine
 10
174.9999875
 20
0.0
 30
0.0
 11
178.8799875
 21
0.540703
 31
0.0
  0
LINE
  5
120
330
1D
100
AcDbEntity
  8
0
100
AcDbLine
 10
160.3879875
 20
11.1745
 30
0.0
 11
161.8429875
 21
7.56984
 31
0.0
  0
LINE
  5
121
330
1D
100
AcDbEntity
  8
0
100
AcDbLine
 10
161.8429875
 20
7.56984
 30
0.0
 11
164.2679875
 21
4.3857
 31
0.0
  0
LINE
  5
122
330
1D
100
AcDbEntity
  8
0
100
AcDbLine
 10
164.2679875
 20
4.3857
 30
0.0
 11
167.4819875
 21
1.98258
 31
0.0
  0
LINE
  5
123
330
1D
100
AcDbEntity
  8
0
100
AcDbLine
 10
190.1579875
 20
15.0195
 30
0.0
 11
190.1579875
 21
15.315
 31
0.0
  0
LINE
  5
124
330
1D
100
AcDbEntity
  8
0
100
AcDbLine
 10
189.6119875
 20
11.1745
 30
0.0
 11
190.1579875
 21
15.0195
 31
0.0
  0
LINE
  5
125
330
1D
100
AcDbEntity
  8
0
100
AcDbLine
 10
188.1569875
 20
7.56984
 30
0.0
 11
189.6119875
 21
11.1745
 31
0.0
  0
LINE
  5
126
330
1D
100
AcDbEntity
  8
0
100
AcDbLine
 10
185.7319875
 20
4.3857
 30
0.0
 11
188.1569875
 21
7.56984
 31
0.0
  0
LINE
  5
127
330
1D
100
AcDbEntity
  8
0
100
AcDbLine
 10
182.5179875
 20
1.98258
 30
0.0
 11
185.7319875
 21
4.3857
 31
0.0
  0
LINE
  5
128
330
1D
100
AcDbEntity
  8
0
100
AcDbLine
 10
190.1579875
 20
17.4013
 30
0.0
 11
190.1579875
 21
16.2397
 31
0.0
  0
LINE
  5
129
330
1D
100
AcDbEntity
  8
0
100
AcDbLine
 10
190.1579875
 20
17.4013
 30
0.0
 11
190.1579875
 21
18.7798
 31
0.0
  0
LINE
  5
12A
330
1D
100
AcDbEntity
  8
0
100
AcDbLine
 10
190.1579875
 20
16.2397
 30
0.0
 11
190.1579875
 21
15.315
 31
0.0
  0
LINE
  5
12B
330
1D
100
AcDbEntity
  8
0
100
AcDbLine
 10
190.1579875
 20
16.2397
 30
0.0
 11
190.1579875
 21
17.4013
 31
0.0
  0
LINE
  5
12C
330
1D
100
AcDbEntity
  8
0
100
AcDbLine
 10
190.1579875
 20
22.0901
 30
0.0
 11
190.1579875
 21
20.3517
 31
0.0
  0
LINE
  5
12D
330
1D
100
AcDbEntity
  8
0
100
AcDbLine
 10
190.1579875
 20
22.0901
 30
0.0
 11
190.1579875
 21
23.9652
 31
0.0
  0
LINE
  5
12E
330
1D
100
AcDbEntity
  8
0
100
AcDbLine
 10
190.1579875
 20
18.7798
 30
0.0
 11
190.1579875
 21
20.3517
 31
0.0
  0
LINE
  5
12F
330
1D
100
AcDbEntity
  8
0
100
AcDbLine
 10
190.1579875
 20
18.7798
 30
0.0
 11
190.1579875
 21
17.4013
 31
0.0
  0
LINE
  5
130
330
1D
100
AcDbEntity
  8
0
100
AcDbLine
 10
190.1579875
 20
20.3517
 30
0.0
 11
190.1579875
 21
18.7798
 31
0.0
  0
LINE
  5
131
330
1D
100
AcDbEntity
  8
0
100
AcDbLine
 10
190.1579875
 20
20.3517
 30
0.0
 11
190.1579875
 21
22.0901
 31
0.0
  0
LINE
  5
132
330
1D
100
AcDbEntity
  8
0
100
AcDbLine
 10
190.1579875
 20
23.9652
 30
0.0
 11
190.1579875
 21
22.0901
 31
0.0
  0
LINE
  5
133
330
1D
100
AcDbEntity
  8
0
100
AcDbLine
 10
190.1579875
 20
23.9652
 30
0.0
 11
190.1579875
 21
25.945
 31
0.0
  0
LINE
  5
134
330
1D
100
AcDbEntity
  8
0
100
AcDbLine
 10
190.1579875
 20
25.945
 30
0.0
 11
190.1579875
 21
27.9955
 31
0.0
  0
LINE
  5
135
330
1D
100
AcDbEntity
  8
0
100
AcDbLine
 10
190.1579875
 20
25.945
 30
0.0
 11
190.1579875
 21
23.9652
 31
0.0
  0
LINE
  5
136
330
1D
100
AcDbEntity
  8
0
100
AcDbLine
 10
190.1579875
 20
27.9955
 30
0.0
 11
190.1579875
 21
30.0818
 31
0.0
  0
LINE
  5
137
330
1D
100
AcDbEntity
  8
0
100
AcDbLine
 10
190.1579875
 20
27.9955
 30
0.0
 11
190.1579875
 21
25.945
 31
0.0
  0
LINE
  5
138
330
1D
100
AcDbEntity
  8
0
100
AcDbLine
 10
190.1579875
 20
15.315
 30
0.0
 11
190.1579875
 21
15.0195
 31
0.0
  0
LINE
  5
139
330
1D
100
AcDbEntity
  8
0
100
AcDbLine
 10
190.1579875
 20
15.315
 30
0.0
 11
190.1579875
 21
16.2397
 31
0.0
  0
LINE
  5
13A
330
1D
100
AcDbEntity
  8
0
100
AcDbLine
 10
190.136828594777
 20
15.168503645758
 30
0.0
 11
190.1579875
 21
15.0195
 31
0.0
  0
LINE
  5
13B
330
1D
100
AcDbEntity
  8
0
100
AcDbLine
 10
167.4819875
 20
1.98258
 30
0.0
 11
171.1199875
 21
0.540703
 31
0.0
  0
LINE
  5
13C
330
1D
100
AcDbEntity
  8
0
100
AcDbLine
 10
167.4819875
 20
1.98258
 30
0.0
 11
171.1199875
 21
0.540703
 31
0.0
  0
LINE
  5
13D
330
1D
100
AcDbEntity
  8
0
100
AcDbLine
 10
171.1199875
 20
0.540703
 30
0.0
 11
174.9999875
 21
0.0
 31
0.0
  0
LINE
  5
13E
330
1D
100
AcDbEntity
  8
0
100
AcDbLine
 10
171.1199875
 20
0.540703
 30
0.0
 11
174.9999875
 21
0.0
 31
0.0
  0
LINE
  5
13F
330
1D
100
AcDbEntity
  8
0
100
AcDbLine
 10
159.8419875
 20
25.945
 30
0.0
 11
159.8419875
 21
27.9955
 31
0.0
  0
LINE
  5
140
330
1D
100
AcDbEntity
  8
0
100
AcDbLine
 10
159.8419875
 20
25.945
 30
0.0
 11
159.8419875
 21
23.9652
 31
0.0
  0
LINE
  5
143
330
1D
100
AcDbEntity
  8
0
100
AcDbLine
 10
190.1579875
 20
30.0818
 30
0.0
 11
192.243736090313
 21
88.0
 31
0.0
  0
LINE
  5
144
330
1D
100
AcDbEntity
  8
0
100
AcDbLine
 10
190.1579875
 20
30.0818
 30
0.0
 11
190.1579875
 21
27.9955
 31
0.0
  0
LINE
  5
145
330
1D
100
AcDbEntity
  8
0
100
AcDbLine
 10
159.8419875
 20
30.0818
 30
0.0
 11
159.8419875
 21
27.9955
 31
0.0
  0
LINE
  5
146
330
1D
100
AcDbEntity
  8
0
100
AcDbLine
 10
159.8419875
 20
27.9955
 30
0.0
 11
159.8419875
 21
30.0818
 31
0.0
  0
LINE
  5
147
330
1D
100
AcDbEntity
  8
0
100
AcDbLine
 10
159.8419875
 20
27.9955
 30
0.0
 11
159.8419875
 21
25.945
 31
0.0
  0
LINE
  5
148
330
1D
100
AcDbEntity
  8
0
100
AcDbLine
 10
157.756238909687
 20
88.0
 30
0.0
 11
159.8419875
 21
30.0818
 31
0.0
  0
LINE
  5
1E6
330
1D
100
AcDbEntity
  8
0
100
AcDbLine
 10
116.9999875
 20
140.4
 30
0.0
 11
116.9999875
 21
128.0
 31
0.0
  0
LINE
  5
3A0
330
1D
100
AcDbEntity
  8
0
100
AcDbLine
 10
91.2999875
 20
183.0
 30
0.0
 11
99.9999875
 21
183.0
 31
0.0
  0
LINE
  5
3A1
330
1D
100
AcDbEntity
  8
0
100
AcDbLine
 10
98.0224875
 20
156.0
 30
0.0
 11
99.9999875
 21
156.0
 31
0.0
  0
LINE
  5
3A2
330
1D
100
AcDbEntity
  8
0
100
AcDbLine
 10
98.0224875
 20
144.0
 30
0.0
 11
99.9999875
 21
144.0
 31
0.0
  0
LINE
  5
3A3
330
1D
100
AcDbEntity
  8
0
100
AcDbLine
 10
95.9578875
 20
157.0
 30
0.0
 11
99.9999875
 21
157.0
 31
0.0
  0
LINE
  5
3A4
330
1D
100
AcDbEntity
  8
0
100
AcDbLine
 10
91.3999875
 20
157.5
 30
0.0
 11
99.9999875
 21
157.5
 31
0.0
  0
LINE
  5
3A5
330
1D
100
AcDbEntity
  8
0
100
AcDbLine
 10
91.2999875
 20
183.0
 30
0.0
 11
99.9999875
 21
183.0
 31
0.0
  0
LINE
  5
3A6
330
1D
100
AcDbEntity
  8
0
100
AcDbLine
 10
85.9999875
 20
143.0
 30
0.0
 11
113.9999875
 21
143.0
 31
0.0
  0
LINE
  5
3A7
330
1D
100
AcDbEntity
  8
0
100
AcDbLine
 10
65.9999875
 20
158.5
 30
0.0
 11
65.9999875
 21
183.0
 31
0.0
  0
LINE
  5
3A8
330
1D
100
AcDbEntity
  8
0
100
AcDbLine
 10
65.9999875
 20
183.0
 30
0.0
 11
65.9999875
 21
158.5
 31
0.0
  0
LINE
  5
3A9
330
1D
100
AcDbEntity
  8
0
100
AcDbLine
 10
76.9999875
 20
157.0
 30
0.0
 11
83.7999875
 21
157.0
 31
0.0
  0
LINE
  5
3AA
330
1D
100
AcDbEntity
  8
0
100
AcDbLine
 10
76.2999875
 20
157.5
 30
0.0
 11
83.2999875
 21
157.5
 31
0.0
  0
LINE
  5
3AB
330
1D
100
AcDbEntity
  8
0
100
AcDbLine
 10
71.8999875
 20
157.0
 30
0.0
 11
76.9999875
 21
157.0
 31
0.0
  0
LINE
  5
3AC
330
1D
100
AcDbEntity
  8
0
100
AcDbLine
 10
68.6999875
 20
157.0
 30
0.0
 11
71.8999875
 21
157.0
 31
0.0
  0
LINE
  5
3AD
330
1D
100
AcDbEntity
  8
0
100
AcDbLine
 10
67.6999875
 20
157.5
 30
0.0
 11
70.9999875
 21
157.5
 31
0.0
  0
LINE
  5
3AE
330
1D
100
AcDbEntity
  8
0
100
AcDbLine
 10
70.9999875
 20
157.5
 30
0.0
 11
76.2999875
 21
157.5
 31
0.0
  0
LINE
  5
3AF
330
1D
100
AcDbEntity
  8
0
100
AcDbLine
 10
66.4999875
 20
157.5
 30
0.0
 11
67.4999875
 21
157.0
 31
0.0
  0
LINE
  5
3B0
330
1D
100
AcDbEntity
  8
0
100
AcDbLine
 10
66.4999875
 20
157.5
 30
0.0
 11
67.6999875
 21
157.5
 31
0.0
  0
LINE
  5
3B1
330
1D
100
AcDbEntity
  8
0
100
AcDbLine
 10
67.4999875
 20
157.0
 30
0.0
 11
68.6999875
 21
157.0
 31
0.0
  0
LINE
  5
3B2
330
1D
100
AcDbEntity
  8
0
100
AcDbLine
 10
65.9999875
 20
158.5
 30
0.0
 11
66.4999875
 21
157.5
 31
0.0
  0
LINE
  5
3B3
330
1D
100
AcDbEntity
  8
0
100
AcDbLine
 10
83.9999875
 20
145.0
 30
0.0
 11
83.9999875
 21
155.0
 31
0.0
  0
LINE
  5
3B4
330
1D
100
AcDbEntity
  8
0
100
AcDbLine
 10
83.9999875
 20
145.0
 30
0.0
 11
83.9999875
 21
144.0
 31
0.0
  0
LINE
  5
3B5
330
1D
100
AcDbEntity
  8
0
100
AcDbLine
 10
83.9999875
 20
155.0
 30
0.0
 11
83.9999875
 21
145.0
 31
0.0
  0
LINE
  5
3B6
330
1D
100
AcDbEntity
  8
0
100
AcDbLine
 10
83.9999875
 20
144.0
 30
0.0
 11
83.9999875
 21
145.0
 31
0.0
  0
LINE
  5
3B7
330
1D
100
AcDbEntity
  8
0
100
AcDbLine
 10
88.0420875
 20
143.364
 30
0.0
 11
91.8554875
 21
143.202
 31
0.0
  0
LINE
  5
3B8
330
1D
100
AcDbEntity
  8
0
100
AcDbLine
 10
85.0104875
 20
143.0
 30
0.0
 11
85.9999875
 21
143.0
 31
0.0
  0
LINE
  5
3B9
330
1D
100
AcDbEntity
  8
0
100
AcDbLine
 10
85.9999875
 20
143.0
 30
0.0
 11
85.9999875
 21
141.0
 31
0.0
  0
LINE
  5
3BA
330
1D
100
AcDbEntity
  8
0
100
AcDbLine
 10
85.9999875
 20
141.0
 30
0.0
 11
85.9999875
 21
143.0
 31
0.0
  0
LINE
  5
3BB
330
1D
100
AcDbEntity
  8
0
100
AcDbLine
 10
83.9999875
 20
144.0
 30
0.0
 11
83.9999875
 21
143.24
 31
0.0
  0
LINE
  5
3BC
330
1D
100
AcDbEntity
  8
0
100
AcDbLine
 10
83.9999875
 20
144.0
 30
0.0
 11
84.3367875
 21
144.0
 31
0.0
  0
LINE
  5
3BD
330
1D
100
AcDbEntity
  8
0
100
AcDbLine
 10
83.9999875
 20
143.24
 30
0.0
 11
83.9999875
 21
144.0
 31
0.0
  0
LINE
  5
3BE
330
1D
100
AcDbEntity
  8
0
100
AcDbLine
 10
83.9999875
 20
143.24
 30
0.0
 11
83.9999875
 21
143.1
 31
0.0
  0
LINE
  5
3BF
330
1D
100
AcDbEntity
  8
0
100
AcDbLine
 10
84.4210875
 20
143.0
 30
0.0
 11
85.0104875
 21
143.0
 31
0.0
  0
LINE
  5
3C0
330
1D
100
AcDbEntity
  8
0
100
AcDbLine
 10
85.0104875
 20
143.0
 30
0.0
 11
85.9999875
 21
143.0
 31
0.0
  0
LINE
  5
3C1
330
1D
100
AcDbEntity
  8
0
100
AcDbLine
 10
84.3367875
 20
144.0
 30
0.0
 11
85.3712875
 21
144.0
 31
0.0
  0
LINE
  5
3C2
330
1D
100
AcDbEntity
  8
0
100
AcDbLine
 10
85.9999875
 20
143.0
 30
0.0
 11
85.9999875
 21
141.0
 31
0.0
  0
LINE
  5
3C3
330
1D
100
AcDbEntity
  8
0
100
AcDbLine
 10
85.9999875
 20
141.0
 30
0.0
 11
85.9999875
 21
143.0
 31
0.0
  0
LINE
  5
3C4
330
1D
100
AcDbEntity
  8
0
100
AcDbLine
 10
85.3712875
 20
144.0
 30
0.0
 11
88.0420875
 21
143.364
 31
0.0
  0
LINE
  5
3C5
330
1D
100
AcDbEntity
  8
0
100
AcDbLine
 10
83.9999875
 20
143.1
 30
0.0
 11
83.9999875
 21
143.24
 31
0.0
  0
LINE
  5
3C6
330
1D
100
AcDbEntity
  8
0
100
AcDbLine
 10
83.9999875
 20
143.1
 30
0.0
 11
84.4210875
 21
143.0
 31
0.0
  0
LINE
  5
3C7
330
1D
100
AcDbEntity
  8
0
100
AcDbLine
 10
91.8554875
 20
143.202
 30
0.0
 11
95.6480875
 21
143.419
 31
0.0
  0
LINE
  5
3C8
330
1D
100
AcDbEntity
  8
0
100
AcDbLine
 10
95.6480875
 20
143.419
 30
0.0
 11
98.0224875
 21
144.0
 31
0.0
  0
LINE
  5
3C9
330
1D
100
AcDbEntity
  8
0
100
AcDbLine
 10
83.9999875
 20
155.0
 30
0.0
 11
83.9999875
 21
156.0
 31
0.0
  0
LINE
  5
3CA
330
1D
100
AcDbEntity
  8
0
100
AcDbLine
 10
83.9999875
 20
155.0
 30
0.0
 11
85.3712875
 21
156.0
 31
0.0
  0
LINE
  5
3CB
330
1D
100
AcDbEntity
  8
0
100
AcDbLine
 10
83.9999875
 20
156.0
 30
0.0
 11
83.9999875
 21
156.76
 31
0.0
  0
LINE
  5
3CC
330
1D
100
AcDbEntity
  8
0
100
AcDbLine
 10
83.9999875
 20
156.0
 30
0.0
 11
83.9999875
 21
155.0
 31
0.0
  0
LINE
  5
3CD
330
1D
100
AcDbEntity
  8
0
100
AcDbLine
 10
83.7999875
 20
157.0
 30
0.0
 11
84.4210875
 21
157.0
 31
0.0
  0
LINE
  5
3CE
330
1D
100
AcDbEntity
  8
0
100
AcDbLine
 10
83.2999875
 20
157.5
 30
0.0
 11
91.3999875
 21
157.5
 31
0.0
  0
LINE
  5
3CF
330
1D
100
AcDbEntity
  8
0
100
AcDbLine
 10
83.9999875
 20
156.9
 30
0.0
 11
83.9999875
 21
156.76
 31
0.0
  0
LINE
  5
3D0
330
1D
100
AcDbEntity
  8
0
100
AcDbLine
 10
83.9999875
 20
156.9
 30
0.0
 11
84.4210875
 21
157.0
 31
0.0
  0
LINE
  5
3D1
330
1D
100
AcDbEntity
  8
0
100
AcDbLine
 10
83.9999875
 20
156.76
 30
0.0
 11
83.9999875
 21
156.9
 31
0.0
  0
LINE
  5
3D2
330
1D
100
AcDbEntity
  8
0
100
AcDbLine
 10
83.9999875
 20
156.76
 30
0.0
 11
83.9999875
 21
156.0
 31
0.0
  0
LINE
  5
3D3
330
1D
100
AcDbEntity
  8
0
100
AcDbLine
 10
88.0420875
 20
156.636
 30
0.0
 11
91.8554875
 21
156.798
 31
0.0
  0
LINE
  5
3D4
330
1D
100
AcDbEntity
  8
0
100
AcDbLine
 10
85.3712875
 20
156.0
 30
0.0
 11
88.0420875
 21
156.636
 31
0.0
  0
LINE
  5
3D5
330
1D
100
AcDbEntity
  8
0
100
AcDbLine
 10
85.0104875
 20
157.0
 30
0.0
 11
86.5262875
 21
157.0
 31
0.0
  0
LINE
  5
3D6
330
1D
100
AcDbEntity
  8
0
100
AcDbLine
 10
86.5262875
 20
157.0
 30
0.0
 11
88.9683875
 21
157.0
 31
0.0
  0
LINE
  5
3D7
330
1D
100
AcDbEntity
  8
0
100
AcDbLine
 10
88.9683875
 20
157.0
 30
0.0
 11
92.2525875
 21
157.0
 31
0.0
  0
LINE
  5
3D8
330
1D
100
AcDbEntity
  8
0
100
AcDbLine
 10
91.8554875
 20
156.798
 30
0.0
 11
95.6480875
 21
156.581
 31
0.0
  0
LINE
  5
3D9
330
1D
100
AcDbEntity
  8
0
100
AcDbLine
 10
95.6480875
 20
156.581
 30
0.0
 11
98.0224875
 21
156.0
 31
0.0
  0
LINE
  5
3DA
330
1D
100
AcDbEntity
  8
0
100
AcDbLine
 10
92.2525875
 20
157.0
 30
0.0
 11
95.9578875
 21
157.0
 31
0.0
  0
LINE
  5
3DB
330
1D
100
AcDbEntity
  8
0
100
AcDbLine
 10
84.4210875
 20
157.0
 30
0.0
 11
85.0104875
 21
157.0
 31
0.0
  0
LINE
  5
3DC
330
1D
100
AcDbEntity
  8
0
100
AcDbLine
 10
70.5999875
 20
183.0
 30
0.0
 11
75.9999875
 21
183.0
 31
0.0
  0
LINE
  5
3DD
330
1D
100
AcDbEntity
  8
0
100
AcDbLine
 10
67.1999875
 20
183.0
 30
0.0
 11
70.5999875
 21
183.0
 31
0.0
  0
LINE
  5
3DE
330
1D
100
AcDbEntity
  8
0
100
AcDbLine
 10
75.9999875
 20
183.0
 30
0.0
 11
83.0999875
 21
183.0
 31
0.0
  0
LINE
  5
3DF
330
1D
100
AcDbEntity
  8
0
100
AcDbLine
 10
83.0999875
 20
183.0
 30
0.0
 11
91.2999875
 21
183.0
 31
0.0
  0
LINE
  5
3E0
330
1D
100
AcDbEntity
  8
0
100
AcDbLine
 10
65.9999875
 20
183.0
 30
0.0
 11
67.1999875
 21
183.0
 31
0.0
  0
LINE
  5
3E1
330
1D
100
AcDbEntity
  8
0
100
AcDbLine
 10
70.5999875
 20
183.0
 30
0.0
 11
75.9999875
 21
183.0
 31
0.0
  0
LINE
  5
3E2
330
1D
100
AcDbEntity
  8
0
100
AcDbLine
 10
67.1999875
 20
183.0
 30
0.0
 11
70.5999875
 21
183.0
 31
0.0
  0
LINE
  5
3E3
330
1D
100
AcDbEntity
  8
0
100
AcDbLine
 10
75.9999875
 20
183.0
 30
0.0
 11
83.0999875
 21
183.0
 31
0.0
  0
LINE
  5
3E4
330
1D
100
AcDbEntity
  8
0
100
AcDbLine
 10
83.0999875
 20
183.0
 30
0.0
 11
91.2999875
 21
183.0
 31
0.0
  0
LINE
  5
3E5
330
1D
100
AcDbEntity
  8
0
100
AcDbLine
 10
65.9999875
 20
183.0
 30
0.0
 11
67.1999875
 21
183.0
 31
0.0
  0
LINE
  5
3E6
330
1D
100
AcDbEntity
  8
0
100
AcDbLine
 10
133.9999875
 20
183.0
 30
0.0
 11
133.9999875
 21
158.5
 31
0.0
  0
LINE
  5
3E7
330
1D
100
AcDbEntity
  8
0
100
AcDbLine
 10
133.9999875
 20
158.5
 30
0.0
 11
133.9999875
 21
183.0
 31
0.0
  0
LINE
  5
3E8
330
1D
100
AcDbEntity
  8
0
100
AcDbLine
 10
116.1999875
 20
157.0
 30
0.0
 11
122.9999875
 21
157.0
 31
0.0
  0
LINE
  5
3E9
330
1D
100
AcDbEntity
  8
0
100
AcDbLine
 10
116.6999875
 20
157.5
 30
0.0
 11
123.6999875
 21
157.5
 31
0.0
  0
LINE
  5
3EA
330
1D
100
AcDbEntity
  8
0
100
AcDbLine
 10
115.9999875
 20
144.0
 30
0.0
 11
115.9999875
 21
145.0
 31
0.0
  0
LINE
  5
3EB
330
1D
100
AcDbEntity
  8
0
100
AcDbLine
 10
115.9999875
 20
155.0
 30
0.0
 11
115.9999875
 21
145.0
 31
0.0
  0
LINE
  5
3EC
330
1D
100
AcDbEntity
  8
0
100
AcDbLine
 10
115.9999875
 20
145.0
 30
0.0
 11
115.9999875
 21
144.0
 31
0.0
  0
LINE
  5
3ED
330
1D
100
AcDbEntity
  8
0
100
AcDbLine
 10
115.9999875
 20
145.0
 30
0.0
 11
115.9999875
 21
155.0
 31
0.0
  0
LINE
  5
3EE
330
1D
100
AcDbEntity
  8
0
100
AcDbLine
 10
108.1449875
 20
143.202
 30
0.0
 11
111.9579875
 21
143.364
 31
0.0
  0
LINE
  5
3EF
330
1D
100
AcDbEntity
  8
0
100
AcDbLine
 10
99.9999875
 20
144.0
 30
0.0
 11
101.9779875
 21
144.0
 31
0.0
  0
LINE
  5
3F0
330
1D
100
AcDbEntity
  8
0
100
AcDbLine
 10
101.9779875
 20
144.0
 30
0.0
 11
104.3519875
 21
143.419
 31
0.0
  0
LINE
  5
3F1
330
1D
100
AcDbEntity
  8
0
100
AcDbLine
 10
104.3519875
 20
143.419
 30
0.0
 11
108.1449875
 21
143.202
 31
0.0
  0
LINE
  5
3F2
330
1D
100
AcDbEntity
  8
0
100
AcDbLine
 10
113.9999875
 20
141.0
 30
0.0
 11
113.9999875
 21
143.0
 31
0.0
  0
LINE
  5
3F3
330
1D
100
AcDbEntity
  8
0
100
AcDbLine
 10
113.9999875
 20
143.0
 30
0.0
 11
113.9999875
 21
141.0
 31
0.0
  0
LINE
  5
3F4
330
1D
100
AcDbEntity
  8
0
100
AcDbLine
 10
113.9999875
 20
141.0
 30
0.0
 11
113.9999875
 21
143.0
 31
0.0
  0
LINE
  5
3F5
330
1D
100
AcDbEntity
  8
0
100
AcDbLine
 10
113.9999875
 20
143.0
 30
0.0
 11
114.9899875
 21
143.0
 31
0.0
  0
LINE
  5
3F6
330
1D
100
AcDbEntity
  8
0
100
AcDbLine
 10
113.9999875
 20
143.0
 30
0.0
 11
113.9999875
 21
141.0
 31
0.0
  0
LINE
  5
3F7
330
1D
100
AcDbEntity
  8
0
100
AcDbLine
 10
115.9999875
 20
143.1
 30
0.0
 11
115.9999875
 21
143.24
 31
0.0
  0
LINE
  5
3F8
330
1D
100
AcDbEntity
  8
0
100
AcDbLine
 10
115.5789875
 20
143.0
 30
0.0
 11
115.9999875
 21
143.1
 31
0.0
  0
LINE
  5
3F9
330
1D
100
AcDbEntity
  8
0
100
AcDbLine
 10
114.9899875
 20
143.0
 30
0.0
 11
115.5789875
 21
143.0
 31
0.0
  0
LINE
  5
3FA
330
1D
100
AcDbEntity
  8
0
100
AcDbLine
 10
115.9999875
 20
143.24
 30
0.0
 11
115.9999875
 21
143.1
 31
0.0
  0
LINE
  5
3FB
330
1D
100
AcDbEntity
  8
0
100
AcDbLine
 10
115.9999875
 20
143.24
 30
0.0
 11
115.9999875
 21
144.0
 31
0.0
  0
LINE
  5
3FC
330
1D
100
AcDbEntity
  8
0
100
AcDbLine
 10
114.6289875
 20
144.0
 30
0.0
 11
115.6629875
 21
144.0
 31
0.0
  0
LINE
  5
3FD
330
1D
100
AcDbEntity
  8
0
100
AcDbLine
 10
115.6629875
 20
144.0
 30
0.0
 11
115.9999875
 21
144.0
 31
0.0
  0
LINE
  5
3FE
330
1D
100
AcDbEntity
  8
0
100
AcDbLine
 10
115.9999875
 20
144.0
 30
0.0
 11
115.9999875
 21
143.24
 31
0.0
  0
LINE
  5
3FF
330
1D
100
AcDbEntity
  8
0
100
AcDbLine
 10
111.9579875
 20
143.364
 30
0.0
 11
114.6289875
 21
144.0
 31
0.0
  0
LINE
  5
400
330
1D
100
AcDbEntity
  8
0
100
AcDbLine
 10
115.9999875
 20
156.0
 30
0.0
 11
115.9999875
 21
155.0
 31
0.0
  0
LINE
  5
401
330
1D
100
AcDbEntity
  8
0
100
AcDbLine
 10
115.9999875
 20
156.0
 30
0.0
 11
115.9999875
 21
156.76
 31
0.0
  0
LINE
  5
402
330
1D
100
AcDbEntity
  8
0
100
AcDbLine
 10
115.9999875
 20
155.0
 30
0.0
 11
115.9999875
 21
156.0
 31
0.0
  0
LINE
  5
403
330
1D
100
AcDbEntity
  8
0
100
AcDbLine
 10
101.9779875
 20
156.0
 30
0.0
 11
104.3519875
 21
156.581
 31
0.0
  0
LINE
  5
404
330
1D
100
AcDbEntity
  8
0
100
AcDbLine
 10
104.3519875
 20
156.581
 30
0.0
 11
108.1449875
 21
156.798
 31
0.0
  0
LINE
  5
405
330
1D
100
AcDbEntity
  8
0
100
AcDbLine
 10
114.6289875
 20
156.0
 30
0.0
 11
115.9999875
 21
155.0
 31
0.0
  0
LINE
  5
406
330
1D
100
AcDbEntity
  8
0
100
AcDbLine
 10
99.9999875
 20
156.0
 30
0.0
 11
101.9779875
 21
156.0
 31
0.0
  0
LINE
  5
407
330
1D
100
AcDbEntity
  8
0
100
AcDbLine
 10
111.9579875
 20
156.636
 30
0.0
 11
114.6289875
 21
156.0
 31
0.0
  0
LINE
  5
408
330
1D
100
AcDbEntity
  8
0
100
AcDbLine
 10
115.9999875
 20
156.76
 30
0.0
 11
115.9999875
 21
156.0
 31
0.0
  0
LINE
  5
409
330
1D
100
AcDbEntity
  8
0
100
AcDbLine
 10
107.7469875
 20
157.0
 30
0.0
 11
111.0319875
 21
157.0
 31
0.0
  0
LINE
  5
40A
330
1D
100
AcDbEntity
  8
0
100
AcDbLine
 10
115.5789875
 20
157.0
 30
0.0
 11
115.9999875
 21
156.9
 31
0.0
  0
LINE
  5
40B
330
1D
100
AcDbEntity
  8
0
100
AcDbLine
 10
115.5789875
 20
157.0
 30
0.0
 11
116.1999875
 21
157.0
 31
0.0
  0
LINE
  5
40C
330
1D
100
AcDbEntity
  8
0
100
AcDbLine
 10
114.9899875
 20
157.0
 30
0.0
 11
115.5789875
 21
157.0
 31
0.0
  0
LINE
  5
40D
330
1D
100
AcDbEntity
  8
0
100
AcDbLine
 10
115.9999875
 20
156.9
 30
0.0
 11
115.9999875
 21
156.76
 31
0.0
  0
LINE
  5
40E
330
1D
100
AcDbEntity
  8
0
100
AcDbLine
 10
111.0319875
 20
157.0
 30
0.0
 11
113.4739875
 21
157.0
 31
0.0
  0
LINE
  5
40F
330
1D
100
AcDbEntity
  8
0
100
AcDbLine
 10
113.4739875
 20
157.0
 30
0.0
 11
114.9899875
 21
157.0
 31
0.0
  0
LINE
  5
410
330
1D
100
AcDbEntity
  8
0
100
AcDbLine
 10
104.0419875
 20
157.0
 30
0.0
 11
107.7469875
 21
157.0
 31
0.0
  0
LINE
  5
411
330
1D
100
AcDbEntity
  8
0
100
AcDbLine
 10
108.1449875
 20
156.798
 30
0.0
 11
111.9579875
 21
156.636
 31
0.0
  0
LINE
  5
412
330
1D
100
AcDbEntity
  8
0
100
AcDbLine
 10
99.9999875
 20
157.0
 30
0.0
 11
104.0419875
 21
157.0
 31
0.0
  0
LINE
  5
413
330
1D
100
AcDbEntity
  8
0
100
AcDbLine
 10
108.5999875
 20
157.5
 30
0.0
 11
116.6999875
 21
157.5
 31
0.0
  0
LINE
  5
414
330
1D
100
AcDbEntity
  8
0
100
AcDbLine
 10
99.9999875
 20
157.5
 30
0.0
 11
108.5999875
 21
157.5
 31
0.0
  0
LINE
  5
415
330
1D
100
AcDbEntity
  8
0
100
AcDbLine
 10
122.9999875
 20
157.0
 30
0.0
 11
128.0999875
 21
157.0
 31
0.0
  0
LINE
  5
416
330
1D
100
AcDbEntity
  8
0
100
AcDbLine
 10
128.0999875
 20
157.0
 30
0.0
 11
131.2999875
 21
157.0
 31
0.0
  0
LINE
  5
417
330
1D
100
AcDbEntity
  8
0
100
AcDbLine
 10
131.2999875
 20
157.0
 30
0.0
 11
132.4999875
 21
157.0
 31
0.0
  0
LINE
  5
418
330
1D
100
AcDbEntity
  8
0
100
AcDbLine
 10
132.4999875
 20
157.0
 30
0.0
 11
133.4999875
 21
157.5
 31
0.0
  0
LINE
  5
419
330
1D
100
AcDbEntity
  8
0
100
AcDbLine
 10
123.6999875
 20
157.5
 30
0.0
 11
128.9999875
 21
157.5
 31
0.0
  0
LINE
  5
41A
330
1D
100
AcDbEntity
  8
0
100
AcDbLine
 10
128.9999875
 20
157.5
 30
0.0
 11
132.2999875
 21
157.5
 31
0.0
  0
LINE
  5
41B
330
1D
100
AcDbEntity
  8
0
100
AcDbLine
 10
132.2999875
 20
157.5
 30
0.0
 11
133.4999875
 21
157.5
 31
0.0
  0
LINE
  5
41C
330
1D
100
AcDbEntity
  8
0
100
AcDbLine
 10
133.4999875
 20
157.5
 30
0.0
 11
133.9999875
 21
158.5
 31
0.0
  0
LINE
  5
41D
330
1D
100
AcDbEntity
  8
0
100
AcDbLine
 10
123.9999875
 20
183.0
 30
0.0
 11
129.3999875
 21
183.0
 31
0.0
  0
LINE
  5
41E
330
1D
100
AcDbEntity
  8
0
100
AcDbLine
 10
129.3999875
 20
183.0
 30
0.0
 11
132.7999875
 21
183.0
 31
0.0
  0
LINE
  5
41F
330
1D
100
AcDbEntity
  8
0
100
AcDbLine
 10
132.7999875
 20
183.0
 30
0.0
 11
133.9999875
 21
183.0
 31
0.0
  0
LINE
  5
420
330
1D
100
AcDbEntity
  8
0
100
AcDbLine
 10
116.8999875
 20
183.0
 30
0.0
 11
123.9999875
 21
183.0
 31
0.0
  0
LINE
  5
421
330
1D
100
AcDbEntity
  8
0
100
AcDbLine
 10
108.6999875
 20
183.0
 30
0.0
 11
116.8999875
 21
183.0
 31
0.0
  0
LINE
  5
422
330
1D
100
AcDbEntity
  8
0
100
AcDbLine
 10
99.9999875
 20
183.0
 30
0.0
 11
108.6999875
 21
183.0
 31
0.0
  0
LINE
  5
423
330
1D
100
AcDbEntity
  8
0
100
AcDbLine
 10
123.9999875
 20
183.0
 30
0.0
 11
129.3999875
 21
183.0
 31
0.0
  0
LINE
  5
424
330
1D
100
AcDbEntity
  8
0
100
AcDbLine
 10
129.3999875
 20
183.0
 30
0.0
 11
132.7999875
 21
183.0
 31
0.0
  0
LINE
  5
425
330
1D
100
AcDbEntity
  8
0
100
AcDbLine
 10
132.7999875
 20
183.0
 30
0.0
 11
133.9999875
 21
183.0
 31
0.0
  0
LINE
  5
426
330
1D
100
AcDbEntity
  8
0
100
AcDbLine
 10
116.8999875
 20
183.0
 30
0.0
 11
123.9999875
 21
183.0
 31
0.0
  0
LINE
  5
427
330
1D
100
AcDbEntity
  8
0
100
AcDbLine
 10
108.6999875
 20
183.0
 30
0.0
 11
116.8999875
 21
183.0
 31
0.0
  0
LINE
  5
428
330
1D
100
AcDbEntity
  8
0
100
AcDbLine
 10
99.9999875
 20
183.0
 30
0.0
 11
108.6999875
 21
183.0
 31
0.0
  0
LINE
  5
429
330
1D
100
AcDbEntity
  8
0
100
AcDbLine
 10
2.6905675
 20
111.0
 30
0.0
 11
22.9999875
 21
111.0
 31
0.0
  0
LINE
  5
42A
330
1D
100
AcDbEntity
  8
0
100
AcDbLine
 10
2.6905675
 20
105.0
 30
0.0
 11
22.9999875
 21
105.0
 31
0.0
  0
LINE
  5
42B
330
1D
100
AcDbEntity
  8
0
100
AcDbLine
 10
267.0000125
 20
128.0
 30
0.0
 11
175.0000125
 21
128.0
 31
0.0
  0
LINE
  5
42C
330
1D
100
AcDbEntity
  8
0
100
AcDbLine
 10
347.3094325
 20
111.0
 30
0.0
 11
327.0000125
 21
111.0
 31
0.0
  0
LINE
  5
42D
330
1D
100
AcDbEntity
  8
0
100
AcDbLine
 10
250.0000125
 20
183.0
 30
0.0
 11
241.3000125
 21
183.0
 31
0.0
  0
LINE
  5
42E
330
1D
100
AcDbEntity
  8
0
100
AcDbLine
 10
241.3000125
 20
183.0
 30
0.0
 11
233.1000125
 21
183.0
 31
0.0
  0
LINE
  5
42F
330
1D
100
AcDbEntity
  8
0
100
AcDbLine
 10
233.1000125
 20
183.0
 30
0.0
 11
226.0000125
 21
183.0
 31
0.0
  0
LINE
  5
430
330
1D
100
AcDbEntity
  8
0
100
AcDbLine
 10
217.2000125
 20
183.0
 30
0.0
 11
216.0000125
 21
183.0
 31
0.0
  0
LINE
  5
431
330
1D
100
AcDbEntity
  8
0
100
AcDbLine
 10
220.6000125
 20
183.0
 30
0.0
 11
217.2000125
 21
183.0
 31
0.0
  0
LINE
  5
432
330
1D
100
AcDbEntity
  8
0
100
AcDbLine
 10
226.0000125
 20
183.0
 30
0.0
 11
220.6000125
 21
183.0
 31
0.0
  0
LINE
  5
433
330
1D
100
AcDbEntity
  8
0
100
AcDbLine
 10
250.0000125
 20
183.0
 30
0.0
 11
241.3000125
 21
183.0
 31
0.0
  0
LINE
  5
434
330
1D
100
AcDbEntity
  8
0
100
AcDbLine
 10
241.3000125
 20
183.0
 30
0.0
 11
233.1000125
 21
183.0
 31
0.0
  0
LINE
  5
435
330
1D
100
AcDbEntity
  8
0
100
AcDbLine
 10
233.1000125
 20
183.0
 30
0.0
 11
226.0000125
 21
183.0
 31
0.0
  0
LINE
  5
436
330
1D
100
AcDbEntity
  8
0
100
AcDbLine
 10
217.2000125
 20
183.0
 30
0.0
 11
216.0000125
 21
183.0
 31
0.0
  0
LINE
  5
437
330
1D
100
AcDbEntity
  8
0
100
AcDbLine
 10
220.6000125
 20
183.0
 30
0.0
 11
217.2000125
 21
183.0
 31
0.0
  0
LINE
  5
438
330
1D
100
AcDbEntity
  8
0
100
AcDbLine
 10
226.0000125
 20
183.0
 30
0.0
 11
220.6000125
 21
183.0
 31
0.0
  0
LINE
  5
439
330
1D
100
AcDbEntity
  8
0
100
AcDbLine
 10
216.5000125
 20
157.5
 30
0.0
 11
216.0000125
 21
158.5
 31
0.0
  0
LINE
  5
43A
330
1D
100
AcDbEntity
  8
0
100
AcDbLine
 10
217.7000125
 20
157.5
 30
0.0
 11
216.5000125
 21
157.5
 31
0.0
  0
LINE
  5
43B
330
1D
100
AcDbEntity
  8
0
100
AcDbLine
 10
221.0000125
 20
157.5
 30
0.0
 11
217.7000125
 21
157.5
 31
0.0
  0
LINE
  5
43C
330
1D
100
AcDbEntity
  8
0
100
AcDbLine
 10
226.3000125
 20
157.5
 30
0.0
 11
221.0000125
 21
157.5
 31
0.0
  0
LINE
  5
43D
330
1D
100
AcDbEntity
  8
0
100
AcDbLine
 10
217.5000125
 20
157.0
 30
0.0
 11
216.5000125
 21
157.5
 31
0.0
  0
LINE
  5
43E
330
1D
100
AcDbEntity
  8
0
100
AcDbLine
 10
218.7000125
 20
157.0
 30
0.0
 11
217.5000125
 21
157.0
 31
0.0
  0
LINE
  5
43F
330
1D
100
AcDbEntity
  8
0
100
AcDbLine
 10
221.9000125
 20
157.0
 30
0.0
 11
218.7000125
 21
157.0
 31
0.0
  0
LINE
  5
440
330
1D
100
AcDbEntity
  8
0
100
AcDbLine
 10
227.0000125
 20
157.0
 30
0.0
 11
221.9000125
 21
157.0
 31
0.0
  0
LINE
  5
441
330
1D
100
AcDbEntity
  8
0
100
AcDbLine
 10
250.0000125
 20
157.5
 30
0.0
 11
241.4000125
 21
157.5
 31
0.0
  0
LINE
  5
442
330
1D
100
AcDbEntity
  8
0
100
AcDbLine
 10
241.4000125
 20
157.5
 30
0.0
 11
233.3000125
 21
157.5
 31
0.0
  0
LINE
  5
443
330
1D
100
AcDbEntity
  8
0
100
AcDbLine
 10
250.0000125
 20
157.0
 30
0.0
 11
245.9580125
 21
157.0
 31
0.0
  0
LINE
  5
444
330
1D
100
AcDbEntity
  8
0
100
AcDbLine
 10
241.8550125
 20
156.798
 30
0.0
 11
238.0420125
 21
156.636
 31
0.0
  0
LINE
  5
445
330
1D
100
AcDbEntity
  8
0
100
AcDbLine
 10
245.9580125
 20
157.0
 30
0.0
 11
242.2530125
 21
157.0
 31
0.0
  0
LINE
  5
446
330
1D
100
AcDbEntity
  8
0
100
AcDbLine
 10
236.5260125
 20
157.0
 30
0.0
 11
235.0100125
 21
157.0
 31
0.0
  0
LINE
  5
447
330
1D
100
AcDbEntity
  8
0
100
AcDbLine
 10
238.9680125
 20
157.0
 30
0.0
 11
236.5260125
 21
157.0
 31
0.0
  0
LINE
  5
448
330
1D
100
AcDbEntity
  8
0
100
AcDbLine
 10
234.0000125
 20
156.9
 30
0.0
 11
234.0000125
 21
156.76
 31
0.0
  0
LINE
  5
449
330
1D
100
AcDbEntity
  8
0
100
AcDbLine
 10
235.0100125
 20
157.0
 30
0.0
 11
234.4210125
 21
157.0
 31
0.0
  0
LINE
  5
44A
330
1D
100
AcDbEntity
  8
0
100
AcDbLine
 10
234.4210125
 20
157.0
 30
0.0
 11
233.8000125
 21
157.0
 31
0.0
  0
LINE
  5
44B
330
1D
100
AcDbEntity
  8
0
100
AcDbLine
 10
234.4210125
 20
157.0
 30
0.0
 11
234.0000125
 21
156.9
 31
0.0
  0
LINE
  5
44C
330
1D
100
AcDbEntity
  8
0
100
AcDbLine
 10
242.2530125
 20
157.0
 30
0.0
 11
238.9680125
 21
157.0
 31
0.0
  0
LINE
  5
44D
330
1D
100
AcDbEntity
  8
0
100
AcDbLine
 10
234.0000125
 20
156.76
 30
0.0
 11
234.0000125
 21
156.0
 31
0.0
  0
LINE
  5
44E
330
1D
100
AcDbEntity
  8
0
100
AcDbLine
 10
238.0420125
 20
156.636
 30
0.0
 11
235.3710125
 21
156.0
 31
0.0
  0
LINE
  5
44F
330
1D
100
AcDbEntity
  8
0
100
AcDbLine
 10
250.0000125
 20
156.0
 30
0.0
 11
248.0220125
 21
156.0
 31
0.0
  0
LINE
  5
450
330
1D
100
AcDbEntity
  8
0
100
AcDbLine
 10
235.3710125
 20
156.0
 30
0.0
 11
234.0000125
 21
155.0
 31
0.0
  0
LINE
  5
451
330
1D
100
AcDbEntity
  8
0
100
AcDbLine
 10
245.6480125
 20
156.581
 30
0.0
 11
241.8550125
 21
156.798
 31
0.0
  0
LINE
  5
452
330
1D
100
AcDbEntity
  8
0
100
AcDbLine
 10
248.0220125
 20
156.0
 30
0.0
 11
245.6480125
 21
156.581
 31
0.0
  0
LINE
  5
453
330
1D
100
AcDbEntity
  8
0
100
AcDbLine
 10
234.0000125
 20
155.0
 30
0.0
 11
234.0000125
 21
156.0
 31
0.0
  0
LINE
  5
454
330
1D
100
AcDbEntity
  8
0
100
AcDbLine
 10
234.0000125
 20
156.0
 30
0.0
 11
234.0000125
 21
156.76
 31
0.0
  0
LINE
  5
455
330
1D
100
AcDbEntity
  8
0
100
AcDbLine
 10
234.0000125
 20
156.0
 30
0.0
 11
234.0000125
 21
155.0
 31
0.0
  0
LINE
  5
456
330
1D
100
AcDbEntity
  8
0
100
AcDbLine
 10
238.0420125
 20
143.364
 30
0.0
 11
235.3710125
 21
144.0
 31
0.0
  0
LINE
  5
457
330
1D
100
AcDbEntity
  8
0
100
AcDbLine
 10
234.0000125
 20
144.0
 30
0.0
 11
234.0000125
 21
143.24
 31
0.0
  0
LINE
  5
458
330
1D
100
AcDbEntity
  8
0
100
AcDbLine
 10
234.3370125
 20
144.0
 30
0.0
 11
234.0000125
 21
144.0
 31
0.0
  0
LINE
  5
459
330
1D
100
AcDbEntity
  8
0
100
AcDbLine
 10
235.3710125
 20
144.0
 30
0.0
 11
234.3370125
 21
144.0
 31
0.0
  0
LINE
  5
45A
330
1D
100
AcDbEntity
  8
0
100
AcDbLine
 10
234.0000125
 20
143.24
 30
0.0
 11
234.0000125
 21
144.0
 31
0.0
  0
LINE
  5
45B
330
1D
100
AcDbEntity
  8
0
100
AcDbLine
 10
234.0000125
 20
143.24
 30
0.0
 11
234.0000125
 21
143.1
 31
0.0
  0
LINE
  5
45C
330
1D
100
AcDbEntity
  8
0
100
AcDbLine
 10
235.0100125
 20
143.0
 30
0.0
 11
234.4210125
 21
143.0
 31
0.0
  0
LINE
  5
45D
330
1D
100
AcDbEntity
  8
0
100
AcDbLine
 10
234.4210125
 20
143.0
 30
0.0
 11
234.0000125
 21
143.1
 31
0.0
  0
LINE
  5
45E
330
1D
100
AcDbEntity
  8
0
100
AcDbLine
 10
234.0000125
 20
143.1
 30
0.0
 11
234.0000125
 21
143.24
 31
0.0
  0
LINE
  5
45F
330
1D
100
AcDbEntity
  8
0
100
AcDbLine
 10
236.0000125
 20
143.0
 30
0.0
 11
236.0000125
 21
141.0
 31
0.0
  0
LINE
  5
460
330
1D
100
AcDbEntity
  8
0
100
AcDbLine
 10
236.0000125
 20
143.0
 30
0.0
 11
235.0100125
 21
143.0
 31
0.0
  0
LINE
  5
461
330
1D
100
AcDbEntity
  8
0
100
AcDbLine
 10
236.0000125
 20
141.0
 30
0.0
 11
236.0000125
 21
143.0
 31
0.0
  0
LINE
  5
462
330
1D
100
AcDbEntity
  8
0
100
AcDbLine
 10
236.0000125
 20
143.0
 30
0.0
 11
236.0000125
 21
141.0
 31
0.0
  0
LINE
  5
463
330
1D
100
AcDbEntity
  8
0
100
AcDbLine
 10
236.0000125
 20
141.0
 30
0.0
 11
236.0000125
 21
143.0
 31
0.0
  0
LINE
  5
464
330
1D
100
AcDbEntity
  8
0
100
AcDbLine
 10
245.6480125
 20
143.419
 30
0.0
 11
241.8550125
 21
143.202
 31
0.0
  0
LINE
  5
465
330
1D
100
AcDbEntity
  8
0
100
AcDbLine
 10
248.0220125
 20
144.0
 30
0.0
 11
245.6480125
 21
143.419
 31
0.0
  0
LINE
  5
466
330
1D
100
AcDbEntity
  8
0
100
AcDbLine
 10
250.0000125
 20
144.0
 30
0.0
 11
248.0220125
 21
144.0
 31
0.0
  0
LINE
  5
467
330
1D
100
AcDbEntity
  8
0
100
AcDbLine
 10
241.8550125
 20
143.202
 30
0.0
 11
238.0420125
 21
143.364
 31
0.0
  0
LINE
  5
468
330
1D
100
AcDbEntity
  8
0
100
AcDbLine
 10
234.0000125
 20
145.0
 30
0.0
 11
234.0000125
 21
155.0
 31
0.0
  0
LINE
  5
469
330
1D
100
AcDbEntity
  8
0
100
AcDbLine
 10
234.0000125
 20
145.0
 30
0.0
 11
234.0000125
 21
144.0
 31
0.0
  0
LINE
  5
46A
330
1D
100
AcDbEntity
  8
0
100
AcDbLine
 10
234.0000125
 20
155.0
 30
0.0
 11
234.0000125
 21
145.0
 31
0.0
  0
LINE
  5
46B
330
1D
100
AcDbEntity
  8
0
100
AcDbLine
 10
234.0000125
 20
144.0
 30
0.0
 11
234.0000125
 21
145.0
 31
0.0
  0
LINE
  5
46C
330
1D
100
AcDbEntity
  8
0
100
AcDbLine
 10
233.3000125
 20
157.5
 30
0.0
 11
226.3000125
 21
157.5
 31
0.0
  0
LINE
  5
46D
330
1D
100
AcDbEntity
  8
0
100
AcDbLine
 10
233.8000125
 20
157.0
 30
0.0
 11
227.0000125
 21
157.0
 31
0.0
  0
LINE
  5
46E
330
1D
100
AcDbEntity
  8
0
100
AcDbLine
 10
216.0000125
 20
158.5
 30
0.0
 11
216.0000125
 21
183.0
 31
0.0
  0
LINE
  5
46F
330
1D
100
AcDbEntity
  8
0
100
AcDbLine
 10
216.0000125
 20
183.0
 30
0.0
 11
216.0000125
 21
158.5
 31
0.0
  0
LINE
  5
470
330
1D
100
AcDbEntity
  8
0
100
AcDbLine
 10
284.0000125
 20
183.0
 30
0.0
 11
282.8000125
 21
183.0
 31
0.0
  0
LINE
  5
471
330
1D
100
AcDbEntity
  8
0
100
AcDbLine
 10
266.9000125
 20
183.0
 30
0.0
 11
258.7000125
 21
183.0
 31
0.0
  0
LINE
  5
472
330
1D
100
AcDbEntity
  8
0
100
AcDbLine
 10
274.0000125
 20
183.0
 30
0.0
 11
266.9000125
 21
183.0
 31
0.0
  0
LINE
  5
473
330
1D
100
AcDbEntity
  8
0
100
AcDbLine
 10
282.8000125
 20
183.0
 30
0.0
 11
279.4000125
 21
183.0
 31
0.0
  0
LINE
  5
474
330
1D
100
AcDbEntity
  8
0
100
AcDbLine
 10
279.4000125
 20
183.0
 30
0.0
 11
274.0000125
 21
183.0
 31
0.0
  0
LINE
  5
475
330
1D
100
AcDbEntity
  8
0
100
AcDbLine
 10
284.0000125
 20
183.0
 30
0.0
 11
282.8000125
 21
183.0
 31
0.0
  0
LINE
  5
476
330
1D
100
AcDbEntity
  8
0
100
AcDbLine
 10
266.9000125
 20
183.0
 30
0.0
 11
258.7000125
 21
183.0
 31
0.0
  0
LINE
  5
477
330
1D
100
AcDbEntity
  8
0
100
AcDbLine
 10
274.0000125
 20
183.0
 30
0.0
 11
266.9000125
 21
183.0
 31
0.0
  0
LINE
  5
478
330
1D
100
AcDbEntity
  8
0
100
AcDbLine
 10
282.8000125
 20
183.0
 30
0.0
 11
279.4000125
 21
183.0
 31
0.0
  0
LINE
  5
479
330
1D
100
AcDbEntity
  8
0
100
AcDbLine
 10
279.4000125
 20
183.0
 30
0.0
 11
274.0000125
 21
183.0
 31
0.0
  0
LINE
  5
47A
330
1D
100
AcDbEntity
  8
0
100
AcDbLine
 10
265.5789125
 20
157.0
 30
0.0
 11
264.9895125
 21
157.0
 31
0.0
  0
LINE
  5
47B
330
1D
100
AcDbEntity
  8
0
100
AcDbLine
 10
257.7474125
 20
157.0
 30
0.0
 11
254.0421125
 21
157.0
 31
0.0
  0
LINE
  5
47C
330
1D
100
AcDbEntity
  8
0
100
AcDbLine
 10
254.3519125
 20
156.581
 30
0.0
 11
251.9775125
 21
156.0
 31
0.0
  0
LINE
  5
47D
330
1D
100
AcDbEntity
  8
0
100
AcDbLine
 10
258.1445125
 20
156.798
 30
0.0
 11
254.3519125
 21
156.581
 31
0.0
  0
LINE
  5
47E
330
1D
100
AcDbEntity
  8
0
100
AcDbLine
 10
261.0316125
 20
157.0
 30
0.0
 11
257.7474125
 21
157.0
 31
0.0
  0
LINE
  5
47F
330
1D
100
AcDbEntity
  8
0
100
AcDbLine
 10
263.4737125
 20
157.0
 30
0.0
 11
261.0316125
 21
157.0
 31
0.0
  0
LINE
  5
480
330
1D
100
AcDbEntity
  8
0
100
AcDbLine
 10
264.9895125
 20
157.0
 30
0.0
 11
263.4737125
 21
157.0
 31
0.0
  0
LINE
  5
481
330
1D
100
AcDbEntity
  8
0
100
AcDbLine
 10
264.6287125
 20
156.0
 30
0.0
 11
261.9579125
 21
156.636
 31
0.0
  0
LINE
  5
482
330
1D
100
AcDbEntity
  8
0
100
AcDbLine
 10
261.9579125
 20
156.636
 30
0.0
 11
258.1445125
 21
156.798
 31
0.0
  0
LINE
  5
483
330
1D
100
AcDbEntity
  8
0
100
AcDbLine
 10
266.0000125
 20
156.76
 30
0.0
 11
266.0000125
 21
156.0
 31
0.0
  0
LINE
  5
484
330
1D
100
AcDbEntity
  8
0
100
AcDbLine
 10
266.0000125
 20
156.76
 30
0.0
 11
266.0000125
 21
156.9
 31
0.0
  0
LINE
  5
485
330
1D
100
AcDbEntity
  8
0
100
AcDbLine
 10
266.0000125
 20
156.9
 30
0.0
 11
265.5789125
 21
157.0
 31
0.0
  0
LINE
  5
486
330
1D
100
AcDbEntity
  8
0
100
AcDbLine
 10
266.0000125
 20
156.9
 30
0.0
 11
266.0000125
 21
156.76
 31
0.0
  0
LINE
  5
487
330
1D
100
AcDbEntity
  8
0
100
AcDbLine
 10
266.7000125
 20
157.5
 30
0.0
 11
258.6000125
 21
157.5
 31
0.0
  0
LINE
  5
488
330
1D
100
AcDbEntity
  8
0
100
AcDbLine
 10
266.2000125
 20
157.0
 30
0.0
 11
265.5789125
 21
157.0
 31
0.0
  0
LINE
  5
489
330
1D
100
AcDbEntity
  8
0
100
AcDbLine
 10
266.0000125
 20
156.0
 30
0.0
 11
266.0000125
 21
155.0
 31
0.0
  0
LINE
  5
48A
330
1D
100
AcDbEntity
  8
0
100
AcDbLine
 10
266.0000125
 20
156.0
 30
0.0
 11
266.0000125
 21
156.76
 31
0.0
  0
LINE
  5
48B
330
1D
100
AcDbEntity
  8
0
100
AcDbLine
 10
266.0000125
 20
155.0
 30
0.0
 11
264.6287125
 21
156.0
 31
0.0
  0
LINE
  5
48C
330
1D
100
AcDbEntity
  8
0
100
AcDbLine
 10
266.0000125
 20
155.0
 30
0.0
 11
266.0000125
 21
156.0
 31
0.0
  0
LINE
  5
48D
330
1D
100
AcDbEntity
  8
0
100
AcDbLine
 10
254.3519125
 20
143.419
 30
0.0
 11
251.9775125
 21
144.0
 31
0.0
  0
LINE
  5
48E
330
1D
100
AcDbEntity
  8
0
100
AcDbLine
 10
258.1445125
 20
143.202
 30
0.0
 11
254.3519125
 21
143.419
 31
0.0
  0
LINE
  5
48F
330
1D
100
AcDbEntity
  8
0
100
AcDbLine
 10
266.0000125
 20
143.1
 30
0.0
 11
265.5789125
 21
143.0
 31
0.0
  0
LINE
  5
490
330
1D
100
AcDbEntity
  8
0
100
AcDbLine
 10
266.0000125
 20
143.1
 30
0.0
 11
266.0000125
 21
143.24
 31
0.0
  0
LINE
  5
491
330
1D
100
AcDbEntity
  8
0
100
AcDbLine
 10
264.6287125
 20
144.0
 30
0.0
 11
261.9579125
 21
143.364
 31
0.0
  0
LINE
  5
492
330
1D
100
AcDbEntity
  8
0
100
AcDbLine
 10
264.0000125
 20
141.0
 30
0.0
 11
264.0000125
 21
143.0
 31
0.0
  0
LINE
  5
493
330
1D
100
AcDbEntity
  8
0
100
AcDbLine
 10
264.0000125
 20
143.0
 30
0.0
 11
264.0000125
 21
141.0
 31
0.0
  0
LINE
  5
494
330
1D
100
AcDbEntity
  8
0
100
AcDbLine
 10
265.6632125
 20
144.0
 30
0.0
 11
264.6287125
 21
144.0
 31
0.0
  0
LINE
  5
495
330
1D
100
AcDbEntity
  8
0
100
AcDbLine
 10
264.9895125
 20
143.0
 30
0.0
 11
264.0000125
 21
143.0
 31
0.0
  0
LINE
  5
496
330
1D
100
AcDbEntity
  8
0
100
AcDbLine
 10
265.5789125
 20
143.0
 30
0.0
 11
264.9895125
 21
143.0
 31
0.0
  0
LINE
  5
497
330
1D
100
AcDbEntity
  8
0
100
AcDbLine
 10
266.0000125
 20
143.24
 30
0.0
 11
266.0000125
 21
143.1
 31
0.0
  0
LINE
  5
498
330
1D
100
AcDbEntity
  8
0
100
AcDbLine
 10
266.0000125
 20
143.24
 30
0.0
 11
266.0000125
 21
144.0
 31
0.0
  0
LINE
  5
499
330
1D
100
AcDbEntity
  8
0
100
AcDbLine
 10
266.0000125
 20
144.0
 30
0.0
 11
265.6632125
 21
144.0
 31
0.0
  0
LINE
  5
49A
330
1D
100
AcDbEntity
  8
0
100
AcDbLine
 10
266.0000125
 20
144.0
 30
0.0
 11
266.0000125
 21
143.24
 31
0.0
  0
LINE
  5
49B
330
1D
100
AcDbEntity
  8
0
100
AcDbLine
 10
264.0000125
 20
141.0
 30
0.0
 11
264.0000125
 21
143.0
 31
0.0
  0
LINE
  5
49C
330
1D
100
AcDbEntity
  8
0
100
AcDbLine
 10
264.0000125
 20
143.0
 30
0.0
 11
264.0000125
 21
141.0
 31
0.0
  0
LINE
  5
49D
330
1D
100
AcDbEntity
  8
0
100
AcDbLine
 10
264.9895125
 20
143.0
 30
0.0
 11
264.0000125
 21
143.0
 31
0.0
  0
LINE
  5
49E
330
1D
100
AcDbEntity
  8
0
100
AcDbLine
 10
261.9579125
 20
143.364
 30
0.0
 11
258.1445125
 21
143.202
 31
0.0
  0
LINE
  5
49F
330
1D
100
AcDbEntity
  8
0
100
AcDbLine
 10
266.0000125
 20
144.0
 30
0.0
 11
266.0000125
 21
145.0
 31
0.0
  0
LINE
  5
4A0
330
1D
100
AcDbEntity
  8
0
100
AcDbLine
 10
266.0000125
 20
155.0
 30
0.0
 11
266.0000125
 21
145.0
 31
0.0
  0
LINE
  5
4A1
330
1D
100
AcDbEntity
  8
0
100
AcDbLine
 10
266.0000125
 20
145.0
 30
0.0
 11
266.0000125
 21
144.0
 31
0.0
  0
LINE
  5
4A2
330
1D
100
AcDbEntity
  8
0
100
AcDbLine
 10
266.0000125
 20
145.0
 30
0.0
 11
266.0000125
 21
155.0
 31
0.0
  0
LINE
  5
4A3
330
1D
100
AcDbEntity
  8
0
100
AcDbLine
 10
284.0000125
 20
158.5
 30
0.0
 11
283.5000125
 21
157.5
 31
0.0
  0
LINE
  5
4A4
330
1D
100
AcDbEntity
  8
0
100
AcDbLine
 10
282.5000125
 20
157.0
 30
0.0
 11
281.3000125
 21
157.0
 31
0.0
  0
LINE
  5
4A5
330
1D
100
AcDbEntity
  8
0
100
AcDbLine
 10
283.5000125
 20
157.5
 30
0.0
 11
282.3000125
 21
157.5
 31
0.0
  0
LINE
  5
4A6
330
1D
100
AcDbEntity
  8
0
100
AcDbLine
 10
283.5000125
 20
157.5
 30
0.0
 11
282.5000125
 21
157.0
 31
0.0
  0
LINE
  5
4A7
330
1D
100
AcDbEntity
  8
0
100
AcDbLine
 10
279.0000125
 20
157.5
 30
0.0
 11
273.7000125
 21
157.5
 31
0.0
  0
LINE
  5
4A8
330
1D
100
AcDbEntity
  8
0
100
AcDbLine
 10
282.3000125
 20
157.5
 30
0.0
 11
279.0000125
 21
157.5
 31
0.0
  0
LINE
  5
4A9
330
1D
100
AcDbEntity
  8
0
100
AcDbLine
 10
281.3000125
 20
157.0
 30
0.0
 11
278.1000125
 21
157.0
 31
0.0
  0
LINE
  5
4AA
330
1D
100
AcDbEntity
  8
0
100
AcDbLine
 10
278.1000125
 20
157.0
 30
0.0
 11
273.0000125
 21
157.0
 31
0.0
  0
LINE
  5
4AB
330
1D
100
AcDbEntity
  8
0
100
AcDbLine
 10
273.7000125
 20
157.5
 30
0.0
 11
266.7000125
 21
157.5
 31
0.0
  0
LINE
  5
4AC
330
1D
100
AcDbEntity
  8
0
100
AcDbLine
 10
273.0000125
 20
157.0
 30
0.0
 11
266.2000125
 21
157.0
 31
0.0
  0
LINE
  5
4AD
330
1D
100
AcDbEntity
  8
0
100
AcDbLine
 10
284.0000125
 20
183.0
 30
0.0
 11
284.0000125
 21
158.5
 31
0.0
  0
LINE
  5
4AE
330
1D
100
AcDbEntity
  8
0
100
AcDbLine
 10
284.0000125
 20
158.5
 30
0.0
 11
284.0000125
 21
183.0
 31
0.0
  0
LINE
  5
4AF
330
1D
100
AcDbEntity
  8
0
100
AcDbLine
 10
264.0000125
 20
143.0
 30
0.0
 11
236.0000125
 21
143.0
 31
0.0
  0
LINE
  5
4B0
330
1D
100
AcDbEntity
  8
0
100
AcDbLine
 10
258.7000125
 20
183.0
 30
0.0
 11
250.0000125
 21
183.0
 31
0.0
  0
LINE
  5
4B1
330
1D
100
AcDbEntity
  8
0
100
AcDbLine
 10
258.6000125
 20
157.5
 30
0.0
 11
250.0000125
 21
157.5
 31
0.0
  0
LINE
  5
4B2
330
1D
100
AcDbEntity
  8
0
100
AcDbLine
 10
254.0421125
 20
157.0
 30
0.0
 11
250.0000125
 21
157.0
 31
0.0
  0
LINE
  5
4B3
330
1D
100
AcDbEntity
  8
0
100
AcDbLine
 10
251.9775125
 20
144.0
 30
0.0
 11
250.0000125
 21
144.0
 31
0.0
  0
LINE
  5
4B4
330
1D
100
AcDbEntity
  8
0
100
AcDbLine
 10
251.9775125
 20
156.0
 30
0.0
 11
250.0000125
 21
156.0
 31
0.0
  0
LINE
  5
4B5
330
1D
100
AcDbEntity
  8
0
100
AcDbLine
 10
258.7000125
 20
183.0
 30
0.0
 11
250.0000125
 21
183.0
 31
0.0
  0
LINE
  5
4B6
330
1D
100
AcDbEntity
  8
0
100
AcDbLine
 10
264.3480125
 20
141.0
 30
0.0
 11
261.6960125
 21
141.0
 31
0.0
  0
LINE
  5
4B7
330
1D
100
AcDbEntity
  8
0
100
AcDbLine
 10
325.4759125
 20
127.914
 30
0.0
 11
304.0000125
 21
127.914
 31
0.0
  0
LINE
  5
4B8
330
1D
100
AcDbEntity
  8
0
100
AcDbLine
 10
349.8193995
 20
109.102
 30
0.0
 11
349.3598425
 21
109.916
 31
0.0
  0
LINE
  5
4B9
330
1D
100
AcDbEntity
  8
0
100
AcDbLine
 10
348.1452925
 20
110.867
 30
0.0
 11
347.3094325
 21
111.0
 31
0.0
  0
LINE
  5
4BA
330
1D
100
AcDbEntity
  8
0
100
AcDbLine
 10
348.9002825
 20
110.419
 30
0.0
 11
348.1452925
 21
110.867
 31
0.0
  0
LINE
  5
4BB
330
1D
100
AcDbEntity
  8
0
100
AcDbLine
 10
349.3598425
 20
109.916
 30
0.0
 11
348.9002825
 21
110.419
 31
0.0
  0
LINE
  5
4BC
330
1D
100
AcDbEntity
  8
0
100
AcDbLine
 10
349.8193995
 20
109.102
 30
0.0
 11
349.3598425
 21
109.916
 31
0.0
  0
LINE
  5
4BD
330
1D
100
AcDbEntity
  8
0
100
AcDbLine
 10
327.0000125
 20
112.758
 30
0.0
 11
327.0000125
 21
107.966
 31
0.0
  0
LINE
  5
4BE
330
1D
100
AcDbEntity
  8
0
100
AcDbLine
 10
327.0000125
 20
107.966
 30
0.0
 11
327.0000125
 21
112.758
 31
0.0
  0
LINE
  5
4BF
330
1D
100
AcDbEntity
  8
0
100
AcDbLine
 10
326.4920125
 20
112.996
 30
0.0
 11
326.4920125
 21
107.995
 31
0.0
  0
LINE
  5
4C0
330
1D
100
AcDbEntity
  8
0
100
AcDbLine
 10
326.4920125
 20
107.995
 30
0.0
 11
326.4920125
 21
112.996
 31
0.0
  0
LINE
  5
4C1
330
1D
100
AcDbEntity
  8
0
100
AcDbLine
 10
327.0000125
 20
121.156
 30
0.0
 11
327.0000125
 21
117.293
 31
0.0
  0
LINE
  5
4C2
330
1D
100
AcDbEntity
  8
0
100
AcDbLine
 10
327.0000125
 20
117.293
 30
0.0
 11
327.0000125
 21
121.156
 31
0.0
  0
LINE
  5
4C3
330
1D
100
AcDbEntity
  8
0
100
AcDbLine
 10
326.4920125
 20
121.861
 30
0.0
 11
326.4920125
 21
117.765
 31
0.0
  0
LINE
  5
4C4
330
1D
100
AcDbEntity
  8
0
100
AcDbLine
 10
326.4920125
 20
117.765
 30
0.0
 11
326.4920125
 21
121.861
 31
0.0
  0
LINE
  5
4C5
330
1D
100
AcDbEntity
  8
0
100
AcDbLine
 10
327.0000125
 20
117.293
 30
0.0
 11
327.0000125
 21
112.758
 31
0.0
  0
LINE
  5
4C6
330
1D
100
AcDbEntity
  8
0
100
AcDbLine
 10
327.0000125
 20
112.758
 30
0.0
 11
327.0000125
 21
117.293
 31
0.0
  0
LINE
  5
4C7
330
1D
100
AcDbEntity
  8
0
100
AcDbLine
 10
326.4920125
 20
117.765
 30
0.0
 11
326.4920125
 21
112.996
 31
0.0
  0
LINE
  5
4C8
330
1D
100
AcDbEntity
  8
0
100
AcDbLine
 10
326.4920125
 20
112.996
 30
0.0
 11
326.4920125
 21
117.765
 31
0.0
  0
LINE
  5
4C9
330
1D
100
AcDbEntity
  8
0
100
AcDbLine
 10
327.0000125
 20
121.156
 30
0.0
 11
327.0000125
 21
124.062
 31
0.0
  0
LINE
  5
4CA
330
1D
100
AcDbEntity
  8
0
100
AcDbLine
 10
327.0000125
 20
124.062
 30
0.0
 11
327.0000125
 21
121.156
 31
0.0
  0
LINE
  5
4CB
330
1D
100
AcDbEntity
  8
0
100
AcDbLine
 10
327.0000125
 20
124.062
 30
0.0
 11
327.0000125
 21
125.939
 31
0.0
  0
LINE
  5
4CC
330
1D
100
AcDbEntity
  8
0
100
AcDbLine
 10
327.0000125
 20
125.939
 30
0.0
 11
327.0000125
 21
126.527
 31
0.0
  0
LINE
  5
4CD
330
1D
100
AcDbEntity
  8
0
100
AcDbLine
 10
327.0000125
 20
125.939
 30
0.0
 11
327.0000125
 21
124.062
 31
0.0
  0
LINE
  5
4CE
330
1D
100
AcDbEntity
  8
0
100
AcDbLine
 10
327.0000125
 20
126.527
 30
0.0
 11
327.0000125
 21
125.939
 31
0.0
  0
LINE
  5
4CF
330
1D
100
AcDbEntity
  8
0
100
AcDbLine
 10
327.0000125
 20
126.527
 30
0.0
 11
326.4920125
 21
127.521
 31
0.0
  0
LINE
  5
4D0
330
1D
100
AcDbEntity
  8
0
100
AcDbLine
 10
326.4920125
 20
121.861
 30
0.0
 11
326.4920125
 21
124.908
 31
0.0
  0
LINE
  5
4D1
330
1D
100
AcDbEntity
  8
0
100
AcDbLine
 10
326.4920125
 20
124.908
 30
0.0
 11
326.4920125
 21
121.861
 31
0.0
  0
LINE
  5
4D2
330
1D
100
AcDbEntity
  8
0
100
AcDbLine
 10
326.4920125
 20
124.908
 30
0.0
 11
326.4920125
 21
126.859
 31
0.0
  0
LINE
  5
4D3
330
1D
100
AcDbEntity
  8
0
100
AcDbLine
 10
326.4920125
 20
126.859
 30
0.0
 11
326.4920125
 21
127.521
 31
0.0
  0
LINE
  5
4D4
330
1D
100
AcDbEntity
  8
0
100
AcDbLine
 10
326.4920125
 20
126.859
 30
0.0
 11
326.4920125
 21
124.908
 31
0.0
  0
LINE
  5
4D5
330
1D
100
AcDbEntity
  8
0
100
AcDbLine
 10
326.4920125
 20
127.521
 30
0.0
 11
326.4920125
 21
126.859
 31
0.0
  0
LINE
  5
4D6
330
1D
100
AcDbEntity
  8
0
100
AcDbLine
 10
326.4920125
 20
127.521
 30
0.0
 11
325.4759125
 21
127.914
 31
0.0
  0
LINE
  5
4D7
330
1D
100
AcDbEntity
  8
0
100
AcDbLine
 10
267.0000125
 20
140.4
 30
0.0
 11
267.0000125
 21
128.0
 31
0.0
  0
LINE
  5
4D8
330
1D
100
AcDbEntity
  8
0
100
AcDbLine
 10
267.0000125
 20
128.0
 30
0.0
 11
267.0000125
 21
140.4
 31
0.0
  0
LINE
  5
4D9
330
1D
100
AcDbEntity
  8
0
100
AcDbLine
 10
304.0000125
 20
127.914
 30
0.0
 11
282.5241125
 21
127.914
 31
0.0
  0
LINE
  5
4DA
330
1D
100
AcDbEntity
  8
0
100
AcDbLine
 10
281.5080125
 20
112.996
 30
0.0
 11
281.5080125
 21
107.995
 31
0.0
  0
LINE
  5
4DB
330
1D
100
AcDbEntity
  8
0
100
AcDbLine
 10
281.5080125
 20
107.995
 30
0.0
 11
281.5080125
 21
112.996
 31
0.0
  0
LINE
  5
4DC
330
1D
100
AcDbEntity
  8
0
100
AcDbLine
 10
269.4920125
 20
113.048
 30
0.0
 11
269.4920125
 21
108.0
 31
0.0
  0
LINE
  5
4DD
330
1D
100
AcDbEntity
  8
0
100
AcDbLine
 10
269.4920125
 20
108.0
 30
0.0
 11
269.4920125
 21
113.048
 31
0.0
  0
LINE
  5
4DE
330
1D
100
AcDbEntity
  8
0
100
AcDbLine
 10
281.241746906439
 20
127.0
 30
0.0
 11
269.771332541973
 21
127.0
 31
0.0
  0
LINE
  5
4DF
330
1D
100
AcDbEntity
  8
0
100
AcDbLine
 10
281.5080125
 20
121.861
 30
0.0
 11
281.5080125
 21
124.908
 31
0.0
  0
LINE
  5
4E0
330
1D
100
AcDbEntity
  8
0
100
AcDbLine
 10
281.5080125
 20
121.861
 30
0.0
 11
281.5080125
 21
117.765
 31
0.0
  0
LINE
  5
4E1
330
1D
100
AcDbEntity
  8
0
100
AcDbLine
 10
281.5080125
 20
124.908
 30
0.0
 11
281.5080125
 21
126.859
 31
0.0
  0
LINE
  5
4E2
330
1D
100
AcDbEntity
  8
0
100
AcDbLine
 10
281.5080125
 20
124.908
 30
0.0
 11
281.5080125
 21
121.861
 31
0.0
  0
LINE
  5
4E3
330
1D
100
AcDbEntity
  8
0
100
AcDbLine
 10
281.5080125
 20
117.765
 30
0.0
 11
281.5080125
 21
112.996
 31
0.0
  0
LINE
  5
4E4
330
1D
100
AcDbEntity
  8
0
100
AcDbLine
 10
281.5080125
 20
117.765
 30
0.0
 11
281.5080125
 21
121.861
 31
0.0
  0
LINE
  5
4E5
330
1D
100
AcDbEntity
  8
0
100
AcDbLine
 10
281.5080125
 20
112.996
 30
0.0
 11
281.5080125
 21
117.765
 31
0.0
  0
LINE
  5
4E6
330
1D
100
AcDbEntity
  8
0
100
AcDbLine
 10
281.5080125
 20
127.521
 30
0.0
 11
281.5080125
 21
126.859
 31
0.0
  0
LINE
  5
4E7
330
1D
100
AcDbEntity
  8
0
100
AcDbLine
 10
281.5080125
 20
127.521
 30
0.0
 11
281.241746906439
 21
127.0
 31
0.0
  0
LINE
  5
4E8
330
1D
100
AcDbEntity
  8
0
100
AcDbLine
 10
281.5080125
 20
126.859
 30
0.0
 11
281.5080125
 21
127.521
 31
0.0
  0
LINE
  5
4E9
330
1D
100
AcDbEntity
  8
0
100
AcDbLine
 10
281.5080125
 20
126.859
 30
0.0
 11
281.5080125
 21
124.908
 31
0.0
  0
LINE
  5
4EA
330
1D
100
AcDbEntity
  8
0
100
AcDbLine
 10
282.5241125
 20
127.914
 30
0.0
 11
281.5080125
 21
127.521
 31
0.0
  0
LINE
  5
4EB
330
1D
100
AcDbEntity
  8
0
100
AcDbLine
 10
269.4920125
 20
124.952
 30
0.0
 11
269.4920125
 21
121.81
 31
0.0
  0
LINE
  5
4EC
330
1D
100
AcDbEntity
  8
0
100
AcDbLine
 10
269.4920125
 20
124.952
 30
0.0
 11
269.4920125
 21
126.857
 31
0.0
  0
LINE
  5
4ED
330
1D
100
AcDbEntity
  8
0
100
AcDbLine
 10
269.4920125
 20
126.857
 30
0.0
 11
269.4920125
 21
124.952
 31
0.0
  0
LINE
  5
4EE
330
1D
100
AcDbEntity
  8
0
100
AcDbLine
 10
269.4920125
 20
126.857
 30
0.0
 11
269.4920125
 21
127.524
 31
0.0
  0
LINE
  5
4EF
330
1D
100
AcDbEntity
  8
0
100
AcDbLine
 10
269.4920125
 20
121.81
 30
0.0
 11
269.4920125
 21
117.714
 31
0.0
  0
LINE
  5
4F0
330
1D
100
AcDbEntity
  8
0
100
AcDbLine
 10
269.4920125
 20
121.81
 30
0.0
 11
269.4920125
 21
124.952
 31
0.0
  0
LINE
  5
4F1
330
1D
100
AcDbEntity
  8
0
100
AcDbLine
 10
269.4920125
 20
117.714
 30
0.0
 11
269.4920125
 21
113.048
 31
0.0
  0
LINE
  5
4F2
330
1D
100
AcDbEntity
  8
0
100
AcDbLine
 10
269.4920125
 20
117.714
 30
0.0
 11
269.4920125
 21
121.81
 31
0.0
  0
LINE
  5
4F3
330
1D
100
AcDbEntity
  8
0
100
AcDbLine
 10
269.4920125
 20
113.048
 30
0.0
 11
269.4920125
 21
117.714
 31
0.0
  0
LINE
  5
4F4
330
1D
100
AcDbEntity
  8
0
100
AcDbLine
 10
269.771332541973
 20
127.0
 30
0.0
 11
269.4920125
 21
127.524
 31
0.0
  0
LINE
  5
4F5
330
1D
100
AcDbEntity
  8
0
100
AcDbLine
 10
269.4920125
 20
127.524
 30
0.0
 11
268.4759125
 21
128.0
 31
0.0
  0
LINE
  5
4F6
330
1D
100
AcDbEntity
  8
0
100
AcDbLine
 10
269.4920125
 20
127.524
 30
0.0
 11
269.4920125
 21
126.857
 31
0.0
  0
LINE
  5
4F7
330
1D
100
AcDbEntity
  8
0
100
AcDbLine
 10
268.4759125
 20
128.0
 30
0.0
 11
267.0000125
 21
128.0
 31
0.0
  0
LINE
  5
4F8
330
1D
100
AcDbEntity
  8
0
100
AcDbLine
 10
266.5920125
 20
141.0
 30
0.0
 11
265.9800125
 21
141.0
 31
0.0
  0
LINE
  5
4F9
330
1D
100
AcDbEntity
  8
0
100
AcDbLine
 10
267.0000125
 20
140.4
 30
0.0
 11
266.5920125
 21
141.0
 31
0.0
  0
LINE
  5
4FA
330
1D
100
AcDbEntity
  8
0
100
AcDbLine
 10
265.9800125
 20
141.0
 30
0.0
 11
264.3480125
 21
141.0
 31
0.0
  0
LINE
  5
4FB
330
1D
100
AcDbEntity
  8
0
100
AcDbLine
 10
264.0000125
 20
143.0
 30
0.0
 11
264.0000125
 21
141.0
 31
0.0
  0
LINE
  5
4FC
330
1D
100
AcDbEntity
  8
0
100
AcDbLine
 10
264.0000125
 20
141.0
 30
0.0
 11
264.0000125
 21
143.0
 31
0.0
  0
LINE
  5
4FD
330
1D
100
AcDbEntity
  8
0
100
AcDbLine
 10
233.0000125
 20
128.0
 30
0.0
 11
233.0000125
 21
140.4
 31
0.0
  0
LINE
  5
4FE
330
1D
100
AcDbEntity
  8
0
100
AcDbLine
 10
233.0000125
 20
140.4
 30
0.0
 11
233.0000125
 21
128.0
 31
0.0
  0
LINE
  5
4FF
330
1D
100
AcDbEntity
  8
0
100
AcDbLine
 10
241.7720125
 20
141.0
 30
0.0
 11
238.3040125
 21
141.0
 31
0.0
  0
LINE
  5
500
330
1D
100
AcDbEntity
  8
0
100
AcDbLine
 10
254.2840125
 20
141.0
 30
0.0
 11
250.0000125
 21
141.0
 31
0.0
  0
LINE
  5
501
330
1D
100
AcDbEntity
  8
0
100
AcDbLine
 10
261.6960125
 20
141.0
 30
0.0
 11
258.2280125
 21
141.0
 31
0.0
  0
LINE
  5
502
330
1D
100
AcDbEntity
  8
0
100
AcDbLine
 10
258.2280125
 20
141.0
 30
0.0
 11
254.2840125
 21
141.0
 31
0.0
  0
LINE
  5
503
330
1D
100
AcDbEntity
  8
0
100
AcDbLine
 10
250.0000125
 20
141.0
 30
0.0
 11
245.7160125
 21
141.0
 31
0.0
  0
LINE
  5
504
330
1D
100
AcDbEntity
  8
0
100
AcDbLine
 10
245.7160125
 20
141.0
 30
0.0
 11
241.7720125
 21
141.0
 31
0.0
  0
LINE
  5
505
330
1D
100
AcDbEntity
  8
0
100
AcDbLine
 10
238.3040125
 20
141.0
 30
0.0
 11
235.6520125
 21
141.0
 31
0.0
  0
LINE
  5
506
330
1D
100
AcDbEntity
  8
0
100
AcDbLine
 10
235.6520125
 20
141.0
 30
0.0
 11
234.0200125
 21
141.0
 31
0.0
  0
LINE
  5
507
330
1D
100
AcDbEntity
  8
0
100
AcDbLine
 10
234.0200125
 20
141.0
 30
0.0
 11
233.4080125
 21
141.0
 31
0.0
  0
LINE
  5
508
330
1D
100
AcDbEntity
  8
0
100
AcDbLine
 10
233.4080125
 20
141.0
 30
0.0
 11
233.0000125
 21
140.4
 31
0.0
  0
LINE
  5
509
330
1D
100
AcDbEntity
  8
0
100
AcDbLine
 10
347.3094325
 20
105.0
 30
0.0
 11
327.0000125
 21
105.0
 31
0.0
  0
LINE
  5
50A
330
1D
100
AcDbEntity
  8
0
100
AcDbLine
 10
268.4759125
 20
88.0
 30
0.0
 11
192.243761090313
 21
88.0
 31
0.0
  0
LINE
  5
50B
330
1D
100
AcDbEntity
  8
0
100
AcDbLine
 10
325.4759125
 20
88.0863
 30
0.0
 11
304.0000125
 21
88.0863
 31
0.0
  0
LINE
  5
50C
330
1D
100
AcDbEntity
  8
0
100
AcDbLine
 10
349.8193995
 20
106.898
 30
0.0
 11
349.3598425
 21
106.084
 31
0.0
  0
LINE
  5
50D
330
1D
100
AcDbEntity
  8
0
100
AcDbLine
 10
348.1452925
 20
105.133
 30
0.0
 11
347.3094325
 21
105.0
 31
0.0
  0
LINE
  5
50E
330
1D
100
AcDbEntity
  8
0
100
AcDbLine
 10
348.9002825
 20
105.581
 30
0.0
 11
348.1452925
 21
105.133
 31
0.0
  0
LINE
  5
50F
330
1D
100
AcDbEntity
  8
0
100
AcDbLine
 10
349.3598425
 20
106.084
 30
0.0
 11
348.9002825
 21
105.581
 31
0.0
  0
LINE
  5
510
330
1D
100
AcDbEntity
  8
0
100
AcDbLine
 10
349.9999875
 20
108.0
 30
0.0
 11
349.8193995
 21
106.898
 31
0.0
  0
LINE
  5
511
330
1D
100
AcDbEntity
  8
0
100
AcDbLine
 10
349.9999875
 20
108.0
 30
0.0
 11
349.8193995
 21
109.102
 31
0.0
  0
LINE
  5
512
330
1D
100
AcDbEntity
  8
0
100
AcDbLine
 10
349.8193995
 20
106.898
 30
0.0
 11
349.3598425
 21
106.084
 31
0.0
  0
LINE
  5
513
330
1D
100
AcDbEntity
  8
0
100
AcDbLine
 10
349.9999875
 20
108.0
 30
0.0
 11
349.8193995
 21
106.898
 31
0.0
  0
LINE
  5
514
330
1D
100
AcDbEntity
  8
0
100
AcDbLine
 10
349.9999875
 20
108.0
 30
0.0
 11
349.8193995
 21
109.102
 31
0.0
  0
LINE
  5
515
330
1D
100
AcDbEntity
  8
0
100
AcDbLine
 10
327.0000125
 20
94.9109
 30
0.0
 11
327.0000125
 21
98.7663
 31
0.0
  0
LINE
  5
516
330
1D
100
AcDbEntity
  8
0
100
AcDbLine
 10
327.0000125
 20
98.7663
 30
0.0
 11
327.0000125
 21
94.9109
 31
0.0
  0
LINE
  5
517
330
1D
100
AcDbEntity
  8
0
100
AcDbLine
 10
326.4920125
 20
98.2438
 30
0.0
 11
326.4920125
 21
102.947
 31
0.0
  0
LINE
  5
518
330
1D
100
AcDbEntity
  8
0
100
AcDbLine
 10
326.4920125
 20
102.947
 30
0.0
 11
326.4920125
 21
98.2438
 31
0.0
  0
LINE
  5
519
330
1D
100
AcDbEntity
  8
0
100
AcDbLine
 10
327.0000125
 20
90.0622
 30
0.0
 11
327.0000125
 21
91.9033
 31
0.0
  0
LINE
  5
51A
330
1D
100
AcDbEntity
  8
0
100
AcDbLine
 10
327.0000125
 20
91.9033
 30
0.0
 11
327.0000125
 21
90.0622
 31
0.0
  0
LINE
  5
51B
330
1D
100
AcDbEntity
  8
0
100
AcDbLine
 10
327.0000125
 20
91.9033
 30
0.0
 11
327.0000125
 21
94.9109
 31
0.0
  0
LINE
  5
51C
330
1D
100
AcDbEntity
  8
0
100
AcDbLine
 10
327.0000125
 20
89.4729
 30
0.0
 11
326.4920125
 21
88.479
 31
0.0
  0
LINE
  5
51D
330
1D
100
AcDbEntity
  8
0
100
AcDbLine
 10
326.4920125
 20
91.0869
 30
0.0
 11
326.4920125
 21
89.111
 31
0.0
  0
LINE
  5
51E
330
1D
100
AcDbEntity
  8
0
100
AcDbLine
 10
326.4920125
 20
91.0869
 30
0.0
 11
326.4920125
 21
94.2291
 31
0.0
  0
LINE
  5
51F
330
1D
100
AcDbEntity
  8
0
100
AcDbLine
 10
326.4920125
 20
89.111
 30
0.0
 11
326.4920125
 21
88.479
 31
0.0
  0
LINE
  5
520
330
1D
100
AcDbEntity
  8
0
100
AcDbLine
 10
326.4920125
 20
89.111
 30
0.0
 11
326.4920125
 21
91.0869
 31
0.0
  0
LINE
  5
521
330
1D
100
AcDbEntity
  8
0
100
AcDbLine
 10
326.4920125
 20
88.479
 30
0.0
 11
325.4759125
 21
88.0863
 31
0.0
  0
LINE
  5
522
330
1D
100
AcDbEntity
  8
0
100
AcDbLine
 10
326.4920125
 20
88.479
 30
0.0
 11
326.4920125
 21
89.111
 31
0.0
  0
LINE
  5
523
330
1D
100
AcDbEntity
  8
0
100
AcDbLine
 10
327.0000125
 20
94.9109
 30
0.0
 11
327.0000125
 21
91.9033
 31
0.0
  0
LINE
  5
524
330
1D
100
AcDbEntity
  8
0
100
AcDbLine
 10
326.4920125
 20
94.2291
 30
0.0
 11
326.4920125
 21
91.0869
 31
0.0
  0
LINE
  5
525
330
1D
100
AcDbEntity
  8
0
100
AcDbLine
 10
326.4920125
 20
94.2291
 30
0.0
 11
326.4920125
 21
98.2438
 31
0.0
  0
LINE
  5
526
330
1D
100
AcDbEntity
  8
0
100
AcDbLine
 10
326.4920125
 20
98.2438
 30
0.0
 11
326.4920125
 21
94.2291
 31
0.0
  0
LINE
  5
527
330
1D
100
AcDbEntity
  8
0
100
AcDbLine
 10
327.0000125
 20
94.8442
 30
0.0
 11
327.0000125
 21
91.9378
 31
0.0
  0
LINE
  5
528
330
1D
100
AcDbEntity
  8
0
100
AcDbLine
 10
327.0000125
 20
91.9378
 30
0.0
 11
327.0000125
 21
94.8442
 31
0.0
  0
LINE
  5
529
330
1D
100
AcDbEntity
  8
0
100
AcDbLine
 10
327.0000125
 20
98.7663
 30
0.0
 11
327.0000125
 21
103.193
 31
0.0
  0
LINE
  5
52A
330
1D
100
AcDbEntity
  8
0
100
AcDbLine
 10
327.0000125
 20
107.966
 30
0.0
 11
327.0000125
 21
103.193
 31
0.0
  0
LINE
  5
52B
330
1D
100
AcDbEntity
  8
0
100
AcDbLine
 10
327.0000125
 20
103.193
 30
0.0
 11
327.0000125
 21
98.7663
 31
0.0
  0
LINE
  5
52C
330
1D
100
AcDbEntity
  8
0
100
AcDbLine
 10
327.0000125
 20
103.193
 30
0.0
 11
327.0000125
 21
107.966
 31
0.0
  0
LINE
  5
52D
330
1D
100
AcDbEntity
  8
0
100
AcDbLine
 10
326.4920125
 20
107.995
 30
0.0
 11
326.4920125
 21
102.947
 31
0.0
  0
LINE
  5
52E
330
1D
100
AcDbEntity
  8
0
100
AcDbLine
 10
326.4920125
 20
102.947
 30
0.0
 11
326.4920125
 21
107.995
 31
0.0
  0
LINE
  5
52F
330
1D
100
AcDbEntity
  8
0
100
AcDbLine
 10
304.0000125
 20
88.0863
 30
0.0
 11
282.5241125
 21
88.0863
 31
0.0
  0
LINE
  5
530
330
1D
100
AcDbEntity
  8
0
100
AcDbLine
 10
281.24172011646
 20
89.0
 30
0.0
 11
269.771401832213
 21
89.0
 31
0.0
  0
LINE
  5
531
330
1D
100
AcDbEntity
  8
0
100
AcDbLine
 10
282.5241125
 20
88.0863
 30
0.0
 11
281.5080125
 21
88.479
 31
0.0
  0
LINE
  5
532
330
1D
100
AcDbEntity
  8
0
100
AcDbLine
 10
281.5080125
 20
91.0869
 30
0.0
 11
281.5080125
 21
89.111
 31
0.0
  0
LINE
  5
533
330
1D
100
AcDbEntity
  8
0
100
AcDbLine
 10
281.5080125
 20
91.0869
 30
0.0
 11
281.5080125
 21
94.2291
 31
0.0
  0
LINE
  5
534
330
1D
100
AcDbEntity
  8
0
100
AcDbLine
 10
281.5080125
 20
89.111
 30
0.0
 11
281.5080125
 21
91.0869
 31
0.0
  0
LINE
  5
535
330
1D
100
AcDbEntity
  8
0
100
AcDbLine
 10
281.5080125
 20
89.111
 30
0.0
 11
281.5080125
 21
88.479
 31
0.0
  0
LINE
  5
536
330
1D
100
AcDbEntity
  8
0
100
AcDbLine
 10
281.5080125
 20
88.479
 30
0.0
 11
281.5080125
 21
89.111
 31
0.0
  0
LINE
  5
537
330
1D
100
AcDbEntity
  8
0
100
AcDbLine
 10
281.5080125
 20
88.479
 30
0.0
 11
281.24172011646
 21
89.0
 31
0.0
  0
LINE
  5
538
330
1D
100
AcDbEntity
  8
0
100
AcDbLine
 10
281.5080125
 20
107.995
 30
0.0
 11
281.5080125
 21
102.947
 31
0.0
  0
LINE
  5
539
330
1D
100
AcDbEntity
  8
0
100
AcDbLine
 10
281.5080125
 20
102.947
 30
0.0
 11
281.5080125
 21
98.2438
 31
0.0
  0
LINE
  5
53A
330
1D
100
AcDbEntity
  8
0
100
AcDbLine
 10
281.5080125
 20
102.947
 30
0.0
 11
281.5080125
 21
107.995
 31
0.0
  0
LINE
  5
53B
330
1D
100
AcDbEntity
  8
0
100
AcDbLine
 10
281.5080125
 20
94.2291
 30
0.0
 11
281.5080125
 21
98.2438
 31
0.0
  0
LINE
  5
53C
330
1D
100
AcDbEntity
  8
0
100
AcDbLine
 10
281.5080125
 20
94.2291
 30
0.0
 11
281.5080125
 21
91.0869
 31
0.0
  0
LINE
  5
53D
330
1D
100
AcDbEntity
  8
0
100
AcDbLine
 10
281.5080125
 20
98.2438
 30
0.0
 11
281.5080125
 21
102.947
 31
0.0
  0
LINE
  5
53E
330
1D
100
AcDbEntity
  8
0
100
AcDbLine
 10
281.5080125
 20
98.2438
 30
0.0
 11
281.5080125
 21
94.2291
 31
0.0
  0
LINE
  5
53F
330
1D
100
AcDbEntity
  8
0
100
AcDbLine
 10
269.4920125
 20
98.2857
 30
0.0
 11
269.4920125
 21
94.1905
 31
0.0
  0
LINE
  5
540
330
1D
100
AcDbEntity
  8
0
100
AcDbLine
 10
269.4920125
 20
98.2857
 30
0.0
 11
269.4920125
 21
102.952
 31
0.0
  0
LINE
  5
541
330
1D
100
AcDbEntity
  8
0
100
AcDbLine
 10
269.4920125
 20
102.952
 30
0.0
 11
269.4920125
 21
98.2857
 31
0.0
  0
LINE
  5
542
330
1D
100
AcDbEntity
  8
0
100
AcDbLine
 10
269.4920125
 20
102.952
 30
0.0
 11
269.4920125
 21
108.0
 31
0.0
  0
LINE
  5
543
330
1D
100
AcDbEntity
  8
0
100
AcDbLine
 10
269.4920125
 20
108.0
 30
0.0
 11
269.4920125
 21
102.952
 31
0.0
  0
LINE
  5
544
330
1D
100
AcDbEntity
  8
0
100
AcDbLine
 10
269.4920125
 20
94.1905
 30
0.0
 11
269.4920125
 21
91.0476
 31
0.0
  0
LINE
  5
545
330
1D
100
AcDbEntity
  8
0
100
AcDbLine
 10
269.4920125
 20
94.1905
 30
0.0
 11
269.4920125
 21
98.2857
 31
0.0
  0
LINE
  5
546
330
1D
100
AcDbEntity
  8
0
100
AcDbLine
 10
269.4920125
 20
91.0476
 30
0.0
 11
269.4920125
 21
89.1429
 31
0.0
  0
LINE
  5
547
330
1D
100
AcDbEntity
  8
0
100
AcDbLine
 10
269.4920125
 20
91.0476
 30
0.0
 11
269.4920125
 21
94.1905
 31
0.0
  0
LINE
  5
548
330
1D
100
AcDbEntity
  8
0
100
AcDbLine
 10
269.4920125
 20
89.1429
 30
0.0
 11
269.4920125
 21
88.4762
 31
0.0
  0
LINE
  5
549
330
1D
100
AcDbEntity
  8
0
100
AcDbLine
 10
269.4920125
 20
89.1429
 30
0.0
 11
269.4920125
 21
91.0476
 31
0.0
  0
LINE
  5
54A
330
1D
100
AcDbEntity
  8
0
100
AcDbLine
 10
269.771401832213
 20
89.0
 30
0.0
 11
269.4920125
 21
88.4762
 31
0.0
  0
LINE
  5
54B
330
1D
100
AcDbEntity
  8
0
100
AcDbLine
 10
269.4920125
 20
88.4762
 30
0.0
 11
268.4759125
 21
88.0
 31
0.0
  0
LINE
  5
54C
330
1D
100
AcDbEntity
  8
0
100
AcDbLine
 10
269.4920125
 20
88.4762
 30
0.0
 11
269.4920125
 21
89.1429
 31
0.0
  0
LINE
  5
54D
330
1D
100
AcDbEntity
  8
0
100
AcDbLine
 10
157.756238909687
 20
88.0
 30
0.0
 11
195.861067888616
 21
88.0
 31
0.0
  0
ENDSEC
  0
SECTION
  2
OBJECTS
  0
DICTIONARY
  5
C
330
0
100
AcDbDictionary
281
     1
  3
ACAD_GROUP
350
D
  3
ACAD_LAYOUT
350
1A
  3
ACAD_MLEADERSTYLE
350
550
  3
ACAD_MLINESTYLE
350
17
  3
ACAD_PLOTSETTINGS
350
19
  3
ACAD_PLOTSTYLENAME
350
E
  3
ACAD_SCALELIST
350
2F2
  3
AcDbVariableDictionary
350
54E
  3
DWGPROPS
350
553
  0
DICTIONARY
  5
D
102
{ACAD_REACTORS
330
C
102
}
330
C
100
AcDbDictionary
281
     1
  0
DICTIONARY
  5
1A
102
{ACAD_REACTORS
330
C
102
}
330
C
100
AcDbDictionary
281
     1
  3
Layout1
350
1C
  3
Model
350
1E
  0
DICTIONARY
  5
550
102
{ACAD_REACTORS
330
C
102
}
330
C
100
AcDbDictionary
281
     1
  0
DICTIONARY
  5
17
102
{ACAD_REACTORS
330
C
102
}
330
C
100
AcDbDictionary
281
     1
  3
Standard
350
18
  0
DICTIONARY
  5
19
102
{ACAD_REACTORS
330
C
102
}
330
C
100
AcDbDictionary
281
     1
  0
ACDBDICTIONARYWDFLT
  5
E
102
{ACAD_REACTORS
330
C
102
}
330
C
100
AcDbDictionary
281
     1
  3
Normal
350
F
100
AcDbDictionaryWithDefault
340
F
  0
DICTIONARY
  5
2F2
102
{ACAD_REACTORS
330
C
102
}
330
C
100
AcDbDictionary
281
     1
  3
A0
350
2F3
  3
A1
350
2F4
  3
A2
350
2F5
  3
A3
350
2F6
  3
A4
350
2F7
  3
A5
350
2F8
  3
A6
350
2F9
  3
A7
350
2FA
  3
A8
350
2FB
  3
A9
350
2FC
  3
B0
350
2FD
  3
B1
350
2FE
  3
B2
350
2FF
  3
B3
350
300
  3
B4
350
301
  3
B5
350
302
  3
B6
350
303
  3
B7
350
304
  3
B8
350
305
  3
B9
350
306
  3
C0
350
307
  3
C1
350
308
  3
C2
350
309
  3
C3
350
30A
  3
C4
350
30B
  3
C5
350
30C
  3
C6
350
30D
  3
C7
350
30E
  3
C8
350
30F
  3
C9
350
310
  3
D0
350
311
  3
D1
350
312
  3
D2
350
313
  0
DICTIONARY
  5
54E
102
{ACAD_REACTORS
330
C
102
}
330
C
100
AcDbDictionary
281
     1
  3
CANNOSCALE
350
551
  0
XRECORD
  5
553
102
{ACAD_REACTORS
330
C
102
}
330
C
100
AcDbXrecord
280
     1
  1
DWGPROPS COOKIE
  2

  3

  4

  6

  7

  8
MARTIN
  9

300
=
301
=
302
=
303
=
304
=
305
=
306
=
307
=
308
=
309
=
 40
0.0
 41
2455824.553369317
 42
2455824.554191076
  1

 90
        0
  0
LAYOUT
  5
1C
102
{ACAD_REACTORS
330
1A
102
}
330
1A
100
AcDbPlotSettings
  1

  2
none_device
  4

  6

 40
0.0
 41
0.0
 42
0.0
 43
0.0
 44
0.0
 45
0.0
 46
0.0
 47
0.0
 48
0.0
 49
0.0
140
0.0
141
0.0
142
1.0
143
1.0
 70
   688
 72
     0
 73
     0
 74
     5
  7

 75
    16
147
1.0
148
0.0
149
0.0
100
AcDbLayout
  1
Layout1
 70
     1
 71
     1
 10
0.0
 20
0.0
 11
12.0
 21
9.0
 12
0.0
 22
0.0
 32
0.0
 14
1.000000000000E+20
 24
1.000000000000E+20
 34
1.000000000000E+20
 15
-1.000000000000E+20
 25
-1.000000000000E+20
 35
-1.000000000000E+20
146
0.0
 13
0.0
 23
0.0
 33
0.0
 16
1.0
 26
0.0
 36
0.0
 17
0.0
 27
1.0
 37
0.0
 76
     0
330
1B
  0
LAYOUT
  5
1E
102
{ACAD_REACTORS
330
1A
102
}
330
1A
100
AcDbPlotSettings
  1

  2
none_device
  4

  6

 40
0.0
 41
0.0
 42
0.0
 43
0.0
 44
0.0
 45
0.0
 46
0.0
 47
0.0
 48
0.0
 49
0.0
140
0.0
141
0.0
142
1.0
143
1.0
 70
  1712
 72
     0
 73
     0
 74
     0
  7

 75
     0
147
1.0
148
0.0
149
0.0
100
AcDbLayout
  1
Model
 70
     1
 71
     0
 10
0.0
 20
0.0
 11
12.0
 21
9.0
 12
0.0
 22
0.0
 32
0.0
 14
0.0000125
 24
0.0
 34
0.0
 15
349.9999875
 25
183.0
 35
0.0
146
0.0
 13
0.0
 23
0.0
 33
0.0
 16
1.0
 26
0.0
 36
0.0
 17
0.0
 27
1.0
 37
0.0
 76
     0
330
1D
331
2ED
  0
MLINESTYLE
  5
18
102
{ACAD_REACTORS
330
17
102
}
330
17
100
AcDbMlineStyle
  2
Standard
 70
     0
  3

 62
   256
 51
90.0
 52
90.0
 71
     2
 49
0.5
 62
   256
  6
BYLAYER
 49
-0.5
 62
   256
  6
BYLAYER
  0
ACDBPLACEHOLDER
  5
F
102
{ACAD_REACTORS
330
E
102
}
330
E
  0
SCALE
  5
2F3
102
{ACAD_REACTORS
330
2F2
102
}
330
2F2
100
AcDbScale
 70
     0
300
1:1
140
1.0
141
1.0
290
     1
  0
SCALE
  5
2F4
102
{ACAD_REACTORS
330
2F2
102
}
330
2F2
100
AcDbScale
 70
     0
300
1:2
140
1.0
141
2.0
290
     0
  0
SCALE
  5
2F5
102
{ACAD_REACTORS
330
2F2
102
}
330
2F2
100
AcDbScale
 70
     0
300
1:4
140
1.0
141
4.0
290
     0
  0
SCALE
  5
2F6
102
{ACAD_REACTORS
330
2F2
102
}
330
2F2
100
AcDbScale
 70
     0
300
1:5
140
1.0
141
5.0
290
     0
  0
SCALE
  5
2F7
102
{ACAD_REACTORS
330
2F2
102
}
330
2F2
100
AcDbScale
 70
     0
300
1:8
140
1.0
141
8.0
290
     0
  0
SCALE
  5
2F8
102
{ACAD_REACTORS
330
2F2
102
}
330
2F2
100
AcDbScale
 70
     0
300
1:10
140
1.0
141
10.0
290
     0
  0
SCALE
  5
2F9
102
{ACAD_REACTORS
330
2F2
102
}
330
2F2
100
AcDbScale
 70
     0
300
1:16
140
1.0
141
16.0
290
     0
  0
SCALE
  5
2FA
102
{ACAD_REACTORS
330
2F2
102
}
330
2F2
100
AcDbScale
 70
     0
300
1:20
140
1.0
141
20.0
290
     0
  0
SCALE
  5
2FB
102
{ACAD_REACTORS
330
2F2
102
}
330
2F2
100
AcDbScale
 70
     0
300
1:30
140
1.0
141
30.0
290
     0
  0
SCALE
  5
2FC
102
{ACAD_REACTORS
330
2F2
102
}
330
2F2
100
AcDbScale
 70
     0
300
1:40
140
1.0
141
40.0
290
     0
  0
SCALE
  5
2FD
102
{ACAD_REACTORS
330
2F2
102
}
330
2F2
100
AcDbScale
 70
     0
300
1:50
140
1.0
141
50.0
290
     0
  0
SCALE
  5
2FE
102
{ACAD_REACTORS
330
2F2
102
}
330
2F2
100
AcDbScale
 70
     0
300
1:100
140
1.0
141
100.0
290
     0
  0
SCALE
  5
2FF
102
{ACAD_REACTORS
330
2F2
102
}
330
2F2
100
AcDbScale
 70
     0
300
2:1
140
2.0
141
1.0
290
     0
  0
SCALE
  5
300
102
{ACAD_REACTORS
330
2F2
102
}
330
2F2
100
AcDbScale
 70
     0
300
4:1
140
4.0
141
1.0
290
     0
  0
SCALE
  5
301
102
{ACAD_REACTORS
330
2F2
102
}
330
2F2
100
AcDbScale
 70
     0
300
8:1
140
8.0
141
1.0
290
     0
  0
SCALE
  5
302
102
{ACAD_REACTORS
330
2F2
102
}
330
2F2
100
AcDbScale
 70
     0
300
10:1
140
10.0
141
1.0
290
     0
  0
SCALE
  5
303
102
{ACAD_REACTORS
330
2F2
102
}
330
2F2
100
AcDbScale
 70
     0
300
100:1
140
100.0
141
1.0
290
     0
  0
SCALE
  5
304
102
{ACAD_REACTORS
330
2F2
102
}
330
2F2
100
AcDbScale
 70
     0
300
1/128" = 1'-0"
140
0.0078125
141
12.0
290
     0
  0
SCALE
  5
305
102
{ACAD_REACTORS
330
2F2
102
}
330
2F2
100
AcDbScale
 70
     0
300
1/64" = 1'-0"
140
0.015625
141
12.0
290
     0
  0
SCALE
  5
306
102
{ACAD_REACTORS
330
2F2
102
}
330
2F2
100
AcDbScale
 70
     0
300
1/32" = 1'-0"
140
0.03125
141
12.0
290
     0
  0
SCALE
  5
307
102
{ACAD_REACTORS
330
2F2
102
}
330
2F2
100
AcDbScale
 70
     0
300
1/16" = 1'-0"
140
0.0625
141
12.0
290
     0
  0
SCALE
  5
308
102
{ACAD_REACTORS
330
2F2
102
}
330
2F2
100
AcDbScale
 70
     0
300
3/32" = 1'-0"
140
0.09375
141
12.0
290
     0
  0
SCALE
  5
309
102
{ACAD_REACTORS
330
2F2
102
}
330
2F2
100
AcDbScale
 70
     0
300
1/8" = 1'-0"
140
0.125
141
12.0
290
     0
  0
SCALE
  5
30A
102
{ACAD_REACTORS
330
2F2
102
}
330
2F2
100
AcDbScale
 70
     0
300
3/16" = 1'-0"
140
0.1875
141
12.0
290
     0
  0
SCALE
  5
30B
102
{ACAD_REACTORS
330
2F2
102
}
330
2F2
100
AcDbScale
 70
     0
300
1/4" = 1'-0"
140
0.25
141
12.0
290
     0
  0
SCALE
  5
30C
102
{ACAD_REACTORS
330
2F2
102
}
330
2F2
100
AcDbScale
 70
     0
300
3/8" = 1'-0"
140
0.375
141
12.0
290
     0
  0
SCALE
  5
30D
102
{ACAD_REACTORS
330
2F2
102
}
330
2F2
100
AcDbScale
 70
     0
300
1/2" = 1'-0"
140
0.5
141
12.0
290
     0
  0
SCALE
  5
30E
102
{ACAD_REACTORS
330
2F2
102
}
330
2F2
100
AcDbScale
 70
     0
300
3/4" = 1'-0"
140
0.75
141
12.0
290
     0
  0
SCALE
  5
30F
102
{ACAD_REACTORS
330
2F2
102
}
330
2F2
100
AcDbScale
 70
     0
300
1" = 1'-0"
140
1.0
141
12.0
290
     0
  0
SCALE
  5
310
102
{ACAD_REACTORS
330
2F2
102
}
330
2F2
100
AcDbScale
 70
     0
300
1-1/2" = 1'-0"
140
1.5
141
12.0
290
     0
  0
SCALE
  5
311
102
{ACAD_REACTORS
330
2F2
102
}
330
2F2
100
AcDbScale
 70
     0
300
3" = 1'-0"
140
3.0
141
12.0
290
     0
  0
SCALE
  5
312
102
{ACAD_REACTORS
330
2F2
102
}
330
2F2
100
AcDbScale
 70
     0
300
6" = 1'-0"
140
6.0
141
12.0
290
     0
  0
SCALE
  5
313
102
{ACAD_REACTORS
330
2F2
102
}
330
2F2
100
AcDbScale
 70
     0
300
1'-0" = 1'-0"
140
12.0
141
12.0
290
     0
  0
DICTIONARYVAR
  5
551
102
{ACAD_REACTORS
330
54E
102
}
330
54E
100
DictionaryVariables
280
     0
  1
1:1
  0
ENDSEC
  0
SECTION
  2
THUMBNAILIMAGE
 90
    16364
310
28000000B40000005500000001000800000000000000000000000000000000000000000000000000FFFFFF000000FF0000FFFF0000FF0000FFFF0000FF000000FF00FF000000000080808000C0C0C0000000FF007F7FFF000000A5005252A50000007F003F3F7F0000004C0026264C000000260013132600003FFF007F9FFF
310
000029A5005267A500001F7F003F4F7F0000134C00262F4C000009260013172600007FFF007FBFFF000052A500527CA500003F7F003F5F7F0000264C0026394C0000132600131C260000BFFF007FDFFF00007CA5005291A500005F7F003F6F7F0000394C0026424C00001C26001321260000FFFF007FFFFF0000A5A50052A5
310
A500007F7F003F7F7F00004C4C00264C4C00002626001326260000FFBF007FFFDF0000A57C0052A59100007F5F003F7F6F00004C3900264C420000261C001326210000FF7F007FFFBF0000A5520052A57C00007F3F003F7F5F00004C2600264C39000026130013261C0000FF3F007FFF9F0000A5290052A56700007F1F003F
310
7F4F00004C1300264C2F00002609001326170000FF00007FFF7F0000A5000052A55200007F00003F7F3F00004C0000264C260000260000132613003FFF00009FFF7F0029A5000067A552001F7F00004F7F3F00134C00002F4C260009260000172613007FFF0000BFFF7F0052A500007CA552003F7F00005F7F3F00264C0000
310
394C2600132600001C261300BFFF0000DFFF7F007CA5000091A552005F7F00006F7F3F00394C0000424C26001C26000021261300FFFF0000FFFF7F00A5A50000A5A552007F7F00007F7F3F004C4C00004C4C26002626000026261300FFBF0000FFDF7F00A57C0000A59152007F5F00007F6F3F004C3900004C422600261C00
310
0026211300FF7F0000FFBF7F00A5520000A57C52007F3F00007F5F3F004C2600004C39260026130000261C1300FF3F0000FF9F7F00A5290000A56752007F1F00007F4F3F004C1300004C2F26002609000026171300FF000000FF7F7F00A5000000A55252007F0000007F3F3F004C0000004C2626002600000026131300FF00
310
3F00FF7F9F00A5002900A55267007F001F007F3F4F004C0013004C262F002600090026131700FF007F00FF7FBF00A5005200A5527C007F003F007F3F5F004C0026004C2639002600130026131C00FF00BF00FF7FDF00A5007C00A55291007F005F007F3F6F004C0039004C26420026001C0026132100FF00FF00FF7FFF00A5
310
00A500A552A5007F007F007F3F7F004C004C004C264C002600260026132600BF00FF00DF7FFF007C00A5009152A5005F007F006F3F7F0039004C0042264C001C002600211326007F00FF00BF7FFF005200A5007C52A5003F007F005F3F7F0026004C0039264C00130026001C1326003F00FF009F7FFF002900A5006752A500
310
1F007F004F3F7F0013004C002F264C000900260017132600000000002D2D2D005B5B5B0089898900B7B7B700B3B3B30000000000000000000000000000000000000000000000000000000000000000000000000000000000000000000000000000000000000000000000000000000000000000000000000000000000000000
310
00000000000000000000000000000000000000000000000000000000000000000000000000000000000000000000000000000000000000000000000000000000000000000000000000000000000000000000000000000000000000000000000000000000000000000000000000000000000000000000000000000000000000
310
00000000000000000000000000000000000000000000000000000000000000000000000000000000000000000000000000000000000000000000000000000000000000000000000000000000000000000000000000000000000000000000000000000000000000000000000000000000000000000000000000000000000000
310
00000000000000000000000000000000000000000000000000000000000000000000000000000000000000000000000000000000000000000000000000000000000000000000000000000000000000000000000000000000000000000000000000000000000000000000000000000000000000000007000000000000000000
310
00000000000000000000000000000000000000000000000000000000000000000000000000000000000000000000000000000000000000000000000000000000000000000000000000000000000000000000000000000000000000000000000000000000000000000000000000000000000000000000000000000000000000
310
00000000000000000000000000000000000000000000000000000000000000000000000000000000070707000707070000000000000000000000000000000000000000000000000000000000000000000000000000000000000000000000000000000000000000000000000000000000000000000000000000000000000000
310
00000000000000000000000000000000000000000000000000000000000000000000000000000000000000000000000000000000000000000000000000000000000000000000000000000000000000000000000000000000000000070700000000000000070700000000000000000000000000000000000000000000000000
310
00000000000000000000000000000000000000000000000000000000000000000000000000000000000000000000000000000000000000000000000000000000000000000000000000000000000000000000000000000000000000000000000000000000000000000000000000000000000000000000000000000000000000
310
00000000000000000000000000000000070000000000000000000007000000000000000000000000000000000000000000000000000000000000000000000000000000000000000000000000000000000000000000000000000000000000000000000000000000000000000000000000000000000000000000000000000000
310
00000000000000000000000000000000000000000000000000000000000000000000000000000000000000000000000000000000000000000000000000000000000000000007000000000000000000000007000000000000000000000000000000000000000000000000000000000000000000000000000000000000000000
310
00000000000000000000000000000000000000000000000000000000000000000000000000000000000000000000000000000000000000000000000000000000000000000000000000000000000000000000000000000000000000000000000000000000000000000000000000000000000000000000000000000700000000
310
00000000000000070000000000000000000000000000000000000000000000000000000000000000000000000000000000000000000000000000000000000000000000000000000000000000000000000000000000000000000000000000000000000000000000000000000000000000000000000000000000000000000000
310
00000000000000000000000000000000000000000000000000000000000000000000000000000000000000000000000007000000000000000000000007000000000000000000000000000000000000000000000000000000000000000000000000000000000000000000000000000000000000000000000000000000000000
310
00000000000000000000000000000000000000000000000000000000000000000000000000000000000000000000000000000000000000000000000000000000000000000000000000000000000000000000000000000000000000000000000000000000000700000000000000000000000700000000000000000000000000
310
00000000000000000000000000000000000000000000000000000000000000000000000000000000000000000000000000000000000000000000000000000000000000000000000000000000000000000000000000000000000000000000000000000000000000000000000000000000000000000000000000000000000000
310
00000000000000000000000000000000000000000000000000000007000000000000000000000007000000000000000000000000000000000000000000000000000000000000000000000000000000000000000000000000000000000000000000000000000000000000000000000000000000000000000000000000000000
310
00000000000000000000000000000000000000000000000000000000000000000000000000000000000000000000000000000000000000000000000000000000000000000000000000000000000000000700000000000000000000000700000000000000000000000000000000000000000000000000000000000000000000
310
00000000000000000000000000000000000000000000000000000000000000000000000000000000000000000000000000000000000000000000000000000000000000000000000000000000000000000000000000000000000000000000000000000000000000000000000000000000000000000000000000000000000000
310
00000000000007000000000000000000000007000000000000000000000000000000000000000000000000000000000000000000000000000000000000000000000000000000000000000000000000000000000000000000000000000000000000000000000000000000000000000000000000000000000000000000000000
310
00000000000000000000000000000000000000000000000000000000000000000000000000000000000000000000000000000000000000000000000700000000000000000000000700000000000000000000000000000000000000000000000000000000000000000000000000000000000000000000000000000000000000
310
00000000000000000000000000000000000000000000000000000000000000000000000000000000000000000000000000000000000000000000000000000000000000000000000000000000000000000000000000000000000000000000000000000000000000000000000000000000070000000000000000000000070000
310
00000000000000000000000000000000000000000000000000000000000000000000000000000000000000000000000000000000000000000000000000000000000000000000000000000000000000000000000000000000000000000000000000000000000000000000000000000000000000000000000000000000000000
310
00000000000000000000000000000000000000000000000000000000000000000000000000000700000000000000000000000700000000000000000000000000000000000000000000000000000000000000000000000000000000000000000000000000000000000000000000000000000000000000000000000000000000
310
00000000000000000000000000000000000000000000000000000000000000000000000000000000000000000000000000000000000000000000000000000000000000000000000000000000000000000000000000000000000000070000000000000000000000070000000000000000000000000000000000000000000000
310
00000000000000000000000000000000000000000000000000000000000000000000000000000000000000000000000000000000000000000000000000000000000000000000000000000000000000000000000000000000000000000000000000000000000000000000000000000000000000000000000000000000000000
310
00000000000000000000000000000000000700000000000000000000000700000000000000000000000000000000000000000000000000000000000000000000000000000000000000000000000000000000000000000000000000000000000000000000000000000000000000000000000000000000000000000000000000
310
00000000000000000000000000000000000000000000000000000000000000000000000000000000000000000000000000000000000000000000000000000000000000000000070000000000000000000000070000000000000000000000000000000000000000000000000000000000000000000000000000000000000000
310
00000000000000000000000000000000000000000000000000000000000000000000000000000000000000000000000000000000000000000000000000000000000000000000000000000000000000000000000000000000000000000000000000000000000000000000000000000000000000000000000000000007000000
310
00000000000000000700000000000000000000000000000000000000000000000000000000000000000000000000000000000000000000000000000000000000000000000000000000000000000000000000000000000000000000000000000000000000000000000000000000000000000000000000000000000000000000
310
00000000000000000000000000000000000000000000000000000000000000000000000000000000000000000000000000070000000000000000000000070000000000000000000000000000000000000000000000000000000000000000000000000000000000000000000000000000000000000000000000000000000000
310
00000000000000000000000000000000000000000000000000000000000000000000000000000000000000000000000000000000000000000000000000000000000000000000000000000000000000000000000000000000000000000000000000000000000007000000000000000000000007000000000000000000000000
310
00000000000000000000000000000000000000000000000000000000000000000000000000000000000000000000000000000000000000000000000000000000000000000000000000000000000000000000000000000000000000000000000000000000000000000000000000000000000000000000000000000000000000
310
00000000000000000000000000000000000000000000000000000000070000000000000000000000070000000000000000000000000000000000000000000000000000000000000000000000000000000000000000000000000000000000000000000000000000000000000000000000000000000000000000000000000000
310
00000000000000000000000000000000000000000000000000000000000000000000000000000000000000000000000000000000000000000000000000000000000000000000000000000000000000000007000000000000000000000007000000000000000000000000000000000000000000000000000000000000000000
310
00000000000000000000000000000000000000000000000000000000000000000000000000000000000000000000000000000000000000000000000000000000000000000000000000000000000000000000000000000000000000000000000000000000000000000000000000000000000000000000000000000000000000
310
00000000000000070000000000000000000000070000000000000000000000000000000000000000000000000000000000000000000000000000000000000000000000000000000000000000000000000000000000000000000000000000000000000000000000000000000000000000000000000000000000000000000000
310
00000000000000000000000000000000000000000000000000000000000000000000000000000000000000000000000000000000000000000000000007000000000000000000000007000000000000000000000000000000000000000000000000000000000000000000000000000000000000000000000000000000000000
310
00000000000000000000000000000000000000000000000000000000000000000000000000000000000000000000000000000000000000000000000000000000000000000000000000000000000000000000000000000000000000000000000000000000000000000000000000000000000700000000000000000000000700
310
00000000000000000000000000000000000000000000000000000000000000000000000000000000000000000000000000000000000000000000000000000000000000000000000000000000000000000000000000000000000000000000000000000000000000000000000000000000000000000000000000000000000000
310
00000000000000000000000000000000000000000000000000000000000000000000000000000007000000000000000000000007000000000000000000000000000000000000000000000000000000000000000000000000000000000000000000000000000000000000000000000000000000000000000000000000000000
310
00000000000000000000000000000000000000000000000000000000000000000000000000000000000000000000000000000000000000000000000000000000000000000000000000000000000000000000000000000000000000070000000000000000000000000007000000000000000000000000000000000000000000
310
00000000000000000000000000000000000000000000000000000000000000000000000000000000000000000000000000000000000000000000000000000000000000000000000000000000000000000000000000000000000000000000000000000000000000000000000000000000000000000000000000000000000000
310
00000000000000000000000000000000000700000000000000000000000000070000000000000000000000000000000000000000000000000000000000000000000000000000000000000000000000000000000000000000000000000000000000000000000000000000000000000000000000000000000000000000000000
310
00000000000000000000000000000000000000000000000000000000000000000000000000000000000000000000000000000000000000000000000000000000000000000000070000000000000000000000000007000000000000000000000000000000000000000000000000000000000000000000000000000000000000
310
00000000000000000000000000000000000000000000000000000000000000000000000000000000000000000000000000000000000000000000000000000000000000000000000000000000000000000000000000000000000000000000000000000000000000000000000000000000000000000000000000000007000000
310
00000000000000000000070000000000000000000000000000000000000000000000000000000000000000000000000000000000000000000000000000000000000000000000000000000000000000000000000000000000000000000000000000000000000000000000000000000000000000000000000000000000000000
310
00000000000000000000000000000000000000000000000000000000000000000000000000000000000000000000000000070000000000000000000000000007000000000000000000000000000000000000000000000000000000000000000000000000000000000000000000000000000000000000000000000000000000
310
00000000000000000000000000000000000000000000000000000000000000000000000000000000000000000000000000000000000000000000000000000000000000000000000000000000000000000000000000000000000000000000000000000000000007000000000000000000000000000700000000000000000000
310
00000000000000000000000000000000000000000000000000000000000000000000000000000000000000000000000000000000000000000000000000000000000000000000000000000000000000000000000000000000000000000000000000000000000000000000000000000000000000000000000000000000000000
310
00000000000000000000000000000000000000000000000000000000070000000000000000000000000007000000000000000000000000000000000000000000000000000000000000000000000000000000000000000000000000000000000000000000000000000000000000000000000000000000000000000000000000
310
00000000000000000000000000000000000000000000000000000000000000000000000000000000000000000000000000000000000000000000000000000000000000000000000000000000000000000007000000000000000000000000000700000000000000000000000000000000000000000000000000000000000000
310
00000000000000000000000000000000000000000000000000000000000000000000000000000000000000000000000000000000000000000000000000000000000000000000000000000000000000000000000000000000000000000000000000000000000000000000000000000000000000000000000000000000000000
310
00000000000000070000000000000000000000000007000000000000000000000000000000000000000000000000000000000000000000000000000000000000000000000000000000000000000000000000000000000000000000000000000000000000000000000000000000000000000000000000000000000000000000
310
00000000000000000000000000000000000000000000000000000000000000000000000000000000000000000000000000000000000000000000000007000000000000000000000000000700000000000000000000000000000000000000000000000000000000000000000000000000000000000000000000000000000000
310
00000000000000000000000000000000000000000000000000000000000000000000000000000000000000000000000000000000000000000000000000000000000000000000000000000000000000000000000000000000000000000000000000000000000000000000000000000000000700000000000000000000000000
310
07000000000000000000000000000000000000000000000000000000000000000000000000000000000000000000000000000000000000000000000000000000000000000000000000000000000000000000000000000000000000000000000000000000000000000000000000000000000000000000000000000000000000
310
00000000000000000000000000000000000000000000000000000000000000000000000000000007000000000000000000000000000700000000000000000000000000000000000000000000000000000000000000000000000000000000000000000000000000000000000000000000000000000000000000000000000000
310
00000000000000000000000000000000000000000000000000000000000000000000070707070707070707070707070707070707070707070707070707070707070707070707070707070707070707070707070707070707070707070707070707070707070707070707070707070707070707070707070707070707070707
310
07070707070707070707070707070707070707070707070707070707070707070707070707070000000000000000000000000000000000000000000000000000000000000000000000000000000000000000000000000007000000000000000000000000000000000000000700000000070000000000000000000000000000
310
00000000000000000000000000000000000000000000000000000000000000000000000000000000000000000000000000000000000000000000000000000000000700000000070000000000000000000000000000000000000007000000000000000000000000000000000000000000000000000000000000000000000000
310
00000000000000000000000000070000000000000000000000000000000000000007000000000700000000000000000000000000000000000000000000000000000000000000000000000000000000000000000000000000000000000000000000000000000000000000000000000000000000000000070000000007000000
310
00000000000000000000000000000000070000000000000000000000000000000000000000000000000000000000000000000000000000000000000000000000000007000000000000000000000000000000000000000700000000070000000000000000000000000000000000000000000000000000000000000000000000
310
00000000000000000000000000000000000000000000000000000000000000000000000000000000000000000700000000070000000000000000000000000000000000000007000000000000000000000000000000000000000000000000000000000000000000000000000000000000000000000000000700000000000000
310
00000000000000000000000007000000000700000000000000000000000000000000000000000000000000000000000000000000000000000000000000000000000000000000000000000000000000000000000000000000000000000000000000070000000007000000000000000000000000000000000000000700000000
310
00000000000000000000000000000000000000000000000000000000000000000000000000000000000000000007000000000000000000000000000000000000000700000000070000000000000000000000000000000000000000000000000000000000000000000000000000000000000000000000000000000000000000
310
00000000000000000000000000000000000000000000000700000000070000000000000000000000000000000000000007000000000000000000000000000000000000000000000000000000000000000000000000000000000000000000000000000700000000000000000000000000000000000000070000000007000000
310
00000000000000000000000000000000000000000000000000000000000000000000000000000000000000000000000000000000000000000000000000000000000000000000000000000000070000000007000000000000000000000000000000000000000700000000000000000000000000000000000000000000000000
310
00000000000000000000000000000007070707070707070707000000000000000000000000000000000000000700000000070000000000000000000000000000000000000000000000000000000000000000000000000000000000000000000000000000000000000000000000000000000000000000000000000000000000
310
00000700000000070000000000000000000000000000000000000007070707070707070707000000000000000000000000000000000000000000000000000000000000070700000000000000000700000000000000000000000000000000000000070000000007000000000000000000000000000000000000000000000000
310
00000000000000000000000000000000000000000000000000000000000000000000000000000000000000000000000000000000000000070000000007000000000000000000000000000000000000000700000000000000000707000000000000000000000000000000000000000000000000000000000007070000000000
310
00000007000000000000000000000000000000000000000700000000070000000000000000000000000000000000000000000000000000000000000000000000000000000000000000000000000000000000000000000000000000000000000000000000000000000000000007000000000700000000000000000000000000
310
00000000000007000000000000000007070000000000000000000000000000000000000000000000000000000000000707070707070707070700000000000000000000000000000000000000070000000007000000000000000000000000000000000000000000000000000000000000000000000000000000000000000000
310
00000000000000000000000000000000000000000000000000000000000000000000070000000007000000000000000000000000000000000000000707070707070707070700000000000000000000000000000000000000000000000000000000000000000000000000000000070000000000000000000000000000000000
310
00000700000000070000000000000000000000000000000000000000000000000000000000000000000000000000000000000000000000000000000000000000000000000000000000000000000000000000000000000007000000000700000000000000000000000000000000000000070000000000000000000000000000
310
00000000000000000000000000000000000000000000000000000000000000000000000700000000000000000000000000000000000000070000000007000000000000000000000000000000000000000000000000000000000000000000000000000000000000000000000000000000000000000000000000000000000000
310
00000000000000000000000000070000000007000000000000000000000000000000000000000700000000000000000000000000000000000000000000000000000000000000000000000000000000000000000000000000070000000000000000000000000000000000000007000000000700000000000000000000000000
310
00000000000000000000000000000000000000000000000000000000000000000000000000000000000000000000000000000000000000000000000000000000000007000000000700000000000000000000000000000000000000070000000000000000000000000000000000000000000000000000000000000000000000
310
00000000000000000000000000000700000000000000000000000000000000000000070000000007000000000000000000000000000000000000000000000000000000000000000000000000000000000000000000000000000000000000000000000000000000000000000000000000000000000000000700000000070000
310
00000000000000000000000000000000000700000000000000000000000000000000000000000000000000000000000000000000000000000000000000000000000000070000000000000000000000000000000000000007000000000700000000000000000000000000000000000000000000000000000000000000000000
310
00000000000000000000000000000000000000000000000000000000000000000000000000000000000000000007000000000700000000000000000000000000000000000000070000000000000000000000000000000000000000000000000000000000000000000000000000000000000000000000000007000000000000
310
00000000000000000000000000070000000007000000000000000000000000000000000000000000000000000000000000000000000000000000000000000000000000000000000000000000000000000000000000000000000000000000000000000700000000070000000000000000000000000000000000000007000000
310
00000000000000000000000000000000000000000000000000000000000000000000000000000000000000000000070707070707070707070707070707070707070707070707070707070707070707070707070707070707070707070707070707070707070707070707070707070700070707070707070707070707070707
310
07070707070707070707070707070707070707070707070707070707070707070707070707070707070707070707070707070000000000000000000000000000000000000000000000000000000000000000000000000000000000000000000000000000000000000000000000000000000000000000000000000000000700
310
00000000000000000000000007000000000000000000000000000000000000000000000000000000000000000000000000000000000000000000000000000700000000000000000000000000070000000000000000000000000000000000000000000000000000000000000000000000000000000000000000000000000000
310
00000000000000000000000000000000000000000000000000000000000000000000000000000000000000000000000000000007000000000000000000000000000700000000000000000000000000000000000000000000000000000000000000000000000000000000000000000000000000070000000000000000000000
310
00000700000000000000000000000000000000000000000000000000000000000000000000000000000000000000000000000000000000000000000000000000000000000000000000000000000000000000000000000000000000000000000000000000000000000700000000000000000000000000070000000000000000
310
00000000000000000000000000000000000000000000000000000000000000000000000000000000000700000000000000000000000000070000000000000000000000000000000000000000000000000000000000000000000000000000000000000000000000000000000000000000000000000000000000000000000000
310
00000000000000000000000000000000000000000000000000000000000007000000000000000000000000000700000000000000000000000000000000000000000000000000000000000000000000000000000000000000000000000000070000000000000000000000000007000000000000000000000000000000000000
310
00000000000000000000000000000000000000000000000000000000000000000000000000000000000000000000000000000000000000000000000000000000000000000000000000000000000000000000000700000000000000000000000000070000000000000000000000000000000000000000000000000000000000
310
00000000000000000000000000000000000000000700000000000000000000000000070000000000000000000000000000000000000000000000000000000000000000000000000000000000000000000000000000000000000000000000000000000000000000000000000000000000000000000000000000000000000000
310
00000000000000000007070707070707070707070707070700000000000000000000000000000000000000000000000000000000000000000000000000000000000000000000000000070707070707070707070707070707000000000000000000000000000000000000000000000000000000000000000000000000000000
310
00000000000000000000000000000000000000000000000000000000000000000000000000000000000000000000000000000000000000000000000000000707070707070707070707070707070000000000000000000000000000000000000000000000000000000000000000000000000000000000000000000000000007
310
07070707070707070707070707070000000000000000000000000000000000000000000000000000000000000000000000000000000000000000000000000000000000000000000000000000000000000000000000000000000000000000000000000000000000000000000000000000000000070000000000000000000000
310
00000700000000000000000000000000000000000000000000000000000000000000000000000000000000000000000000000000070000000000000000000000000007000000000000000000000000000000000000000000000000000000000000000000000000000000000000000000000000000000000000000000000000
310
00000000000000000000000000000000000000000000000000000000000000000000000000000000000700000000000000000000000000070000000000000000000000000000000000000000000000000000000000000000000000000000000000000000000000000007000000000000000000000000000700000000000000
310
00000000000000000000000000000000000000000000000000000000000000000000000000000000000000000000000000000000000000000000000000000000000000000000000000000000000000000000000000000000000000000000070000000000000000000000000007000000000000000000000000000000000000
310
00000000000000000000000000000000000000000000000000000000000000070000000000000000000000000007000000000000000000000000000000000000000000000000000000000000000000000000000000000000000000000000000000000000000000000000000000000000000000000000000000000000000000
310
00000000000000000000000000000000000000000700000000000000000000000000070000000000000000000000000000000000000000000000000000000000000000000000000000000000000000000000000007000000000000000000000000000700000000000000000000000000000000000000000000000000000000
310
00000000000000000000000000000000000000000000000000000000000000000000000000000000000000000000000000000000000000000000000000000000000007070707070707070707070707070707070707070707070707070707070000000000000000000000000000000000000000000000000000000000000000
310
00000007070707070707070707070707070707070707070707070707070707070000000000000000000000000000000000000000000000000000000000000000000000000000000000000000000000000000000000000000000000000000000000000000000000000000000000000000000000000000000707070707070707
310
07070707070707070707070707070707070707070707000000000000000000000000000000000000000000000000000000000000000000070707070707070707070707070707070707070707070707070707070707000000000000000000000000000000000000000000000000000000000000000000000000000000000000
310
00000000000000000000000000000000000000000000000000000000000000000000000000000000000000000007000000000000000000000000000000000000000000000000000000000700000000000000000000000000000000000000000000000000000000000000000007000000000000000000000000000000000000
310
00000000000000000000070000000000000000000000000000000000000000000000000000000000000000000000000000000000000000000000000000000000000000000000000000000000000000000000000000000000000000000000000000000700000000000000000000000000000000000000000000000000000000
310
07000000000000000000000000000000000000000000000000000000000000000000070000000000000000000000000000000000000000000000000000000007000000000000000000000000000000000000000000000000000000000000000000000000000000000000000000000000000000000000000000000000000000
310
00000000000000000000000000000000000000000000000007000000000000000000000000000000000000000000000000000000000700000000000000000000000000000000000000000000000000000000000000000007000000000000000000000000000000000000000000000000000000000700000000000000000000
310
00000000000000000000000000000000000000000000000000000000000000000000000000000000000000000000000000000000000000000000000000000000000000000000000000000000000700000000000000000000000000000000000000000000000000000000070000000000000000000000000000000000000000
310
00000000000000000000000000070000000000000000000000000000000000000000000000000000000007000000000000000000000000000000000000000000000000000000000000000000000000000000000000000000000000000000000000000000000000000000000000000000000000000000000000000000000000
310
00000007000000000000000000000000000000000000000000000000000000000700000000000000000000000000000000000000000000000000000000000000000007000000000000000000000000000000000000000000000000000000000700000000000000000000000000000000000000000000000000000000000000
310
00000000000000000000000000000000000000000000000000000000000000000000000000000000000000000000000000000000000000000700000000000000000000000000000000000000000000000000000000070000000000000000000000000000000000000000000000000000000000000000000700000000000000
310
00000000000000000000000000000000000000000007000000000000000000000000000000000000000000000000000000000000000000000000000000000000000000000000000000000000000000000000000000000000000000000000000000000000000000000000000000070000000000000000000000000000000000
310
00000000000000000000000700000000000000000000000000000000000000000000000000000000000000000007000000000000000000000000000000000000000000000000000000000700000000000000000000000000000000000000000000000000000000000000000000000000000000000000000000000000000000
310
00000000000000000000000000000000000000000000000000000000000000000000000700000000000000000000000000000000000000000000000000000000070000000000000000000000000000000000000000000000000000000000000000000700000000000000000000000000000000000000000000000000000000
310
07000000000000000000000000000000000000000000000000000000000000000000000000000000000000000000000000000000000000000000000000000000000000000000000000000000000000000000000000000000070000000000000000000000000000000000000000000000000000000007000000000000000000
310
00000000000000000000000000000000000000000000000007000000000000000000000000000000000000000000000000000000000700000000000000000000000000000000000000000000000000000000000000000000000000000000000000000000000000000000000000000000000000000000000000000000000000
310
00000000000000000000000000000700000000000000000000000000000000000000000000000000000000070000000000000000000000000000000000000000000000000000000000000000000700000000000000000000000000000000000000000000000000000000070000000000000000000000000000000000000000
310
00000000000000000000000000000000000000000000000000000000000000000000000000000000000000000000000000000000000000000000000000000000000000070707070707070707070707070707070707070707070707070707070707000000000000000000000000000000000000000000000000000000000000
310
00000007070707070707070707070707070707070707070707070707070707070700000000000000000000000000000000000000000000000000000000000000000000000000000000000000000000000000000000000000000000000000000000000000000000000000000000000000000000000000000000000000000000
310
00000000000000000000000000000000000000000000000000000000000000000000000000000000000000000000000000000000000000000000000000000000000000000000000000000000000000000000000000000000000000000000000000000000000000000000000000000000000000000000000000000000000000
310
00000000000000000000000000000000000000000000000000000000000000000000000000000000000000000000000000000000000000000000000000000000000000000000000000000000000000000000000000000000000000000000000000000000000000000000000000000000000000000000000000000000000000
310
00000000000000000000000000000000000000000000000000000000000000000000000000000000000000000000000000000000000000000000000000000000000000000000000000000000000000000000000000000000000000000000000000000000000000000000000000000000000000000000000000000000000000
310
000000000000000000000000000000000000000000000000000000000000000000000000000000000000000000000000000000000000000000000000000000000000000000000000000000000000000000000000000000000000000000000000000000000000000000000000
  0
ENDSEC
  0
EOF
