  0
SECTION
  2
HEADER
  9
$ACADVER
  1
AC1015
  9
$ACADMAINTVER
 70
     6
  9
$DWGCODEPAGE
  3
ANSI_1252
  9
$INSBASE
 10
0.0
 20
0.0
 30
0.0
  9
$EXTMIN
 10
-0.126016150375
 20
0.032636828852
 30
0.0
  9
$EXTMAX
 10
54.8146
 20
156.92885
 30
0.0
  9
$LIMMIN
 10
0.0
 20
0.0
  9
$LIMMAX
 10
12.0
 20
9.0
  9
$ORTHOMODE
 70
     0
  9
$REGENMODE
 70
     1
  9
$FILLMODE
 70
     1
  9
$QTEXTMODE
 70
     0
  9
$MIRRTEXT
 70
     1
  9
$LTSCALE
 40
1.0
  9
$ATTMODE
 70
     1
  9
$TEXTSIZE
 40
0.2
  9
$TRACEWID
 40
0.05
  9
$TEXTSTYLE
  7
Standard
  9
$CLAYER
  8
0
  9
$CELTYPE
  6
Continuous
  9
$CECOLOR
 62
   256
  9
$CELTSCALE
 40
1.0
  9
$DISPSILH
 70
     0
  9
$DIMSCALE
 40
1.0
  9
$DIMASZ
 40
0.18
  9
$DIMEXO
 40
0.0625
  9
$DIMDLI
 40
0.38
  9
$DIMRND
 40
0.0
  9
$DIMDLE
 40
0.0
  9
$DIMEXE
 40
0.18
  9
$DIMTP
 40
0.0
  9
$DIMTM
 40
0.0
  9
$DIMTXT
 40
0.18
  9
$DIMCEN
 40
0.09
  9
$DIMTSZ
 40
0.0
  9
$DIMTOL
 70
     0
  9
$DIMLIM
 70
     0
  9
$DIMTIH
 70
     1
  9
$DIMTOH
 70
     1
  9
$DIMSE1
 70
     0
  9
$DIMSE2
 70
     0
  9
$DIMTAD
 70
     0
  9
$DIMZIN
 70
     0
  9
$DIMBLK
  1

  9
$DIMASO
 70
     1
  9
$DIMSHO
 70
     1
  9
$DIMPOST
  1

  9
$DIMAPOST
  1

  9
$DIMALT
 70
     0
  9
$DIMALTD
 70
     2
  9
$DIMALTF
 40
25.4
  9
$DIMLFAC
 40
1.0
  9
$DIMTOFL
 70
     0
  9
$DIMTVP
 40
0.0
  9
$DIMTIX
 70
     0
  9
$DIMSOXD
 70
     0
  9
$DIMSAH
 70
     0
  9
$DIMBLK1
  1

  9
$DIMBLK2
  1

  9
$DIMSTYLE
  2
Standard
  9
$DIMCLRD
 70
     0
  9
$DIMCLRE
 70
     0
  9
$DIMCLRT
 70
     0
  9
$DIMTFAC
 40
1.0
  9
$DIMGAP
 40
0.09
  9
$DIMJUST
 70
     0
  9
$DIMSD1
 70
     0
  9
$DIMSD2
 70
     0
  9
$DIMTOLJ
 70
     1
  9
$DIMTZIN
 70
     0
  9
$DIMALTZ
 70
     0
  9
$DIMALTTZ
 70
     0
  9
$DIMUPT
 70
     0
  9
$DIMDEC
 70
     4
  9
$DIMTDEC
 70
     4
  9
$DIMALTU
 70
     2
  9
$DIMALTTD
 70
     2
  9
$DIMTXSTY
  7
Standard
  9
$DIMAUNIT
 70
     0
  9
$DIMADEC
 70
     0
  9
$DIMALTRND
 40
0.0
  9
$DIMAZIN
 70
     0
  9
$DIMDSEP
 70
    46
  9
$DIMATFIT
 70
     3
  9
$DIMFRAC
 70
     0
  9
$DIMLDRBLK
  1

  9
$DIMLUNIT
 70
     2
  9
$DIMLWD
 70
    -2
  9
$DIMLWE
 70
    -2
  9
$DIMTMOVE
 70
     0
  9
$LUNITS
 70
     2
  9
$LUPREC
 70
     4
  9
$SKETCHINC
 40
0.1
  9
$FILLETRAD
 40
0.0
  9
$AUNITS
 70
     0
  9
$AUPREC
 70
     0
  9
$MENU
  1
.
  9
$ELEVATION
 40
0.0
  9
$PELEVATION
 40
0.0
  9
$THICKNESS
 40
0.0
  9
$LIMCHECK
 70
     0
  9
$CHAMFERA
 40
0.0
  9
$CHAMFERB
 40
0.0
  9
$CHAMFERC
 40
0.0
  9
$CHAMFERD
 40
0.0
  9
$SKPOLY
 70
     0
  9
$TDCREATE
 40
2455654.926275856
  9
$TDUCREATE
 40
2455654.842942523
  9
$TDUPDATE
 40
2455820.882415903
  9
$TDUUPDATE
 40
2455820.799082569
  9
$TDINDWG
 40
0.0096413889
  9
$TDUSRTIMER
 40
0.0096413889
  9
$USRTIMER
 70
     1
  9
$ANGBASE
 50
0.0
  9
$ANGDIR
 70
     0
  9
$PDMODE
 70
     0
  9
$PDSIZE
 40
0.0
  9
$PLINEWID
 40
0.0
  9
$SPLFRAME
 70
     0
  9
$SPLINETYPE
 70
     6
  9
$SPLINESEGS
 70
     8
  9
$HANDSEED
  5
549
  9
$SURFTAB1
 70
     6
  9
$SURFTAB2
 70
     6
  9
$SURFTYPE
 70
     6
  9
$SURFU
 70
     6
  9
$SURFV
 70
     6
  9
$UCSBASE
  2

  9
$UCSNAME
  2

  9
$UCSORG
 10
0.0
 20
0.0
 30
0.0
  9
$UCSXDIR
 10
1.0
 20
0.0
 30
0.0
  9
$UCSYDIR
 10
0.0
 20
1.0
 30
0.0
  9
$UCSORTHOREF
  2

  9
$UCSORTHOVIEW
 70
     1
  9
$UCSORGTOP
 10
0.0
 20
0.0
 30
0.0
  9
$UCSORGBOTTOM
 10
0.0
 20
0.0
 30
0.0
  9
$UCSORGLEFT
 10
0.0
 20
0.0
 30
0.0
  9
$UCSORGRIGHT
 10
0.0
 20
0.0
 30
0.0
  9
$UCSORGFRONT
 10
0.0
 20
0.0
 30
0.0
  9
$UCSORGBACK
 10
0.0
 20
0.0
 30
0.0
  9
$PUCSBASE
  2

  9
$PUCSNAME
  2

  9
$PUCSORG
 10
0.0
 20
0.0
 30
0.0
  9
$PUCSXDIR
 10
1.0
 20
0.0
 30
0.0
  9
$PUCSYDIR
 10
0.0
 20
1.0
 30
0.0
  9
$PUCSORTHOREF
  2

  9
$PUCSORTHOVIEW
 70
     0
  9
$PUCSORGTOP
 10
0.0
 20
0.0
 30
0.0
  9
$PUCSORGBOTTOM
 10
0.0
 20
0.0
 30
0.0
  9
$PUCSORGLEFT
 10
0.0
 20
0.0
 30
0.0
  9
$PUCSORGRIGHT
 10
0.0
 20
0.0
 30
0.0
  9
$PUCSORGFRONT
 10
0.0
 20
0.0
 30
0.0
  9
$PUCSORGBACK
 10
0.0
 20
0.0
 30
0.0
  9
$USERI1
 70
     0
  9
$USERI2
 70
     0
  9
$USERI3
 70
     0
  9
$USERI4
 70
     0
  9
$USERI5
 70
     0
  9
$USERR1
 40
0.0
  9
$USERR2
 40
0.0
  9
$USERR3
 40
0.0
  9
$USERR4
 40
0.0
  9
$USERR5
 40
0.0
  9
$WORLDVIEW
 70
     1
  9
$SHADEDGE
 70
     3
  9
$SHADEDIF
 70
    70
  9
$TILEMODE
 70
     1
  9
$MAXACTVP
 70
    64
  9
$PINSBASE
 10
0.0
 20
0.0
 30
0.0
  9
$PLIMCHECK
 70
     0
  9
$PEXTMIN
 10
1.000000000000E+20
 20
1.000000000000E+20
 30
1.000000000000E+20
  9
$PEXTMAX
 10
-1.000000000000E+20
 20
-1.000000000000E+20
 30
-1.000000000000E+20
  9
$PLIMMIN
 10
0.0
 20
0.0
  9
$PLIMMAX
 10
12.0
 20
9.0
  9
$UNITMODE
 70
     0
  9
$VISRETAIN
 70
     1
  9
$PLINEGEN
 70
     0
  9
$PSLTSCALE
 70
     1
  9
$TREEDEPTH
 70
  3020
  9
$CMLSTYLE
  2
Standard
  9
$CMLJUST
 70
     0
  9
$CMLSCALE
 40
1.0
  9
$PROXYGRAPHICS
 70
     1
  9
$MEASUREMENT
 70
     0
  9
$CELWEIGHT
370
    -1
  9
$ENDCAPS
280
     0
  9
$JOINSTYLE
280
     0
  9
$LWDISPLAY
290
     0
  9
$INSUNITS
 70
     0
  9
$HYPERLINKBASE
  1

  9
$STYLESHEET
  1

  9
$XEDIT
290
     1
  9
$CEPSNTYPE
380
     0
  9
$PSTYLEMODE
290
     1
  9
$FINGERPRINTGUID
  2
{C39966B2-60FB-4BBB-AB1B-8AF3950E716E}
  9
$VERSIONGUID
  2
{33C6A765-C05F-4602-BD1F-75A35AD5D055}
  9
$EXTNAMES
290
     1
  9
$PSVPSCALE
 40
0.0
  9
$OLESTARTUP
290
     0
  0
ENDSEC
  0
SECTION
  2
CLASSES
  0
CLASS
  1
ACDBDICTIONARYWDFLT
  2
AcDbDictionaryWithDefault
  3
ObjectDBX Classes
 90
        0
280
     0
281
     0
  0
CLASS
  1
ACDBPLACEHOLDER
  2
AcDbPlaceHolder
  3
ObjectDBX Classes
 90
        0
280
     0
281
     0
  0
CLASS
  1
LAYOUT
  2
AcDbLayout
  3
ObjectDBX Classes
 90
        0
280
     0
281
     0
  0
CLASS
  1
DICTIONARYVAR
  2
AcDbDictionaryVar
  3
ObjectDBX Classes
 90
        0
280
     0
281
     0
  0
CLASS
  1
SCALE
  2
AcDbScale
  3
ObjectDBX Classes
 90
     1153
280
     0
281
     0
  0
ENDSEC
  0
SECTION
  2
TABLES
  0
TABLE
  2
VPORT
  5
8
330
0
100
AcDbSymbolTable
 70
     1
  0
VPORT
  5
520
330
8
100
AcDbSymbolTableRecord
100
AcDbViewportTableRecord
  2
*Active
 70
     0
 10
0.0
 20
0.0
 11
1.0
 21
1.0
 12
27.344291924812
 22
78.480743414426
 13
0.0
 23
0.0
 14
1.0
 24
1.0
 15
0.0
 25
0.0
 16
0.0
 26
0.0
 36
1.0
 17
0.0
 27
0.0
 37
0.0
 40
157.957517882565
 41
2.073363431151
 42
50.0
 43
0.0
 44
0.0
 50
0.0
 51
0.0
 71
     0
 72
   100
 73
     1
 74
     3
 75
     0
 76
     0
 77
     0
 78
     0
281
     0
 65
     1
110
0.0
120
0.0
130
0.0
111
1.0
121
0.0
131
0.0
112
0.0
122
1.0
132
0.0
 79
     1
146
0.0
  0
ENDTAB
  0
TABLE
  2
LTYPE
  5
5
330
0
100
AcDbSymbolTable
 70
     1
  0
LTYPE
  5
13
330
5
100
AcDbSymbolTableRecord
100
AcDbLinetypeTableRecord
  2
ByBlock
 70
     0
  3

 72
    65
 73
     0
 40
0.0
  0
LTYPE
  5
14
330
5
100
AcDbSymbolTableRecord
100
AcDbLinetypeTableRecord
  2
ByLayer
 70
     0
  3

 72
    65
 73
     0
 40
0.0
  0
LTYPE
  5
15
330
5
100
AcDbSymbolTableRecord
100
AcDbLinetypeTableRecord
  2
Continuous
 70
     0
  3
Solid line
 72
    65
 73
     0
 40
0.0
  0
ENDTAB
  0
TABLE
  2
LAYER
  5
2
330
0
100
AcDbSymbolTable
 70
     1
  0
LAYER
  5
10
330
2
100
AcDbSymbolTableRecord
100
AcDbLayerTableRecord
  2
0
 70
     0
 62
     7
  6
Continuous
370
    -3
390
F
  0
ENDTAB
  0
TABLE
  2
STYLE
  5
3
330
0
100
AcDbSymbolTable
 70
     1
  0
STYLE
  5
11
330
3
100
AcDbSymbolTableRecord
100
AcDbTextStyleTableRecord
  2
Standard
 70
     0
 40
0.0
 41
1.0
 50
0.0
 71
     0
 42
0.2
  3
txt
  4

  0
ENDTAB
  0
TABLE
  2
VIEW
  5
6
330
0
100
AcDbSymbolTable
 70
     0
  0
ENDTAB
  0
TABLE
  2
UCS
  5
7
330
0
100
AcDbSymbolTable
 70
     0
  0
ENDTAB
  0
TABLE
  2
APPID
  5
9
330
0
100
AcDbSymbolTable
 70
     1
  0
APPID
  5
12
330
9
100
AcDbSymbolTableRecord
100
AcDbRegAppTableRecord
  2
ACAD
 70
     0
  0
ENDTAB
  0
TABLE
  2
DIMSTYLE
  5
A
330
0
100
AcDbSymbolTable
 70
     1
100
AcDbDimStyleTable
  0
DIMSTYLE
105
39F
330
A
100
AcDbSymbolTableRecord
100
AcDbDimStyleTableRecord
  2
Standard
 70
     0
340
11
  0
ENDTAB
  0
TABLE
  2
BLOCK_RECORD
  5
1
330
0
100
AcDbSymbolTable
 70
     0
  0
BLOCK_RECORD
  5
1E
330
1
100
AcDbSymbolTableRecord
100
AcDbBlockTableRecord
  2
*Model_Space
340
21
  0
BLOCK_RECORD
  5
1A
330
1
100
AcDbSymbolTableRecord
100
AcDbBlockTableRecord
  2
*Paper_Space
340
1D
  0
ENDTAB
  0
ENDSEC
  0
SECTION
  2
BLOCKS
  0
BLOCK
  5
1F
330
1E
100
AcDbEntity
  8
0
100
AcDbBlockBegin
  2
*Model_Space
 70
     0
 10
0.0
 20
0.0
 30
0.0
  3
*Model_Space
  1
*Model_Space
  0
ENDBLK
  5
20
330
1E
100
AcDbEntity
  8
0
100
AcDbBlockEnd
  0
BLOCK
  5
1B
330
1A
100
AcDbEntity
 67
     1
  8
0
100
AcDbBlockBegin
  2
*Paper_Space
 70
     0
 10
0.0
 20
0.0
 30
0.0
  3
*Paper_Space
  1
*Paper_Space
  0
ENDBLK
  5
1C
330
1A
100
AcDbEntity
 67
     1
  8
0
100
AcDbBlockEnd
  0
ENDSEC
  0
SECTION
  2
ENTITIES
  0
LINE
  5
11E
330
1E
100
AcDbEntity
  8
0
100
AcDbLine
 10
20.7974
 20
0.07115
 30
0.0
 11
22.4214
 21
0.07115
 31
0.0
  0
LINE
  5
11F
330
1E
100
AcDbEntity
  8
0
100
AcDbLine
 10
21.4064
 20
0.07115
 30
0.0
 11
22.3934
 21
0.07115
 31
0.0
  0
LINE
  5
120
330
1E
100
AcDbEntity
  8
0
100
AcDbLine
 10
21.2844
 20
0.07115
 30
0.0
 11
22.1384
 21
0.07115
 31
0.0
  0
LINE
  5
121
330
1E
100
AcDbEntity
  8
0
100
AcDbLine
 10
21.2844
 20
0.07115
 30
0.0
 11
22.1384
 21
0.07115
 31
0.0
  0
LINE
  5
122
330
1E
100
AcDbEntity
  8
0
100
AcDbLine
 10
20.4504
 20
0.07115
 30
0.0
 11
21.4064
 21
0.07115
 31
0.0
  0
LINE
  5
124
330
1E
100
AcDbEntity
  8
0
100
AcDbLine
 10
20.4504
 20
0.07115
 30
0.0
 11
21.4064
 21
0.07115
 31
0.0
  0
LINE
  5
125
330
1E
100
AcDbEntity
  8
0
100
AcDbLine
 10
20.3034
 20
0.36995
 30
0.0
 11
21.2564
 21
0.36995
 31
0.0
  0
LINE
  5
127
330
1E
100
AcDbEntity
  8
0
100
AcDbLine
 10
21.2564
 20
0.36995
 30
0.0
 11
22.2384
 21
0.36995
 31
0.0
  0
LINE
  5
12B
330
1E
100
AcDbEntity
  8
0
100
AcDbLine
 10
21.4064
 20
0.07115
 30
0.0
 11
22.3934
 21
0.07115
 31
0.0
  0
LINE
  5
12E
330
1E
100
AcDbEntity
  8
0
100
AcDbLine
 10
20.4694
 20
0.07115
 30
0.0
 11
21.2844
 21
0.07115
 31
0.0
  0
LINE
  5
150
330
1E
100
AcDbEntity
  8
0
100
AcDbLine
 10
22.4214
 20
0.07115
 30
0.0
 11
24.1854
 21
0.07115
 31
0.0
  0
LINE
  5
151
330
1E
100
AcDbEntity
  8
0
100
AcDbLine
 10
22.3934
 20
0.07115
 30
0.0
 11
23.3994
 21
0.07115
 31
0.0
  0
LINE
  5
152
330
1E
100
AcDbEntity
  8
0
100
AcDbLine
 10
23.3994
 20
0.07115
 30
0.0
 11
24.1854
 21
0.07115
 31
0.0
  0
LINE
  5
153
330
1E
100
AcDbEntity
  8
0
100
AcDbLine
 10
23.9174
 20
0.07115
 30
0.0
 11
24.1854
 21
0.07115
 31
0.0
  0
LINE
  5
154
330
1E
100
AcDbEntity
  8
0
100
AcDbLine
 10
23.0204
 20
0.07115
 30
0.0
 11
23.9174
 21
0.07115
 31
0.0
  0
LINE
  5
155
330
1E
100
AcDbEntity
  8
0
100
AcDbLine
 10
22.1384
 20
0.07115
 30
0.0
 11
23.0204
 21
0.07115
 31
0.0
  0
LINE
  5
157
330
1E
100
AcDbEntity
  8
0
100
AcDbLine
 10
23.0204
 20
0.07115
 30
0.0
 11
23.9174
 21
0.07115
 31
0.0
  0
LINE
  5
158
330
1E
100
AcDbEntity
  8
0
100
AcDbLine
 10
22.3934
 20
0.07115
 30
0.0
 11
23.3994
 21
0.07115
 31
0.0
  0
LINE
  5
159
330
1E
100
AcDbEntity
  8
0
100
AcDbLine
 10
22.2384
 20
0.36995
 30
0.0
 11
23.2404
 21
0.36995
 31
0.0
  0
LINE
  5
15A
330
1E
100
AcDbEntity
  8
0
100
AcDbLine
 10
23.2404
 20
18.3948
 30
0.0
 11
24.1854
 21
18.3948
 31
0.0
  0
LINE
  5
15B
330
1E
100
AcDbEntity
  8
0
100
AcDbLine
 10
23.2404
 20
0.36995
 30
0.0
 11
24.1854
 21
0.36995
 31
0.0
  0
LINE
  5
16B
330
1E
100
AcDbEntity
  8
0
100
AcDbLine
 10
23.2964
 20
18.59397
 30
0.0
 11
24.1854
 21
18.59397
 31
0.0
  0
LINE
  5
16C
330
1E
100
AcDbEntity
  8
0
100
AcDbLine
 10
23.2964
 20
18.59397
 30
0.0
 11
23.7434
 21
18.59397
 31
0.0
  0
LINE
  5
16F
330
1E
100
AcDbEntity
  8
0
100
AcDbLine
 10
23.9174
 20
0.07115
 30
0.0
 11
24.1854
 21
0.07115
 31
0.0
  0
LINE
  5
170
330
1E
100
AcDbEntity
  8
0
100
AcDbLine
 10
23.3994
 20
0.07115
 30
0.0
 11
24.1854
 21
0.07115
 31
0.0
  0
LINE
  5
171
330
1E
100
AcDbEntity
  8
0
100
AcDbLine
 10
23.3624
 20
24.03729
 30
0.0
 11
24.1254
 21
24.07115
 31
0.0
  0
LINE
  5
175
330
1E
100
AcDbEntity
  8
0
100
AcDbLine
 10
23.7434
 20
18.59397
 30
0.0
 11
24.1854
 21
18.59397
 31
0.0
  0
LINE
  5
179
330
1E
100
AcDbEntity
  8
0
100
AcDbLine
 10
23.7434
 20
18.59397
 30
0.0
 11
24.1854
 21
18.59397
 31
0.0
  0
LINE
  5
17A
330
1E
100
AcDbEntity
  8
0
100
AcDbLine
 10
23.2964
 20
18.59397
 30
0.0
 11
24.1854
 21
18.59397
 31
0.0
  0
LINE
  5
17B
330
1E
100
AcDbEntity
  8
0
100
AcDbLine
 10
23.2964
 20
18.59397
 30
0.0
 11
23.7434
 21
18.59397
 31
0.0
  0
LINE
  5
17C
330
1E
100
AcDbEntity
  8
0
100
AcDbLine
 10
22.1384
 20
0.07115
 30
0.0
 11
23.0204
 21
0.07115
 31
0.0
  0
LINE
  5
17D
330
1E
100
AcDbEntity
  8
0
100
AcDbLine
 10
24.1854
 20
0.07115
 30
0.0
 11
24.9714
 21
0.07115
 31
0.0
  0
LINE
  5
17E
330
1E
100
AcDbEntity
  8
0
100
AcDbLine
 10
24.1854
 20
0.07115
 30
0.0
 11
24.4534
 21
0.07115
 31
0.0
  0
LINE
  5
17F
330
1E
100
AcDbEntity
  8
0
100
AcDbLine
 10
24.1854
 20
18.3948
 30
0.0
 11
25.1304
 21
18.3948
 31
0.0
  0
LINE
  5
180
330
1E
100
AcDbEntity
  8
0
100
AcDbLine
 10
24.1854
 20
0.36995
 30
0.0
 11
25.1304
 21
0.36995
 31
0.0
  0
LINE
  5
181
330
1E
100
AcDbEntity
  8
0
100
AcDbLine
 10
24.1854
 20
0.07115
 30
0.0
 11
24.4534
 21
0.07115
 31
0.0
  0
LINE
  5
182
330
1E
100
AcDbEntity
  8
0
100
AcDbLine
 10
24.1854
 20
0.07115
 30
0.0
 11
24.9714
 21
0.07115
 31
0.0
  0
LINE
  5
183
330
1E
100
AcDbEntity
  8
0
100
AcDbLine
 10
24.1854
 20
0.07115
 30
0.0
 11
25.9494
 21
0.07115
 31
0.0
  0
LINE
  5
184
330
1E
100
AcDbEntity
  8
0
100
AcDbLine
 10
24.1254
 20
24.07115
 30
0.0
 11
24.1854
 21
24.07115
 31
0.0
  0
LINE
  5
185
330
1E
100
AcDbEntity
  8
0
100
AcDbLine
 10
24.1854
 20
24.07115
 30
0.0
 11
24.2454
 21
24.07115
 31
0.0
  0
LINE
  5
189
330
1E
100
AcDbEntity
  8
0
100
AcDbLine
 10
24.1854
 20
18.59397
 30
0.0
 11
25.0744
 21
18.59397
 31
0.0
  0
LINE
  5
18A
330
1E
100
AcDbEntity
  8
0
100
AcDbLine
 10
24.1854
 20
18.59397
 30
0.0
 11
24.6274
 21
18.59397
 31
0.0
  0
LINE
  5
18C
330
1E
100
AcDbEntity
  8
0
100
AcDbLine
 10
24.1854
 20
18.59397
 30
0.0
 11
25.0744
 21
18.59397
 31
0.0
  0
LINE
  5
18D
330
1E
100
AcDbEntity
  8
0
100
AcDbLine
 10
24.1854
 20
18.59397
 30
0.0
 11
24.6274
 21
18.59397
 31
0.0
  0
LINE
  5
18E
330
1E
100
AcDbEntity
  8
0
100
AcDbLine
 10
24.0442
 20
26.60685
 30
0.0
 11
24.1854
 21
26.60685
 31
0.0
  0
LINE
  5
190
330
1E
100
AcDbEntity
  8
0
100
AcDbLine
 10
24.1854
 20
26.60685
 30
0.0
 11
24.3266
 21
26.60685
 31
0.0
  0
LINE
  5
191
330
1E
100
AcDbEntity
  8
0
100
AcDbLine
 10
24.4534
 20
0.07115
 30
0.0
 11
25.3504
 21
0.07115
 31
0.0
  0
LINE
  5
192
330
1E
100
AcDbEntity
  8
0
100
AcDbLine
 10
24.4534
 20
0.07115
 30
0.0
 11
25.3504
 21
0.07115
 31
0.0
  0
LINE
  5
193
330
1E
100
AcDbEntity
  8
0
100
AcDbLine
 10
24.9714
 20
0.07115
 30
0.0
 11
25.9774
 21
0.07115
 31
0.0
  0
LINE
  5
194
330
1E
100
AcDbEntity
  8
0
100
AcDbLine
 10
25.1304
 20
18.3948
 30
0.0
 11
26.1324
 21
18.3948
 31
0.0
  0
LINE
  5
195
330
1E
100
AcDbEntity
  8
0
100
AcDbLine
 10
25.1304
 20
0.36995
 30
0.0
 11
26.1324
 21
0.36995
 31
0.0
  0
LINE
  5
196
330
1E
100
AcDbEntity
  8
0
100
AcDbLine
 10
24.9714
 20
0.07115
 30
0.0
 11
25.9774
 21
0.07115
 31
0.0
  0
LINE
  5
197
330
1E
100
AcDbEntity
  8
0
100
AcDbLine
 10
25.3504
 20
0.07115
 30
0.0
 11
26.2324
 21
0.07115
 31
0.0
  0
LINE
  5
198
330
1E
100
AcDbEntity
  8
0
100
AcDbLine
 10
25.3504
 20
0.07115
 30
0.0
 11
26.2324
 21
0.07115
 31
0.0
  0
LINE
  5
199
330
1E
100
AcDbEntity
  8
0
100
AcDbLine
 10
25.0744
 20
18.59397
 30
0.0
 11
26.0464
 21
18.59397
 31
0.0
  0
LINE
  5
19A
330
1E
100
AcDbEntity
  8
0
100
AcDbLine
 10
25.9494
 20
0.07115
 30
0.0
 11
27.5734
 21
0.07115
 31
0.0
  0
LINE
  5
19B
330
1E
100
AcDbEntity
  8
0
100
AcDbLine
 10
25.9774
 20
0.07115
 30
0.0
 11
26.9644
 21
0.07115
 31
0.0
  0
LINE
  5
19C
330
1E
100
AcDbEntity
  8
0
100
AcDbLine
 10
25.9774
 20
0.07115
 30
0.0
 11
26.9644
 21
0.07115
 31
0.0
  0
LINE
  5
19D
330
1E
100
AcDbEntity
  8
0
100
AcDbLine
 10
26.9644
 20
0.07115
 30
0.0
 11
27.9204
 21
0.07115
 31
0.0
  0
LINE
  5
19E
330
1E
100
AcDbEntity
  8
0
100
AcDbLine
 10
26.1324
 20
18.3948
 30
0.0
 11
27.1144
 21
18.3948
 31
0.0
  0
LINE
  5
19F
330
1E
100
AcDbEntity
  8
0
100
AcDbLine
 10
26.9644
 20
0.07115
 30
0.0
 11
27.9204
 21
0.07115
 31
0.0
  0
LINE
  5
1A0
330
1E
100
AcDbEntity
  8
0
100
AcDbLine
 10
26.2324
 20
0.07115
 30
0.0
 11
27.0864
 21
0.07115
 31
0.0
  0
LINE
  5
1A1
330
1E
100
AcDbEntity
  8
0
100
AcDbLine
 10
26.1324
 20
0.36995
 30
0.0
 11
27.1144
 21
0.36995
 31
0.0
  0
LINE
  5
1A2
330
1E
100
AcDbEntity
  8
0
100
AcDbLine
 10
26.2324
 20
0.07115
 30
0.0
 11
27.0864
 21
0.07115
 31
0.0
  0
LINE
  5
1A3
330
1E
100
AcDbEntity
  8
0
100
AcDbLine
 10
26.0464
 20
18.59397
 30
0.0
 11
27.0004
 21
18.59397
 31
0.0
  0
LINE
  5
1A4
330
1E
100
AcDbEntity
  8
0
100
AcDbLine
 10
26.2264
 20
18.59397
 30
0.0
 11
26.9924
 21
18.59397
 31
0.0
  0
LINE
  5
1A5
330
1E
100
AcDbEntity
  8
0
100
AcDbLine
 10
25.4344
 20
18.59397
 30
0.0
 11
26.2264
 21
18.59397
 31
0.0
  0
LINE
  5
1A6
330
1E
100
AcDbEntity
  8
0
100
AcDbLine
 10
24.6274
 20
18.59397
 30
0.0
 11
25.0744
 21
18.59397
 31
0.0
  0
LINE
  5
1A7
330
1E
100
AcDbEntity
  8
0
100
AcDbLine
 10
24.6274
 20
18.59397
 30
0.0
 11
25.4344
 21
18.59397
 31
0.0
  0
LINE
  5
1A8
330
1E
100
AcDbEntity
  8
0
100
AcDbLine
 10
24.6274
 20
18.59397
 30
0.0
 11
26.0464
 21
18.59397
 31
0.0
  0
LINE
  5
1A9
330
1E
100
AcDbEntity
  8
0
100
AcDbLine
 10
25.4344
 20
18.59397
 30
0.0
 11
26.2264
 21
18.59397
 31
0.0
  0
LINE
  5
1AA
330
1E
100
AcDbEntity
  8
0
100
AcDbLine
 10
26.2264
 20
18.59397
 30
0.0
 11
26.9924
 21
18.59397
 31
0.0
  0
LINE
  5
1AB
330
1E
100
AcDbEntity
  8
0
100
AcDbLine
 10
26.0464
 20
18.59397
 30
0.0
 11
27.0004
 21
18.59397
 31
0.0
  0
LINE
  5
1AC
330
1E
100
AcDbEntity
  8
0
100
AcDbLine
 10
25.0744
 20
18.59397
 30
0.0
 11
26.0464
 21
18.59397
 31
0.0
  0
LINE
  5
1AE
330
1E
100
AcDbEntity
  8
0
100
AcDbLine
 10
24.2454
 20
24.07115
 30
0.0
 11
25.0084
 21
24.03729
 31
0.0
  0
LINE
  5
1B0
330
1E
100
AcDbEntity
  8
0
100
AcDbLine
 10
26.0564
 20
24.07115
 30
0.0
 11
26.9374
 21
24.07115
 31
0.0
  0
LINE
  5
1B1
330
1E
100
AcDbEntity
  8
0
100
AcDbLine
 10
25.1564
 20
24.07115
 30
0.0
 11
26.0564
 21
24.07115
 31
0.0
  0
LINE
  5
1B2
330
1E
100
AcDbEntity
  8
0
100
AcDbLine
 10
25.0084
 20
24.03729
 30
0.0
 11
25.1564
 21
24.07115
 31
0.0
  0
LINE
  5
1B9
330
1E
100
AcDbEntity
  8
0
100
AcDbLine
 10
26.9924
 20
18.59397
 30
0.0
 11
27.7234
 21
18.59397
 31
0.0
  0
LINE
  5
1BA
330
1E
100
AcDbEntity
  8
0
100
AcDbLine
 10
26.9374
 20
24.07115
 30
0.0
 11
27.7904
 21
24.07115
 31
0.0
  0
LINE
  5
1BD
330
1E
100
AcDbEntity
  8
0
100
AcDbLine
 10
24.6274
 20
18.59397
 30
0.0
 11
25.4344
 21
18.59397
 31
0.0
  0
LINE
  5
1BE
330
1E
100
AcDbEntity
  8
0
100
AcDbLine
 10
24.6274
 20
18.59397
 30
0.0
 11
26.0464
 21
18.59397
 31
0.0
  0
LINE
  5
1BF
330
1E
100
AcDbEntity
  8
0
100
AcDbLine
 10
24.6274
 20
18.59397
 30
0.0
 11
25.0744
 21
18.59397
 31
0.0
  0
LINE
  5
1C0
330
1E
100
AcDbEntity
  8
0
100
AcDbLine
 10
27.5734
 20
0.07115
 30
0.0
 11
29.0014
 21
0.07115
 31
0.0
  0
LINE
  5
1C1
330
1E
100
AcDbEntity
  8
0
100
AcDbLine
 10
27.9204
 20
0.07115
 30
0.0
 11
28.8354
 21
0.07115
 31
0.0
  0
LINE
  5
1C2
330
1E
100
AcDbEntity
  8
0
100
AcDbLine
 10
27.9014
 20
0.07115
 30
0.0
 11
28.6654
 21
0.07115
 31
0.0
  0
LINE
  5
1C3
330
1E
100
AcDbEntity
  8
0
100
AcDbLine
 10
27.1144
 20
18.3948
 30
0.0
 11
28.0674
 21
18.3948
 31
0.0
  0
LINE
  5
1C4
330
1E
100
AcDbEntity
  8
0
100
AcDbLine
 10
27.9204
 20
0.07115
 30
0.0
 11
28.8354
 21
0.07115
 31
0.0
  0
LINE
  5
1C5
330
1E
100
AcDbEntity
  8
0
100
AcDbLine
 10
27.1144
 20
0.36995
 30
0.0
 11
28.0674
 21
0.36995
 31
0.0
  0
LINE
  5
1C6
330
1E
100
AcDbEntity
  8
0
100
AcDbLine
 10
28.0674
 20
18.3948
 30
0.0
 11
28.9794
 21
18.3948
 31
0.0
  0
LINE
  5
1C7
330
1E
100
AcDbEntity
  8
0
100
AcDbLine
 10
28.0674
 20
0.36995
 30
0.0
 11
28.9794
 21
0.36995
 31
0.0
  0
LINE
  5
1C8
330
1E
100
AcDbEntity
  8
0
100
AcDbLine
 10
27.0864
 20
0.07115
 30
0.0
 11
27.9014
 21
0.07115
 31
0.0
  0
LINE
  5
1C9
330
1E
100
AcDbEntity
  8
0
100
AcDbLine
 10
27.0004
 20
18.59397
 30
0.0
 11
27.9274
 21
18.59397
 31
0.0
  0
LINE
  5
1CA
330
1E
100
AcDbEntity
  8
0
100
AcDbLine
 10
27.9274
 20
18.59397
 30
0.0
 11
28.8184
 21
18.59397
 31
0.0
  0
LINE
  5
1CB
330
1E
100
AcDbEntity
  8
0
100
AcDbLine
 10
28.6654
 20
0.07115
 30
0.0
 11
29.3694
 21
0.07115
 31
0.0
  0
LINE
  5
1CC
330
1E
100
AcDbEntity
  8
0
100
AcDbLine
 10
29.0014
 20
0.07115
 30
0.0
 11
30.0934
 21
0.07115
 31
0.0
  0
LINE
  5
1CD
330
1E
100
AcDbEntity
  8
0
100
AcDbLine
 10
29.3694
 20
0.07115
 30
0.0
 11
30.0034
 21
0.07115
 31
0.0
  0
LINE
  5
1CE
330
1E
100
AcDbEntity
  8
0
100
AcDbLine
 10
28.8354
 20
0.07115
 30
0.0
 11
29.7004
 21
0.07115
 31
0.0
  0
LINE
  5
1CF
330
1E
100
AcDbEntity
  8
0
100
AcDbLine
 10
28.9794
 20
18.3948
 30
0.0
 11
29.8424
 21
18.3948
 31
0.0
  0
LINE
  5
1D0
330
1E
100
AcDbEntity
  8
0
100
AcDbLine
 10
28.9794
 20
0.36995
 30
0.0
 11
29.8424
 21
0.36995
 31
0.0
  0
LINE
  5
1D1
330
1E
100
AcDbEntity
  8
0
100
AcDbLine
 10
28.8354
 20
0.07115
 30
0.0
 11
29.7004
 21
0.07115
 31
0.0
  0
LINE
  5
1D2
330
1E
100
AcDbEntity
  8
0
100
AcDbLine
 10
29.7004
 20
0.07115
 30
0.0
 11
30.5044
 21
0.07115
 31
0.0
  0
LINE
  5
1D3
330
1E
100
AcDbEntity
  8
0
100
AcDbLine
 10
29.8424
 20
18.3948
 30
0.0
 11
30.6484
 21
18.3948
 31
0.0
  0
LINE
  5
1D4
330
1E
100
AcDbEntity
  8
0
100
AcDbLine
 10
29.8424
 20
0.36995
 30
0.0
 11
30.6484
 21
0.36995
 31
0.0
  0
LINE
  5
1D5
330
1E
100
AcDbEntity
  8
0
100
AcDbLine
 10
29.7004
 20
0.07115
 30
0.0
 11
30.5044
 21
0.07115
 31
0.0
  0
LINE
  5
1D6
330
1E
100
AcDbEntity
  8
0
100
AcDbLine
 10
30.0934
 20
0.07115
 30
0.0
 11
30.7654
 21
0.07115
 31
0.0
  0
LINE
  5
1D7
330
1E
100
AcDbEntity
  8
0
100
AcDbLine
 10
30.0034
 20
0.07115
 30
0.0
 11
30.5584
 21
0.07115
 31
0.0
  0
LINE
  5
1D8
330
1E
100
AcDbEntity
  8
0
100
AcDbLine
 10
30.1184
 20
18.59397
 30
0.0
 11
30.5474
 21
18.59397
 31
0.0
  0
LINE
  5
1D9
330
1E
100
AcDbEntity
  8
0
100
AcDbLine
 10
29.6144
 20
18.59397
 30
0.0
 11
30.1184
 21
18.59397
 31
0.0
  0
LINE
  5
1DA
330
1E
100
AcDbEntity
  8
0
100
AcDbLine
 10
29.6654
 20
18.59397
 30
0.0
 11
30.4584
 21
18.59397
 31
0.0
  0
LINE
  5
1DB
330
1E
100
AcDbEntity
  8
0
100
AcDbLine
 10
28.8184
 20
18.59397
 30
0.0
 11
29.6654
 21
18.59397
 31
0.0
  0
LINE
  5
1DC
330
1E
100
AcDbEntity
  8
0
100
AcDbLine
 10
29.0434
 20
18.59397
 30
0.0
 11
29.6144
 21
18.59397
 31
0.0
  0
LINE
  5
1DD
330
1E
100
AcDbEntity
  8
0
100
AcDbLine
 10
28.4094
 20
18.59397
 30
0.0
 11
29.0434
 21
18.59397
 31
0.0
  0
LINE
  5
1DE
330
1E
100
AcDbEntity
  8
0
100
AcDbLine
 10
27.7234
 20
18.59397
 30
0.0
 11
28.4094
 21
18.59397
 31
0.0
  0
LINE
  5
1DF
330
1E
100
AcDbEntity
  8
0
100
AcDbLine
 10
27.9274
 20
18.59397
 30
0.0
 11
28.8184
 21
18.59397
 31
0.0
  0
LINE
  5
1E0
330
1E
100
AcDbEntity
  8
0
100
AcDbLine
 10
27.7904
 20
24.07115
 30
0.0
 11
28.6054
 21
24.07115
 31
0.0
  0
LINE
  5
1E3
330
1E
100
AcDbEntity
  8
0
100
AcDbLine
 10
27.0004
 20
18.59397
 30
0.0
 11
27.9274
 21
18.59397
 31
0.0
  0
LINE
  5
1E5
330
1E
100
AcDbEntity
  8
0
100
AcDbLine
 10
30.1184
 20
18.59397
 30
0.0
 11
30.5474
 21
18.59397
 31
0.0
  0
LINE
  5
1E6
330
1E
100
AcDbEntity
  8
0
100
AcDbLine
 10
29.6144
 20
18.59397
 30
0.0
 11
30.1184
 21
18.59397
 31
0.0
  0
LINE
  5
1E7
330
1E
100
AcDbEntity
  8
0
100
AcDbLine
 10
29.6654
 20
18.59397
 30
0.0
 11
30.4584
 21
18.59397
 31
0.0
  0
LINE
  5
1E8
330
1E
100
AcDbEntity
  8
0
100
AcDbLine
 10
28.8184
 20
18.59397
 30
0.0
 11
29.6654
 21
18.59397
 31
0.0
  0
LINE
  5
1E9
330
1E
100
AcDbEntity
  8
0
100
AcDbLine
 10
29.3764
 20
24.07115
 30
0.0
 11
30.0934
 21
24.07115
 31
0.0
  0
LINE
  5
1EA
330
1E
100
AcDbEntity
  8
0
100
AcDbLine
 10
28.6054
 20
24.07115
 30
0.0
 11
29.3764
 21
24.07115
 31
0.0
  0
LINE
  5
1EB
330
1E
100
AcDbEntity
  8
0
100
AcDbLine
 10
30.1854
 20
24.07115
 30
0.0
 11
30.1854
 21
26.60685
 31
0.0
  0
LINE
  5
1EC
330
1E
100
AcDbEntity
  8
0
100
AcDbLine
 10
30.0934
 20
24.07115
 30
0.0
 11
30.7494
 21
24.07115
 31
0.0
  0
LINE
  5
1ED
330
1E
100
AcDbEntity
  8
0
100
AcDbLine
 10
29.0434
 20
18.59397
 30
0.0
 11
29.6144
 21
18.59397
 31
0.0
  0
LINE
  5
1EE
330
1E
100
AcDbEntity
  8
0
100
AcDbLine
 10
28.4094
 20
18.59397
 30
0.0
 11
29.0434
 21
18.59397
 31
0.0
  0
LINE
  5
1EF
330
1E
100
AcDbEntity
  8
0
100
AcDbLine
 10
27.7234
 20
18.59397
 30
0.0
 11
28.4094
 21
18.59397
 31
0.0
  0
LINE
  5
1F0
330
1E
100
AcDbEntity
  8
0
100
AcDbLine
 10
26.9924
 20
18.59397
 30
0.0
 11
27.7234
 21
18.59397
 31
0.0
  0
LINE
  5
1F1
330
1E
100
AcDbEntity
  8
0
100
AcDbLine
 10
28.7782
 20
26.60685
 30
0.0
 11
30.1882
 21
26.60685
 31
0.0
  0
LINE
  5
1F2
330
1E
100
AcDbEntity
  8
0
100
AcDbLine
 10
30.1882
 20
26.60685
 30
0.0
 11
31.4095
 21
26.60685
 31
0.0
  0
LINE
  5
1F3
330
1E
100
AcDbEntity
  8
0
100
AcDbLine
 10
30.1854
 20
26.60685
 30
0.0
 11
30.3112
 21
26.60685
 31
0.0
  0
LINE
  5
1F4
330
1E
100
AcDbEntity
  8
0
100
AcDbLine
 10
30.1854
 20
26.60685
 30
0.0
 11
30.3243
 21
26.60685
 31
0.0
  0
LINE
  5
1F5
330
1E
100
AcDbEntity
  8
0
100
AcDbLine
 10
30.1854
 20
26.60685
 30
0.0
 11
30.1854
 21
24.07115
 31
0.0
  0
LINE
  5
1F6
330
1E
100
AcDbEntity
  8
0
100
AcDbLine
 10
30.4584
 20
18.59397
 30
0.0
 11
31.1914
 21
18.59397
 31
0.0
  0
LINE
  5
1F7
330
1E
100
AcDbEntity
  8
0
100
AcDbLine
 10
30.5044
 20
0.07115
 30
0.0
 11
31.2384
 21
0.07115
 31
0.0
  0
LINE
  5
1F8
330
1E
100
AcDbEntity
  8
0
100
AcDbLine
 10
30.5044
 20
0.07115
 30
0.0
 11
31.2384
 21
0.07115
 31
0.0
  0
LINE
  5
1F9
330
1E
100
AcDbEntity
  8
0
100
AcDbLine
 10
30.7654
 20
0.07115
 30
0.0
 11
31.0174
 21
0.07115
 31
0.0
  0
LINE
  5
1FA
330
1E
100
AcDbEntity
  8
0
100
AcDbLine
 10
31.0274
 20
0.07115
 30
0.0
 11
31.4034
 21
0.07115
 31
0.0
  0
LINE
  5
1FB
330
1E
100
AcDbEntity
  8
0
100
AcDbLine
 10
30.6484
 20
18.3948
 30
0.0
 11
31.3864
 21
18.3948
 31
0.0
  0
LINE
  5
1FC
330
1E
100
AcDbEntity
  8
0
100
AcDbLine
 10
30.6484
 20
0.36995
 30
0.0
 11
31.3864
 21
0.36995
 31
0.0
  0
LINE
  5
1FD
330
1E
100
AcDbEntity
  8
0
100
AcDbLine
 10
30.5584
 20
0.07115
 30
0.0
 11
31.0274
 21
0.07115
 31
0.0
  0
LINE
  5
1FE
330
1E
100
AcDbEntity
  8
0
100
AcDbLine
 10
31.2384
 20
0.07115
 30
0.0
 11
31.8964
 21
0.07115
 31
0.0
  0
LINE
  5
1FF
330
1E
100
AcDbEntity
  8
0
100
AcDbLine
 10
31.3864
 20
18.3948
 30
0.0
 11
32.0524
 21
18.3948
 31
0.0
  0
LINE
  5
200
330
1E
100
AcDbEntity
  8
0
100
AcDbLine
 10
31.3864
 20
0.36995
 30
0.0
 11
32.0514
 21
0.36995
 31
0.0
  0
LINE
  5
201
330
1E
100
AcDbEntity
  8
0
100
AcDbLine
 10
31.4034
 20
0.07115
 30
0.0
 11
31.6824
 21
0.07115
 31
0.0
  0
LINE
  5
202
330
1E
100
AcDbEntity
  8
0
100
AcDbLine
 10
31.1614
 20
18.59397
 30
0.0
 11
31.3384
 21
18.59397
 31
0.0
  0
LINE
  5
203
330
1E
100
AcDbEntity
  8
0
100
AcDbLine
 10
30.8974
 20
18.59397
 30
0.0
 11
31.1614
 21
18.59397
 31
0.0
  0
LINE
  5
204
330
1E
100
AcDbEntity
  8
0
100
AcDbLine
 10
30.5474
 20
18.59397
 30
0.0
 11
30.8974
 21
18.59397
 31
0.0
  0
LINE
  5
205
330
1E
100
AcDbEntity
  8
0
100
AcDbLine
 10
30.8974
 20
18.59397
 30
0.0
 11
31.1614
 21
18.59397
 31
0.0
  0
LINE
  5
206
330
1E
100
AcDbEntity
  8
0
100
AcDbLine
 10
30.5474
 20
18.59397
 30
0.0
 11
30.8974
 21
18.59397
 31
0.0
  0
LINE
  5
207
330
1E
100
AcDbEntity
  8
0
100
AcDbLine
 10
31.1614
 20
18.59397
 30
0.0
 11
31.3384
 21
18.59397
 31
0.0
  0
LINE
  5
208
330
1E
100
AcDbEntity
  8
0
100
AcDbLine
 10
30.7494
 20
24.07115
 30
0.0
 11
31.3394
 21
24.07115
 31
0.0
  0
LINE
  5
209
330
1E
100
AcDbEntity
  8
0
100
AcDbLine
 10
31.1914
 20
18.59397
 30
0.0
 11
31.8574
 21
18.59397
 31
0.0
  0
LINE
  5
20A
330
1E
100
AcDbEntity
  8
0
100
AcDbLine
 10
31.3394
 20
24.07115
 30
0.0
 11
31.8544
 21
24.07115
 31
0.0
  0
LINE
  5
20B
330
1E
100
AcDbEntity
  8
0
100
AcDbLine
 10
31.3384
 20
18.59397
 30
0.0
 11
31.4264
 21
18.59397
 31
0.0
  0
LINE
  5
20C
330
1E
100
AcDbEntity
  8
0
100
AcDbLine
 10
31.1914
 20
18.59397
 30
0.0
 11
31.8574
 21
18.59397
 31
0.0
  0
LINE
  5
20D
330
1E
100
AcDbEntity
  8
0
100
AcDbLine
 10
30.4584
 20
18.59397
 30
0.0
 11
31.1914
 21
18.59397
 31
0.0
  0
LINE
  5
20E
330
1E
100
AcDbEntity
  8
0
100
AcDbLine
 10
30.3243
 20
26.60685
 30
0.0
 11
31.5356
 21
26.60685
 31
0.0
  0
LINE
  5
20F
330
1E
100
AcDbEntity
  8
0
100
AcDbLine
 10
31.6824
 20
0.07115
 30
0.0
 11
31.8594
 21
0.07115
 31
0.0
  0
LINE
  5
210
330
1E
100
AcDbEntity
  8
0
100
AcDbLine
 10
31.8594
 20
0.07115
 30
0.0
 11
31.9334
 21
0.07115
 31
0.0
  0
LINE
  5
211
330
1E
100
AcDbEntity
  8
0
100
AcDbLine
 10
32.0524
 20
18.3948
 30
0.0
 11
32.6364
 21
18.3948
 31
0.0
  0
LINE
  5
212
330
1E
100
AcDbEntity
  8
0
100
AcDbLine
 10
32.0514
 20
0.36995
 30
0.0
 11
32.6364
 21
0.36995
 31
0.0
  0
LINE
  5
213
330
1E
100
AcDbEntity
  8
0
100
AcDbLine
 10
31.8964
 20
0.07115
 30
0.0
 11
32.4694
 21
0.07115
 31
0.0
  0
LINE
  5
214
330
1E
100
AcDbEntity
  8
0
100
AcDbLine
 10
32.6364
 20
18.3948
 30
0.0
 11
33.1334
 21
18.3948
 31
0.0
  0
LINE
  5
215
330
1E
100
AcDbEntity
  8
0
100
AcDbLine
 10
32.6364
 20
0.36995
 30
0.0
 11
33.1334
 21
0.36995
 31
0.0
  0
LINE
  5
216
330
1E
100
AcDbEntity
  8
0
100
AcDbLine
 10
33.1334
 20
18.3948
 30
0.0
 11
33.5394
 21
18.3948
 31
0.0
  0
LINE
  5
217
330
1E
100
AcDbEntity
  8
0
100
AcDbLine
 10
33.1334
 20
0.36995
 30
0.0
 11
33.5394
 21
0.36995
 31
0.0
  0
LINE
  5
218
330
1E
100
AcDbEntity
  8
0
100
AcDbLine
 10
32.9514
 20
0.07115
 30
0.0
 11
33.3374
 21
0.07115
 31
0.0
  0
LINE
  5
219
330
1E
100
AcDbEntity
  8
0
100
AcDbLine
 10
32.4694
 20
0.07115
 30
0.0
 11
32.9514
 21
0.07115
 31
0.0
  0
LINE
  5
21A
330
1E
100
AcDbEntity
  8
0
100
AcDbLine
 10
32.9614
 20
18.59397
 30
0.0
 11
33.3884
 21
18.59397
 31
0.0
  0
LINE
  5
21B
330
1E
100
AcDbEntity
  8
0
100
AcDbLine
 10
32.4494
 20
18.59397
 30
0.0
 11
32.9614
 21
18.59397
 31
0.0
  0
LINE
  5
21C
330
1E
100
AcDbEntity
  8
0
100
AcDbLine
 10
32.2924
 20
24.07115
 30
0.0
 11
32.6464
 21
24.07115
 31
0.0
  0
LINE
  5
21D
330
1E
100
AcDbEntity
  8
0
100
AcDbLine
 10
31.8574
 20
18.59397
 30
0.0
 11
32.4494
 21
18.59397
 31
0.0
  0
LINE
  5
21E
330
1E
100
AcDbEntity
  8
0
100
AcDbLine
 10
31.8544
 20
24.07115
 30
0.0
 11
32.2924
 21
24.07115
 31
0.0
  0
LINE
  5
21F
330
1E
100
AcDbEntity
  8
0
100
AcDbLine
 10
32.6464
 20
24.07115
 30
0.0
 11
32.9134
 21
24.07115
 31
0.0
  0
LINE
  5
220
330
1E
100
AcDbEntity
  8
0
100
AcDbLine
 10
32.9134
 20
24.07115
 30
0.0
 11
33.0904
 21
24.07115
 31
0.0
  0
LINE
  5
221
330
1E
100
AcDbEntity
  8
0
100
AcDbLine
 10
33.0904
 20
24.07115
 30
0.0
 11
33.1764
 21
24.07115
 31
0.0
  0
LINE
  5
222
330
1E
100
AcDbEntity
  8
0
100
AcDbLine
 10
32.9614
 20
18.59397
 30
0.0
 11
33.3884
 21
18.59397
 31
0.0
  0
LINE
  5
223
330
1E
100
AcDbEntity
  8
0
100
AcDbLine
 10
32.4494
 20
18.59397
 30
0.0
 11
32.9614
 21
18.59397
 31
0.0
  0
LINE
  5
224
330
1E
100
AcDbEntity
  8
0
100
AcDbLine
 10
31.8574
 20
18.59397
 30
0.0
 11
32.4494
 21
18.59397
 31
0.0
  0
LINE
  5
225
330
1E
100
AcDbEntity
  8
0
100
AcDbLine
 10
31.5356
 20
26.60685
 30
0.0
 11
32.415
 21
26.60685
 31
0.0
  0
LINE
  5
226
330
1E
100
AcDbEntity
  8
0
100
AcDbLine
 10
32.415
 20
26.60685
 30
0.0
 11
33.3892
 21
26.60685
 31
0.0
  0
LINE
  5
227
330
1E
100
AcDbEntity
  8
0
100
AcDbLine
 10
31.5134
 20
26.60685
 30
0.0
 11
32.4856
 21
26.60685
 31
0.0
  0
LINE
  5
228
330
1E
100
AcDbEntity
  8
0
100
AcDbLine
 10
32.4856
 20
26.60685
 30
0.0
 11
33.1996
 21
26.60685
 31
0.0
  0
LINE
  5
229
330
1E
100
AcDbEntity
  8
0
100
AcDbLine
 10
33.3884
 20
18.59397
 30
0.0
 11
33.7274
 21
18.59397
 31
0.0
  0
LINE
  5
22A
330
1E
100
AcDbEntity
  8
0
100
AcDbLine
 10
33.3374
 20
0.07115
 30
0.0
 11
33.6234
 21
0.07115
 31
0.0
  0
LINE
  5
22B
330
1E
100
AcDbEntity
  8
0
100
AcDbLine
 10
33.1764
 20
24.07115
 30
0.0
 11
33.4444
 21
24.03729
 31
0.0
  0
LINE
  5
22F
330
1E
100
AcDbEntity
  8
0
100
AcDbLine
 10
33.5394
 20
18.3948
 30
0.0
 11
33.8494
 21
18.3948
 31
0.0
  0
LINE
  5
230
330
1E
100
AcDbEntity
  8
0
100
AcDbLine
 10
33.5394
 20
0.36995
 30
0.0
 11
33.8494
 21
0.36995
 31
0.0
  0
LINE
  5
231
330
1E
100
AcDbEntity
  8
0
100
AcDbLine
 10
33.6234
 20
0.07115
 30
0.0
 11
33.8054
 21
0.07115
 31
0.0
  0
LINE
  5
232
330
1E
100
AcDbEntity
  8
0
100
AcDbLine
 10
33.4444
 20
24.03729
 30
0.0
 11
33.6854
 21
23.93771
 31
0.0
  0
LINE
  5
233
330
1E
100
AcDbEntity
  8
0
100
AcDbLine
 10
33.3884
 20
18.59397
 30
0.0
 11
33.7274
 21
18.59397
 31
0.0
  0
LINE
  5
234
330
1E
100
AcDbEntity
  8
0
100
AcDbLine
 10
33.3892
 20
26.60685
 30
0.0
 11
34.2294
 21
26.60685
 31
0.0
  0
LINE
  5
235
330
1E
100
AcDbEntity
  8
0
100
AcDbLine
 10
33.8824
 20
0.07115
 30
0.0
 11
33.9835
 21
0.17425
 31
0.0
  0
LINE
  5
237
330
1E
100
AcDbEntity
  8
0
100
AcDbLine
 10
33.8494
 20
0.36995
 30
0.0
 11
34.0594
 21
0.36995
 31
0.0
  0
LINE
  5
238
330
1E
100
AcDbEntity
  8
0
100
AcDbLine
 10
34.0594
 20
0.36995
 30
0.0
 11
34.1694
 21
0.36995
 31
0.0
  0
LINE
  5
239
330
1E
100
AcDbEntity
  8
0
100
AcDbLine
 10
34.1728
 20
0.36995
 30
0.0
 11
34.1728
 21
18.3948
 31
0.0
  0
LINE
  5
23A
330
1E
100
AcDbEntity
  8
0
100
AcDbLine
 10
33.9835
 20
0.17425
 30
0.0
 11
34.1728
 21
0.36995
 31
0.0
  0
LINE
  5
23B
330
1E
100
AcDbEntity
  8
0
100
AcDbLine
 10
33.8054
 20
0.07115
 30
0.0
 11
33.8824
 21
0.07115
 31
0.0
  0
LINE
  5
23D
330
1E
100
AcDbEntity
  8
0
100
AcDbLine
 10
33.8494
 20
18.3948
 30
0.0
 11
34.0594
 21
18.3948
 31
0.0
  0
LINE
  5
23E
330
1E
100
AcDbEntity
  8
0
100
AcDbLine
 10
34.0594
 20
18.3948
 30
0.0
 11
34.1694
 21
18.3948
 31
0.0
  0
LINE
  5
23F
330
1E
100
AcDbEntity
  8
0
100
AcDbLine
 10
33.7274
 20
18.59397
 30
0.0
 11
33.9754
 21
18.59397
 31
0.0
  0
LINE
  5
240
330
1E
100
AcDbEntity
  8
0
100
AcDbLine
 10
33.7274
 20
18.59397
 30
0.0
 11
33.9754
 21
18.59397
 31
0.0
  0
LINE
  5
242
330
1E
100
AcDbEntity
  8
0
100
AcDbLine
 10
33.6854
 20
23.93771
 30
0.0
 11
33.8924
 21
23.77937
 31
0.0
  0
LINE
  5
246
330
1E
100
AcDbEntity
  8
0
100
AcDbLine
 10
34.0514
 20
23.57323
 30
0.0
 11
34.1514
 21
23.33323
 31
0.0
  0
LINE
  5
24B
330
1E
100
AcDbEntity
  8
0
100
AcDbLine
 10
33.9754
 20
18.59397
 30
0.0
 11
34.1284
 21
18.59397
 31
0.0
  0
LINE
  5
24C
330
1E
100
AcDbEntity
  8
0
100
AcDbLine
 10
33.8924
 20
23.77937
 30
0.0
 11
34.0514
 21
23.57323
 31
0.0
  0
LINE
  5
24D
330
1E
100
AcDbEntity
  8
0
100
AcDbLine
 10
33.9754
 20
18.59397
 30
0.0
 11
34.1284
 21
18.59397
 31
0.0
  0
LINE
  5
251
330
1E
100
AcDbEntity
  8
0
100
AcDbLine
 10
34.1728
 20
23.17095
 30
0.0
 11
34.1831
 21
23.0753
 31
0.0
  0
LINE
  5
252
330
1E
100
AcDbEntity
  8
0
100
AcDbLine
 10
34.1514
 20
23.33323
 30
0.0
 11
34.1728
 21
23.17095
 31
0.0
  0
LINE
  5
253
330
1E
100
AcDbEntity
  8
0
100
AcDbLine
 10
34.1284
 20
18.59397
 30
0.0
 11
34.1854
 21
18.59397
 31
0.0
  0
LINE
  5
255
330
1E
100
AcDbEntity
  8
0
100
AcDbLine
 10
34.1817
 20
18.59397
 30
0.0
 11
34.1854
 21
21.41354
 31
0.0
  0
LINE
  5
256
330
1E
100
AcDbEntity
  8
0
100
AcDbLine
 10
34.1831
 20
23.0753
 30
0.0
 11
34.1854
 21
21.41354
 31
0.0
  0
LINE
  5
257
330
1E
100
AcDbEntity
  8
0
100
AcDbLine
 10
34.1854
 20
21.41354
 30
0.0
 11
34.1854
 21
18.59397
 31
0.0
  0
LINE
  5
258
330
1E
100
AcDbEntity
  8
0
100
AcDbLine
 10
34.1854
 20
18.59397
 30
0.0
 11
34.1854
 21
21.41354
 31
0.0
  0
LINE
  5
259
330
1E
100
AcDbEntity
  8
0
100
AcDbLine
 10
34.1728
 20
18.3948
 30
0.0
 11
34.1728
 21
0.36995
 31
0.0
  0
LINE
  5
25A
330
1E
100
AcDbEntity
  8
0
100
AcDbLine
 10
34.2294
 20
26.60685
 30
0.0
 11
34.6751
 21
26.60685
 31
0.0
  0
LINE
  5
25B
330
1E
100
AcDbEntity
  8
0
100
AcDbLine
 10
34.6751
 20
26.60685
 30
0.0
 11
35.01
 21
26.60685
 31
0.0
  0
LINE
  5
25C
330
1E
100
AcDbEntity
  8
0
100
AcDbLine
 10
33.6303
 20
26.60685
 30
0.0
 11
33.7664
 21
26.60685
 31
0.0
  0
LINE
  5
25D
330
1E
100
AcDbEntity
  8
0
100
AcDbLine
 10
33.602
 20
26.60685
 30
0.0
 11
33.7664
 21
26.60685
 31
0.0
  0
LINE
  5
25E
330
1E
100
AcDbEntity
  8
0
100
AcDbLine
 10
33.1442
 20
26.60685
 30
0.0
 11
33.602
 21
26.60685
 31
0.0
  0
LINE
  5
25F
330
1E
100
AcDbEntity
  8
0
100
AcDbLine
 10
32.4049
 20
26.60685
 30
0.0
 11
33.1442
 21
26.60685
 31
0.0
  0
LINE
  5
260
330
1E
100
AcDbEntity
  8
0
100
AcDbLine
 10
31.4095
 20
26.60685
 30
0.0
 11
32.4049
 21
26.60685
 31
0.0
  0
LINE
  5
261
330
1E
100
AcDbEntity
  8
0
100
AcDbLine
 10
30.3112
 20
26.60685
 30
0.0
 11
31.5134
 21
26.60685
 31
0.0
  0
LINE
  5
262
330
1E
100
AcDbEntity
  8
0
100
AcDbLine
 10
35.01
 20
26.60685
 30
0.0
 11
35.0967
 21
26.60685
 31
0.0
  0
LINE
  5
263
330
1E
100
AcDbEntity
  8
0
100
AcDbLine
 10
35.0967
 20
26.60685
 30
0.0
 11
36.312
 21
26.72885
 31
0.0
  0
LINE
  5
264
330
1E
100
AcDbEntity
  8
0
100
AcDbLine
 10
24.3266
 20
26.60685
 30
0.0
 11
26.624
 21
26.60685
 31
0.0
  0
LINE
  5
266
330
1E
100
AcDbEntity
  8
0
100
AcDbLine
 10
36.312
 20
26.72885
 30
0.0
 11
37.4778
 21
27.09085
 31
0.0
  0
LINE
  5
26A
330
1E
100
AcDbEntity
  8
0
100
AcDbLine
 10
26.624
 20
26.60685
 30
0.0
 11
28.7782
 21
26.60685
 31
0.0
  0
LINE
  5
26B
330
1E
100
AcDbEntity
  8
0
100
AcDbLine
 10
33.1996
 20
26.60685
 30
0.0
 11
33.6303
 21
26.60685
 31
0.0
  0
LINE
  5
26C
330
1E
100
AcDbEntity
  8
0
100
AcDbLine
 10
22.686375798058
 20
38.261884187108
 30
0.0
 11
26.771401959614
 21
38.289148530288
 31
0.0
  0
LINE
  5
26D
330
1E
100
AcDbEntity
  8
0
100
AcDbLine
 10
32.091
 20
38.47675
 30
0.0
 11
36.0328
 21
38.76905
 31
0.0
  0
LINE
  5
26E
330
1E
100
AcDbEntity
  8
0
100
AcDbLine
 10
28.1402
 20
38.30815
 30
0.0
 11
32.091
 21
38.47675
 31
0.0
  0
LINE
  5
293
330
1E
100
AcDbEntity
  8
0
100
AcDbLine
 10
36.0328
 20
38.76905
 30
0.0
 11
39.9606
 21
39.20105
 31
0.0
  0
LINE
  5
2BC
330
1E
100
AcDbEntity
  8
0
100
AcDbLine
 10
36.7633
 20
140.01185
 30
0.0
 11
38.3554
 21
138.80785
 31
0.0
  0
LINE
  5
2C1
330
1E
100
AcDbEntity
  8
0
100
AcDbLine
 10
37.694526944387
 20
27.192218736408
 30
0.0
 11
38.8646
 21
27.72585
 31
0.0
  0
LINE
  5
2C3
330
1E
100
AcDbEntity
  8
0
100
AcDbLine
 10
35.0591
 20
141.07185
 30
0.0
 11
36.7633
 21
140.01185
 31
0.0
  0
LINE
  5
2C5
330
1E
100
AcDbEntity
  8
0
100
AcDbLine
 10
36.440607961232
 20
141.595857961232
 30
0.0
 11
38.4166
 21
143.57185
 31
0.0
  0
LINE
  5
2C7
330
1E
100
AcDbEntity
  8
0
100
AcDbLine
 10
38.3554
 20
138.80785
 30
0.0
 11
39.8225
 21
137.47385
 31
0.0
  0
LINE
  5
2CC
330
1E
100
AcDbEntity
  8
0
100
AcDbLine
 10
32.5433
 20
142.28185
 30
0.0
 11
33.8202
 21
141.71685
 31
0.0
  0
LINE
  5
2CD
330
1E
100
AcDbEntity
  8
0
100
AcDbLine
 10
33.8202
 20
141.71685
 30
0.0
 11
35.0591
 21
141.07185
 31
0.0
  0
LINE
  5
2E1
330
1E
100
AcDbEntity
  8
0
100
AcDbLine
 10
24.1854
 20
143.90985
 30
0.0
 11
25.8286
 21
143.84885
 31
0.0
  0
LINE
  5
2E4
330
1E
100
AcDbEntity
  8
0
100
AcDbLine
 10
28.5505
 20
143.47785
 30
0.0
 11
29.9014
 21
143.16485
 31
0.0
  0
LINE
  5
2E5
330
1E
100
AcDbEntity
  8
0
100
AcDbLine
 10
35.0422
 20
143.03385
 30
0.0
 11
36.84328722467
 21
141.99853722467
 31
0.0
  0
LINE
  5
2E6
330
1E
100
AcDbEntity
  8
0
100
AcDbLine
 10
31.2344
 20
142.76585
 30
0.0
 11
32.5433
 21
142.28185
 31
0.0
  0
LINE
  5
2E7
330
1E
100
AcDbEntity
  8
0
100
AcDbLine
 10
29.9014
 20
143.16485
 30
0.0
 11
31.2344
 21
142.76585
 31
0.0
  0
LINE
  5
2E9
330
1E
100
AcDbEntity
  8
0
100
AcDbLine
 10
32.5865
 20
144.10085
 30
0.0
 11
35.0422
 21
143.03385
 31
0.0
  0
LINE
  5
2EA
330
1E
100
AcDbEntity
  8
0
100
AcDbLine
 10
27.3905
 20
145.39385
 30
0.0
 11
30.0258
 21
144.89185
 31
0.0
  0
LINE
  5
2EB
330
1E
100
AcDbEntity
  8
0
100
AcDbLine
 10
30.0258
 20
144.89185
 30
0.0
 11
32.5865
 21
144.10085
 31
0.0
  0
LINE
  5
2EC
330
1E
100
AcDbEntity
  8
0
100
AcDbLine
 10
25.8286
 20
143.84885
 30
0.0
 11
27.1905
 21
143.70585
 31
0.0
  0
LINE
  5
2ED
330
1E
100
AcDbEntity
  8
0
100
AcDbLine
 10
27.1905
 20
143.70585
 30
0.0
 11
28.5505
 21
143.47785
 31
0.0
  0
LINE
  5
2F0
330
1E
100
AcDbEntity
  8
0
100
AcDbLine
 10
36.440607961232
 20
141.595857961232
 30
0.0
 11
38.4166
 21
143.57185
 31
0.0
  0
LINE
  5
2F1
330
1E
100
AcDbEntity
  8
0
100
AcDbLine
 10
38.8646
 20
27.72585
 30
0.0
 11
38.9573
 21
27.78285
 31
0.0
  0
LINE
  5
2F2
330
1E
100
AcDbEntity
  8
0
100
AcDbLine
 10
38.9573
 20
27.78285
 30
0.0
 11
40.9371
 21
28.78285
 31
0.0
  0
LINE
  5
2F5
330
1E
100
AcDbEntity
  8
0
100
AcDbLine
 10
40.9371
 20
28.78285
 30
0.0
 11
41.9547
 21
29.37185
 31
0.0
  0
LINE
  5
2F6
330
1E
100
AcDbEntity
  8
0
100
AcDbLine
 10
40.311880405763
 20
139.386130405763
 30
0.0
 11
41.4827
 21
138.30685
 31
0.0
  0
LINE
  5
2F7
330
1E
100
AcDbEntity
  8
0
100
AcDbLine
 10
39.8225
 20
137.47385
 30
0.0
 11
40.8312
 21
136.39785
 31
0.0
  0
LINE
  5
2F8
330
1E
100
AcDbEntity
  8
0
100
AcDbLine
 10
40.8312
 20
136.39785
 30
0.0
 11
41.7588
 21
135.26585
 31
0.0
  0
LINE
  5
2F9
330
1E
100
AcDbEntity
  8
0
100
AcDbLine
 10
41.4827
 20
138.30685
 30
0.0
 11
43.2305
 21
136.29085
 31
0.0
  0
LINE
  5
2FA
330
1E
100
AcDbEntity
  8
0
100
AcDbLine
 10
41.0293
 20
39.39565
 30
0.0
 11
41.5397
 21
39.56825
 31
0.0
  0
LINE
  5
2FB
330
1E
100
AcDbEntity
  8
0
100
AcDbLine
 10
39.9606
 20
39.20105
 30
0.0
 11
41.0293
 21
39.39565
 31
0.0
  0
LINE
  5
2FC
330
1E
100
AcDbEntity
  8
0
100
AcDbLine
 10
41.9547
 20
29.37185
 30
0.0
 11
42.3097
 21
29.57185
 31
0.0
  0
LINE
  5
2FD
330
1E
100
AcDbEntity
  8
0
100
AcDbLine
 10
41.7588
 20
135.26585
 30
0.0
 11
42.6014
 21
134.08385
 31
0.0
  0
LINE
  5
2FE
330
1E
100
AcDbEntity
  8
0
100
AcDbLine
 10
42.2442
 20
39.94435
 30
0.0
 11
42.8476
 21
40.44825
 31
0.0
  0
LINE
  5
2FF
330
1E
100
AcDbEntity
  8
0
100
AcDbLine
 10
41.5397
 20
39.56825
 30
0.0
 11
42.2442
 21
39.94435
 31
0.0
  0
LINE
  5
301
330
1E
100
AcDbEntity
  8
0
100
AcDbLine
 10
39.558170909343
 20
138.632420909343
 30
0.0
 11
41.4566
 21
140.53085
 31
0.0
  0
LINE
  5
309
330
1E
100
AcDbEntity
  8
0
100
AcDbLine
 10
41.4566
 20
140.53085
 30
0.0
 11
42.2536
 21
141.32785
 31
0.0
  0
LINE
  5
30A
330
1E
100
AcDbEntity
  8
0
100
AcDbLine
 10
42.3097
 20
29.57185
 30
0.0
 11
42.8039
 21
29.88085
 31
0.0
  0
LINE
  5
30B
330
1E
100
AcDbEntity
  8
0
100
AcDbLine
 10
42.6014
 20
134.08385
 30
0.0
 11
43.356
 21
132.86285
 31
0.0
  0
LINE
  5
30D
330
1E
100
AcDbEntity
  8
0
100
AcDbLine
 10
42.8039
 20
29.88085
 30
0.0
 11
43.5613
 21
30.42885
 31
0.0
  0
LINE
  5
310
330
1E
100
AcDbEntity
  8
0
100
AcDbLine
 10
42.8476
 20
40.44825
 30
0.0
 11
43.349
 21
41.09275
 31
0.0
  0
LINE
  5
311
330
1E
100
AcDbEntity
  8
0
100
AcDbLine
 10
43.2305
 20
136.29085
 30
0.0
 11
44.7403
 21
134.09485
 31
0.0
  0
LINE
  5
312
330
1E
100
AcDbEntity
  8
0
100
AcDbLine
 10
43.356
 20
132.86285
 30
0.0
 11
44.0024
 21
131.64585
 31
0.0
  0
LINE
  5
313
330
1E
100
AcDbEntity
  8
0
100
AcDbLine
 10
43.421
 20
41.19655
 30
0.0
 11
43.7743
 21
41.94185
 31
0.0
  0
LINE
  5
314
330
1E
100
AcDbEntity
  8
0
100
AcDbLine
 10
43.349
 20
41.09275
 30
0.0
 11
43.421
 21
41.19655
 31
0.0
  0
LINE
  5
315
330
1E
100
AcDbEntity
  8
0
100
AcDbLine
 10
43.9144
 20
42.47165
 30
0.0
 11
44.0395
 21
43.52625
 31
0.0
  0
LINE
  5
316
330
1E
100
AcDbEntity
  8
0
100
AcDbLine
 10
43.7743
 20
41.94185
 30
0.0
 11
43.9144
 21
42.47165
 31
0.0
  0
LINE
  5
317
330
1E
100
AcDbEntity
  8
0
100
AcDbLine
 10
44.0395
 20
43.52625
 30
0.0
 11
44.0575
 21
43.94725
 31
0.0
  0
LINE
  5
318
330
1E
100
AcDbEntity
  8
0
100
AcDbLine
 10
44.358
 20
31.15585
 30
0.0
 11
44.6949
 21
31.55985
 31
0.0
  0
LINE
  5
319
330
1E
100
AcDbEntity
  8
0
100
AcDbLine
 10
44.6949
 20
31.55985
 30
0.0
 11
44.9379
 21
31.89285
 31
0.0
  0
LINE
  5
31C
330
1E
100
AcDbEntity
  8
0
100
AcDbLine
 10
44.9379
 20
31.89285
 30
0.0
 11
45.2365
 21
32.51685
 31
0.0
  0
LINE
  5
31D
330
1E
100
AcDbEntity
  8
0
100
AcDbLine
 10
45.2365
 20
32.51685
 30
0.0
 11
45.3877
 21
32.87085
 31
0.0
  0
LINE
  5
31E
330
1E
100
AcDbEntity
  8
0
100
AcDbLine
 10
45.3877
 20
32.87085
 30
0.0
 11
45.4674
 21
33.24885
 31
0.0
  0
LINE
  5
31F
330
1E
100
AcDbEntity
  8
0
100
AcDbLine
 10
45.4674
 20
33.24885
 30
0.0
 11
45.5441
 21
33.81885
 31
0.0
  0
LINE
  5
320
330
1E
100
AcDbEntity
  8
0
100
AcDbLine
 10
45.5441
 20
33.81885
 30
0.0
 11
45.5632
 21
34.44185
 31
0.0
  0
LINE
  5
322
330
1E
100
AcDbEntity
  8
0
100
AcDbLine
 10
45.5632
 20
34.44185
 30
0.0
 11
45.8738
 21
87.25945
 31
0.0
  0
LINE
  5
324
330
1E
100
AcDbEntity
  8
0
100
AcDbLine
 10
44.2776
 20
50.79855
 30
0.0
 11
44.3487
 21
53.12525
 31
0.0
  0
LINE
  5
325
330
1E
100
AcDbEntity
  8
0
100
AcDbLine
 10
44.2056
 20
48.48985
 30
0.0
 11
44.2776
 21
50.79855
 31
0.0
  0
LINE
  5
326
330
1E
100
AcDbEntity
  8
0
100
AcDbLine
 10
44.4177
 20
55.46495
 30
0.0
 11
44.4868
 21
57.81455
 31
0.0
  0
LINE
  5
327
330
1E
100
AcDbEntity
  8
0
100
AcDbLine
 10
44.4868
 20
57.81455
 30
0.0
 11
44.6219
 21
62.53375
 31
0.0
  0
LINE
  5
328
330
1E
100
AcDbEntity
  8
0
100
AcDbLine
 10
44.3487
 20
53.12525
 30
0.0
 11
44.4177
 21
55.46495
 31
0.0
  0
LINE
  5
329
330
1E
100
AcDbEntity
  8
0
100
AcDbLine
 10
44.1325
 20
46.20305
 30
0.0
 11
44.2056
 21
48.48985
 31
0.0
  0
LINE
  5
32A
330
1E
100
AcDbEntity
  8
0
100
AcDbLine
 10
44.0575
 20
43.94725
 30
0.0
 11
44.1325
 21
46.20305
 31
0.0
  0
LINE
  5
32B
330
1E
100
AcDbEntity
  8
0
100
AcDbLine
 10
44.5638
 20
130.40285
 30
0.0
 11
45.0442
 21
129.12985
 31
0.0
  0
LINE
  5
32C
330
1E
100
AcDbEntity
  8
0
100
AcDbLine
 10
44.0024
 20
131.64585
 30
0.0
 11
44.5638
 21
130.40285
 31
0.0
  0
LINE
  5
32D
330
1E
100
AcDbEntity
  8
0
100
AcDbLine
 10
44.8861
 20
72.00115
 30
0.0
 11
44.9941
 21
75.96005
 31
0.0
  0
LINE
  5
32E
330
1E
100
AcDbEntity
  8
0
100
AcDbLine
 10
44.9941
 20
75.96005
 30
0.0
 11
45.2123
 21
83.87705
 31
0.0
  0
LINE
  5
32F
330
1E
100
AcDbEntity
  8
0
100
AcDbLine
 10
45.2123
 20
83.87705
 30
0.0
 11
45.5375
 21
95.75285
 31
0.0
  0
LINE
  5
330
330
1E
100
AcDbEntity
  8
0
100
AcDbLine
 10
45.5375
 20
95.75285
 30
0.0
 11
45.6766
 21
100.81285
 31
0.0
  0
LINE
  5
331
330
1E
100
AcDbEntity
  8
0
100
AcDbLine
 10
45.8738
 20
87.25945
 30
0.0
 11
45.9102
 21
93.13565
 31
0.0
  0
LINE
  5
332
330
1E
100
AcDbEntity
  8
0
100
AcDbLine
 10
45.6766
 20
100.81285
 30
0.0
 11
45.7607
 21
103.88685
 31
0.0
  0
LINE
  5
334
330
1E
100
AcDbEntity
  8
0
100
AcDbLine
 10
45.7607
 20
103.88685
 30
0.0
 11
45.8087
 21
105.60785
 31
0.0
  0
LINE
  5
335
330
1E
100
AcDbEntity
  8
0
100
AcDbLine
 10
45.8087
 20
105.60785
 30
0.0
 11
45.8508
 21
107.12785
 31
0.0
  0
LINE
  5
336
330
1E
100
AcDbEntity
  8
0
100
AcDbLine
 10
45.8918
 20
108.59485
 30
0.0
 11
45.9288
 21
109.94485
 31
0.0
  0
LINE
  5
337
330
1E
100
AcDbEntity
  8
0
100
AcDbLine
 10
45.8508
 20
107.12785
 30
0.0
 11
45.8918
 21
108.59485
 31
0.0
  0
LINE
  5
339
330
1E
100
AcDbEntity
  8
0
100
AcDbLine
 10
45.9253
 20
95.35485
 30
0.0
 11
45.9495
 21
98.67685
 31
0.0
  0
LINE
  5
33A
330
1E
100
AcDbEntity
  8
0
100
AcDbLine
 10
45.9102
 20
93.13565
 30
0.0
 11
45.9253
 21
95.35485
 31
0.0
  0
LINE
  5
33B
330
1E
100
AcDbEntity
  8
0
100
AcDbLine
 10
45.9636
 20
100.33135
 30
0.0
 11
45.9878
 21
102.87545
 31
0.0
  0
LINE
  5
33C
330
1E
100
AcDbEntity
  8
0
100
AcDbLine
 10
45.9495
 20
98.67685
 30
0.0
 11
45.9636
 21
100.33135
 31
0.0
  0
LINE
  5
33D
330
1E
100
AcDbEntity
  8
0
100
AcDbLine
 10
45.9288
 20
109.94485
 30
0.0
 11
45.9648
 21
111.24685
 31
0.0
  0
LINE
  5
33E
330
1E
100
AcDbEntity
  8
0
100
AcDbLine
 10
45.9878
 20
102.87545
 30
0.0
 11
46.015
 21
105.36865
 31
0.0
  0
LINE
  5
33F
330
1E
100
AcDbEntity
  8
0
100
AcDbLine
 10
46.015
 20
105.36865
 30
0.0
 11
46.0423
 21
107.57295
 31
0.0
  0
LINE
  5
340
330
1E
100
AcDbEntity
  8
0
100
AcDbLine
 10
45.9648
 20
111.24685
 30
0.0
 11
45.9998
 21
112.50085
 31
0.0
  0
LINE
  5
341
330
1E
100
AcDbEntity
  8
0
100
AcDbLine
 10
45.9998
 20
112.50085
 30
0.0
 11
46.0329
 21
113.70685
 31
0.0
  0
LINE
  5
342
330
1E
100
AcDbEntity
  8
0
100
AcDbLine
 10
46.0423
 20
107.57295
 30
0.0
 11
46.0735
 21
109.71035
 31
0.0
  0
LINE
  5
343
330
1E
100
AcDbEntity
  8
0
100
AcDbLine
 10
46.0735
 20
109.71035
 30
0.0
 11
46.1119
 21
112.21555
 31
0.0
  0
LINE
  5
344
330
1E
100
AcDbEntity
  8
0
100
AcDbLine
 10
46.122
 20
112.73035
 30
0.0
 11
46.1593
 21
114.37585
 31
0.0
  0
LINE
  5
345
330
1E
100
AcDbEntity
  8
0
100
AcDbLine
 10
46.113346784637
 20
112.317957190831
 30
0.0
 11
46.122
 21
112.73035
 31
0.0
  0
LINE
  5
346
330
1E
100
AcDbEntity
  8
0
100
AcDbLine
 10
46.1593
 20
114.37585
 30
0.0
 11
46.1845
 21
115.43645
 31
0.0
  0
LINE
  5
348
330
1E
100
AcDbEntity
  8
0
100
AcDbLine
 10
46.111081505685
 20
112.162151771901
 30
0.0
 11
46.8259
 21
113.93595
 31
0.0
  0
LINE
  5
34A
330
1E
100
AcDbEntity
  8
0
100
AcDbLine
 10
46.168
 20
118.68385
 30
0.0
 11
46.194
 21
119.75285
 31
0.0
  0
LINE
  5
34B
330
1E
100
AcDbEntity
  8
0
100
AcDbLine
 10
46.1369
 20
117.57385
 30
0.0
 11
46.167
 21
118.66785
 31
0.0
  0
LINE
  5
34C
330
1E
100
AcDbEntity
  8
0
100
AcDbLine
 10
46.1369
 20
117.57385
 30
0.0
 11
46.168
 21
118.68385
 31
0.0
  0
LINE
  5
34D
330
1E
100
AcDbEntity
  8
0
100
AcDbLine
 10
46.194
 20
119.75285
 30
0.0
 11
46.201
 21
120.22085
 31
0.0
  0
LINE
  5
357
330
1E
100
AcDbEntity
  8
0
100
AcDbLine
 10
46.8259
 20
113.93595
 30
0.0
 11
47.4149
 21
115.84535
 31
0.0
  0
LINE
  5
358
330
1E
100
AcDbEntity
  8
0
100
AcDbLine
 10
47.4149
 20
115.84535
 30
0.0
 11
47.8405
 21
117.80475
 31
0.0
  0
LINE
  5
35B
330
1E
100
AcDbEntity
  8
0
100
AcDbLine
 10
47.8405
 20
117.80475
 30
0.0
 11
48.0987
 21
119.79305
 31
0.0
  0
LINE
  5
35C
330
1E
100
AcDbEntity
  8
0
100
AcDbLine
 10
48.0987
 20
119.79305
 30
0.0
 11
48.1854
 21
121.78945
 31
0.0
  0
LINE
  5
360
330
1E
100
AcDbEntity
  8
0
100
AcDbLine
 10
44.7403
 20
134.09485
 30
0.0
 11
45.9939
 21
131.74385
 31
0.0
  0
LINE
  5
367
330
1E
100
AcDbEntity
  8
0
100
AcDbLine
 10
46.202
 20
121.40985
 30
0.0
 11
46.202163944724
 21
121.295744472362
 31
0.0
  0
LINE
  5
36E
330
1E
100
AcDbEntity
  8
0
100
AcDbLine
 10
46.1179
 20
123.92085
 30
0.0
 11
46.205
 21
122.14185
 31
0.0
  0
LINE
  5
373
330
1E
100
AcDbEntity
  8
0
100
AcDbLine
 10
46.0139
 20
124.90685
 30
0.0
 11
46.1179
 21
123.92085
 31
0.0
  0
LINE
  5
375
330
1E
100
AcDbEntity
  8
0
100
AcDbLine
 10
48.1027
 20
123.78685
 30
0.0
 11
48.1854
 21
121.78945
 31
0.0
  0
LINE
  5
376
330
1E
100
AcDbEntity
  8
0
100
AcDbLine
 10
46.205
 20
122.14185
 30
0.0
 11
46.207
 21
121.89785
 31
0.0
  0
LINE
  5
377
330
1E
100
AcDbEntity
  8
0
100
AcDbLine
 10
46.203798657718
 20
121.584474161073
 30
0.0
 11
46.207
 21
121.89785
 31
0.0
  0
LINE
  5
378
330
1E
100
AcDbEntity
  8
0
100
AcDbLine
 10
45.4405
 20
127.83085
 30
0.0
 11
45.6766
 21
126.86485
 31
0.0
  0
LINE
  5
379
330
1E
100
AcDbEntity
  8
0
100
AcDbLine
 10
47.7537
 20
126.30305
 30
0.0
 11
48.1027
 21
123.78685
 31
0.0
  0
LINE
  5
37A
330
1E
100
AcDbEntity
  8
0
100
AcDbLine
 10
47.315
 20
128.16185
 30
0.0
 11
47.7537
 21
126.30305
 31
0.0
  0
LINE
  5
37B
330
1E
100
AcDbEntity
  8
0
100
AcDbLine
 10
45.9939
 20
131.74385
 30
0.0
 11
46.7271
 21
129.97985
 31
0.0
  0
LINE
  5
37C
330
1E
100
AcDbEntity
  8
0
100
AcDbLine
 10
46.7271
 20
129.97985
 30
0.0
 11
47.315
 21
128.16185
 31
0.0
  0
LINE
  5
37D
330
1E
100
AcDbEntity
  8
0
100
AcDbLine
 10
45.6766
 20
126.86485
 30
0.0
 11
45.8678
 21
125.88985
 31
0.0
  0
LINE
  5
37E
330
1E
100
AcDbEntity
  8
0
100
AcDbLine
 10
45.8678
 20
125.88985
 30
0.0
 11
46.0139
 21
124.90685
 31
0.0
  0
LINE
  5
37F
330
1E
100
AcDbEntity
  8
0
100
AcDbLine
 10
45.0442
 20
129.12985
 30
0.0
 11
45.4405
 21
127.83085
 31
0.0
  0
LINE
  5
381
330
1E
100
AcDbEntity
  8
0
100
AcDbLine
 10
44.7109
 20
65.68755
 30
0.0
 11
44.8861
 21
72.00115
 31
0.0
  0
LINE
  5
382
330
1E
100
AcDbEntity
  8
0
100
AcDbLine
 10
44.6219
 20
62.53375
 30
0.0
 11
44.7109
 21
65.68755
 31
0.0
  0
LINE
  5
383
330
1E
100
AcDbEntity
  8
0
100
AcDbLine
 10
43.4236
 20
142.49685
 30
0.0
 11
44.8496
 21
143.92385
 31
0.0
  0
LINE
  5
385
330
1E
100
AcDbEntity
  8
0
100
AcDbLine
 10
44.8496
 20
143.92385
 30
0.0
 11
46.3946
 21
145.46785
 31
0.0
  0
LINE
  5
386
330
1E
100
AcDbEntity
  8
0
100
AcDbLine
 10
42.2536
 20
141.32785
 30
0.0
 11
43.4236
 21
142.49685
 31
0.0
  0
LINE
  5
389
330
1E
100
AcDbEntity
  8
0
100
AcDbLine
 10
39.2136
 20
144.36785
 30
0.0
 11
40.3826
 21
145.53785
 31
0.0
  0
LINE
  5
38A
330
1E
100
AcDbEntity
  8
0
100
AcDbLine
 10
38.4166
 20
143.57185
 30
0.0
 11
39.2136
 21
144.36785
 31
0.0
  0
LINE
  5
38C
330
1E
100
AcDbEntity
  8
0
100
AcDbLine
 10
24.1854
 20
145.60685
 30
0.0
 11
25.792
 21
145.55385
 31
0.0
  0
LINE
  5
38F
330
1E
100
AcDbEntity
  8
0
100
AcDbLine
 10
25.792
 20
145.55385
 30
0.0
 11
27.3905
 21
145.39385
 31
0.0
  0
LINE
  5
393
330
1E
100
AcDbEntity
  8
0
100
AcDbLine
 10
41.8096
 20
146.96385
 30
0.0
 11
43.3536
 21
148.50885
 31
0.0
  0
LINE
  5
394
330
1E
100
AcDbEntity
  8
0
100
AcDbLine
 10
40.3826
 20
145.53785
 30
0.0
 11
41.8096
 21
146.96385
 31
0.0
  0
LINE
  5
395
330
1E
100
AcDbEntity
  8
0
100
AcDbLine
 10
43.3536
 20
148.50885
 30
0.0
 11
51.7736
 21
156.92885
 31
0.0
  0
LINE
  5
399
330
1E
100
AcDbEntity
  8
0
100
AcDbLine
 10
46.3946
 20
145.46785
 30
0.0
 11
54.8146
 21
153.88785
 31
0.0
  0
LINE
  5
39A
330
1E
100
AcDbEntity
  8
0
100
AcDbLine
 10
51.7736
 20
156.92885
 30
0.0
 11
52.1266
 21
156.70085
 31
0.0
  0
LINE
  5
39B
330
1E
100
AcDbEntity
  8
0
100
AcDbLine
 10
52.1266
 20
156.70085
 30
0.0
 11
52.9246
 21
155.97885
 31
0.0
  0
LINE
  5
39C
330
1E
100
AcDbEntity
  8
0
100
AcDbLine
 10
52.9246
 20
155.97885
 30
0.0
 11
53.8646
 21
155.03885
 31
0.0
  0
LINE
  5
39D
330
1E
100
AcDbEntity
  8
0
100
AcDbLine
 10
54.5866
 20
154.24085
 30
0.0
 11
54.8146
 21
153.88785
 31
0.0
  0
LINE
  5
39E
330
1E
100
AcDbEntity
  8
0
100
AcDbLine
 10
53.8646
 20
155.03885
 30
0.0
 11
54.5866
 21
154.24085
 31
0.0
  0
LINE
  5
3A3
330
1E
100
AcDbEntity
  8
0
100
AcDbLine
 10
37.4778
 20
27.09085
 30
0.0
 11
37.694526944387
 21
27.192218736408
 31
0.0
  0
LINE
  5
3A4
330
1E
100
AcDbEntity
  8
0
100
AcDbLine
 10
43.5613
 20
30.42885
 30
0.0
 11
44.358
 21
31.15585
 31
0.0
  0
LINE
  5
3A5
330
1E
100
AcDbEntity
  8
0
100
AcDbLine
 10
26.771401959614
 20
38.289148530288
 30
0.0
 11
28.1402
 21
38.30815
 31
0.0
  0
LINE
  5
3A6
330
1E
100
AcDbEntity
  8
0
100
AcDbLine
 10
46.203798657718
 20
121.584474161073
 30
0.0
 11
46.202
 21
121.40985
 31
0.0
  0
LINE
  5
3A7
330
1E
100
AcDbEntity
  8
0
100
AcDbLine
 10
46.202
 20
121.40985
 30
0.0
 11
46.202163944724
 21
121.295744472362
 31
0.0
  0
LINE
  5
3A8
330
1E
100
AcDbEntity
  8
0
100
AcDbLine
 10
46.202163944724
 20
121.295744472362
 30
0.0
 11
46.201
 21
120.22085
 31
0.0
  0
LINE
  5
3A9
330
1E
100
AcDbEntity
  8
0
100
AcDbLine
 10
46.1369
 20
117.57385
 30
0.0
 11
46.1845
 21
115.43645
 31
0.0
  0
LINE
  5
3AA
330
1E
100
AcDbEntity
  8
0
100
AcDbLine
 10
1.862469136596
 20
117.887936044303
 30
0.0
 11
1.784549710237
 21
115.751426488276
 31
0.0
  0
LINE
  5
3AB
330
1E
100
AcDbEntity
  8
0
100
AcDbLine
 10
1.850015885182
 20
121.610381848127
 30
0.0
 11
1.835929720533
 21
120.535579046937
 31
0.0
  0
LINE
  5
3AC
330
1E
100
AcDbEntity
  8
0
100
AcDbLine
 10
1.851798677819
 20
121.724473565468
 30
0.0
 11
1.850015885182
 21
121.610381848127
 31
0.0
  0
LINE
  5
3AD
330
1E
100
AcDbEntity
  8
0
100
AcDbLine
 10
1.852477669539
 20
121.899105669534
 30
0.0
 11
1.851798677819
 21
121.724473565468
 31
0.0
  0
LINE
  5
3AE
330
1E
100
AcDbEntity
  8
0
100
AcDbLine
 10
20.101171793772
 20
38.33646762997
 30
0.0
 11
18.732781100421
 21
38.374886916357
 31
0.0
  0
LINE
  5
3AF
330
1E
100
AcDbEntity
  8
0
100
AcDbLine
 10
3.20144615001
 20
30.71516574923
 30
0.0
 11
2.415140598277
 21
31.453395706164
 31
0.0
  0
LINE
  5
3B0
330
1E
100
AcDbEntity
  8
0
100
AcDbLine
 10
9.236976217952
 20
27.291192465314
 30
0.0
 11
9.021709248465
 21
27.39562579808
 31
0.0
  0
LINE
  5
3BA
330
1E
100
AcDbEntity
  8
0
100
AcDbLine
 10
22.602285837149
 20
145.576478065101
 30
0.0
 11
21.001676731745
 21
145.439172778609
 31
0.0
  0
LINE
  5
3BB
330
1E
100
AcDbEntity
  8
0
100
AcDbLine
 10
24.209476072092
 20
145.606679202587
 30
0.0
 11
22.602285837149
 21
145.576478065101
 31
0.0
  0
LINE
  5
3C1
330
1E
100
AcDbEntity
  8
0
100
AcDbLine
 10
2.596438981258
 20
62.831881688064
 30
0.0
 11
2.552192261831
 21
65.986626950018
 31
0.0
  0
LINE
  5
3C2
330
1E
100
AcDbEntity
  8
0
100
AcDbLine
 10
2.552192261831
 20
65.986626950018
 30
0.0
 11
2.466583665758
 21
72.302077145236
 31
0.0
  0
LINE
  5
3C3
330
1E
100
AcDbEntity
  8
0
100
AcDbLine
 10
3.119009124078
 20
129.427270364352
 30
0.0
 11
2.704319536198
 21
128.134023583686
 31
0.0
  0
LINE
  5
3C4
330
1E
100
AcDbEntity
  8
0
100
AcDbLine
 10
2.249524737026
 20
126.199281228578
 30
0.0
 11
2.089493195857
 21
125.218452948077
 31
0.0
  0
LINE
  5
3C5
330
1E
100
AcDbEntity
  8
0
100
AcDbLine
 10
2.454538239574
 20
127.17147046107
 30
0.0
 11
2.249524737026
 21
126.199281228578
 31
0.0
  0
LINE
  5
3C6
330
1E
100
AcDbEntity
  8
0
100
AcDbLine
 10
1.448337819567
 20
130.301060843976
 30
0.0
 11
0.834704238386
 21
128.491584610905
 31
0.0
  0
LINE
  5
3C7
330
1E
100
AcDbEntity
  8
0
100
AcDbLine
 10
2.206490655457
 20
132.054481078099
 30
0.0
 11
1.448337819567
 21
130.301060843976
 31
0.0
  0
LINE
  5
3C8
330
1E
100
AcDbEntity
  8
0
100
AcDbLine
 10
0.834704238386
 20
128.491584610905
 30
0.0
 11
0.369676793496
 21
126.639195719366
 31
0.0
  0
LINE
  5
3C9
330
1E
100
AcDbEntity
  8
0
100
AcDbLine
 10
0.369676793496
 20
126.639195719366
 30
0.0
 11
-0.014986497193
 21
124.128200380303
 31
0.0
  0
LINE
  5
3CA
330
1E
100
AcDbEntity
  8
0
100
AcDbLine
 10
2.704319536198
 20
128.134023583686
 30
0.0
 11
2.454538239574
 21
127.17147046107
 31
0.0
  0
LINE
  5
3CB
330
1E
100
AcDbEntity
  8
0
100
AcDbLine
 10
1.852477669539
 20
121.899105669534
 30
0.0
 11
1.853722647865
 21
122.21249538705
 31
0.0
  0
LINE
  5
3CC
330
1E
100
AcDbEntity
  8
0
100
AcDbLine
 10
1.859184179977
 20
122.456442454396
 30
0.0
 11
1.853722647865
 21
122.21249538705
 31
0.0
  0
LINE
  5
3CD
330
1E
100
AcDbEntity
  8
0
100
AcDbLine
 10
-0.014986497193
 20
124.128200380303
 30
0.0
 11
-0.126016150375
 21
122.132174712604
 31
0.0
  0
LINE
  5
3CE
330
1E
100
AcDbEntity
  8
0
100
AcDbLine
 10
2.089493195857
 20
125.218452948077
 30
0.0
 11
1.971514855167
 21
124.234027678629
 31
0.0
  0
LINE
  5
3CF
330
1E
100
AcDbEntity
  8
0
100
AcDbLine
 10
1.971514855167
 20
124.234027678629
 30
0.0
 11
1.859184179977
 21
122.456442454396
 31
0.0
  0
LINE
  5
3D0
330
1E
100
AcDbEntity
  8
0
100
AcDbLine
 10
1.851798677819
 20
121.724473565468
 30
0.0
 11
1.850015885182
 21
121.610381848127
 31
0.0
  0
LINE
  5
3D1
330
1E
100
AcDbEntity
  8
0
100
AcDbLine
 10
3.493319137397
 20
134.387459093012
 30
0.0
 11
2.206490655457
 21
132.054481078099
 31
0.0
  0
LINE
  5
3D2
330
1E
100
AcDbEntity
  8
0
100
AcDbLine
 10
-0.067648665673
 20
120.134745593278
 30
0.0
 11
-0.126016150375
 21
122.132174712604
 31
0.0
  0
LINE
  5
3D3
330
1E
100
AcDbEntity
  8
0
100
AcDbLine
 10
0.162316476324
 20
118.142982514128
 30
0.0
 11
-0.067648665673
 21
120.134745593278
 31
0.0
  0
LINE
  5
3D4
330
1E
100
AcDbEntity
  8
0
100
AcDbLine
 10
0.560074786851
 20
116.177741550173
 30
0.0
 11
0.162316476324
 21
118.142982514128
 31
0.0
  0
LINE
  5
3D5
330
1E
100
AcDbEntity
  8
0
100
AcDbLine
 10
1.121926023311
 20
114.260177327497
 30
0.0
 11
0.560074786851
 21
116.177741550173
 31
0.0
  0
LINE
  5
3D6
330
1E
100
AcDbEntity
  8
0
100
AcDbLine
 10
1.836289297834
 20
120.067526837558
 30
0.0
 11
1.835929720533
 21
120.535579046937
 31
0.0
  0
LINE
  5
3D7
330
1E
100
AcDbEntity
  8
0
100
AcDbLine
 10
1.862469136596
 20
117.887936044303
 30
0.0
 11
1.84712031622
 21
118.998265555625
 31
0.0
  0
LINE
  5
3D8
330
1E
100
AcDbEntity
  8
0
100
AcDbLine
 10
1.862469136596
 20
117.887936044303
 30
0.0
 11
1.847893216661
 21
118.98225297854
 31
0.0
  0
LINE
  5
3D9
330
1E
100
AcDbEntity
  8
0
100
AcDbLine
 10
1.84712031622
 20
118.998265555625
 30
0.0
 11
1.836289297834
 21
120.067526837558
 31
0.0
  0
LINE
  5
3DA
330
1E
100
AcDbEntity
  8
0
100
AcDbLine
 10
1.81150693179
 20
112.476416187522
 30
0.0
 11
1.121926023311
 21
114.260177327497
 31
0.0
  0
LINE
  5
3DB
330
1E
100
AcDbEntity
  8
0
100
AcDbLine
 10
1.794699983569
 20
114.690575710857
 30
0.0
 11
1.784549710237
 21
115.751426488276
 31
0.0
  0
LINE
  5
3DC
330
1E
100
AcDbEntity
  8
0
100
AcDbLine
 10
1.811452359615
 20
112.632238063645
 30
0.0
 11
1.808650810104
 21
113.044712133752
 31
0.0
  0
LINE
  5
3DD
330
1E
100
AcDbEntity
  8
0
100
AcDbLine
 10
1.808650810104
 20
113.044712133752
 30
0.0
 11
1.794699983569
 21
114.690575710857
 31
0.0
  0
LINE
  5
3DE
330
1E
100
AcDbEntity
  8
0
100
AcDbLine
 10
1.814299884122
 20
110.024327996268
 30
0.0
 11
1.811446103583
 21
112.529820653599
 31
0.0
  0
LINE
  5
3DF
330
1E
100
AcDbEntity
  8
0
100
AcDbLine
 10
1.815172526805
 20
107.8867004706
 30
0.0
 11
1.814299884122
 21
110.024327996268
 31
0.0
  0
LINE
  5
3E0
330
1E
100
AcDbEntity
  8
0
100
AcDbLine
 10
1.927582495438
 20
112.813501527975
 30
0.0
 11
1.911595869826
 21
114.01984975208
 31
0.0
  0
LINE
  5
3E1
330
1E
100
AcDbEntity
  8
0
100
AcDbLine
 10
1.944787933085
 20
111.55913117879
 30
0.0
 11
1.927582495438
 21
112.813501527975
 31
0.0
  0
LINE
  5
3E2
330
1E
100
AcDbEntity
  8
0
100
AcDbLine
 10
1.811196422809
 20
105.682235009179
 30
0.0
 11
1.815172526805
 21
107.8867004706
 31
0.0
  0
LINE
  5
3E3
330
1E
100
AcDbEntity
  8
0
100
AcDbLine
 10
1.803021579775
 20
103.188900043327
 30
0.0
 11
1.811196422809
 21
105.682235009179
 31
0.0
  0
LINE
  5
3E4
330
1E
100
AcDbEntity
  8
0
100
AcDbLine
 10
1.96231227335
 20
110.256751473213
 30
0.0
 11
1.944787933085
 21
111.55913117879
 31
0.0
  0
LINE
  5
3E5
330
1E
100
AcDbEntity
  8
0
100
AcDbLine
 10
1.781750373043
 20
98.990179239825
 30
0.0
 11
1.791124898393
 21
100.644712762687
 31
0.0
  0
LINE
  5
3E6
330
1E
100
AcDbEntity
  8
0
100
AcDbLine
 10
1.791124898393
 20
100.644712762687
 30
0.0
 11
1.803021579775
 21
103.188900043327
 31
0.0
  0
LINE
  5
3E7
330
1E
100
AcDbEntity
  8
0
100
AcDbLine
 10
1.742431019471
 20
93.44897937712
 30
0.0
 11
1.758817288314
 21
95.668170252235
 31
0.0
  0
LINE
  5
3E8
330
1E
100
AcDbEntity
  8
0
100
AcDbLine
 10
1.758817288314
 20
95.668170252235
 30
0.0
 11
1.781750373043
 21
98.990179239825
 31
0.0
  0
LINE
  5
3E9
330
1E
100
AcDbEntity
  8
0
100
AcDbLine
 10
2.000338426986
 20
107.43892837521
 30
0.0
 11
1.980155516233
 21
108.906362411245
 31
0.0
  0
LINE
  5
3EA
330
1E
100
AcDbEntity
  8
0
100
AcDbLine
 10
1.980155516233
 20
108.906362411245
 30
0.0
 11
1.96231227335
 21
110.256751473213
 31
0.0
  0
LINE
  5
3EB
330
1E
100
AcDbEntity
  8
0
100
AcDbLine
 10
2.020869293132
 20
105.918484067274
 30
0.0
 11
2.000338426986
 21
107.43892837521
 31
0.0
  0
LINE
  5
3EC
330
1E
100
AcDbEntity
  8
0
100
AcDbLine
 10
2.044447891632
 20
104.196976283471
 30
0.0
 11
2.020869293132
 21
105.918484067274
 31
0.0
  0
LINE
  5
3ED
330
1E
100
AcDbEntity
  8
0
100
AcDbLine
 10
2.084927261301
 20
101.122092508329
 30
0.0
 11
2.044447891632
 21
104.196976283471
 31
0.0
  0
LINE
  5
3EE
330
1E
100
AcDbEntity
  8
0
100
AcDbLine
 10
1.695459168056
 20
87.572854374606
 30
0.0
 11
1.742431019471
 21
93.44897937712
 31
0.0
  0
LINE
  5
3EF
330
1E
100
AcDbEntity
  8
0
100
AcDbLine
 10
2.152224855465
 20
96.060628308731
 30
0.0
 11
2.084927261301
 21
101.122092508329
 31
0.0
  0
LINE
  5
3F0
330
1E
100
AcDbEntity
  8
0
100
AcDbLine
 10
2.308905020307
 20
84.181409815667
 30
0.0
 11
2.152224855465
 21
96.060628308731
 31
0.0
  0
LINE
  5
3F1
330
1E
100
AcDbEntity
  8
0
100
AcDbLine
 10
2.414761160115
 20
76.262110937757
 30
0.0
 11
2.308905020307
 21
84.181409815667
 31
0.0
  0
LINE
  5
3F2
330
1E
100
AcDbEntity
  8
0
100
AcDbLine
 10
2.466583665758
 20
72.302077145236
 30
0.0
 11
2.414761160115
 21
76.262110937757
 31
0.0
  0
LINE
  5
3F3
330
1E
100
AcDbEntity
  8
0
100
AcDbLine
 10
4.196399849263
 20
131.92823667066
 30
0.0
 11
3.617421374341
 21
130.693326598801
 31
0.0
  0
LINE
  5
3F4
330
1E
100
AcDbEntity
  8
0
100
AcDbLine
 10
3.617421374341
 20
130.693326598801
 30
0.0
 11
3.119009124078
 21
129.427270364352
 31
0.0
  0
LINE
  5
3F5
330
1E
100
AcDbEntity
  8
0
100
AcDbLine
 10
2.897087471541
 20
44.239244970931
 30
0.0
 11
2.854099029131
 21
46.495881989554
 31
0.0
  0
LINE
  5
3F6
330
1E
100
AcDbEntity
  8
0
100
AcDbLine
 10
2.854099029131
 20
46.495881989554
 30
0.0
 11
2.813450205884
 21
48.783488932009
 31
0.0
  0
LINE
  5
3F7
330
1E
100
AcDbEntity
  8
0
100
AcDbLine
 10
2.736129030683
 20
53.420452615915
 30
0.0
 11
2.700330309937
 21
55.76089606569
 31
0.0
  0
LINE
  5
3F8
330
1E
100
AcDbEntity
  8
0
100
AcDbLine
 10
2.664572054832
 20
58.111239937806
 30
0.0
 11
2.596438981258
 21
62.831881688064
 31
0.0
  0
LINE
  5
3F9
330
1E
100
AcDbEntity
  8
0
100
AcDbLine
 10
2.700330309937
 20
55.76089606569
 30
0.0
 11
2.664572054832
 21
58.111239937806
 31
0.0
  0
LINE
  5
3FA
330
1E
100
AcDbEntity
  8
0
100
AcDbLine
 10
2.813450205884
 20
48.783488932009
 30
0.0
 11
2.774211976687
 21
51.092978064127
 31
0.0
  0
LINE
  5
3FB
330
1E
100
AcDbEntity
  8
0
100
AcDbLine
 10
2.774211976687
 20
51.092978064127
 30
0.0
 11
2.736129030683
 21
53.420452615915
 31
0.0
  0
LINE
  5
3FC
330
1E
100
AcDbEntity
  8
0
100
AcDbLine
 10
1.256681799181
 20
34.756163674217
 30
0.0
 11
1.695459168056
 21
87.572854374606
 31
0.0
  0
LINE
  5
3FD
330
1E
100
AcDbEntity
  8
0
100
AcDbLine
 10
1.266941106698
 20
34.132955397146
 30
0.0
 11
1.256681799181
 21
34.756163674217
 31
0.0
  0
LINE
  5
3FE
330
1E
100
AcDbEntity
  8
0
100
AcDbLine
 10
1.335546550862
 20
33.561924589719
 30
0.0
 11
1.266941106698
 21
34.132955397146
 31
0.0
  0
LINE
  5
3FF
330
1E
100
AcDbEntity
  8
0
100
AcDbLine
 10
1.409875680029
 20
33.182831895834
 30
0.0
 11
1.335546550862
 21
33.561924589719
 31
0.0
  0
LINE
  5
400
330
1E
100
AcDbEntity
  8
0
100
AcDbLine
 10
1.556038111326
 20
32.82672238504
 30
0.0
 11
1.409875680029
 21
33.182831895834
 31
0.0
  0
LINE
  5
401
330
1E
100
AcDbEntity
  8
0
100
AcDbLine
 10
1.845755100664
 20
32.198548821375
 30
0.0
 11
1.556038111326
 21
32.82672238504
 31
0.0
  0
LINE
  5
402
330
1E
100
AcDbEntity
  8
0
100
AcDbLine
 10
2.084006228668
 20
31.862134790744
 30
0.0
 11
1.845755100664
 21
32.198548821375
 31
0.0
  0
LINE
  5
403
330
1E
100
AcDbEntity
  8
0
100
AcDbLine
 10
2.415140598277
 20
31.453395706164
 30
0.0
 11
2.084006228668
 21
31.862134790744
 31
0.0
  0
LINE
  5
404
330
1E
100
AcDbEntity
  8
0
100
AcDbLine
 10
2.909112751032
 20
43.818031969407
 30
0.0
 11
2.897087471541
 21
44.239244970931
 31
0.0
  0
LINE
  5
405
330
1E
100
AcDbEntity
  8
0
100
AcDbLine
 10
3.151807492284
 20
42.230028927039
 30
0.0
 11
3.019238094353
 21
42.761763263651
 31
0.0
  0
LINE
  5
406
330
1E
100
AcDbEntity
  8
0
100
AcDbLine
 10
3.019238094353
 20
42.761763263651
 30
0.0
 11
2.909112751032
 21
43.818031969407
 31
0.0
  0
LINE
  5
407
330
1E
100
AcDbEntity
  8
0
100
AcDbLine
 10
3.565018138747
 20
41.374980471307
 30
0.0
 11
3.494498040748
 21
41.479791519285
 31
0.0
  0
LINE
  5
408
330
1E
100
AcDbEntity
  8
0
100
AcDbLine
 10
3.494498040748
 20
41.479791519285
 30
0.0
 11
3.151807492284
 21
42.230028927039
 31
0.0
  0
LINE
  5
409
330
1E
100
AcDbEntity
  8
0
100
AcDbLine
 10
4.860000895985
 20
133.135943427612
 30
0.0
 11
4.196399849263
 21
131.92823667066
 31
0.0
  0
LINE
  5
40A
330
1E
100
AcDbEntity
  8
0
100
AcDbLine
 10
5.034122781698
 20
136.561817888085
 30
0.0
 11
3.493319137397
 21
134.387459093012
 31
0.0
  0
LINE
  5
40B
330
1E
100
AcDbEntity
  8
0
100
AcDbLine
 10
4.057223874583
 20
40.72343175969
 30
0.0
 11
3.565018138747
 21
41.374980471307
 31
0.0
  0
LINE
  5
40C
330
1E
100
AcDbEntity
  8
0
100
AcDbLine
 10
3.950995207484
 20
30.156475342619
 30
0.0
 11
3.20144615001
 21
30.71516574923
 31
0.0
  0
LINE
  5
40D
330
1E
100
AcDbEntity
  8
0
100
AcDbLine
 10
5.631847802465
 20
134.346114701837
 30
0.0
 11
4.860000895985
 21
133.135943427612
 31
0.0
  0
LINE
  5
40E
330
1E
100
AcDbEntity
  8
0
100
AcDbLine
 10
4.44076155141
 20
29.840495013551
 30
0.0
 11
3.950995207484
 21
30.156475342619
 31
0.0
  0
LINE
  5
411
330
1E
100
AcDbEntity
  8
0
100
AcDbLine
 10
5.352507298639
 20
39.824964586464
 30
0.0
 11
4.653414097396
 21
40.211021779087
 31
0.0
  0
LINE
  5
412
330
1E
100
AcDbEntity
  8
0
100
AcDbLine
 10
4.653414097396
 20
40.211021779087
 30
0.0
 11
4.057223874583
 21
40.72343175969
 31
0.0
  0
LINE
  5
413
330
1E
100
AcDbEntity
  8
0
100
AcDbLine
 10
6.491132542189
 20
135.516041407266
 30
0.0
 11
5.631847802465
 21
134.346114701837
 31
0.0
  0
LINE
  5
414
330
1E
100
AcDbEntity
  8
0
100
AcDbLine
 10
4.79288833544
 20
29.63547860453
 30
0.0
 11
4.44076155141
 21
29.840495013551
 31
0.0
  0
LINE
  5
415
330
1E
100
AcDbEntity
  8
0
100
AcDbLine
 10
6.926238742442
 20
39.435398170064
 30
0.0
 11
5.860407177813
 21
39.645140692791
 31
0.0
  0
LINE
  5
416
330
1E
100
AcDbEntity
  8
0
100
AcDbLine
 10
5.860407177813
 20
39.645140692791
 30
0.0
 11
5.352507298639
 21
39.824964586464
 31
0.0
  0
LINE
  5
417
330
1E
100
AcDbEntity
  8
0
100
AcDbLine
 10
6.810348734331
 20
138.552818190745
 30
0.0
 11
5.034122781698
 21
136.561817888085
 31
0.0
  0
LINE
  5
418
330
1E
100
AcDbEntity
  8
0
100
AcDbLine
 10
7.434699355346
 20
136.63476721331
 30
0.0
 11
6.491132542189
 21
135.516041407266
 31
0.0
  0
LINE
  5
419
330
1E
100
AcDbEntity
  8
0
100
AcDbLine
 10
8.458563509866
 20
137.696348054833
 30
0.0
 11
7.434699355346
 21
136.63476721331
 31
0.0
  0
LINE
  5
41A
330
1E
100
AcDbEntity
  8
0
100
AcDbLine
 10
7.996362706823
 20
139.615379047151
 30
0.0
 11
6.810348734331
 21
138.552818190745
 31
0.0
  0
LINE
  5
41B
330
1E
100
AcDbEntity
  8
0
100
AcDbLine
 10
5.802029519937
 20
29.032100754627
 30
0.0
 11
4.79288833544
 21
29.63547860453
 31
0.0
  0
LINE
  5
41C
330
1E
100
AcDbEntity
  8
0
100
AcDbLine
 10
7.767442827651
 20
28.004113123446
 30
0.0
 11
5.802029519937
 21
29.032100754627
 31
0.0
  0
LINE
  5
41D
330
1E
100
AcDbEntity
  8
0
100
AcDbLine
 10
7.85932481408
 20
27.945803685361
 30
0.0
 11
7.767442827651
 21
28.004113123446
 31
0.0
  0
LINE
  5
41F
330
1E
100
AcDbEntity
  8
0
100
AcDbLine
 10
21.177708217206
 20
143.748505183804
 30
0.0
 11
19.814610362194
 21
143.539823038756
 31
0.0
  0
LINE
  5
420
330
1E
100
AcDbEntity
  8
0
100
AcDbLine
 10
22.54149994927
 20
143.872168927698
 30
0.0
 11
21.177708217206
 21
143.748505183804
 31
0.0
  0
LINE
  5
421
330
1E
100
AcDbEntity
  8
0
100
AcDbLine
 10
18.359519875076
 20
144.974611442772
 30
0.0
 11
15.787855342318
 21
144.220020811398
 31
0.0
  0
LINE
  5
422
330
1E
100
AcDbEntity
  8
0
100
AcDbLine
 10
21.001676731745
 20
145.439172778609
 30
0.0
 11
18.359519875076
 21
144.974611442772
 31
0.0
  0
LINE
  5
423
330
1E
100
AcDbEntity
  8
0
100
AcDbLine
 10
15.787855342318
 20
144.220020811398
 30
0.0
 11
13.31726451043
 21
143.187968278148
 31
0.0
  0
LINE
  5
424
330
1E
100
AcDbEntity
  8
0
100
AcDbLine
 10
18.459405659578
 20
143.246020343045
 30
0.0
 11
17.120879036235
 21
142.865972347916
 31
0.0
  0
LINE
  5
425
330
1E
100
AcDbEntity
  8
0
100
AcDbLine
 10
17.120879036235
 20
142.865972347916
 30
0.0
 11
15.805244055587
 21
142.400590990644
 31
0.0
  0
LINE
  5
426
330
1E
100
AcDbEntity
  8
0
100
AcDbLine
 10
13.31726451043
 20
143.187968278148
 30
0.0
 11
11.501670129615
 21
142.178312506123
 31
0.0
  0
LINE
  5
427
330
1E
100
AcDbEntity
  8
0
100
AcDbLine
 10
19.814610362194
 20
143.539823038756
 30
0.0
 11
18.459405659578
 21
143.246020343045
 31
0.0
  0
LINE
  5
428
330
1E
100
AcDbEntity
  8
0
100
AcDbLine
 10
24.1854
 20
143.90985
 30
0.0
 11
22.54149994927
 21
143.872168927698
 31
0.0
  0
LINE
  5
429
330
1E
100
AcDbEntity
  8
0
100
AcDbLine
 10
14.520456672255
 20
141.853763787928
 30
0.0
 11
13.272530469789
 21
141.226405514531
 31
0.0
  0
LINE
  5
42A
330
1E
100
AcDbEntity
  8
0
100
AcDbLine
 10
15.805244055587
 20
142.400590990644
 30
0.0
 11
14.520456672255
 21
141.853763787928
 31
0.0
  0
LINE
  5
42B
330
1E
100
AcDbEntity
  8
0
100
AcDbLine
 10
9.944441885403
 20
139.009399410688
 30
0.0
 11
8.458563509866
 21
137.696348054833
 31
0.0
  0
LINE
  5
42D
330
1E
100
AcDbEntity
  8
0
100
AcDbLine
 10
13.272530469789
 20
141.226405514531
 30
0.0
 11
11.553463313946
 21
140.190690421612
 31
0.0
  0
LINE
  5
42E
330
1E
100
AcDbEntity
  8
0
100
AcDbLine
 10
9.021709248465
 20
27.39562579808
 30
0.0
 11
7.85932481408
 21
27.945803685361
 31
0.0
  0
LINE
  5
42F
330
1E
100
AcDbEntity
  8
0
100
AcDbLine
 10
11.553463313946
 20
140.190690421612
 30
0.0
 11
9.944441885403
 21
139.009399410688
 31
0.0
  0
LINE
  5
430
330
1E
100
AcDbEntity
  8
0
100
AcDbLine
 10
10.847514451799
 20
38.947716254048
 30
0.0
 11
6.926238742442
 21
39.435398170064
 31
0.0
  0
LINE
  5
431
330
1E
100
AcDbEntity
  8
0
100
AcDbLine
 10
18.732781100421
 20
38.374886916357
 30
0.0
 11
14.784770736351
 21
38.599521653643
 31
0.0
  0
LINE
  5
432
330
1E
100
AcDbEntity
  8
0
100
AcDbLine
 10
14.784770736351
 20
38.599521653643
 30
0.0
 11
10.847514451799
 21
38.947716254048
 31
0.0
  0
LINE
  5
433
330
1E
100
AcDbEntity
  8
0
100
AcDbLine
 10
22.686375798058
 20
38.261884187108
 30
0.0
 11
20.101171793772
 21
38.33646762997
 31
0.0
  0
LINE
  5
434
330
1E
100
AcDbEntity
  8
0
100
AcDbLine
 10
13.507878914249
 20
26.746544506756
 30
0.0
 11
13.077222262773
 21
26.752655033715
 31
0.0
  0
LINE
  5
435
330
1E
100
AcDbEntity
  8
0
100
AcDbLine
 10
20.082817101952
 20
26.653253628944
 30
0.0
 11
17.928833915026
 21
26.683816194943
 31
0.0
  0
LINE
  5
436
330
1E
100
AcDbEntity
  8
0
100
AcDbLine
 10
10.397523033673
 20
26.912689191195
 30
0.0
 11
9.236976217952
 21
27.291192465314
 31
0.0
  0
LINE
  5
437
330
1E
100
AcDbEntity
  8
0
100
AcDbLine
 10
22.379985876273
 20
26.620659422684
 30
0.0
 11
20.082817101952
 21
26.653253628944
 31
0.0
  0
LINE
  5
438
330
1E
100
AcDbEntity
  8
0
100
AcDbLine
 10
11.610969851062
 20
26.773459483989
 30
0.0
 11
10.397523033673
 21
26.912689191195
 31
0.0
  0
LINE
  5
439
330
1E
100
AcDbEntity
  8
0
100
AcDbLine
 10
11.697661124995
 20
26.772229433635
 30
0.0
 11
11.610969851062
 21
26.773459483989
 31
0.0
  0
LINE
  5
43A
330
1E
100
AcDbEntity
  8
0
100
AcDbLine
 10
16.395988206383
 20
26.705565528188
 30
0.0
 11
15.19390920382
 21
26.722621658929
 31
0.0
  0
LINE
  5
43B
330
1E
100
AcDbEntity
  8
0
100
AcDbLine
 10
15.29779874663
 20
26.721147584745
 30
0.0
 11
14.302498930333
 21
26.735269754551
 31
0.0
  0
LINE
  5
43C
330
1E
100
AcDbEntity
  8
0
100
AcDbLine
 10
14.302498930333
 20
26.735269754551
 30
0.0
 11
13.563273338423
 21
26.745758523023
 31
0.0
  0
LINE
  5
43D
330
1E
100
AcDbEntity
  8
0
100
AcDbLine
 10
13.563273338423
 20
26.745758523023
 30
0.0
 11
13.105519414472
 21
26.752253529389
 31
0.0
  0
LINE
  5
43E
330
1E
100
AcDbEntity
  8
0
100
AcDbLine
 10
13.105519414472
 20
26.752253529389
 30
0.0
 11
12.941135960786
 21
26.754585943209
 31
0.0
  0
LINE
  5
43F
330
1E
100
AcDbEntity
  8
0
100
AcDbLine
 10
13.077222262773
 20
26.752655033715
 30
0.0
 11
12.941135960786
 21
26.754585943209
 31
0.0
  0
LINE
  5
440
330
1E
100
AcDbEntity
  8
0
100
AcDbLine
 10
12.032527418422
 20
26.767478062661
 30
0.0
 11
11.697661124995
 21
26.772229433635
 31
0.0
  0
LINE
  5
441
330
1E
100
AcDbEntity
  8
0
100
AcDbLine
 10
12.478182560198
 20
26.761154724222
 30
0.0
 11
12.032527418422
 21
26.767478062661
 31
0.0
  0
LINE
  5
442
330
1E
100
AcDbEntity
  8
0
100
AcDbLine
 10
12.4182689627
 20
18.549128231124
 30
0.0
 11
12.162542629147
 21
0.526092372401
 31
0.0
  0
LINE
  5
443
330
1E
100
AcDbEntity
  8
0
100
AcDbLine
 10
12.408495941678
 20
18.748456946968
 30
0.0
 11
12.448498399302
 21
21.567743166614
 31
0.0
  0
LINE
  5
444
330
1E
100
AcDbEntity
  8
0
100
AcDbLine
 10
12.448498399302
 20
21.567743166614
 30
0.0
 11
12.408495941678
 21
18.748456946968
 31
0.0
  0
LINE
  5
445
330
1E
100
AcDbEntity
  8
0
100
AcDbLine
 10
12.474374274803
 20
23.229303284897
 30
0.0
 11
12.448498399302
 21
21.567743166614
 31
0.0
  0
LINE
  5
446
330
1E
100
AcDbEntity
  8
0
100
AcDbLine
 10
12.412195569286
 20
18.74840445347
 30
0.0
 11
12.448498399302
 21
21.567743166614
 31
0.0
  0
LINE
  5
447
330
1E
100
AcDbEntity
  8
0
100
AcDbLine
 10
12.465490204818
 20
18.747648263345
 30
0.0
 11
12.408495941678
 21
18.748456946968
 31
0.0
  0
LINE
  5
448
330
1E
100
AcDbEntity
  8
0
100
AcDbLine
 10
12.509730448637
 20
23.486757583505
 30
0.0
 11
12.486030266012
 21
23.324797527492
 31
0.0
  0
LINE
  5
449
330
1E
100
AcDbEntity
  8
0
100
AcDbLine
 10
12.486030266012
 20
23.324797527492
 30
0.0
 11
12.474374274803
 21
23.229303284897
 31
0.0
  0
LINE
  5
44A
330
1E
100
AcDbEntity
  8
0
100
AcDbLine
 10
12.618474805876
 20
18.74547758625
 30
0.0
 11
12.465490204818
 21
18.747648263345
 31
0.0
  0
LINE
  5
44B
330
1E
100
AcDbEntity
  8
0
100
AcDbLine
 10
12.775033962057
 20
23.92917813611
 30
0.0
 11
12.613125367647
 21
23.725314685103
 31
0.0
  0
LINE
  5
44C
330
1E
100
AcDbEntity
  8
0
100
AcDbLine
 10
12.618474805876
 20
18.74547758625
 30
0.0
 11
12.465490204818
 21
18.747648263345
 31
0.0
  0
LINE
  5
44D
330
1E
100
AcDbEntity
  8
0
100
AcDbLine
 10
12.613125367647
 20
23.725314685103
 30
0.0
 11
12.509730448637
 21
23.486757583505
 31
0.0
  0
LINE
  5
44E
330
1E
100
AcDbEntity
  8
0
100
AcDbLine
 10
12.984259566176
 20
24.084565401292
 30
0.0
 11
12.775033962057
 21
23.92917813611
 31
0.0
  0
LINE
  5
44F
330
1E
100
AcDbEntity
  8
0
100
AcDbLine
 10
12.8664498455
 20
18.741959103116
 30
0.0
 11
12.618474805876
 21
18.74547758625
 31
0.0
  0
LINE
  5
450
330
1E
100
AcDbEntity
  8
0
100
AcDbLine
 10
12.8664498455
 20
18.741959103116
 30
0.0
 11
12.618474805876
 21
18.74547758625
 31
0.0
  0
LINE
  5
451
330
1E
100
AcDbEntity
  8
0
100
AcDbLine
 10
12.531657549367
 20
18.547519376336
 30
0.0
 11
12.421668620502
 21
18.549079993855
 31
0.0
  0
LINE
  5
452
330
1E
100
AcDbEntity
  8
0
100
AcDbLine
 10
12.741636413565
 20
18.544540015618
 30
0.0
 11
12.531657549367
 21
18.547519376336
 31
0.0
  0
LINE
  5
453
330
1E
100
AcDbEntity
  8
0
100
AcDbLine
 10
12.525666446878
 20
0.222109983114
 30
0.0
 11
12.448674196672
 21
0.223202415378
 31
0.0
  0
LINE
  5
454
330
1E
100
AcDbEntity
  8
0
100
AcDbLine
 10
12.34904709629
 20
0.327726388079
 30
0.0
 11
12.162542629147
 21
0.526092372401
 31
0.0
  0
LINE
  5
455
330
1E
100
AcDbEntity
  8
0
100
AcDbLine
 10
12.162542629147
 20
0.526092372401
 30
0.0
 11
12.4182689627
 21
18.549128231124
 31
0.0
  0
LINE
  5
456
330
1E
100
AcDbEntity
  8
0
100
AcDbLine
 10
12.275931215814
 20
0.524483517613
 30
0.0
 11
12.165942286948
 21
0.526044135132
 31
0.0
  0
LINE
  5
457
330
1E
100
AcDbEntity
  8
0
100
AcDbLine
 10
12.485910080011
 20
0.521504156894
 30
0.0
 11
12.275931215814
 21
0.524483517613
 31
0.0
  0
LINE
  5
458
330
1E
100
AcDbEntity
  8
0
100
AcDbLine
 10
12.448674196672
 20
0.223202415378
 30
0.0
 11
12.34904709629
 21
0.327726388079
 31
0.0
  0
LINE
  5
459
330
1E
100
AcDbEntity
  8
0
100
AcDbLine
 10
13.318297996859
 20
26.749234443861
 30
0.0
 11
12.478182560198
 21
26.761154724222
 31
0.0
  0
LINE
  5
45A
330
1E
100
AcDbEntity
  8
0
100
AcDbLine
 10
13.205415726276
 20
18.73714956367
 30
0.0
 11
12.8664498455
 21
18.741959103116
 31
0.0
  0
LINE
  5
45B
330
1E
100
AcDbEntity
  8
0
100
AcDbLine
 10
13.226648094804
 20
24.180716207786
 30
0.0
 11
12.984259566176
 21
24.084565401292
 31
0.0
  0
LINE
  5
45C
330
1E
100
AcDbEntity
  8
0
100
AcDbLine
 10
12.707648129183
 20
0.219527870491
 30
0.0
 11
12.525666446878
 21
0.222109983114
 31
0.0
  0
LINE
  5
45D
330
1E
100
AcDbEntity
  8
0
100
AcDbLine
 10
12.795878879541
 20
0.517106052977
 30
0.0
 11
12.485910080011
 21
0.521504156894
 31
0.0
  0
LINE
  5
45E
330
1E
100
AcDbEntity
  8
0
100
AcDbLine
 10
13.051605213094
 20
18.5401419117
 30
0.0
 11
12.741636413565
 21
18.544540015618
 31
0.0
  0
LINE
  5
45F
330
1E
100
AcDbEntity
  8
0
100
AcDbLine
 10
13.495101507942
 20
24.210770568115
 30
0.0
 11
13.226648094804
 21
24.180716207786
 31
0.0
  0
LINE
  5
460
330
1E
100
AcDbEntity
  8
0
100
AcDbLine
 10
12.993619344233
 20
0.215470264941
 30
0.0
 11
12.707648129183
 21
0.219527870491
 31
0.0
  0
LINE
  5
461
330
1E
100
AcDbEntity
  8
0
100
AcDbLine
 10
13.205415726276
 20
18.73714956367
 30
0.0
 11
12.8664498455
 21
18.741959103116
 31
0.0
  0
LINE
  5
462
330
1E
100
AcDbEntity
  8
0
100
AcDbLine
 10
14.22180705252
 20
26.736414680313
 30
0.0
 11
13.507878914249
 21
26.746544506756
 31
0.0
  0
LINE
  5
463
330
1E
100
AcDbEntity
  8
0
100
AcDbLine
 10
15.19390920382
 20
26.722621658929
 30
0.0
 11
14.22180705252
 21
26.736414680313
 31
0.0
  0
LINE
  5
464
330
1E
100
AcDbEntity
  8
0
100
AcDbLine
 10
14.292399946865
 20
26.735413047614
 30
0.0
 11
13.318297996859
 21
26.749234443861
 31
0.0
  0
LINE
  5
465
330
1E
100
AcDbEntity
  8
0
100
AcDbLine
 10
15.171711438176
 20
26.72293661992
 30
0.0
 11
14.292399946865
 21
26.735413047614
 31
0.0
  0
LINE
  5
466
330
1E
100
AcDbEntity
  8
0
100
AcDbLine
 10
14.736261636212
 20
18.715428605289
 30
0.0
 11
14.144321219045
 21
18.723827565029
 31
0.0
  0
LINE
  5
467
330
1E
100
AcDbEntity
  8
0
100
AcDbLine
 10
14.144321219045
 20
18.723827565029
 30
0.0
 11
13.632372750144
 21
18.731091530209
 31
0.0
  0
LINE
  5
468
330
1E
100
AcDbEntity
  8
0
100
AcDbLine
 10
13.632372750144
 20
18.731091530209
 30
0.0
 11
13.205415726276
 21
18.73714956367
 31
0.0
  0
LINE
  5
469
330
1E
100
AcDbEntity
  8
0
100
AcDbLine
 10
13.581092852327
 20
24.209550448964
 30
0.0
 11
13.495101507942
 21
24.210770568115
 31
0.0
  0
LINE
  5
46A
330
1E
100
AcDbEntity
  8
0
100
AcDbLine
 10
13.758075037865
 20
24.207039273501
 30
0.0
 11
13.581092852327
 21
24.209550448964
 31
0.0
  0
LINE
  5
46B
330
1E
100
AcDbEntity
  8
0
100
AcDbLine
 10
14.025048165202
 20
24.203251229159
 30
0.0
 11
13.758075037865
 21
24.207039273501
 31
0.0
  0
LINE
  5
46C
330
1E
100
AcDbEntity
  8
0
100
AcDbLine
 10
14.816968453033
 20
24.192014783021
 30
0.0
 11
14.379012536278
 21
24.198228878234
 31
0.0
  0
LINE
  5
46D
330
1E
100
AcDbEntity
  8
0
100
AcDbLine
 10
14.736261636212
 20
18.715428605289
 30
0.0
 11
14.144321219045
 21
18.723827565029
 31
0.0
  0
LINE
  5
46E
330
1E
100
AcDbEntity
  8
0
100
AcDbLine
 10
14.379012536278
 20
24.198228878234
 30
0.0
 11
14.025048165202
 21
24.203251229159
 31
0.0
  0
LINE
  5
46F
330
1E
100
AcDbEntity
  8
0
100
AcDbLine
 10
14.144321219045
 20
18.723827565029
 30
0.0
 11
13.632372750144
 21
18.731091530209
 31
0.0
  0
LINE
  5
470
330
1E
100
AcDbEntity
  8
0
100
AcDbLine
 10
13.632372750144
 20
18.731091530209
 30
0.0
 11
13.205415726276
 21
18.73714956367
 31
0.0
  0
LINE
  5
471
330
1E
100
AcDbEntity
  8
0
100
AcDbLine
 10
13.861531982916
 20
0.203155573972
 30
0.0
 11
13.379580494615
 21
0.209993916192
 31
0.0
  0
LINE
  5
472
330
1E
100
AcDbEntity
  8
0
100
AcDbLine
 10
13.379580494615
 20
0.209993916192
 30
0.0
 11
12.993619344233
 21
0.215470264941
 31
0.0
  0
LINE
  5
473
330
1E
100
AcDbEntity
  8
0
100
AcDbLine
 10
13.20183801699
 20
0.511345955588
 30
0.0
 11
12.795878879541
 21
0.517106052977
 31
0.0
  0
LINE
  5
474
330
1E
100
AcDbEntity
  8
0
100
AcDbLine
 10
13.457564350543
 20
18.534381814311
 30
0.0
 11
13.051605213094
 21
18.5401419117
 31
0.0
  0
LINE
  5
475
330
1E
100
AcDbEntity
  8
0
100
AcDbLine
 10
13.698787995591
 20
0.504294801887
 30
0.0
 11
13.20183801699
 21
0.511345955588
 31
0.0
  0
LINE
  5
476
330
1E
100
AcDbEntity
  8
0
100
AcDbLine
 10
13.954514329144
 20
18.527330660611
 30
0.0
 11
13.457564350543
 21
18.534381814311
 31
0.0
  0
LINE
  5
477
330
1E
100
AcDbEntity
  8
0
100
AcDbLine
 10
14.434474312369
 20
0.19502617544
 30
0.0
 11
13.861531982916
 21
0.203155573972
 31
0.0
  0
LINE
  5
478
330
1E
100
AcDbEntity
  8
0
100
AcDbLine
 10
14.283729117284
 20
0.495995154171
 30
0.0
 11
13.698787995591
 21
0.504294801887
 31
0.0
  0
LINE
  5
479
330
1E
100
AcDbEntity
  8
0
100
AcDbLine
 10
14.538455551484
 20
18.519045200327
 30
0.0
 11
13.954514329144
 21
18.527330660611
 31
0.0
  0
LINE
  5
47A
330
1E
100
AcDbEntity
  8
0
100
AcDbLine
 10
14.471470588442
 20
0.194501240456
 30
0.0
 11
14.397478036296
 21
0.195551110424
 31
0.0
  0
LINE
  5
47B
330
1E
100
AcDbEntity
  8
0
100
AcDbLine
 10
14.64845277398
 20
0.191990064994
 30
0.0
 11
14.471470588442
 21
0.194501240456
 31
0.0
  0
LINE
  5
47C
330
1E
100
AcDbEntity
  8
0
100
AcDbLine
 10
16.382889524855
 20
26.705751383547
 30
0.0
 11
15.171711438176
 21
26.72293661992
 31
0.0
  0
LINE
  5
47D
330
1E
100
AcDbEntity
  8
0
100
AcDbLine
 10
16.135120831509
 20
18.695580387932
 30
0.0
 11
15.402194605524
 21
18.705979775582
 31
0.0
  0
LINE
  5
47E
330
1E
100
AcDbEntity
  8
0
100
AcDbLine
 10
15.402194605524
 20
18.705979775582
 30
0.0
 11
14.736261636212
 21
18.715428605289
 31
0.0
  0
LINE
  5
47F
330
1E
100
AcDbEntity
  8
0
100
AcDbLine
 10
15.255209400586
 20
18.708065328085
 30
0.0
 11
15.167218257493
 21
18.709313822101
 31
0.0
  0
LINE
  5
480
330
1E
100
AcDbEntity
  8
0
100
AcDbLine
 10
15.331916619994
 20
24.184708255545
 30
0.0
 11
14.816968453033
 21
24.192014783021
 31
0.0
  0
LINE
  5
481
330
1E
100
AcDbEntity
  8
0
100
AcDbLine
 10
15.402194605524
 20
18.705979775582
 30
0.0
 11
14.736261636212
 21
18.715428605289
 31
0.0
  0
LINE
  5
482
330
1E
100
AcDbEntity
  8
0
100
AcDbLine
 10
15.921857238454
 20
24.176337670669
 30
0.0
 11
15.331916619994
 21
24.184708255545
 31
0.0
  0
LINE
  5
483
330
1E
100
AcDbEntity
  8
0
100
AcDbLine
 10
15.432191586124
 20
18.705554152622
 30
0.0
 11
15.255209400586
 21
18.708065328085
 31
0.0
  0
LINE
  5
484
330
1E
100
AcDbEntity
  8
0
100
AcDbLine
 10
16.046129789063
 20
18.696843069379
 30
0.0
 11
15.696165015401
 21
18.701808670576
 31
0.0
  0
LINE
  5
485
330
1E
100
AcDbEntity
  8
0
100
AcDbLine
 10
15.696165015401
 20
18.701808670576
 30
0.0
 11
15.432191586124
 21
18.705554152622
 31
0.0
  0
LINE
  5
486
330
1E
100
AcDbEntity
  8
0
100
AcDbLine
 10
16.046129789063
 20
18.696843069379
 30
0.0
 11
15.696165015401
 21
18.701808670576
 31
0.0
  0
LINE
  5
487
330
1E
100
AcDbEntity
  8
0
100
AcDbLine
 10
15.696165015401
 20
18.701808670576
 30
0.0
 11
15.432191586124
 21
18.705554152622
 31
0.0
  0
LINE
  5
488
330
1E
100
AcDbEntity
  8
0
100
AcDbLine
 10
15.432191586124
 20
18.705554152622
 30
0.0
 11
15.255209400586
 21
18.708065328085
 31
0.0
  0
LINE
  5
489
330
1E
100
AcDbEntity
  8
0
100
AcDbLine
 10
14.927424693557
 20
0.188031771468
 30
0.0
 11
14.64845277398
 21
0.191990064994
 31
0.0
  0
LINE
  5
48A
330
1E
100
AcDbEntity
  8
0
100
AcDbLine
 10
14.948662187243
 20
0.486560511896
 30
0.0
 11
14.283729117284
 21
0.495995154171
 31
0.0
  0
LINE
  5
48B
330
1E
100
AcDbEntity
  8
0
100
AcDbLine
 10
15.204388520796
 20
18.50959637062
 30
0.0
 11
14.538455551484
 21
18.519045200327
 31
0.0
  0
LINE
  5
48C
330
1E
100
AcDbEntity
  8
0
100
AcDbLine
 10
15.092408086855
 20
0.185690845189
 30
0.0
 11
14.434474312369
 21
0.19502617544
 31
0.0
  0
LINE
  5
48D
330
1E
100
AcDbEntity
  8
0
100
AcDbLine
 10
15.772339647114
 20
0.176043391434
 30
0.0
 11
15.303386850406
 21
0.182697297038
 31
0.0
  0
LINE
  5
48E
330
1E
100
AcDbEntity
  8
0
100
AcDbLine
 10
15.686587909994
 20
0.476090187086
 30
0.0
 11
14.948662187243
 21
0.486560511896
 31
0.0
  0
LINE
  5
48F
330
1E
100
AcDbEntity
  8
0
100
AcDbLine
 10
15.942314243548
 20
18.499126045809
 30
0.0
 11
15.204388520796
 21
18.50959637062
 31
0.0
  0
LINE
  5
490
330
1E
100
AcDbEntity
  8
0
100
AcDbLine
 10
15.303386850406
 20
0.182697297038
 30
0.0
 11
14.927424693557
 21
0.188031771468
 31
0.0
  0
LINE
  5
491
330
1E
100
AcDbEntity
  8
0
100
AcDbLine
 10
15.565360480976
 20
0.178980189856
 30
0.0
 11
15.313385843939
 21
0.182555422718
 31
0.0
  0
LINE
  5
492
330
1E
100
AcDbEntity
  8
0
100
AcDbLine
 10
15.826334212193
 20
0.175277270106
 30
0.0
 11
15.092408086855
 21
0.185690845189
 31
0.0
  0
LINE
  5
493
330
1E
100
AcDbEntity
  8
0
100
AcDbLine
 10
15.826334212193
 20
0.175277270106
 30
0.0
 11
15.092408086855
 21
0.185690845189
 31
0.0
  0
LINE
  5
494
330
1E
100
AcDbEntity
  8
0
100
AcDbLine
 10
16.135120831509
 20
18.695580387932
 30
0.0
 11
15.402194605524
 21
18.705979775582
 31
0.0
  0
LINE
  5
495
330
1E
100
AcDbEntity
  8
0
100
AcDbLine
 10
16.521775545031
 20
26.703780749243
 30
0.0
 11
16.485800473727
 21
24.168335959025
 31
0.0
  0
LINE
  5
496
330
1E
100
AcDbEntity
  8
0
100
AcDbLine
 10
16.521775545031
 20
26.703780749243
 30
0.0
 11
16.382889524855
 21
26.705751383547
 31
0.0
  0
LINE
  5
497
330
1E
100
AcDbEntity
  8
0
100
AcDbLine
 10
16.521775545031
 20
26.703780749243
 30
0.0
 11
16.395988206383
 21
26.705565528188
 31
0.0
  0
LINE
  5
498
330
1E
100
AcDbEntity
  8
0
100
AcDbLine
 10
16.518975826842
 20
26.703820474053
 30
0.0
 11
15.29779874663
 21
26.721147584745
 31
0.0
  0
LINE
  5
499
330
1E
100
AcDbEntity
  8
0
100
AcDbLine
 10
17.928833915026
 20
26.683816194943
 30
0.0
 11
16.518975826842
 21
26.703820474053
 31
0.0
  0
LINE
  5
49A
330
1E
100
AcDbEntity
  8
0
100
AcDbLine
 10
19.600771990122
 20
18.646406748645
 30
0.0
 11
18.869845562844
 21
18.656777761432
 31
0.0
  0
LINE
  5
49B
330
1E
100
AcDbEntity
  8
0
100
AcDbLine
 10
18.869845562844
 20
18.656777761432
 30
0.0
 11
18.183914606465
 21
18.666510339779
 31
0.0
  0
LINE
  5
49C
330
1E
100
AcDbEntity
  8
0
100
AcDbLine
 10
18.183914606465
 20
18.666510339779
 30
0.0
 11
17.549978416459
 21
18.675505171662
 31
0.0
  0
LINE
  5
49D
330
1E
100
AcDbEntity
  8
0
100
AcDbLine
 10
17.549978416459
 20
18.675505171662
 30
0.0
 11
16.979035885713
 21
18.68360619533
 31
0.0
  0
LINE
  5
49E
330
1E
100
AcDbEntity
  8
0
100
AcDbLine
 10
16.577791214233
 20
24.167030715282
 30
0.0
 11
15.921857238454
 21
24.176337670669
 31
0.0
  0
LINE
  5
49F
330
1E
100
AcDbEntity
  8
0
100
AcDbLine
 10
16.485800473727
 20
24.168335959025
 30
0.0
 11
16.521775545031
 21
26.703780749243
 31
0.0
  0
LINE
  5
4A0
330
1E
100
AcDbEntity
  8
0
100
AcDbLine
 10
18.065641451976
 20
24.145919816477
 30
0.0
 11
17.294719050565
 21
24.156858326543
 31
0.0
  0
LINE
  5
4A1
330
1E
100
AcDbEntity
  8
0
100
AcDbLine
 10
17.294719050565
 20
24.156858326543
 30
0.0
 11
16.577791214233
 21
24.167030715282
 31
0.0
  0
LINE
  5
4A2
330
1E
100
AcDbEntity
  8
0
100
AcDbLine
 10
17.774955770957
 20
18.672312999464
 30
0.0
 11
16.928041018693
 21
18.684329754361
 31
0.0
  0
LINE
  5
4A3
330
1E
100
AcDbEntity
  8
0
100
AcDbLine
 10
16.928041018693
 20
18.684329754361
 30
0.0
 11
16.135120831509
 21
18.695580387932
 31
0.0
  0
LINE
  5
4A4
330
1E
100
AcDbEntity
  8
0
100
AcDbLine
 10
16.979035885713
 20
18.68360619533
 30
0.0
 11
16.475086611638
 21
18.690756661054
 31
0.0
  0
LINE
  5
4A5
330
1E
100
AcDbEntity
  8
0
100
AcDbLine
 10
16.475086611638
 20
18.690756661054
 30
0.0
 11
16.046129789063
 21
18.696843069379
 31
0.0
  0
LINE
  5
4A6
330
1E
100
AcDbEntity
  8
0
100
AcDbLine
 10
19.592772795296
 20
18.646520248101
 30
0.0
 11
18.665866094767
 21
18.659671997558
 31
0.0
  0
LINE
  5
4A7
330
1E
100
AcDbEntity
  8
0
100
AcDbLine
 10
18.880559424933
 20
24.134357059402
 30
0.0
 11
18.065641451976
 21
24.145919816477
 31
0.0
  0
LINE
  5
4A8
330
1E
100
AcDbEntity
  8
0
100
AcDbLine
 10
18.665866094767
 20
18.659671997558
 30
0.0
 11
17.774955770957
 21
18.672312999464
 31
0.0
  0
LINE
  5
4A9
330
1E
100
AcDbEntity
  8
0
100
AcDbLine
 10
18.869845562844
 20
18.656777761432
 30
0.0
 11
18.183914606465
 21
18.666510339779
 31
0.0
  0
LINE
  5
4AA
330
1E
100
AcDbEntity
  8
0
100
AcDbLine
 10
18.183914606465
 20
18.666510339779
 30
0.0
 11
17.549978416459
 21
18.675505171662
 31
0.0
  0
LINE
  5
4AB
330
1E
100
AcDbEntity
  8
0
100
AcDbLine
 10
17.549978416459
 20
18.675505171662
 30
0.0
 11
16.979035885713
 21
18.68360619533
 31
0.0
  0
LINE
  5
4AC
330
1E
100
AcDbEntity
  8
0
100
AcDbLine
 10
17.774955770957
 20
18.672312999464
 30
0.0
 11
16.928041018693
 21
18.684329754361
 31
0.0
  0
LINE
  5
4AD
330
1E
100
AcDbEntity
  8
0
100
AcDbLine
 10
16.928041018693
 20
18.684329754361
 30
0.0
 11
16.135120831509
 21
18.695580387932
 31
0.0
  0
LINE
  5
4AE
330
1E
100
AcDbEntity
  8
0
100
AcDbLine
 10
16.979035885713
 20
18.68360619533
 30
0.0
 11
16.475086611638
 21
18.690756661054
 31
0.0
  0
LINE
  5
4AF
330
1E
100
AcDbEntity
  8
0
100
AcDbLine
 10
16.475086611638
 20
18.690756661054
 30
0.0
 11
16.046129789063
 21
18.696843069379
 31
0.0
  0
LINE
  5
4B0
330
1E
100
AcDbEntity
  8
0
100
AcDbLine
 10
16.327283788208
 20
0.168169366678
 30
0.0
 11
15.772339647114
 21
0.176043391434
 31
0.0
  0
LINE
  5
4B1
330
1E
100
AcDbEntity
  8
0
100
AcDbLine
 10
16.237292846409
 20
0.169446235557
 30
0.0
 11
15.565360480976
 21
0.178980189856
 31
0.0
  0
LINE
  5
4B2
330
1E
100
AcDbEntity
  8
0
100
AcDbLine
 10
16.630253292264
 20
0.163870574784
 30
0.0
 11
15.826334212193
 21
0.175277270106
 31
0.0
  0
LINE
  5
4B3
330
1E
100
AcDbEntity
  8
0
100
AcDbLine
 10
16.492506788772
 20
0.4646551169
 30
0.0
 11
15.686587909994
 21
0.476090187086
 31
0.0
  0
LINE
  5
4B4
330
1E
100
AcDbEntity
  8
0
100
AcDbLine
 10
16.748233122325
 20
18.487690975623
 30
0.0
 11
15.942314243548
 21
18.499126045809
 31
0.0
  0
LINE
  5
4B5
330
1E
100
AcDbEntity
  8
0
100
AcDbLine
 10
16.630253292264
 20
0.163870574784
 30
0.0
 11
15.826334212193
 21
0.175277270106
 31
0.0
  0
LINE
  5
4B6
330
1E
100
AcDbEntity
  8
0
100
AcDbLine
 10
17.495166232888
 20
0.15159844611
 30
0.0
 11
16.630253292264
 21
0.163870574784
 31
0.0
  0
LINE
  5
4B7
330
1E
100
AcDbEntity
  8
0
100
AcDbLine
 10
17.355419930689
 20
0.45241136309
 30
0.0
 11
16.492506788772
 21
0.4646551169
 31
0.0
  0
LINE
  5
4B8
330
1E
100
AcDbEntity
  8
0
100
AcDbLine
 10
17.611146264242
 20
18.475447221813
 30
0.0
 11
16.748233122325
 21
18.487690975623
 31
0.0
  0
LINE
  5
4B9
330
1E
100
AcDbEntity
  8
0
100
AcDbLine
 10
17.495166232888
 20
0.15159844611
 30
0.0
 11
16.630253292264
 21
0.163870574784
 31
0.0
  0
LINE
  5
4BA
330
1E
100
AcDbEntity
  8
0
100
AcDbLine
 10
16.961219978214
 20
0.159174534795
 30
0.0
 11
16.327283788208
 21
0.168169366678
 31
0.0
  0
LINE
  5
4BB
330
1E
100
AcDbEntity
  8
0
100
AcDbLine
 10
17.329182940236
 20
0.153953559821
 30
0.0
 11
16.237292846409
 21
0.169446235557
 31
0.0
  0
LINE
  5
4BC
330
1E
100
AcDbEntity
  8
0
100
AcDbLine
 10
17.665149122952
 20
0.149186582672
 30
0.0
 11
16.961219978214
 21
0.159174534795
 31
0.0
  0
LINE
  5
4BD
330
1E
100
AcDbEntity
  8
0
100
AcDbLine
 10
18.665866094767
 20
18.659671997558
 30
0.0
 11
17.774955770957
 21
18.672312999464
 31
0.0
  0
LINE
  5
4BE
330
1E
100
AcDbEntity
  8
0
100
AcDbLine
 10
19.592772795296
 20
18.646520248101
 30
0.0
 11
18.665866094767
 21
18.659671997558
 31
0.0
  0
LINE
  5
4BF
330
1E
100
AcDbEntity
  8
0
100
AcDbLine
 10
19.243990201847
 20
0.126784627555
 30
0.0
 11
18.42907222889
 21
0.138347384629
 31
0.0
  0
LINE
  5
4C0
330
1E
100
AcDbEntity
  8
0
100
AcDbLine
 10
18.267328140918
 20
0.439472425113
 30
0.0
 11
17.355419930689
 21
0.45241136309
 31
0.0
  0
LINE
  5
4C1
330
1E
100
AcDbEntity
  8
0
100
AcDbLine
 10
18.523054474471
 20
18.462508283836
 30
0.0
 11
17.611146264242
 21
18.475447221813
 31
0.0
  0
LINE
  5
4C2
330
1E
100
AcDbEntity
  8
0
100
AcDbLine
 10
19.220232224634
 20
0.425951802424
 30
0.0
 11
18.267328140918
 21
0.439472425113
 31
0.0
  0
LINE
  5
4C3
330
1E
100
AcDbEntity
  8
0
100
AcDbLine
 10
18.410074141177
 20
0.138616945837
 30
0.0
 11
17.495166232888
 21
0.15159844611
 31
0.0
  0
LINE
  5
4C4
330
1E
100
AcDbEntity
  8
0
100
AcDbLine
 10
19.475958558187
 20
18.448987661147
 30
0.0
 11
18.523054474471
 21
18.462508283836
 31
0.0
  0
LINE
  5
4C5
330
1E
100
AcDbEntity
  8
0
100
AcDbLine
 10
18.42907222889
 20
0.138347384629
 30
0.0
 11
17.665149122952
 21
0.149186582672
 31
0.0
  0
LINE
  5
4C6
330
1E
100
AcDbEntity
  8
0
100
AcDbLine
 10
18.410074141177
 20
0.138616945837
 30
0.0
 11
17.495166232888
 21
0.15159844611
 31
0.0
  0
LINE
  5
4C7
330
1E
100
AcDbEntity
  8
0
100
AcDbLine
 10
18.75703921678
 20
0.133693906936
 30
0.0
 11
17.329182940236
 21
0.153953559821
 31
0.0
  0
LINE
  5
4C8
330
1E
100
AcDbEntity
  8
0
100
AcDbLine
 10
21.965533960729
 20
18.612853471982
 30
0.0
 11
21.518578949794
 21
18.619195254083
 31
0.0
  0
LINE
  5
4C9
330
1E
100
AcDbEntity
  8
0
100
AcDbLine
 10
21.965533960729
 20
18.612853471982
 30
0.0
 11
20.546676778365
 21
18.63298543798
 31
0.0
  0
LINE
  5
4CA
330
1E
100
AcDbEntity
  8
0
100
AcDbLine
 10
21.965533960729
 20
18.612853471982
 30
0.0
 11
21.158615182598
 21
18.6243027296
 31
0.0
  0
LINE
  5
4CB
330
1E
100
AcDbEntity
  8
0
100
AcDbLine
 10
19.733473573317
 20
24.122255179913
 30
0.0
 11
18.880559424933
 21
24.134357059402
 31
0.0
  0
LINE
  5
4CC
330
1E
100
AcDbEntity
  8
0
100
AcDbLine
 10
19.600771990122
 20
18.646406748645
 30
0.0
 11
18.869845562844
 21
18.656777761432
 31
0.0
  0
LINE
  5
4CD
330
1E
100
AcDbEntity
  8
0
100
AcDbLine
 10
21.661799039427
 20
24.061031031495
 30
0.0
 11
21.514294321583
 21
24.096987363534
 31
0.0
  0
LINE
  5
4CE
330
1E
100
AcDbEntity
  8
0
100
AcDbLine
 10
21.514294321583
 20
24.096987363534
 30
0.0
 11
20.614384903593
 21
24.109756052327
 31
0.0
  0
LINE
  5
4CF
330
1E
100
AcDbEntity
  8
0
100
AcDbLine
 10
20.614384903593
 20
24.109756052327
 30
0.0
 11
19.733473573317
 21
24.122255179913
 31
0.0
  0
LINE
  5
4D0
330
1E
100
AcDbEntity
  8
0
100
AcDbLine
 10
22.425202632459
 20
24.084062612988
 30
0.0
 11
21.661799039427
 21
24.061031031495
 31
0.0
  0
LINE
  5
4D1
330
1E
100
AcDbEntity
  8
0
100
AcDbLine
 10
21.518578949794
 20
18.619195254083
 30
0.0
 11
20.546676778365
 21
18.63298543798
 31
0.0
  0
LINE
  5
4D2
330
1E
100
AcDbEntity
  8
0
100
AcDbLine
 10
20.546676778365
 20
18.63298543798
 30
0.0
 11
19.592772795296
 21
18.646520248101
 31
0.0
  0
LINE
  5
4D3
330
1E
100
AcDbEntity
  8
0
100
AcDbLine
 10
20.366694894767
 20
18.635539175739
 30
0.0
 11
19.600771990122
 21
18.646406748645
 31
0.0
  0
LINE
  5
4D4
330
1E
100
AcDbEntity
  8
0
100
AcDbLine
 10
21.158615182598
 20
18.6243027296
 30
0.0
 11
20.366694894767
 21
18.635539175739
 31
0.0
  0
LINE
  5
4D5
330
1E
100
AcDbEntity
  8
0
100
AcDbLine
 10
21.965533960729
 20
18.612853471982
 30
0.0
 11
20.546676778365
 21
18.63298543798
 31
0.0
  0
LINE
  5
4D6
330
1E
100
AcDbEntity
  8
0
100
AcDbLine
 10
21.965533960729
 20
18.612853471982
 30
0.0
 11
21.158615182598
 21
18.6243027296
 31
0.0
  0
LINE
  5
4D7
330
1E
100
AcDbEntity
  8
0
100
AcDbLine
 10
21.965533960729
 20
18.612853471982
 30
0.0
 11
21.518578949794
 21
18.619195254083
 31
0.0
  0
LINE
  5
4D8
330
1E
100
AcDbEntity
  8
0
100
AcDbLine
 10
21.158615182598
 20
18.6243027296
 30
0.0
 11
20.366694894767
 21
18.635539175739
 31
0.0
  0
LINE
  5
4D9
330
1E
100
AcDbEntity
  8
0
100
AcDbLine
 10
20.366694894767
 20
18.635539175739
 30
0.0
 11
19.600771990122
 21
18.646406748645
 31
0.0
  0
LINE
  5
4DA
330
1E
100
AcDbEntity
  8
0
100
AcDbLine
 10
20.546676778365
 20
18.63298543798
 30
0.0
 11
19.592772795296
 21
18.646520248101
 31
0.0
  0
LINE
  5
4DB
330
1E
100
AcDbEntity
  8
0
100
AcDbLine
 10
20.097904249584
 20
0.114668560633
 30
0.0
 11
19.243990201847
 21
0.126784627555
 31
0.0
  0
LINE
  5
4DC
330
1E
100
AcDbEntity
  8
0
100
AcDbLine
 10
20.202133389596
 20
0.412019744207
 30
0.0
 11
19.220232224634
 21
0.425951802424
 31
0.0
  0
LINE
  5
4DD
330
1E
100
AcDbEntity
  8
0
100
AcDbLine
 10
20.097904249584
 20
0.114668560633
 30
0.0
 11
19.243990201847
 21
0.126784627555
 31
0.0
  0
LINE
  5
4DE
330
1E
100
AcDbEntity
  8
0
100
AcDbLine
 10
19.365977922953
 20
0.125053760852
 30
0.0
 11
18.410074141177
 21
0.138616945837
 31
0.0
  0
LINE
  5
4DF
330
1E
100
AcDbEntity
  8
0
100
AcDbLine
 10
20.457859723149
 20
18.43505560293
 30
0.0
 11
19.475958558187
 21
18.448987661147
 31
0.0
  0
LINE
  5
4E0
330
1E
100
AcDbEntity
  8
0
100
AcDbLine
 10
19.365977922953
 20
0.125053760852
 30
0.0
 11
18.410074141177
 21
0.138616945837
 31
0.0
  0
LINE
  5
4E1
330
1E
100
AcDbEntity
  8
0
100
AcDbLine
 10
20.352878584681
 20
0.111050765475
 30
0.0
 11
19.365977922953
 21
0.125053760852
 31
0.0
  0
LINE
  5
4E2
330
1E
100
AcDbEntity
  8
0
100
AcDbLine
 10
20.352878584681
 20
0.111050765475
 30
0.0
 11
19.365977922953
 21
0.125053760852
 31
0.0
  0
LINE
  5
4E3
330
1E
100
AcDbEntity
  8
0
100
AcDbLine
 10
20.380875766574
 20
0.11065351738
 30
0.0
 11
18.75703921678
 21
0.133693906936
 31
0.0
  0
LINE
  5
4E4
330
1E
100
AcDbEntity
  8
0
100
AcDbLine
 10
21.518578949794
 20
18.619195254083
 30
0.0
 11
20.546676778365
 21
18.63298543798
 31
0.0
  0
LINE
  5
4E5
330
1E
100
AcDbEntity
  8
0
100
AcDbLine
 10
20.979815479214
 20
0.102155245616
 30
0.0
 11
20.097904249584
 21
0.114668560633
 31
0.0
  0
LINE
  5
4E6
330
1E
100
AcDbEntity
  8
0
100
AcDbLine
 10
20.979815479214
 20
0.102155245616
 30
0.0
 11
20.097904249584
 21
0.114668560633
 31
0.0
  0
LINE
  5
4E7
330
1E
100
AcDbEntity
  8
0
100
AcDbLine
 10
21.358777334123
 20
0.096778208891
 30
0.0
 11
20.352878584681
 21
0.111050765475
 31
0.0
  0
LINE
  5
4E8
330
1E
100
AcDbEntity
  8
0
100
AcDbLine
 10
21.204032541624
 20
0.39780393735
 30
0.0
 11
20.202133389596
 21
0.412019744207
 31
0.0
  0
LINE
  5
4E9
330
1E
100
AcDbEntity
  8
0
100
AcDbLine
 10
21.459758875178
 20
18.420839796073
 30
0.0
 11
20.457859723149
 21
18.43505560293
 31
0.0
  0
LINE
  5
4EA
330
1E
100
AcDbEntity
  8
0
100
AcDbLine
 10
21.358777334123
 20
0.096778208891
 30
0.0
 11
20.352878584681
 21
0.111050765475
 31
0.0
  0
LINE
  5
4EB
330
1E
100
AcDbEntity
  8
0
100
AcDbLine
 10
21.876725199144
 20
0.089429119119
 30
0.0
 11
20.979815479214
 21
0.102155245616
 31
0.0
  0
LINE
  5
4EC
330
1E
100
AcDbEntity
  8
0
100
AcDbLine
 10
21.876725199144
 20
0.089429119119
 30
0.0
 11
20.979815479214
 21
0.102155245616
 31
0.0
  0
LINE
  5
4ED
330
1E
100
AcDbEntity
  8
0
100
AcDbLine
 10
22.521171664962
 20
26.618656157287
 30
0.0
 11
22.379985876273
 21
26.620659422684
 31
0.0
  0
LINE
  5
4EE
330
1E
100
AcDbEntity
  8
0
100
AcDbLine
 10
22.662357453651
 20
26.61665289189
 30
0.0
 11
22.521171664962
 21
26.618656157287
 31
0.0
  0
LINE
  5
4EF
330
1E
100
AcDbEntity
  8
0
100
AcDbLine
 10
22.407489474897
 20
18.606582627042
 30
0.0
 11
21.965533960729
 21
18.612853471982
 31
0.0
  0
LINE
  5
4F0
330
1E
100
AcDbEntity
  8
0
100
AcDbLine
 10
22.407489474897
 20
18.606582627042
 30
0.0
 11
21.518578949794
 21
18.619195254083
 31
0.0
  0
LINE
  5
4F1
330
1E
100
AcDbEntity
  8
0
100
AcDbLine
 10
22.407489474897
 20
18.606582627042
 30
0.0
 11
21.965533960729
 21
18.612853471982
 31
0.0
  0
LINE
  5
4F2
330
1E
100
AcDbEntity
  8
0
100
AcDbLine
 10
22.407489474897
 20
18.606582627042
 30
0.0
 11
21.518578949794
 21
18.619195254083
 31
0.0
  0
LINE
  5
4F3
330
1E
100
AcDbEntity
  8
0
100
AcDbLine
 10
22.485196593659
 20
24.083211367069
 30
0.0
 11
22.425202632459
 21
24.084062612988
 31
0.0
  0
LINE
  5
4F4
330
1E
100
AcDbEntity
  8
0
100
AcDbLine
 10
22.545190554858
 20
24.082360121149
 30
0.0
 11
22.485196593659
 21
24.083211367069
 31
0.0
  0
LINE
  5
4F5
330
1E
100
AcDbEntity
  8
0
100
AcDbLine
 10
22.144698225834
 20
0.085626887344
 30
0.0
 11
20.380875766574
 21
0.11065351738
 31
0.0
  0
LINE
  5
4F6
330
1E
100
AcDbEntity
  8
0
100
AcDbLine
 10
22.144698225834
 20
0.085626887344
 30
0.0
 11
21.358777334123
 21
0.096778208891
 31
0.0
  0
LINE
  5
4F7
330
1E
100
AcDbEntity
  8
0
100
AcDbLine
 10
22.144698225834
 20
0.085626887344
 30
0.0
 11
21.876725199144
 21
0.089429119119
 31
0.0
  0
LINE
  5
4F8
330
1E
100
AcDbEntity
  8
0
100
AcDbLine
 10
22.148937430514
 20
0.384396814117
 30
0.0
 11
21.204032541624
 21
0.39780393735
 31
0.0
  0
LINE
  5
4F9
330
1E
100
AcDbEntity
  8
0
100
AcDbLine
 10
22.404663764067
 20
18.40743267284
 30
0.0
 11
21.459758875178
 21
18.420839796073
 31
0.0
  0
LINE
  5
4FA
330
1E
100
AcDbEntity
  8
0
100
AcDbLine
 10
22.144698225834
 20
0.085626887344
 30
0.0
 11
21.876725199144
 21
0.089429119119
 31
0.0
  0
LINE
  5
4FB
330
1E
100
AcDbEntity
  8
0
100
AcDbLine
 10
22.144698225834
 20
0.085626887344
 30
0.0
 11
21.358777334123
 21
0.096778208891
 31
0.0
  0
LINE
  5
4FC
330
1E
100
AcDbEntity
  8
0
100
AcDbLine
 10
24.191492202084
 20
0.056585214055
 30
0.0
 11
23.309580972454
 21
0.069098529073
 31
0.0
  0
LINE
  5
4FD
330
1E
100
AcDbEntity
  8
0
100
AcDbLine
 10
23.2964
 20
18.59397
 30
0.0
 11
22.849444989065
 21
18.600311782101
 31
0.0
  0
LINE
  5
4FE
330
1E
100
AcDbEntity
  8
0
100
AcDbLine
 10
23.2964
 20
18.59397
 30
0.0
 11
22.407489474897
 21
18.606582627042
 31
0.0
  0
LINE
  5
4FF
330
1E
100
AcDbEntity
  8
0
100
AcDbLine
 10
22.849444989065
 20
18.600311782101
 30
0.0
 11
22.407489474897
 21
18.606582627042
 31
0.0
  0
LINE
  5
500
330
1E
100
AcDbEntity
  8
0
100
AcDbLine
 10
22.849444989065
 20
18.600311782101
 30
0.0
 11
22.407489474897
 21
18.606582627042
 31
0.0
  0
LINE
  5
501
330
1E
100
AcDbEntity
  8
0
100
AcDbLine
 10
23.307633374995
 20
24.037678518435
 30
0.0
 11
22.545190554858
 21
24.082360121149
 31
0.0
  0
LINE
  5
502
330
1E
100
AcDbEntity
  8
0
100
AcDbLine
 10
22.930619117545
 20
0.074475565798
 30
0.0
 11
22.144698225834
 21
0.085626887344
 31
0.0
  0
LINE
  5
503
330
1E
100
AcDbEntity
  8
0
100
AcDbLine
 10
22.412671252524
 20
0.08182465557
 30
0.0
 11
22.144698225834
 21
0.085626887344
 31
0.0
  0
LINE
  5
504
330
1E
100
AcDbEntity
  8
0
100
AcDbLine
 10
23.2964
 20
18.59397
 30
0.0
 11
22.849444989065
 21
18.600311782101
 31
0.0
  0
LINE
  5
505
330
1E
100
AcDbEntity
  8
0
100
AcDbLine
 10
23.2964
 20
18.59397
 30
0.0
 11
22.407489474897
 21
18.606582627042
 31
0.0
  0
LINE
  5
506
330
1E
100
AcDbEntity
  8
0
100
AcDbLine
 10
23.093842319403
 20
0.370989690884
 30
0.0
 11
22.148937430514
 21
0.384396814117
 31
0.0
  0
LINE
  5
507
330
1E
100
AcDbEntity
  8
0
100
AcDbLine
 10
23.349568652956
 20
18.394025549607
 30
0.0
 11
22.404663764067
 21
18.40743267284
 31
0.0
  0
LINE
  5
508
330
1E
100
AcDbEntity
  8
0
100
AcDbLine
 10
24.095741471431
 20
0.356773884027
 30
0.0
 11
23.093842319403
 21
0.370989690884
 31
0.0
  0
LINE
  5
509
330
1E
100
AcDbEntity
  8
0
100
AcDbLine
 10
23.936517866987
 20
0.060203009214
 30
0.0
 11
22.930619117545
 21
0.074475565798
 31
0.0
  0
LINE
  5
50A
330
1E
100
AcDbEntity
  8
0
100
AcDbLine
 10
23.309580972454
 20
0.069098529073
 30
0.0
 11
22.412671252524
 21
0.08182465557
 31
0.0
  0
LINE
  5
50B
330
1E
100
AcDbEntity
  8
0
100
AcDbLine
 10
24.191492202084
 20
0.056585214055
 30
0.0
 11
23.309580972454
 21
0.069098529073
 31
0.0
  0
LINE
  5
50C
330
1E
100
AcDbEntity
  8
0
100
AcDbLine
 10
23.309580972454
 20
0.069098529073
 30
0.0
 11
22.412671252524
 21
0.08182465557
 31
0.0
  0
LINE
  5
50D
330
1E
100
AcDbEntity
  8
0
100
AcDbLine
 10
22.412671252524
 20
0.08182465557
 30
0.0
 11
22.144698225834
 21
0.085626887344
 31
0.0
  0
LINE
  5
50E
330
1E
100
AcDbEntity
  8
0
100
AcDbLine
 10
22.930619117545
 20
0.074475565798
 30
0.0
 11
22.144698225834
 21
0.085626887344
 31
0.0
  0
LINE
  5
50F
330
1E
100
AcDbEntity
  8
0
100
AcDbLine
 10
23.936517866987
 20
0.060203009214
 30
0.0
 11
22.930619117545
 21
0.074475565798
 31
0.0
  0
LINE
  5
510
330
1E
100
AcDbEntity
  8
0
100
AcDbLine
 10
23.908520685094
 20
0.060600257309
 30
0.0
 11
22.144698225834
 21
0.085626887344
 31
0.0
  0
LINE
  5
511
330
1E
100
AcDbEntity
  8
0
100
AcDbLine
 10
25.860324222778
 20
0.03290639006
 30
0.0
 11
25.045406249821
 21
0.044469147134
 31
0.0
  0
LINE
  5
512
330
1E
100
AcDbEntity
  8
0
100
AcDbLine
 10
24.923418528716
 20
0.046200013837
 30
0.0
 11
23.936517866987
 21
0.060203009214
 31
0.0
  0
LINE
  5
513
330
1E
100
AcDbEntity
  8
0
100
AcDbLine
 10
25.077642636393
 20
0.34284182581
 30
0.0
 11
24.095741471431
 21
0.356773884027
 31
0.0
  0
LINE
  5
514
330
1E
100
AcDbEntity
  8
0
100
AcDbLine
 10
26.030546720109
 20
0.329321203121
 30
0.0
 11
25.077642636393
 21
0.34284182581
 31
0.0
  0
LINE
  5
515
330
1E
100
AcDbEntity
  8
0
100
AcDbLine
 10
25.879322310491
 20
0.032636828852
 30
0.0
 11
24.923418528716
 21
0.046200013837
 31
0.0
  0
LINE
  5
516
330
1E
100
AcDbEntity
  8
0
100
AcDbLine
 10
25.879322310491
 20
0.032636828852
 30
0.0
 11
24.923418528716
 21
0.046200013837
 31
0.0
  0
LINE
  5
517
330
1E
100
AcDbEntity
  8
0
100
AcDbLine
 10
25.045406249821
 20
0.044469147134
 30
0.0
 11
24.191492202084
 21
0.056585214055
 31
0.0
  0
LINE
  5
518
330
1E
100
AcDbEntity
  8
0
100
AcDbLine
 10
25.045406249821
 20
0.044469147134
 30
0.0
 11
24.191492202084
 21
0.056585214055
 31
0.0
  0
LINE
  5
519
330
1E
100
AcDbEntity
  8
0
100
AcDbLine
 10
24.923418528716
 20
0.046200013837
 30
0.0
 11
23.936517866987
 21
0.060203009214
 31
0.0
  0
LINE
  5
51A
330
1E
100
AcDbEntity
  8
0
100
AcDbLine
 10
25.532357234889
 20
0.037559867753
 30
0.0
 11
23.908520685094
 21
0.060600257309
 31
0.0
  0
LINE
  5
51B
330
1E
100
AcDbEntity
  8
0
100
AcDbLine
 10
7.996362706823
 20
139.615379047151
 30
0.0
 11
10.295192472155
 21
141.320207197407
 31
0.0
  0
LINE
  5
51C
330
1E
100
AcDbEntity
  8
0
100
AcDbLine
 10
10.295192472155
 20
141.320207197407
 30
0.0
 11
11.501670129615
 21
142.178312506123
 31
0.0
  0
ENDSEC
  0
SECTION
  2
OBJECTS
  0
DICTIONARY
  5
C
330
0
100
AcDbDictionary
281
     1
  3
ACAD_GROUP
350
D
  3
ACAD_LAYOUT
350
19
  3
ACAD_MLEADERSTYLE
350
545
  3
ACAD_MLINESTYLE
350
16
  3
ACAD_PLOTSETTINGS
350
18
  3
ACAD_PLOTSTYLENAME
350
E
  3
ACAD_SCALELIST
350
521
  3
AcDbVariableDictionary
350
51E
  3
DWGPROPS
350
548
  0
DICTIONARY
  5
D
102
{ACAD_REACTORS
330
C
102
}
330
C
100
AcDbDictionary
281
     1
  0
DICTIONARY
  5
19
102
{ACAD_REACTORS
330
C
102
}
330
C
100
AcDbDictionary
281
     1
  3
Layout1
350
1D
  3
Model
350
21
  0
DICTIONARY
  5
545
102
{ACAD_REACTORS
330
C
102
}
330
C
100
AcDbDictionary
281
     1
  0
DICTIONARY
  5
16
102
{ACAD_REACTORS
330
C
102
}
330
C
100
AcDbDictionary
281
     1
  3
Standard
350
17
  0
DICTIONARY
  5
18
102
{ACAD_REACTORS
330
C
102
}
330
C
100
AcDbDictionary
281
     1
  0
ACDBDICTIONARYWDFLT
  5
E
102
{ACAD_REACTORS
330
C
102
}
330
C
100
AcDbDictionary
281
     1
  3
Normal
350
F
100
AcDbDictionaryWithDefault
340
F
  0
DICTIONARY
  5
521
102
{ACAD_REACTORS
330
C
102
}
330
C
100
AcDbDictionary
281
     1
  3
A0
350
522
  3
A1
350
523
  3
A2
350
524
  3
A3
350
525
  3
A4
350
526
  3
A5
350
527
  3
A6
350
528
  3
A7
350
529
  3
A8
350
52A
  3
A9
350
52B
  3
B0
350
52C
  3
B1
350
52D
  3
B2
350
52E
  3
B3
350
52F
  3
B4
350
530
  3
B5
350
531
  3
B6
350
532
  3
B7
350
533
  3
B8
350
534
  3
B9
350
535
  3
C0
350
536
  3
C1
350
537
  3
C2
350
538
  3
C3
350
539
  3
C4
350
53A
  3
C5
350
53B
  3
C6
350
53C
  3
C7
350
53D
  3
C8
350
53E
  3
C9
350
53F
  3
D0
350
540
  3
D1
350
541
  3
D2
350
542
  0
DICTIONARY
  5
51E
102
{ACAD_REACTORS
330
C
102
}
330
C
100
AcDbDictionary
281
     1
  3
CANNOSCALE
350
546
  3
DIMASSOC
350
51F
  0
XRECORD
  5
548
102
{ACAD_REACTORS
330
C
102
}
330
C
100
AcDbXrecord
280
     1
  1
DWGPROPS COOKIE
  2

  3

  4

  6

  7

  8
MARTIN
  9

300
=
301
=
302
=
303
=
304
=
305
=
306
=
307
=
308
=
309
=
 40
0.0
 41
2455654.842942523
 42
2455820.799082569
  1

 90
        0
  0
LAYOUT
  5
1D
102
{ACAD_REACTORS
330
19
102
}
330
19
100
AcDbPlotSettings
  1

  2
C:\Programme\AutoCAD LT 2002 Deu\plotters\DWF ePlot (optimized for plotting).pc3
  4

  6

 40
0.0
 41
0.0
 42
0.0
 43
0.0
 44
0.0
 45
0.0
 46
0.0
 47
0.0
 48
0.0
 49
0.0
140
0.0
141
0.0
142
1.0
143
1.0
 70
   688
 72
     0
 73
     0
 74
     5
  7

 75
    16
147
1.0
148
0.0
149
0.0
100
AcDbLayout
  1
Layout1
 70
     1
 71
     1
 10
0.0
 20
0.0
 11
12.0
 21
9.0
 12
0.0
 22
0.0
 32
0.0
 14
1.000000000000E+20
 24
1.000000000000E+20
 34
1.000000000000E+20
 15
-1.000000000000E+20
 25
-1.000000000000E+20
 35
-1.000000000000E+20
146
0.0
 13
0.0
 23
0.0
 33
0.0
 16
1.0
 26
0.0
 36
0.0
 17
0.0
 27
1.0
 37
0.0
 76
     0
330
1A
  0
LAYOUT
  5
21
102
{ACAD_REACTORS
330
19
102
}
330
19
100
AcDbPlotSettings
  1

  2
C:\Programme\AutoCAD LT 2002 Deu\plotters\DWF ePlot (optimized for plotting).pc3
  4

  6

 40
0.0
 41
0.0
 42
0.0
 43
0.0
 44
0.0
 45
0.0
 46
0.0
 47
0.0
 48
0.0
 49
0.0
140
0.0
141
0.0
142
1.0
143
1.0
 70
  1712
 72
     0
 73
     0
 74
     0
  7

 75
     0
147
1.0
148
0.0
149
0.0
100
AcDbLayout
  1
Model
 70
     1
 71
     0
 10
0.0
 20
0.0
 11
12.0
 21
9.0
 12
0.0
 22
0.0
 32
0.0
 14
0.0
 24
0.0
 34
0.0
 15
0.0
 25
0.0
 35
0.0
146
0.0
 13
0.0
 23
0.0
 33
0.0
 16
1.0
 26
0.0
 36
0.0
 17
0.0
 27
1.0
 37
0.0
 76
     0
330
1E
331
520
  0
MLINESTYLE
  5
17
102
{ACAD_REACTORS
330
16
102
}
330
16
100
AcDbMlineStyle
  2
STANDARD
 70
     0
  3

 62
   256
 51
90.0
 52
90.0
 71
     2
 49
0.5
 62
   256
  6
BYLAYER
 49
-0.5
 62
   256
  6
BYLAYER
  0
ACDBPLACEHOLDER
  5
F
102
{ACAD_REACTORS
330
E
102
}
330
E
  0
SCALE
  5
522
102
{ACAD_REACTORS
330
521
102
}
330
521
100
AcDbScale
 70
     0
300
1:1
140
1.0
141
1.0
290
     1
  0
SCALE
  5
523
102
{ACAD_REACTORS
330
521
102
}
330
521
100
AcDbScale
 70
     0
300
1:2
140
1.0
141
2.0
290
     0
  0
SCALE
  5
524
102
{ACAD_REACTORS
330
521
102
}
330
521
100
AcDbScale
 70
     0
300
1:4
140
1.0
141
4.0
290
     0
  0
SCALE
  5
525
102
{ACAD_REACTORS
330
521
102
}
330
521
100
AcDbScale
 70
     0
300
1:5
140
1.0
141
5.0
290
     0
  0
SCALE
  5
526
102
{ACAD_REACTORS
330
521
102
}
330
521
100
AcDbScale
 70
     0
300
1:8
140
1.0
141
8.0
290
     0
  0
SCALE
  5
527
102
{ACAD_REACTORS
330
521
102
}
330
521
100
AcDbScale
 70
     0
300
1:10
140
1.0
141
10.0
290
     0
  0
SCALE
  5
528
102
{ACAD_REACTORS
330
521
102
}
330
521
100
AcDbScale
 70
     0
300
1:16
140
1.0
141
16.0
290
     0
  0
SCALE
  5
529
102
{ACAD_REACTORS
330
521
102
}
330
521
100
AcDbScale
 70
     0
300
1:20
140
1.0
141
20.0
290
     0
  0
SCALE
  5
52A
102
{ACAD_REACTORS
330
521
102
}
330
521
100
AcDbScale
 70
     0
300
1:30
140
1.0
141
30.0
290
     0
  0
SCALE
  5
52B
102
{ACAD_REACTORS
330
521
102
}
330
521
100
AcDbScale
 70
     0
300
1:40
140
1.0
141
40.0
290
     0
  0
SCALE
  5
52C
102
{ACAD_REACTORS
330
521
102
}
330
521
100
AcDbScale
 70
     0
300
1:50
140
1.0
141
50.0
290
     0
  0
SCALE
  5
52D
102
{ACAD_REACTORS
330
521
102
}
330
521
100
AcDbScale
 70
     0
300
1:100
140
1.0
141
100.0
290
     0
  0
SCALE
  5
52E
102
{ACAD_REACTORS
330
521
102
}
330
521
100
AcDbScale
 70
     0
300
2:1
140
2.0
141
1.0
290
     0
  0
SCALE
  5
52F
102
{ACAD_REACTORS
330
521
102
}
330
521
100
AcDbScale
 70
     0
300
4:1
140
4.0
141
1.0
290
     0
  0
SCALE
  5
530
102
{ACAD_REACTORS
330
521
102
}
330
521
100
AcDbScale
 70
     0
300
8:1
140
8.0
141
1.0
290
     0
  0
SCALE
  5
531
102
{ACAD_REACTORS
330
521
102
}
330
521
100
AcDbScale
 70
     0
300
10:1
140
10.0
141
1.0
290
     0
  0
SCALE
  5
532
102
{ACAD_REACTORS
330
521
102
}
330
521
100
AcDbScale
 70
     0
300
100:1
140
100.0
141
1.0
290
     0
  0
SCALE
  5
533
102
{ACAD_REACTORS
330
521
102
}
330
521
100
AcDbScale
 70
     0
300
1/128" = 1'-0"
140
0.0078125
141
12.0
290
     0
  0
SCALE
  5
534
102
{ACAD_REACTORS
330
521
102
}
330
521
100
AcDbScale
 70
     0
300
1/64" = 1'-0"
140
0.015625
141
12.0
290
     0
  0
SCALE
  5
535
102
{ACAD_REACTORS
330
521
102
}
330
521
100
AcDbScale
 70
     0
300
1/32" = 1'-0"
140
0.03125
141
12.0
290
     0
  0
SCALE
  5
536
102
{ACAD_REACTORS
330
521
102
}
330
521
100
AcDbScale
 70
     0
300
1/16" = 1'-0"
140
0.0625
141
12.0
290
     0
  0
SCALE
  5
537
102
{ACAD_REACTORS
330
521
102
}
330
521
100
AcDbScale
 70
     0
300
3/32" = 1'-0"
140
0.09375
141
12.0
290
     0
  0
SCALE
  5
538
102
{ACAD_REACTORS
330
521
102
}
330
521
100
AcDbScale
 70
     0
300
1/8" = 1'-0"
140
0.125
141
12.0
290
     0
  0
SCALE
  5
539
102
{ACAD_REACTORS
330
521
102
}
330
521
100
AcDbScale
 70
     0
300
3/16" = 1'-0"
140
0.1875
141
12.0
290
     0
  0
SCALE
  5
53A
102
{ACAD_REACTORS
330
521
102
}
330
521
100
AcDbScale
 70
     0
300
1/4" = 1'-0"
140
0.25
141
12.0
290
     0
  0
SCALE
  5
53B
102
{ACAD_REACTORS
330
521
102
}
330
521
100
AcDbScale
 70
     0
300
3/8" = 1'-0"
140
0.375
141
12.0
290
     0
  0
SCALE
  5
53C
102
{ACAD_REACTORS
330
521
102
}
330
521
100
AcDbScale
 70
     0
300
1/2" = 1'-0"
140
0.5
141
12.0
290
     0
  0
SCALE
  5
53D
102
{ACAD_REACTORS
330
521
102
}
330
521
100
AcDbScale
 70
     0
300
3/4" = 1'-0"
140
0.75
141
12.0
290
     0
  0
SCALE
  5
53E
102
{ACAD_REACTORS
330
521
102
}
330
521
100
AcDbScale
 70
     0
300
1" = 1'-0"
140
1.0
141
12.0
290
     0
  0
SCALE
  5
53F
102
{ACAD_REACTORS
330
521
102
}
330
521
100
AcDbScale
 70
     0
300
1-1/2" = 1'-0"
140
1.5
141
12.0
290
     0
  0
SCALE
  5
540
102
{ACAD_REACTORS
330
521
102
}
330
521
100
AcDbScale
 70
     0
300
3" = 1'-0"
140
3.0
141
12.0
290
     0
  0
SCALE
  5
541
102
{ACAD_REACTORS
330
521
102
}
330
521
100
AcDbScale
 70
     0
300
6" = 1'-0"
140
6.0
141
12.0
290
     0
  0
SCALE
  5
542
102
{ACAD_REACTORS
330
521
102
}
330
521
100
AcDbScale
 70
     0
300
1'-0" = 1'-0"
140
12.0
141
12.0
290
     0
  0
DICTIONARYVAR
  5
546
102
{ACAD_REACTORS
330
51E
102
}
330
51E
100
DictionaryVariables
280
     0
  1
1:1
  0
DICTIONARYVAR
  5
51F
102
{ACAD_REACTORS
330
51E
102
}
330
51E
100
DictionaryVariables
280
     0
  1
1
  0
ENDSEC
  0
SECTION
  2
THUMBNAILIMAGE
 90
    16364
310
28000000B40000005500000001000800000000000000000000000000000000000000000000000000FFFFFF000000FF0000FFFF0000FF0000FFFF0000FF000000FF00FF000000000080808000C0C0C0000000FF007F7FFF000000A5005252A50000007F003F3F7F0000004C0026264C000000260013132600003FFF007F9FFF
310
000029A5005267A500001F7F003F4F7F0000134C00262F4C000009260013172600007FFF007FBFFF000052A500527CA500003F7F003F5F7F0000264C0026394C0000132600131C260000BFFF007FDFFF00007CA5005291A500005F7F003F6F7F0000394C0026424C00001C26001321260000FFFF007FFFFF0000A5A50052A5
310
A500007F7F003F7F7F00004C4C00264C4C00002626001326260000FFBF007FFFDF0000A57C0052A59100007F5F003F7F6F00004C3900264C420000261C001326210000FF7F007FFFBF0000A5520052A57C00007F3F003F7F5F00004C2600264C39000026130013261C0000FF3F007FFF9F0000A5290052A56700007F1F003F
310
7F4F00004C1300264C2F00002609001326170000FF00007FFF7F0000A5000052A55200007F00003F7F3F00004C0000264C260000260000132613003FFF00009FFF7F0029A5000067A552001F7F00004F7F3F00134C00002F4C260009260000172613007FFF0000BFFF7F0052A500007CA552003F7F00005F7F3F00264C0000
310
394C2600132600001C261300BFFF0000DFFF7F007CA5000091A552005F7F00006F7F3F00394C0000424C26001C26000021261300FFFF0000FFFF7F00A5A50000A5A552007F7F00007F7F3F004C4C00004C4C26002626000026261300FFBF0000FFDF7F00A57C0000A59152007F5F00007F6F3F004C3900004C422600261C00
310
0026211300FF7F0000FFBF7F00A5520000A57C52007F3F00007F5F3F004C2600004C39260026130000261C1300FF3F0000FF9F7F00A5290000A56752007F1F00007F4F3F004C1300004C2F26002609000026171300FF000000FF7F7F00A5000000A55252007F0000007F3F3F004C0000004C2626002600000026131300FF00
310
3F00FF7F9F00A5002900A55267007F001F007F3F4F004C0013004C262F002600090026131700FF007F00FF7FBF00A5005200A5527C007F003F007F3F5F004C0026004C2639002600130026131C00FF00BF00FF7FDF00A5007C00A55291007F005F007F3F6F004C0039004C26420026001C0026132100FF00FF00FF7FFF00A5
310
00A500A552A5007F007F007F3F7F004C004C004C264C002600260026132600BF00FF00DF7FFF007C00A5009152A5005F007F006F3F7F0039004C0042264C001C002600211326007F00FF00BF7FFF005200A5007C52A5003F007F005F3F7F0026004C0039264C00130026001C1326003F00FF009F7FFF002900A5006752A500
310
1F007F004F3F7F0013004C002F264C000900260017132600000000002D2D2D005B5B5B0089898900B7B7B700B3B3B30000000000000000000000000000000000000000000000000000000000000000000000000000000000000000000000000000000000000000000000000000000000000000000000000000000000000000
310
00000007070707000000000000000007000000000000000000000000000000000000000000000000000000000000000000000000000000000000000000000000000000000000000000000000000000000000000000000000000000000000000000000000000000000000000000000000000000000000000000000000000000
310
00000000000000000000000000000000000000000000000000000000000000000000000000000000000000000000000000000000000000000700000000000000000000000700000000000000000000000000000000000000000000000000000000000000000000000000000000000000000000000000000000000000000000
310
00000000000000000000000000000000000000000000000000000000000000000000000000000000000000000000000000000000000000000000000000000000000000000000000000000000000000000000000000000000000000000000000000000000000000000000000000070000000000000000000000070000000000
310
00000000000000000000000000000000000000000000000000000000000000000000000000000000000000000000000000000000000000000000000000000000000000000000000000000000000000000000000000000000000000000000000000000000000000000000000000000000000000000000000000000000000000
310
00000000000000000000000000000000000000000000000000000000000000000000000700000000000000000000000700000000000000000000000000000000000000000000000000000000000000000000000000000000000000000000000000000000000000000000000000000000000000000000000000000000000000
310
00000000000000000000000000000000000000000000000000000000000000000000000000000000000000000000000000000000000000000000000000000000000000000000000000000000000000000000000000000000070000000000000000000000070000000000000000000000000000000000000000000000000000
310
00000000000000000000000000000000000000000000000000000000000000000000000000000000000000000000000000000000000000000000000000000000000000000000000000000000000000000000000000000000000000000000000000000000000000000000000000000000000000000000000000000000000000
310
00000000000000000000000000000700000000000000000000000700000000000000000000000000000000000000000000000000000000000000000000000000000000000000000000000000000000000000000000000000000000000000000000000000000000000000000000000000000000000000000000000000000000
310
00000000000000000000000000000000000000000000000000000000000000000000000000000000000000000000000000000000000000000000000000000000000000070000000000000000000000070000000000000000000000000000000000000000000000000000000000000000000000000000000000000000000000
310
00000000000000000000000000000000000000000000000000000000000000000000000000000000000000000000000000000000000000000000000000000000000000000000000000000000000000000000000000000000000000000000000000000000000000000000000000000000000000000000000007000000000000
310
00000000000700000000000000000000000000000000000000000000000000000000000000000000000000000000000000000000000000000000000000000000000000000000000000000000000000000000000000000000000000000000000000000000000000000000000000000000000000000000000000000000000000
310
00000000000000000000000000000000000000000000000000000000000000000000000000000000000000000000070000000000000000000000070000000000000000000000000000000000000000000000000000000000000000000000000000000000000000000000000000000000000000000000000000000000000000
310
00000000000000000000000000000000000000000000000000000000000000000000000000000000000000000000000000000000000000000000000000000000000000000000000000000000000000000000000000000000000000000000000000000007070707070707070707070707000000000000000000000000000000
310
00000000000000000000000000000000000000000000000000000000000000000000000000000000000000000000000000000000000000000000000000000000000000000000000000000000000000000000000000000000000000000000000000000000000000000000000000000000000000000000000000000000000000
310
00000000000000000000000000000000000000000000000000070000000000000000000000070000000000000000000000000000000000000000000000000000000000000000000000000000000000000000000000000000000000000000000000000000000000000000000000000000000000000000000000000000000000
310
00000000000000000000000000000000000000000000000000000000000000000000000000000000000000000000000000000000000000000000000000000000000000000000000000000000000007000000000000000000000007000000000000000000000000000000000000000000000000000000000000000000000000
310
00000000000000000000000000000000000000000000000000000000000000000000000000000000000000000000000000000000000000000000000000000000000000000000000000000000000000000000000000000000000000000000000000000000000000000000000000000000000000000000000000000000000000
310
00000000070707070707070707070707070000000000000000000000000000000000000000000000000000000000000000000000000000000000000000000000000000000000000000000000000000000000000000000000000000000000000000000000000000000000000000000000000000000000000000000000000000
310
00000000000000000000000000000000000000000000000000000000000000000000000000000000000000000000000000000000000000000000000700000000000000070000000000000000000000000000000000000000000000000000000000000000000000000000000000000000000000000000000000000000000000
310
00000000000000000000000000000000000000000000000000000000000000000000000000000000000000000000000000000000000000000000000000000000000000000000000000000000000000000000000000000000000000000000000000000000000000000000000707070707070707070707070707070707070000
310
00000000000000000000000000000000000000000000000000000000000000000000000000000000000000000000000000000000000000000000000000000000000000000000000000000000000000000000000000000000000000000000000000000000000000000000000000000000000000000000000000000000000000
310
00000000000000000000000000000000000000000000000000000000000000070700000000000000000000000000000000000007070000000000000000000000000000000000000000000000000000000000000000000000000000000000000000000000000000000000000000000000000000000000000000000000000000
310
00000000000000000000000000000000000000000000000000000000000000000000000000000000000000000000000000000000000000000000000000000000000000000000000000000000000000000000000707000000000000000000000000000000000000000000070000000000000000000000000000000000000000
310
00000000000000000000000000000000000000000000000000000000000000000000000000000000000000000000000000000000000000000000000000000000000000000000000000000000000000000000000000000000000000000000000000000000000000000000000000000000000000000000000000000000000000
310
00000000000000000007000000000000000000000000000000000000000000000007000000000000000000000000000000000000000000000000000000000000000000000000000000000000000000000000000000000000000000000000000000000000000000000000000000000000000000000000000000000000000000
310
00000000000000000000000000000000000000000000000000000000000000000000000000000000000000000000000000000000000000000000000000000700000000000000000000000000000000000000000000000700000000000000000000000000000000000000000000000000000000000000000000000000000000
310
00000000000000000000000000000000000000000000000000000000000000000000000000000000000000000000000000000000000000000000000000000000000000000000000000000000000000000000000000000000000000000000000000000000000000000000000000000000000000070000000000000000000000
310
00000000000000000000000007000000000000000000000000000000000000000000000000000000000000000000000000000000000000000000000000000000000000000000000000000000000000000000000000000000000000000000000000000000000000000000000000000000000000000000000000000000000000
310
00000000000000000000000000000000000000000000000000000000000000000000000000000000000700000707070707070707070707070707070707070700000700000000000000000000000000000000000000000000000000000000000000000000000000000000000000000000000000000000000000000000000000
310
00000000000000000000000000000000000000000000000000000000000000000000000000000000000000000000000000000000000000000000000000000000000000000000000000000000000000000000000000000000000000000000070707000000000000000000000000000000000000000707070000000000000000
310
00000000000000000000000000000000000000000000000000000000000000000000000000000000000000000000000000000000000000000000000000000000000000000000000000000000000000000000000000000000000000000000000000000000000000000000000000000000000000000000000000000000000000
310
00000000000000000000000000000000000000000707000000000000000000000000000000000000000000070700000000000000000000000000000000000000000000000000000000000000000000000000000000000000000000000000000000000000000000000000000000000000000000000000000000000000000000
310
00000000000000000000000000000000000000000000000000000000000000000000000000000000000000000000000000000000000000000000000000000000000000000000000000070700000000000000000000000000000000000000000007070000000000000000000000000000000000000000000000000000000000
310
00000000000000000000000000000000000000000000000000000000000000000000000000000000000000000000000000000000000000000000000000000000000000000000000000000000000000000000000000000000000000000000000000000000000000000000000000000000000000000000000000000000000007
310
07000000000000000000000000000000000000000000070700000000000000000000000000000000000000000000000000000000000000000000000000000000000000000000000000000000000000000000000000000000000000000000000000000000000000000000000000000000000000000000000000000000000000
310
00000000000000000000000000000000000000000000000000000000000000000000000000000000000000000000000000000000070700000000000000000000000000000000000000000007070000000000000000000000000000000000000000000000000000000000000000000000000000000000000000000000000000
310
00000000000000000000000000000000000000000000000000000000000000000000000000000000000000000000000000000000000000000000000000000000000000000000000000000000000000000000000000000000000000000000000000000000000000000007070000000000000000000000000000000000000000
310
00070700000000000000000000000000000000000000000000000000000000000000000000000000000000000000000000000000000000000000000000000000000000000000000000000000000000000000000000000000000000000000000000000000000000000000000000000000000000000000000000000000000000
310
00000000000000000000000000000000000000000000000000000000000000070700000000000000000000000000000000000000000007070000000000000000000000000000000000000000000000000000000000000000000000000000000000000000000000000000000000000000000000000000000000000000000000
310
00000000000000000000000000000000000000000000000000000000000000000000000000000000000000000000000000000000000000000000000000000000000000000000000000000000000000000000000007070000000000000000000000000000000000000000000707000000000000000000000000000000000000
310
00000000000000000000000000000000000000000000000000000000000000000000000000000000000000000000000000000000000000000000000000000000000000000000000000000000000000000000000000000000000000000000000000000000000000000000000000000000000000000000000000000000000000
310
00000000000000000000070700000000000000000000000000000000000000000007070000000000000000000000000000000000000000000000000000000000000000000000000000000000000000000000000000000000000000000000000000000000000000000000000000000000000000000000000000000000000000
310
00000000000000000000000000000000000000000000000000000000000000000000000000000000000000000000000000000000000000000000000000000007070000000000000000000000000000000000000000000707000000000000000000000000000000000000000000000000000000000000000000000000000000
310
00000000000000000000000000000000000000000000000000000000000000000000000000000000000000000000000000000000000000000000000000000000000000000000000000000000000000000000000000000000000000000000000000000000000000000000000000000000000000000707000000000000000000
310
00000000000000000000000007070000000000000000000000000000000000000000000000000000000000000000000000000000000000000000000000000000000000000000000000000000000000000000000000000000000000000000000000000000000000000000000000000000000000000000000000000000000000
310
00000000000000000000000000000000000000000000000000000000000000000000000000000000000007070000000000000000000000000000000000000000000707000000000000000000000000000000000000000000000000000000000000000000000000000000000000000000000000000000000000000000000000
310
00000000000000000000000000000000000000000000000000000000000000000000000000000000000000000000000000000000000000000000000000000000000000000000000000000000000000000000000000000000000000000000000707000000000000000000000000000000000000000000070700000000000000
310
00000000000000000000000000000000000000000000000000000000000000000000000000000000000000000000000000000000000000000000000000000000000000000000000000000000000000000000000000000000000000000000000000000000000000000000000000000000000000000000000000000000000000
310
00000000000000000000000000000000000000000007070000000000000000000000000000000000000000000707000000000000000000000000000000000000000000000000000000000000000000000000000000000000000000000000000000000000000000000000000000000000000000000000000000000000000000
310
00000000000000000000000000000000000000000000000000000000000000000000000000000000000000000000000000000000000000000000000000000000000000000000000000000707000000000000000000000000000000000000000000070700000000000000000000000000000000000000000000000000000000
310
00000000000000000000000000000000000000000000000000000000000000000000000000000000000000000000000000000000000000000000000000000000000000000000000000000000000000000000000000000000000000000000000000000000000000000000000000000000000000000000000000000000000000
310
07070000000000000000000000000000000000000000000707000000000000000000000000000000000000000000000000000000000000000000000000000000000000000000000000000000000000000000000000000000000000000000000000000000000000000000000000000000000000000000000000000000000000
310
00000000000000000000000000000000000000000000000000000000000000000000000000000000000000000000000000000000000707000000000000000000000000000000000000000000070700000000000000000000000000000000000000000000000000000000000000000000000000000000000000000000000000
310
00000000000000000000000000000000000000000000000000000000000000000000000000000000000000000000000000000000000000000000000000000000000000000000000000000000000000000000000000000000000000000000000000000000000000000000070700000000000000000000000000000000000000
310
00000707000000000000000000000000000000000000000000000000000000000000000000000000000000000000000000000000000000000000000000000000000000000000000000000000000000000000000000000000000000000000000000000000000000000000000000000000000000000000000000000000000000
310
00000000000000000000000000000000000000000000000000000000000000000707000000000000000000000000000000000000000000070700000000000000000000000000000000000000000000000000000000000000000000000000000000000000000000000000000000000000000000000000000000000000000000
310
00000000000000000000000000000000000000000000000000000000000000000000000000000000000000000000000000000000000000000000000000000000000000000000000000000000000000000000000000070700000000000000000000000000000000000000000007070000000000000000000000000000000000
310
00000000000000000000000000000000000000000000000000000000000000000000000000000000000000000000000000000000000000000000000000000000000000000000000000000000000000000000000000000000000000000000000000000000000000000000000000000000000000000000000000000000000000
310
00000000000000000000000707000000000000000000000000000000000000000000070700000000000000000000000000000000000000000000000000000000000000000000000000000000000000000000000000000000000000000000000000000000000000000000000000000000000000000000000000000000000000
310
00000000000000000000000000000000000000000000000000000000000000000000000000000000000000000000000000000000000000000000000000000000070700000000000000000000000000000000000000000007070000000000000000000000000000000000000000000000000000000000000000000000000000
310
00000000000000000000000000000000000000000000000000000000000000000000000000000000000000000000000000000000000000000000000000000000000000000000000000000000000000000000000000000000000000000000000000000000000000000000000000000000000000000007070000000000000000
310
00000000000000000000000000000700000000000000000000000000000000000000000000000000000000000000000000000000000000000000000000000000000000000000000000000000000000000000000000000000000000000000000000000000000000000000000000000000000000000000000000000000000000
310
00000000000000000000000000000000000000000000000000000000000000000000000000000000000000070700000000000000000000000000000000000000000000070000000000000000000000000000000000000000000000000000000000000000000000000000000000000000000000000000000000000000000000
310
00000000000000000000000000000000000000000000000000000000000000000000000000000000000000000000000000000000000000000000000000000000000000000000000000000000000000000000000000000000000000000000000007070000000000000000000000000000000000000000000007000000000000
310
00000000000000000000000000000000000000000000000000000000000000000000000000000000000000000000000000000000000000000000000000000000000000000000000000000000000000000000000000000000000000000000000000000000000000000000000000000000000000000000000000000000000000
310
00000000000000000000000000000000000000000000070700000000000000000000000000000000000000000000070000000000000000000000000000000000000000000000000000000000000000000000000000000000000000000000000000000000000000000000000000000000000000000000000000000000000000
310
00000000000000000000000000000000000000000000000000000000000000000000000000000000000000000000000000000000000000000000000000000000000000000000000000000007070000000000000000000000000000000000000000000007000000000000000000000000000000000000000000000000000000
310
00000000000000000000000000000000000000000000000000000000000000000000000000000000000000000000000000000000000000000000000000000000000000000000000000000000000000000000000000000000000000000000000000000000000000000000000000000000000000000000000000000000000000
310
00070000000000000000000000000000000000000000000000070000000000000000000000000000000000000000000000000000000000000000000000000000000000000000000000000000000000000000000000000000000000000000000000000000000000000000000000000000000000000000000000000000000000
310
00000000000000000000000000000000000000000000000000000000000000000000000000000000000000000000000000000000000007000000000000000000000000000000000000000000000007000000000000000000000000000000000000000000000000000000000000000000000000000000000000000000000000
310
00000000000000000000000000000000000000000000000000000000000000000000000000000000000000000000000000000000000000000000000000000000000000000000000000000000000000000000000000000000000000000000000000000000000000000000000700000000000000000000000000000000000000
310
00000000070000000000000000000000000000000000000000000000000000000000000000000000000000000000000000000000000000000000000000000000000000000000000000000000000000000000000000000000000000000000000000000000000000000000000000000000000000000000000000000000000000
310
00000000000000000000000000000000000000000000000000000000000000000007000000000000000000000000000000000000000000000007000000000000000000000000000000000000000000000000000000000000000000000000000000000000000000000000000000000000000000000000000000000000000000
310
00000000000000000000000000000000000000000000000000000000000000000000000000000000000000000000000000000000000000000000000000000000000000000000000000000000000000000000000000000700000000000000000000000000000000000000000000000700000000000000000000000000000000
310
00000000000000000000000000000000000000000000000000000000000000000000000000000000000000000000000000000000000000000000000000000000000000000000000000000000000000000000000000000000000000000000000000000000000000000000000000000000000000000000000000000000000000
310
00000000000000000000000007000000000000000000000000000000000000000000000007000000000000000000000000000000000000000000000000000000000000000000000000000000000000000000000000000000000000000000000000000000000000000000000000000000000000000000000000000000000000
310
00000000000000000000000000000000000000000000000000000000000000000000000000000000000000000000000000000000000000000000000000000000000700000000000000000000000000000000000000000000000700000000000000000000000000000000000000000000000000000000000000000000000000
310
00000000000000000000000000000000000000000000000000000000000000000000000000000000000000000000000000000000000000000000000000000000000000000000000000000000000000000000000000000000000000000000000000000000000000000000000000000000000000000000070000000000000000
310
00000000000000000000000000000007000000000000000000000000000000000000000000000000000000000000000000000000000000000000000000000000000000000000000000000000000000000000000000000000000000000000000000000000000000000000000000000000000000000000000000000000000000
310
00000000000000000000000000000000000000000000000000000000000000000000000000000000000000000700000000000000000000000000000000000000000000000700000000000000000000000000000000000000000000000000000000000000000000000000000000000000000000000000000000000000000000
310
00000000000000000000000000000000000000000000000000000000000000000000000000000000000000000000000000000000000000000000000000000000000000000000000000000000000000000000000000000000000000000000000000070000000000000000000000000000000000000000000000070000000000
310
00000000000000000000000000000000000000000000000000000000000000000000000000000000000000000000000000000000000000000000000000000000000000000000000000000000000000000000000000000000000000000000000000000000000000000000000000000000000000000000000000000000000000
310
00000000000000000000000000000000000000000000000700000000000000000000000000000000000000000000000700000000000000000000000000000000000000000000000000000000000000000000000000000000000000000000000000000000000000000000000000000000000000000000000000000000000000
310
00000000000000000000000000000000000000000000000000000000000000000000000000000000000000000000000000000000000000000000000000000000000000000000000000000000070000000000000000000000000000000000000000000000070000000000000000000000000000000000000000000000000000
310
00000000000000000000000000000000000000000000000000000000000000000000000000000000000000000000000000000000000000000000000000000000000000000000000000000000000000000000000000000000000000000000000000000000000000000000000000000000000000000000000000000000000000
310
00000700000000000000000000000000000000000000000000000700000000000000000000000000000000000000000000000000000000000000000000000000000000000000000000000000000000000000000000000000000000000000000000000000000000000000000000000000000000000000000000000000000000
310
00000000000000000000000000000000000000000000000000000000000000000000000000000000000000000000000000000000000000070000000000000000000000000000000000000000000000070000000000000000000000000000000000000000000000000000000000000000000000000000000000000000000000
310
00000000000000000000000000000000000000000000000000000000000000000000000000000000000000000000000000000000000000000000000000000000000000000000000000000000000000000000000000000000000000000000000000000000000000000000000007000000000000000000000000000000000000
310
00000000000707000000000000000000000000000000000000000000000000000000000000000000000000000000000000000000000000000000000000000000000000000000000000000000000000000000000000000000000000000000000000000000000000000000000000000000000000000000000000000000000000
310
00000000000000000000000000000000000000000000000000000000000000000007070000000000000000000000000000000000000000000000070700000000000000000000000000000000000000000000000000000000000000000000000000000000000000000000000000000000000000000000000000000000000000
310
00000000000000000000000000000000000000000000000000000000000000000000000000000000000000000000000000000000000000000000000000000000000000000000000000000000000000000000000000000707000000000000000000000000000000000000000000000007070000000000000000000000000000
310
00000000000000000000000000000000000000000000000000000000000000000000000000000000000000000000000000000000000000000000000000000000000000000000000000000000000000000000000000000000000000000000000000000000000000000000000000000000000000000000000000000000000000
310
00000000000000000000000000070000000000000000000000000000000000000000000000070000000000000000000000000000000000000000000000000000000000000000000000000000000000000000000000000000000000000000000000000000000000000000000000000000000000000000000000000000000000
310
00000000000000000000000000000000000000000000000000000000000000000000000000000000000000000000000000000000000000000000000000000000000707000000000000000000000000000000000000000000000007070000000000000000000000000000000000000000000000000000000000000000000000
310
00000000000000000000000000000000000000000000000000000000000000000000000000000000000000000000000000000000000000000000000000000000000000000000000000000000000000000000000000000000000000000000000000000000000000000000000000000000000000000000070700000000000000
310
00000000000000000000000000000000070700000000000000000000000000000000000000000000000000000000000000000000000000000000000000000000000000000000000000000000000000000000000000000000000000000000000000000000000000000000000000000000000000000000000000000000000000
310
00000000000000000000000000000000000000000000000000000000000000000000000000000000000000000007070000000000000000000000000000000000000000000007070000000000000000000000000000000000000000000000000000000000000000000000000000000000000000000000000000000000000000
310
00000000000000000000000000000000000000000000000000000000000000000000000000000000000000000000000000000000000000000000000000000000000000000000000000000000000000000000000000000000000000000000000000000707000000000000000000000000000000000000000000070700000000
310
00000000000000000000000000000000000000000000000000000000000000000000000000000000000000000000000000000000000000000000000000000000000000000000000000000000000000000000000000000000000000000000000000000000000000000000000000000000000000000000000000000000000000
310
00000000000000000000000000000000000000000000000007070700000000000000000000000000000000000000000707000000000000000000000000000000000000000000000000000000000000000000000000000000000000000000000000000000000000000000000000000000000000000000000000000000000000
310
00000000000000000000000000000000000000000000000000000000000000000000000000000000000000000000000000000000000000000000000000000000000000000000000000000000000700070000000000000000000000000000000000000007070000000000000000000000000000000000000000000000000000
310
00000000000000000000000000000000000000000000000000000000000000000000000000000000000000000000000000000000000000000000000000000000000000000000000000000000000000000000000000000000000000000000000000000000000000000000000000000000000000000000000000000000000000
310
00000000070707000000000000000000000000000000000000070700000000000000000000000000000000000000000000000000000000000000000000000000000000000000000000000000000000000000000000000000000000000000000000000000000000000000000000000000000000000000000000000000000000
310
00000000000000000000000000000000000000000000000000000000000000000000000000000000000000000000000000000000000000000000070707000000000000000000000000000000000700070000000000000000000000000000000000000000000000000000000000000000000000000000000000000000000000
310
00000000000000000000000000000000000000000000000000000000000000000000000000000000000000000000000000000000000000000000000000000000000000000000000000000000000000000000000000000000000000000000000000000000000000000000000000000000070707000000000000000000000000
310
00000707070000000000000000000000000000000000000000000000000000000000000000000000000000000000000000000000000000000000000000000000000000000000000000000000000000000000000000000000000000000000000000000000000000000000000000000000000000000000000000000000000000
310
00000000000000000000000000000000000000000000000000000000000000000000000000000000070700000000000000000000000707000007000000000000000000000000000000000000000000000000000000000000000000000000000000000000000000000000000000000000000000000000000000000000000000
310
00000000000000000000000000000000000000000000000000000000000000000000000000000000000000000000000000000000000000000000000000000000000000000000000000000000000000000000000000000000000000000000070707070000000000070707070700000007000000000000000000000000000000
310
00000000000000000000000000000000000000000000000000000000000000000000000000000000000000000000000000000000000000000000000000000000000000000000000000000000000000000000000000000000000000000000000000000000000000000000000000000000000000000000000000000000000000
310
00000000000000000000000000000000000000000007070707070707070707070000070000070000000000000000000000000000000000000000000000000000000000000000000000000000000000000000000000000000000000000000000000000000000000000000000000000000000000000000000000000000000000
310
00000000000000000000000000000000000000000000000000000000000000000000000000000000000000000000000000000000000000000000000000000000000000000000000000000000000707070707000000000000070700070000000000000000000000000000000000000000000000000000000000000000000000
310
00000000000000000000000000000000000000000000000000000000000000000000000000000000000000000000000000000000000000000000000000000000000000000000000000000000000000000000000000000000000000000000000000000000000000000000000000000000000000000000000000000000000000
310
00000000000000000000000000000000070007000000000000000000000000000000000000000000000000000000000000000000000000000000000000000000000000000000000000000000000000000000000000000000000000000000000000000000000000000000000000000000000000000000000000000000000000
310
00000000000000000000000000000000000000000000000000000000000000000000000000000000000000000000000000000000000000000000000000000000000000000000070007070000000000000000000000000000000000000000000000000000000000000000000000000000000000000000000000000000000000
310
00000000000000000000000000000000000000000000000000000000000000000000000000000000000000000000000000000000000000000000000000000000000000000000000000000000000000000000000000000000000000000000000000000000000000000000000000000000000000000000000000000000070000
310
07000000000000000000000000000000000000000000000000000000000000000000000000000000000000000000000000000000000000000000000000000000000000000000000000000000000000000000000000000000000000000000000000000000000000000000000000000000000000000000000000000000000000
310
00000000000000000000000000000000000000000000000000000000000000000000000000000000000000000000000000000700000007000000000000000000000000000000000000000000000000000000000000000000000000000000000000000000000000000000000000000000000000000000000000000000000000
310
00000000000000000000000000000000000000000000000000000000000000000000000000000000000000000000000000000000000000000000000000000000000000000000000000000000000000000000000000000000000000000000000000000000000000000700070000000000000000000000000000000000000000
310
00000000000000000000000000000000000000000000000000000000000000000000000000000000000000000000000000000000000000000000000000000000000000000000000000000000000000000000000000000000000000000000000000000000000000000000000000000000000000000000000000000000000000
310
000000000000000000000000000000000000000000000000000000000000000700000000000000000000000000000000000000000000000000000000000000000000000000000000000000000000000000000000000000000000000000000000000000000000000000000000
  0
ENDSEC
  0
EOF
