  0
SECTION
  2
HEADER
  9
$ACADVER
  1
AC1015
  9
$ACADMAINTVER
 70
     6
  9
$DWGCODEPAGE
  3
ANSI_1252
  9
$INSBASE
 10
0.0
 20
0.0
 30
0.0
  9
$EXTMIN
 10
0.07115
 20
0.2
 30
0.0
  9
$EXTMAX
 10
156.92885
 20
156.465430512375
 30
0.0
  9
$LIMMIN
 10
0.0
 20
0.0
  9
$LIMMAX
 10
12.0
 20
9.0
  9
$ORTHOMODE
 70
     0
  9
$REGENMODE
 70
     1
  9
$FILLMODE
 70
     1
  9
$QTEXTMODE
 70
     0
  9
$MIRRTEXT
 70
     1
  9
$LTSCALE
 40
1.0
  9
$ATTMODE
 70
     1
  9
$TEXTSIZE
 40
0.2
  9
$TRACEWID
 40
0.05
  9
$TEXTSTYLE
  7
Standard
  9
$CLAYER
  8
0
  9
$CELTYPE
  6
Continuous
  9
$CECOLOR
 62
   256
  9
$CELTSCALE
 40
1.0
  9
$DISPSILH
 70
     0
  9
$DIMSCALE
 40
1.0
  9
$DIMASZ
 40
0.18
  9
$DIMEXO
 40
0.0625
  9
$DIMDLI
 40
0.38
  9
$DIMRND
 40
0.0
  9
$DIMDLE
 40
0.0
  9
$DIMEXE
 40
0.18
  9
$DIMTP
 40
0.0
  9
$DIMTM
 40
0.0
  9
$DIMTXT
 40
0.18
  9
$DIMCEN
 40
0.09
  9
$DIMTSZ
 40
0.0
  9
$DIMTOL
 70
     0
  9
$DIMLIM
 70
     0
  9
$DIMTIH
 70
     1
  9
$DIMTOH
 70
     1
  9
$DIMSE1
 70
     0
  9
$DIMSE2
 70
     0
  9
$DIMTAD
 70
     0
  9
$DIMZIN
 70
     0
  9
$DIMBLK
  1

  9
$DIMASO
 70
     1
  9
$DIMSHO
 70
     1
  9
$DIMPOST
  1

  9
$DIMAPOST
  1

  9
$DIMALT
 70
     0
  9
$DIMALTD
 70
     2
  9
$DIMALTF
 40
25.4
  9
$DIMLFAC
 40
1.0
  9
$DIMTOFL
 70
     0
  9
$DIMTVP
 40
0.0
  9
$DIMTIX
 70
     0
  9
$DIMSOXD
 70
     0
  9
$DIMSAH
 70
     0
  9
$DIMBLK1
  1

  9
$DIMBLK2
  1

  9
$DIMSTYLE
  2
Standard
  9
$DIMCLRD
 70
     0
  9
$DIMCLRE
 70
     0
  9
$DIMCLRT
 70
     0
  9
$DIMTFAC
 40
1.0
  9
$DIMGAP
 40
0.09
  9
$DIMJUST
 70
     0
  9
$DIMSD1
 70
     0
  9
$DIMSD2
 70
     0
  9
$DIMTOLJ
 70
     1
  9
$DIMTZIN
 70
     0
  9
$DIMALTZ
 70
     0
  9
$DIMALTTZ
 70
     0
  9
$DIMUPT
 70
     0
  9
$DIMDEC
 70
     4
  9
$DIMTDEC
 70
     4
  9
$DIMALTU
 70
     2
  9
$DIMALTTD
 70
     2
  9
$DIMTXSTY
  7
Standard
  9
$DIMAUNIT
 70
     0
  9
$DIMADEC
 70
     0
  9
$DIMALTRND
 40
0.0
  9
$DIMAZIN
 70
     0
  9
$DIMDSEP
 70
    46
  9
$DIMATFIT
 70
     3
  9
$DIMFRAC
 70
     0
  9
$DIMLDRBLK
  1

  9
$DIMLUNIT
 70
     2
  9
$DIMLWD
 70
    -2
  9
$DIMLWE
 70
    -2
  9
$DIMTMOVE
 70
     0
  9
$LUNITS
 70
     2
  9
$LUPREC
 70
     4
  9
$SKETCHINC
 40
0.1
  9
$FILLETRAD
 40
0.0
  9
$AUNITS
 70
     0
  9
$AUPREC
 70
     0
  9
$MENU
  1
.
  9
$ELEVATION
 40
0.0
  9
$PELEVATION
 40
0.0
  9
$THICKNESS
 40
0.0
  9
$LIMCHECK
 70
     0
  9
$CHAMFERA
 40
0.0
  9
$CHAMFERB
 40
0.0
  9
$CHAMFERC
 40
0.0
  9
$CHAMFERD
 40
0.0
  9
$SKPOLY
 70
     0
  9
$TDCREATE
 40
2455654.926283808
  9
$TDUCREATE
 40
2455654.842950474
  9
$TDUPDATE
 40
2455820.881914062
  9
$TDUUPDATE
 40
2455820.798580729
  9
$TDINDWG
 40
0.0029877431
  9
$TDUSRTIMER
 40
0.0029877431
  9
$USRTIMER
 70
     1
  9
$ANGBASE
 50
0.0
  9
$ANGDIR
 70
     0
  9
$PDMODE
 70
     0
  9
$PDSIZE
 40
0.0
  9
$PLINEWID
 40
0.0
  9
$SPLFRAME
 70
     0
  9
$SPLINETYPE
 70
     6
  9
$SPLINESEGS
 70
     8
  9
$HANDSEED
  5
6B6
  9
$SURFTAB1
 70
     6
  9
$SURFTAB2
 70
     6
  9
$SURFTYPE
 70
     6
  9
$SURFU
 70
     6
  9
$SURFV
 70
     6
  9
$UCSBASE
  2

  9
$UCSNAME
  2

  9
$UCSORG
 10
0.0
 20
0.0
 30
0.0
  9
$UCSXDIR
 10
1.0
 20
0.0
 30
0.0
  9
$UCSYDIR
 10
0.0
 20
1.0
 30
0.0
  9
$UCSORTHOREF
  2

  9
$UCSORTHOVIEW
 70
     1
  9
$UCSORGTOP
 10
0.0
 20
0.0
 30
0.0
  9
$UCSORGBOTTOM
 10
0.0
 20
0.0
 30
0.0
  9
$UCSORGLEFT
 10
0.0
 20
0.0
 30
0.0
  9
$UCSORGRIGHT
 10
0.0
 20
0.0
 30
0.0
  9
$UCSORGFRONT
 10
0.0
 20
0.0
 30
0.0
  9
$UCSORGBACK
 10
0.0
 20
0.0
 30
0.0
  9
$PUCSBASE
  2

  9
$PUCSNAME
  2

  9
$PUCSORG
 10
0.0
 20
0.0
 30
0.0
  9
$PUCSXDIR
 10
1.0
 20
0.0
 30
0.0
  9
$PUCSYDIR
 10
0.0
 20
1.0
 30
0.0
  9
$PUCSORTHOREF
  2

  9
$PUCSORTHOVIEW
 70
     0
  9
$PUCSORGTOP
 10
0.0
 20
0.0
 30
0.0
  9
$PUCSORGBOTTOM
 10
0.0
 20
0.0
 30
0.0
  9
$PUCSORGLEFT
 10
0.0
 20
0.0
 30
0.0
  9
$PUCSORGRIGHT
 10
0.0
 20
0.0
 30
0.0
  9
$PUCSORGFRONT
 10
0.0
 20
0.0
 30
0.0
  9
$PUCSORGBACK
 10
0.0
 20
0.0
 30
0.0
  9
$USERI1
 70
     0
  9
$USERI2
 70
     0
  9
$USERI3
 70
     0
  9
$USERI4
 70
     0
  9
$USERI5
 70
     0
  9
$USERR1
 40
0.0
  9
$USERR2
 40
0.0
  9
$USERR3
 40
0.0
  9
$USERR4
 40
0.0
  9
$USERR5
 40
0.0
  9
$WORLDVIEW
 70
     1
  9
$SHADEDGE
 70
     3
  9
$SHADEDIF
 70
    70
  9
$TILEMODE
 70
     1
  9
$MAXACTVP
 70
    64
  9
$PINSBASE
 10
0.0
 20
0.0
 30
0.0
  9
$PLIMCHECK
 70
     0
  9
$PEXTMIN
 10
1.000000000000E+20
 20
1.000000000000E+20
 30
1.000000000000E+20
  9
$PEXTMAX
 10
-1.000000000000E+20
 20
-1.000000000000E+20
 30
-1.000000000000E+20
  9
$PLIMMIN
 10
0.0
 20
0.0
  9
$PLIMMAX
 10
12.0
 20
9.0
  9
$UNITMODE
 70
     0
  9
$VISRETAIN
 70
     1
  9
$PLINEGEN
 70
     0
  9
$PSLTSCALE
 70
     1
  9
$TREEDEPTH
 70
  3020
  9
$CMLSTYLE
  2
Standard
  9
$CMLJUST
 70
     0
  9
$CMLSCALE
 40
1.0
  9
$PROXYGRAPHICS
 70
     1
  9
$MEASUREMENT
 70
     0
  9
$CELWEIGHT
370
    -1
  9
$ENDCAPS
280
     0
  9
$JOINSTYLE
280
     0
  9
$LWDISPLAY
290
     0
  9
$INSUNITS
 70
     0
  9
$HYPERLINKBASE
  1

  9
$STYLESHEET
  1

  9
$XEDIT
290
     1
  9
$CEPSNTYPE
380
     0
  9
$PSTYLEMODE
290
     1
  9
$FINGERPRINTGUID
  2
{D3280768-DAD4-4109-825A-950EC586147F}
  9
$VERSIONGUID
  2
{274ED372-2C5C-465C-AC52-5C314B96E172}
  9
$EXTNAMES
290
     1
  9
$PSVPSCALE
 40
0.0
  9
$OLESTARTUP
290
     0
  0
ENDSEC
  0
SECTION
  2
CLASSES
  0
CLASS
  1
ACDBDICTIONARYWDFLT
  2
AcDbDictionaryWithDefault
  3
ObjectDBX Classes
 90
        0
280
     0
281
     0
  0
CLASS
  1
ACDBPLACEHOLDER
  2
AcDbPlaceHolder
  3
ObjectDBX Classes
 90
        0
280
     0
281
     0
  0
CLASS
  1
LAYOUT
  2
AcDbLayout
  3
ObjectDBX Classes
 90
        0
280
     0
281
     0
  0
CLASS
  1
DICTIONARYVAR
  2
AcDbDictionaryVar
  3
ObjectDBX Classes
 90
        0
280
     0
281
     0
  0
CLASS
  1
SCALE
  2
AcDbScale
  3
ObjectDBX Classes
 90
     1153
280
     0
281
     0
  0
ENDSEC
  0
SECTION
  2
TABLES
  0
TABLE
  2
VPORT
  5
8
330
0
100
AcDbSymbolTable
 70
     1
  0
VPORT
  5
68D
330
8
100
AcDbSymbolTableRecord
100
AcDbViewportTableRecord
  2
*Active
 70
     0
 10
0.0
 20
0.0
 11
1.0
 21
1.0
 12
78.5
 22
78.332715256187
 13
0.0
 23
0.0
 14
1.0
 24
1.0
 15
0.0
 25
0.0
 16
0.0
 26
0.0
 36
1.0
 17
0.0
 27
0.0
 37
0.0
 40
157.322468373789
 41
2.073363431151
 42
50.0
 43
0.0
 44
0.0
 50
0.0
 51
0.0
 71
     0
 72
   100
 73
     1
 74
     3
 75
     0
 76
     0
 77
     0
 78
     0
281
     0
 65
     1
110
0.0
120
0.0
130
0.0
111
1.0
121
0.0
131
0.0
112
0.0
122
1.0
132
0.0
 79
     1
146
0.0
  0
ENDTAB
  0
TABLE
  2
LTYPE
  5
5
330
0
100
AcDbSymbolTable
 70
     1
  0
LTYPE
  5
13
330
5
100
AcDbSymbolTableRecord
100
AcDbLinetypeTableRecord
  2
ByBlock
 70
     0
  3

 72
    65
 73
     0
 40
0.0
  0
LTYPE
  5
14
330
5
100
AcDbSymbolTableRecord
100
AcDbLinetypeTableRecord
  2
ByLayer
 70
     0
  3

 72
    65
 73
     0
 40
0.0
  0
LTYPE
  5
15
330
5
100
AcDbSymbolTableRecord
100
AcDbLinetypeTableRecord
  2
Continuous
 70
     0
  3
Solid line
 72
    65
 73
     0
 40
0.0
  0
ENDTAB
  0
TABLE
  2
LAYER
  5
2
330
0
100
AcDbSymbolTable
 70
     1
  0
LAYER
  5
10
330
2
100
AcDbSymbolTableRecord
100
AcDbLayerTableRecord
  2
0
 70
     0
 62
     7
  6
Continuous
370
    -3
390
F
  0
ENDTAB
  0
TABLE
  2
STYLE
  5
3
330
0
100
AcDbSymbolTable
 70
     1
  0
STYLE
  5
11
330
3
100
AcDbSymbolTableRecord
100
AcDbTextStyleTableRecord
  2
Standard
 70
     0
 40
0.0
 41
1.0
 50
0.0
 71
     0
 42
0.2
  3
txt
  4

  0
ENDTAB
  0
TABLE
  2
VIEW
  5
6
330
0
100
AcDbSymbolTable
 70
     0
  0
ENDTAB
  0
TABLE
  2
UCS
  5
7
330
0
100
AcDbSymbolTable
 70
     0
  0
ENDTAB
  0
TABLE
  2
APPID
  5
9
330
0
100
AcDbSymbolTable
 70
     1
  0
APPID
  5
12
330
9
100
AcDbSymbolTableRecord
100
AcDbRegAppTableRecord
  2
ACAD
 70
     0
  0
ENDTAB
  0
TABLE
  2
DIMSTYLE
  5
A
330
0
100
AcDbSymbolTable
 70
     1
100
AcDbDimStyleTable
  0
DIMSTYLE
105
41F
330
A
100
AcDbSymbolTableRecord
100
AcDbDimStyleTableRecord
  2
Standard
 70
     0
340
11
  0
ENDTAB
  0
TABLE
  2
BLOCK_RECORD
  5
1
330
0
100
AcDbSymbolTable
 70
     0
  0
BLOCK_RECORD
  5
1E
330
1
100
AcDbSymbolTableRecord
100
AcDbBlockTableRecord
  2
*Model_Space
340
21
  0
BLOCK_RECORD
  5
1A
330
1
100
AcDbSymbolTableRecord
100
AcDbBlockTableRecord
  2
*Paper_Space
340
1D
  0
ENDTAB
  0
ENDSEC
  0
SECTION
  2
BLOCKS
  0
BLOCK
  5
1F
330
1E
100
AcDbEntity
  8
0
100
AcDbBlockBegin
  2
*Model_Space
 70
     0
 10
0.0
 20
0.0
 30
0.0
  3
*Model_Space
  1
*Model_Space
  0
ENDBLK
  5
20
330
1E
100
AcDbEntity
  8
0
100
AcDbBlockEnd
  0
BLOCK
  5
1B
330
1A
100
AcDbEntity
 67
     1
  8
0
100
AcDbBlockBegin
  2
*Paper_Space
 70
     0
 10
0.0
 20
0.0
 30
0.0
  3
*Paper_Space
  1
*Paper_Space
  0
ENDBLK
  5
1C
330
1A
100
AcDbEntity
 67
     1
  8
0
100
AcDbBlockEnd
  0
ENDSEC
  0
SECTION
  2
ENTITIES
  0
LINE
  5
24
330
1E
100
AcDbEntity
  8
0
100
AcDbLine
 10
98.31695
 20
0.2
 30
0.0
 11
98.67185
 21
0.2
 31
0.0
  0
LINE
  5
25
330
1E
100
AcDbEntity
  8
0
100
AcDbLine
 10
99.85345
 20
0.2
 30
0.0
 11
100.69515
 21
0.2
 31
0.0
  0
LINE
  5
26
330
1E
100
AcDbEntity
  8
0
100
AcDbLine
 10
99.16565
 20
0.2
 30
0.0
 11
99.85345
 21
0.2
 31
0.0
  0
LINE
  5
27
330
1E
100
AcDbEntity
  8
0
100
AcDbLine
 10
98.03205
 20
0.2
 30
0.0
 11
98.10305
 21
0.2
 31
0.0
  0
LINE
  5
29
330
1E
100
AcDbEntity
  8
0
100
AcDbLine
 10
98.10305
 20
0.2
 30
0.0
 11
98.31695
 21
0.2
 31
0.0
  0
LINE
  5
2A
330
1E
100
AcDbEntity
  8
0
100
AcDbLine
 10
98.67185
 20
0.2
 30
0.0
 11
99.16565
 21
0.2
 31
0.0
  0
LINE
  5
2B
330
1E
100
AcDbEntity
  8
0
100
AcDbLine
 10
100.69515
 20
0.2
 30
0.0
 11
101.68585
 21
0.2
 31
0.0
  0
LINE
  5
2C
330
1E
100
AcDbEntity
  8
0
100
AcDbLine
 10
101.68585
 20
0.2
 30
0.0
 11
102.81755
 21
0.2
 31
0.0
  0
LINE
  5
2D
330
1E
100
AcDbEntity
  8
0
100
AcDbLine
 10
104.08415
 20
0.2
 30
0.0
 11
105.47565
 21
0.2
 31
0.0
  0
LINE
  5
2E
330
1E
100
AcDbEntity
  8
0
100
AcDbLine
 10
102.81755
 20
0.2
 30
0.0
 11
104.08415
 21
0.2
 31
0.0
  0
LINE
  5
2F
330
1E
100
AcDbEntity
  8
0
100
AcDbLine
 10
105.47565
 20
0.2
 30
0.0
 11
106.98115
 21
0.2
 31
0.0
  0
LINE
  5
30
330
1E
100
AcDbEntity
  8
0
100
AcDbLine
 10
106.98115
 20
0.2
 30
0.0
 11
108.59165
 21
0.2
 31
0.0
  0
LINE
  5
31
330
1E
100
AcDbEntity
  8
0
100
AcDbLine
 10
108.59165
 20
0.2
 30
0.0
 11
110.29615
 21
0.2
 31
0.0
  0
LINE
  5
32
330
1E
100
AcDbEntity
  8
0
100
AcDbLine
 10
112.08155
 20
0.2
 30
0.0
 11
113.93595
 21
0.2
 31
0.0
  0
LINE
  5
33
330
1E
100
AcDbEntity
  8
0
100
AcDbLine
 10
113.93595
 20
0.2
 30
0.0
 11
115.84535
 21
0.2
 31
0.0
  0
LINE
  5
34
330
1E
100
AcDbEntity
  8
0
100
AcDbLine
 10
115.84535
 20
0.2
 30
0.0
 11
117.80475
 21
0.2
 31
0.0
  0
LINE
  5
35
330
1E
100
AcDbEntity
  8
0
100
AcDbLine
 10
117.80475
 20
0.2
 30
0.0
 11
119.79305
 21
0.2
 31
0.0
  0
LINE
  5
36
330
1E
100
AcDbEntity
  8
0
100
AcDbLine
 10
110.29615
 20
0.2
 30
0.0
 11
112.08155
 21
0.2
 31
0.0
  0
LINE
  5
37
330
1E
100
AcDbEntity
  8
0
100
AcDbLine
 10
119.79305
 20
0.2
 30
0.0
 11
121.78945
 21
0.2
 31
0.0
  0
LINE
  5
38
330
1E
100
AcDbEntity
  8
0
100
AcDbLine
 10
136.29085
 20
0.2
 30
0.0
 11
138.30685
 21
0.2
 31
0.0
  0
LINE
  5
39
330
1E
100
AcDbEntity
  8
0
100
AcDbLine
 10
131.74385
 20
0.2
 30
0.0
 11
134.09485
 21
0.2
 31
0.0
  0
LINE
  5
3A
330
1E
100
AcDbEntity
  8
0
100
AcDbLine
 10
134.09485
 20
0.2
 30
0.0
 11
136.29085
 21
0.2
 31
0.0
  0
LINE
  5
3B
330
1E
100
AcDbEntity
  8
0
100
AcDbLine
 10
129.97985
 20
0.2
 30
0.0
 11
131.74385
 21
0.2
 31
0.0
  0
LINE
  5
3C
330
1E
100
AcDbEntity
  8
0
100
AcDbLine
 10
123.78685
 20
0.2
 30
0.0
 11
126.30305
 21
0.2
 31
0.0
  0
LINE
  5
3D
330
1E
100
AcDbEntity
  8
0
100
AcDbLine
 10
126.30305
 20
0.2
 30
0.0
 11
128.16185
 21
0.2
 31
0.0
  0
LINE
  5
3E
330
1E
100
AcDbEntity
  8
0
100
AcDbLine
 10
128.16185
 20
0.2
 30
0.0
 11
129.97985
 21
0.2
 31
0.0
  0
LINE
  5
3F
330
1E
100
AcDbEntity
  8
0
100
AcDbLine
 10
121.78945
 20
0.2
 30
0.0
 11
123.78685
 21
0.2
 31
0.0
  0
LINE
  5
40
330
1E
100
AcDbEntity
  8
0
100
AcDbLine
 10
138.30685
 20
0.2
 30
0.0
 11
140.11785
 21
0.2
 31
0.0
  0
LINE
  5
41
330
1E
100
AcDbEntity
  8
0
100
AcDbLine
 10
140.11785
 20
0.2
 30
0.0
 11
141.69985
 21
0.2
 31
0.0
  0
LINE
  5
42
330
1E
100
AcDbEntity
  8
0
100
AcDbLine
 10
141.69985
 20
0.2
 30
0.0
 11
143.03385
 21
0.2
 31
0.0
  0
LINE
  5
44
330
1E
100
AcDbEntity
  8
0
100
AcDbLine
 10
141.032486675664
 20
42.316176731569
 30
0.0
 11
144.10985
 21
53.7795
 31
0.0
  0
LINE
  5
46
330
1E
100
AcDbEntity
  8
0
100
AcDbLine
 10
139.064348334517
 20
51.268663397884
 30
0.0
 11
139.99185
 21
54.7235
 31
0.0
  0
LINE
  5
49
330
1E
100
AcDbEntity
  8
0
100
AcDbLine
 10
143.03385
 20
0.2
 30
0.0
 11
144.10085
 21
0.2
 31
0.0
  0
LINE
  5
4B
330
1E
100
AcDbEntity
  8
0
100
AcDbLine
 10
139.99185
 20
54.7235
 30
0.0
 11
140.93285
 21
56.9435
 31
0.0
  0
LINE
  5
4E
330
1E
100
AcDbEntity
  8
0
100
AcDbLine
 10
144.10085
 20
0.2
 30
0.0
 11
144.89185
 21
0.2
 31
0.0
  0
LINE
  5
52
330
1E
100
AcDbEntity
  8
0
100
AcDbLine
 10
144.488679197456
 20
54.674070631664
 30
0.0
 11
145.60685
 21
0.2
 31
0.0
  0
LINE
  5
53
330
1E
100
AcDbEntity
  8
0
100
AcDbLine
 10
144.488679197456
 20
54.674070631664
 30
0.0
 11
145.60685
 21
0.2
 31
0.0
  0
LINE
  5
56
330
1E
100
AcDbEntity
  8
0
100
AcDbLine
 10
145.55385
 20
0.2
 30
0.0
 11
145.60685
 21
0.2
 31
0.0
  0
LINE
  5
57
330
1E
100
AcDbEntity
  8
0
100
AcDbLine
 10
145.39385
 20
0.2
 30
0.0
 11
145.55385
 21
0.2
 31
0.0
  0
LINE
  5
58
330
1E
100
AcDbEntity
  8
0
100
AcDbLine
 10
144.89185
 20
0.2
 30
0.0
 11
145.39385
 21
0.2
 31
0.0
  0
LINE
  5
59
330
1E
100
AcDbEntity
  8
0
100
AcDbLine
 10
144.684928212344
 20
55.137494798524
 30
0.0
 11
145.25385
 21
55.8385
 31
0.0
  0
LINE
  5
5A
330
1E
100
AcDbEntity
  8
0
100
AcDbLine
 10
144.10985
 20
53.7795
 30
0.0
 11
144.684928212345
 21
55.137494798525
 31
0.0
  0
LINE
  5
5B
330
1E
100
AcDbEntity
  8
0
100
AcDbLine
 10
145.25385
 20
55.8385
 30
0.0
 11
146.26385
 21
56.4465
 31
0.0
  0
LINE
  5
5C
330
1E
100
AcDbEntity
  8
0
100
AcDbLine
 10
141.26985
 20
57.4455
 30
0.0
 11
142.78085
 21
59.3055
 31
0.0
  0
LINE
  5
5E
330
1E
100
AcDbEntity
  8
0
100
AcDbLine
 10
140.93285
 20
56.9435
 30
0.0
 11
141.26985
 21
57.4455
 31
0.0
  0
LINE
  5
65
330
1E
100
AcDbEntity
  8
0
100
AcDbLine
 10
146.26385
 20
56.4465
 30
0.0
 11
146.939512587313
 21
56.529953293035
 31
0.0
  0
LINE
  5
66
330
1E
100
AcDbEntity
  8
0
100
AcDbLine
 10
146.939512587313
 20
56.529953293035
 30
0.0
 11
154.83785
 21
55.7495
 31
0.0
  0
LINE
  5
68
330
1E
100
AcDbEntity
  8
0
100
AcDbLine
 10
99.22435
 20
58.2221
 30
0.0
 11
99.25565
 21
59.7453
 31
0.0
  0
LINE
  5
6C
330
1E
100
AcDbEntity
  8
0
100
AcDbLine
 10
153.88785
 20
57.7885
 30
0.0
 11
154.11585
 21
56.5285
 31
0.0
  0
LINE
  5
6D
330
1E
100
AcDbEntity
  8
0
100
AcDbLine
 10
153.88785
 20
57.7885
 30
0.0
 11
154.24085
 21
59.0495
 31
0.0
  0
LINE
  5
6E
330
1E
100
AcDbEntity
  8
0
100
AcDbLine
 10
154.11585
 20
56.5285
 30
0.0
 11
154.83785
 21
55.7495
 31
0.0
  0
LINE
  5
6F
330
1E
100
AcDbEntity
  8
0
100
AcDbLine
 10
154.83785
 20
55.7495
 30
0.0
 11
155.77685
 21
55.7495
 31
0.0
  0
LINE
  5
70
330
1E
100
AcDbEntity
  8
0
100
AcDbLine
 10
155.77685
 20
55.7495
 30
0.0
 11
156.57585
 21
56.5285
 31
0.0
  0
LINE
  5
71
330
1E
100
AcDbEntity
  8
0
100
AcDbLine
 10
99.25565
 20
59.7453
 30
0.0
 11
99.28865
 21
63.2935
 31
0.0
  0
LINE
  5
72
330
1E
100
AcDbEntity
  8
0
100
AcDbLine
 10
142.78085
 20
59.3055
 30
0.0
 11
144.62385
 21
60.4135
 31
0.0
  0
LINE
  5
74
330
1E
100
AcDbEntity
  8
0
100
AcDbLine
 10
144.62385
 20
60.4135
 30
0.0
 11
146.61985
 21
60.6615
 31
0.0
  0
LINE
  5
77
330
1E
100
AcDbEntity
  8
0
100
AcDbLine
 10
146.61985
 20
60.6615
 30
0.0
 11
147.55885
 21
60.6615
 31
0.0
  0
LINE
  5
78
330
1E
100
AcDbEntity
  8
0
100
AcDbLine
 10
0.36995
 20
89.6398
 30
0.0
 11
0.36995
 21
89.7858
 31
0.0
  0
LINE
  5
79
330
1E
100
AcDbEntity
  8
0
100
AcDbLine
 10
0.36995
 20
89.7858
 30
0.0
 11
0.36995
 21
89.6398
 31
0.0
  0
LINE
  5
7A
330
1E
100
AcDbEntity
  8
0
100
AcDbLine
 10
0.36995
 20
89.7858
 30
0.0
 11
0.36995
 21
90.0338
 31
0.0
  0
LINE
  5
7B
330
1E
100
AcDbEntity
  8
0
100
AcDbLine
 10
18.3948
 20
89.6398
 30
0.0
 11
18.3948
 21
89.7858
 31
0.0
  0
LINE
  5
7C
330
1E
100
AcDbEntity
  8
0
100
AcDbLine
 10
18.3948
 20
89.7858
 30
0.0
 11
18.3948
 21
90.0338
 31
0.0
  0
LINE
  5
7D
330
1E
100
AcDbEntity
  8
0
100
AcDbLine
 10
18.3948
 20
89.7858
 30
0.0
 11
18.3948
 21
89.6398
 31
0.0
  0
LINE
  5
7E
330
1E
100
AcDbEntity
  8
0
100
AcDbLine
 10
18.59397
 20
89.7698
 30
0.0
 11
18.59397
 21
89.9988
 31
0.0
  0
LINE
  5
7F
330
1E
100
AcDbEntity
  8
0
100
AcDbLine
 10
18.59397
 20
89.7698
 30
0.0
 11
18.59397
 21
92.3578
 31
0.0
  0
LINE
  5
80
330
1E
100
AcDbEntity
  8
0
100
AcDbLine
 10
18.59397
 20
89.7698
 30
0.0
 11
18.59397
 21
89.6348
 31
0.0
  0
LINE
  5
81
330
1E
100
AcDbEntity
  8
0
100
AcDbLine
 10
21.0836
 20
89.6048
 30
0.0
 11
21.0836
 21
89.6868
 31
0.0
  0
LINE
  5
82
330
1E
100
AcDbEntity
  8
0
100
AcDbLine
 10
21.0836
 20
89.6868
 30
0.0
 11
21.0836
 21
89.8508
 31
0.0
  0
LINE
  5
83
330
1E
100
AcDbEntity
  8
0
100
AcDbLine
 10
21.0836
 20
89.6868
 30
0.0
 11
21.0836
 21
89.6048
 31
0.0
  0
LINE
  5
84
330
1E
100
AcDbEntity
  8
0
100
AcDbLine
 10
21.0836
 20
89.8508
 30
0.0
 11
21.0836
 21
90.0948
 31
0.0
  0
LINE
  5
85
330
1E
100
AcDbEntity
  8
0
100
AcDbLine
 10
21.0836
 20
89.8508
 30
0.0
 11
21.0836
 21
89.6868
 31
0.0
  0
LINE
  5
86
330
1E
100
AcDbEntity
  8
0
100
AcDbLine
 10
18.59397
 20
89.6348
 30
0.0
 11
18.59397
 21
89.7698
 31
0.0
  0
LINE
  5
87
330
1E
100
AcDbEntity
  8
0
100
AcDbLine
 10
18.59397
 20
89.6348
 30
0.0
 11
18.59397
 21
92.3578
 31
0.0
  0
LINE
  5
88
330
1E
100
AcDbEntity
  8
0
100
AcDbLine
 10
18.59397
 20
89.5985
 30
0.0
 11
21.0836
 21
89.6048
 31
0.0
  0
LINE
  5
89
330
1E
100
AcDbEntity
  8
0
100
AcDbLine
 10
0.36995
 20
89.5977
 30
0.0
 11
18.3948
 21
89.5977
 31
0.0
  0
LINE
  5
8A
330
1E
100
AcDbEntity
  8
0
100
AcDbLine
 10
0.07115
 20
89.9043
 30
0.0
 11
0.36995
 21
89.5977
 31
0.0
  0
LINE
  5
8B
330
1E
100
AcDbEntity
  8
0
100
AcDbLine
 10
0.07115
 20
90.0618
 30
0.0
 11
0.07115
 21
89.9268
 31
0.0
  0
LINE
  5
8C
330
1E
100
AcDbEntity
  8
0
100
AcDbLine
 10
0.07115
 20
90.0618
 30
0.0
 11
0.07115
 21
90.3018
 31
0.0
  0
LINE
  5
8D
330
1E
100
AcDbEntity
  8
0
100
AcDbLine
 10
0.36995
 20
90.0338
 30
0.0
 11
0.36995
 21
89.7858
 31
0.0
  0
LINE
  5
8E
330
1E
100
AcDbEntity
  8
0
100
AcDbLine
 10
0.36995
 20
90.0338
 30
0.0
 11
0.36995
 21
90.3788
 31
0.0
  0
LINE
  5
8F
330
1E
100
AcDbEntity
  8
0
100
AcDbLine
 10
18.3948
 20
90.0338
 30
0.0
 11
18.3948
 21
90.3788
 31
0.0
  0
LINE
  5
90
330
1E
100
AcDbEntity
  8
0
100
AcDbLine
 10
18.3948
 20
90.0338
 30
0.0
 11
18.3948
 21
89.7858
 31
0.0
  0
LINE
  5
91
330
1E
100
AcDbEntity
  8
0
100
AcDbLine
 10
0.36995
 20
90.3788
 30
0.0
 11
0.36995
 21
90.0338
 31
0.0
  0
LINE
  5
92
330
1E
100
AcDbEntity
  8
0
100
AcDbLine
 10
0.36995
 20
90.3788
 30
0.0
 11
0.36995
 21
90.8188
 31
0.0
  0
LINE
  5
93
330
1E
100
AcDbEntity
  8
0
100
AcDbLine
 10
18.3948
 20
90.3788
 30
0.0
 11
18.3948
 21
90.8188
 31
0.0
  0
LINE
  5
94
330
1E
100
AcDbEntity
  8
0
100
AcDbLine
 10
18.3948
 20
90.3788
 30
0.0
 11
18.3948
 21
90.0338
 31
0.0
  0
LINE
  5
95
330
1E
100
AcDbEntity
  8
0
100
AcDbLine
 10
18.59397
 20
89.9988
 30
0.0
 11
18.59397
 21
90.3218
 31
0.0
  0
LINE
  5
96
330
1E
100
AcDbEntity
  8
0
100
AcDbLine
 10
18.59397
 20
89.9988
 30
0.0
 11
18.59397
 21
89.7698
 31
0.0
  0
LINE
  5
98
330
1E
100
AcDbEntity
  8
0
100
AcDbLine
 10
0.07115
 20
90.3018
 30
0.0
 11
0.07115
 21
90.0618
 31
0.0
  0
LINE
  5
99
330
1E
100
AcDbEntity
  8
0
100
AcDbLine
 10
0.07115
 20
90.3018
 30
0.0
 11
0.07115
 21
90.6428
 31
0.0
  0
LINE
  5
9A
330
1E
100
AcDbEntity
  8
0
100
AcDbLine
 10
0.07115
 20
89.9268
 30
0.0
 11
0.07115
 21
90.0618
 31
0.0
  0
LINE
  5
9B
330
1E
100
AcDbEntity
  8
0
100
AcDbLine
 10
23.43381
 20
90.0948
 30
0.0
 11
23.51945
 21
90.0948
 31
0.0
  0
LINE
  5
9C
330
1E
100
AcDbEntity
  8
0
100
AcDbLine
 10
23.32725
 20
90.0948
 30
0.0
 11
23.43381
 21
90.0948
 31
0.0
  0
LINE
  5
9D
330
1E
100
AcDbEntity
  8
0
100
AcDbLine
 10
23.51945
 20
90.0948
 30
0.0
 11
23.59016
 21
90.0948
 31
0.0
  0
LINE
  5
9E
330
1E
100
AcDbEntity
  8
0
100
AcDbLine
 10
23.0753
 20
90.0948
 30
0.0
 11
23.17987
 21
90.0948
 31
0.0
  0
LINE
  5
9F
330
1E
100
AcDbEntity
  8
0
100
AcDbLine
 10
23.17987
 20
90.0948
 30
0.0
 11
23.32725
 21
90.0948
 31
0.0
  0
LINE
  5
A0
330
1E
100
AcDbEntity
  8
0
100
AcDbLine
 10
23.59016
 20
90.0948
 30
0.0
 11
23.68078
 21
90.0948
 31
0.0
  0
LINE
  5
A1
330
1E
100
AcDbEntity
  8
0
100
AcDbLine
 10
23.68078
 20
90.0948
 30
0.0
 11
23.80128
 21
90.0948
 31
0.0
  0
LINE
  5
A2
330
1E
100
AcDbEntity
  8
0
100
AcDbLine
 10
23.93457
 20
90.0948
 30
0.0
 11
24.01839
 21
90.293
 31
0.0
  0
LINE
  5
A3
330
1E
100
AcDbEntity
  8
0
100
AcDbLine
 10
23.80128
 20
90.0948
 30
0.0
 11
23.88194
 21
90.0948
 31
0.0
  0
LINE
  5
A4
330
1E
100
AcDbEntity
  8
0
100
AcDbLine
 10
23.88194
 20
90.0948
 30
0.0
 11
23.93273
 21
90.0948
 31
0.0
  0
LINE
  5
A5
330
1E
100
AcDbEntity
  8
0
100
AcDbLine
 10
21.0836
 20
90.0948
 30
0.0
 11
23.93273
 21
90.0948
 31
0.0
  0
LINE
  5
A6
330
1E
100
AcDbEntity
  8
0
100
AcDbLine
 10
21.0836
 20
90.0948
 30
0.0
 11
23.88194
 21
90.0948
 31
0.0
  0
LINE
  5
A7
330
1E
100
AcDbEntity
  8
0
100
AcDbLine
 10
21.0836
 20
90.0948
 30
0.0
 11
23.0753
 21
90.0948
 31
0.0
  0
LINE
  5
A9
330
1E
100
AcDbEntity
  8
0
100
AcDbLine
 10
21.0836
 20
90.0948
 30
0.0
 11
21.0836
 21
89.8508
 31
0.0
  0
LINE
  5
AA
330
1E
100
AcDbEntity
  8
0
100
AcDbLine
 10
23.93771
 20
90.1328
 30
0.0
 11
24.01839
 21
90.293
 31
0.0
  0
LINE
  5
AB
330
1E
100
AcDbEntity
  8
0
100
AcDbLine
 10
24.01839
 20
90.293
 30
0.0
 11
24.03729
 21
90.3401
 31
0.0
  0
LINE
  5
AC
330
1E
100
AcDbEntity
  8
0
100
AcDbLine
 10
24.03729
 20
90.3728
 30
0.0
 11
24.07115
 21
90.5948
 31
0.0
  0
LINE
  5
AD
330
1E
100
AcDbEntity
  8
0
100
AcDbLine
 10
24.03729
 20
90.3728
 30
0.0
 11
24.07115
 21
90.6468
 31
0.0
  0
LINE
  5
AE
330
1E
100
AcDbEntity
  8
0
100
AcDbLine
 10
24.03729
 20
90.3401
 30
0.0
 11
24.05714
 21
90.488
 31
0.0
  0
LINE
  5
AF
330
1E
100
AcDbEntity
  8
0
100
AcDbLine
 10
24.05714
 20
90.488
 30
0.0
 11
24.07115
 21
90.5974
 31
0.0
  0
LINE
  5
B0
330
1E
100
AcDbEntity
  8
0
100
AcDbLine
 10
24.05714
 20
90.488
 30
0.0
 11
24.07115
 21
90.5948
 31
0.0
  0
LINE
  5
B1
330
1E
100
AcDbEntity
  8
0
100
AcDbLine
 10
23.93273
 20
90.0948
 30
0.0
 11
24.01839
 21
90.293
 31
0.0
  0
LINE
  5
B2
330
1E
100
AcDbEntity
  8
0
100
AcDbLine
 10
18.59397
 20
90.3218
 30
0.0
 11
18.59397
 21
90.7328
 31
0.0
  0
LINE
  5
B3
330
1E
100
AcDbEntity
  8
0
100
AcDbLine
 10
18.59397
 20
90.3218
 30
0.0
 11
18.59397
 21
89.9988
 31
0.0
  0
LINE
  5
B4
330
1E
100
AcDbEntity
  8
0
100
AcDbLine
 10
24.07115
 20
90.6468
 30
0.0
 11
24.07115
 21
90.7918
 31
0.0
  0
LINE
  5
B5
330
1E
100
AcDbEntity
  8
0
100
AcDbLine
 10
0.36995
 20
90.8188
 30
0.0
 11
0.36995
 21
90.3788
 31
0.0
  0
LINE
  5
B6
330
1E
100
AcDbEntity
  8
0
100
AcDbLine
 10
0.36995
 20
90.8188
 30
0.0
 11
0.36995
 21
91.3488
 31
0.0
  0
LINE
  5
B7
330
1E
100
AcDbEntity
  8
0
100
AcDbLine
 10
24.07115
 20
91.0258
 30
0.0
 11
24.07115
 21
91.3478
 31
0.0
  0
LINE
  5
B8
330
1E
100
AcDbEntity
  8
0
100
AcDbLine
 10
24.07115
 20
90.7918
 30
0.0
 11
24.07115
 21
91.0258
 31
0.0
  0
LINE
  5
B9
330
1E
100
AcDbEntity
  8
0
100
AcDbLine
 10
18.3948
 20
90.8188
 30
0.0
 11
18.3948
 21
91.3488
 31
0.0
  0
LINE
  5
BA
330
1E
100
AcDbEntity
  8
0
100
AcDbLine
 10
18.3948
 20
90.8188
 30
0.0
 11
18.3948
 21
90.3788
 31
0.0
  0
LINE
  5
BB
330
1E
100
AcDbEntity
  8
0
100
AcDbLine
 10
18.59397
 20
90.7328
 30
0.0
 11
18.59397
 21
91.2298
 31
0.0
  0
LINE
  5
BC
330
1E
100
AcDbEntity
  8
0
100
AcDbLine
 10
18.59397
 20
90.7328
 30
0.0
 11
18.59397
 21
90.3218
 31
0.0
  0
LINE
  5
BD
330
1E
100
AcDbEntity
  8
0
100
AcDbLine
 10
0.07115
 20
91.0818
 30
0.0
 11
0.07115
 21
91.6148
 31
0.0
  0
LINE
  5
BE
330
1E
100
AcDbEntity
  8
0
100
AcDbLine
 10
0.07115
 20
91.0818
 30
0.0
 11
0.07115
 21
90.6428
 31
0.0
  0
LINE
  5
BF
330
1E
100
AcDbEntity
  8
0
100
AcDbLine
 10
0.07115
 20
90.6428
 30
0.0
 11
0.07115
 21
91.0818
 31
0.0
  0
LINE
  5
C0
330
1E
100
AcDbEntity
  8
0
100
AcDbLine
 10
0.07115
 20
90.6428
 30
0.0
 11
0.07115
 21
90.3018
 31
0.0
  0
LINE
  5
C1
330
1E
100
AcDbEntity
  8
0
100
AcDbLine
 10
26.60685
 20
90.4554
 30
0.0
 11
26.60685
 21
89.8607
 31
0.0
  0
LINE
  5
C2
330
1E
100
AcDbEntity
  8
0
100
AcDbLine
 10
26.60685
 20
90.4554
 30
0.0
 11
26.60685
 21
91.2297
 31
0.0
  0
LINE
  5
C3
330
1E
100
AcDbEntity
  8
0
100
AcDbLine
 10
26.60685
 20
89.8607
 30
0.0
 11
26.60685
 21
89.3757
 31
0.0
  0
LINE
  5
C4
330
1E
100
AcDbEntity
  8
0
100
AcDbLine
 10
26.60685
 20
89.8607
 30
0.0
 11
26.60685
 21
90.4554
 31
0.0
  0
LINE
  5
C5
330
1E
100
AcDbEntity
  8
0
100
AcDbLine
 10
26.60685
 20
90.1431
 30
0.0
 11
26.60685
 21
91.097
 31
0.0
  0
LINE
  5
C6
330
1E
100
AcDbEntity
  8
0
100
AcDbLine
 10
26.60685
 20
90.1431
 30
0.0
 11
26.60685
 21
89.3757
 31
0.0
  0
LINE
  5
C7
330
1E
100
AcDbEntity
  8
0
100
AcDbLine
 10
0.36995
 20
91.3488
 30
0.0
 11
0.36995
 21
90.8188
 31
0.0
  0
LINE
  5
C8
330
1E
100
AcDbEntity
  8
0
100
AcDbLine
 10
0.36995
 20
91.3488
 30
0.0
 11
0.36995
 21
91.9638
 31
0.0
  0
LINE
  5
C9
330
1E
100
AcDbEntity
  8
0
100
AcDbLine
 10
18.3948
 20
91.3488
 30
0.0
 11
18.3948
 21
91.9638
 31
0.0
  0
LINE
  5
CA
330
1E
100
AcDbEntity
  8
0
100
AcDbLine
 10
18.3948
 20
91.3488
 30
0.0
 11
18.3948
 21
90.8188
 31
0.0
  0
LINE
  5
CB
330
1E
100
AcDbEntity
  8
0
100
AcDbLine
 10
0.07115
 20
91.6148
 30
0.0
 11
0.07115
 21
91.0818
 31
0.0
  0
LINE
  5
CC
330
1E
100
AcDbEntity
  8
0
100
AcDbLine
 10
0.07115
 20
91.6148
 30
0.0
 11
0.07115
 21
92.2348
 31
0.0
  0
LINE
  5
CD
330
1E
100
AcDbEntity
  8
0
100
AcDbLine
 10
0.07115
 20
91.8498
 30
0.0
 11
0.07115
 21
91.9328
 31
0.0
  0
LINE
  5
CE
330
1E
100
AcDbEntity
  8
0
100
AcDbLine
 10
0.36995
 20
91.9638
 30
0.0
 11
0.36995
 21
91.3488
 31
0.0
  0
LINE
  5
CF
330
1E
100
AcDbEntity
  8
0
100
AcDbLine
 10
0.36995
 20
91.9638
 30
0.0
 11
0.36995
 21
92.6568
 31
0.0
  0
LINE
  5
D0
330
1E
100
AcDbEntity
  8
0
100
AcDbLine
 10
18.3948
 20
91.9638
 30
0.0
 11
18.3948
 21
92.6568
 31
0.0
  0
LINE
  5
D1
330
1E
100
AcDbEntity
  8
0
100
AcDbLine
 10
18.3948
 20
91.9638
 30
0.0
 11
18.3948
 21
91.3488
 31
0.0
  0
LINE
  5
D2
330
1E
100
AcDbEntity
  8
0
100
AcDbLine
 10
0.07115
 20
91.9328
 30
0.0
 11
0.07115
 21
92.1198
 31
0.0
  0
LINE
  5
D3
330
1E
100
AcDbEntity
  8
0
100
AcDbLine
 10
0.07115
 20
91.9328
 30
0.0
 11
0.07115
 21
91.8498
 31
0.0
  0
LINE
  5
D4
330
1E
100
AcDbEntity
  8
0
100
AcDbLine
 10
18.59397
 20
91.8068
 30
0.0
 11
18.59397
 21
92.4598
 31
0.0
  0
LINE
  5
D5
330
1E
100
AcDbEntity
  8
0
100
AcDbLine
 10
18.59397
 20
91.8068
 30
0.0
 11
18.59397
 21
91.2298
 31
0.0
  0
LINE
  5
D6
330
1E
100
AcDbEntity
  8
0
100
AcDbLine
 10
24.07115
 20
91.3478
 30
0.0
 11
24.07115
 21
91.7548
 31
0.0
  0
LINE
  5
D7
330
1E
100
AcDbEntity
  8
0
100
AcDbLine
 10
24.07115
 20
91.7548
 30
0.0
 11
24.07115
 21
92.2428
 31
0.0
  0
LINE
  5
D8
330
1E
100
AcDbEntity
  8
0
100
AcDbLine
 10
18.59397
 20
91.2298
 30
0.0
 11
18.59397
 21
91.8068
 31
0.0
  0
LINE
  5
D9
330
1E
100
AcDbEntity
  8
0
100
AcDbLine
 10
18.59397
 20
91.2298
 30
0.0
 11
18.59397
 21
90.7328
 31
0.0
  0
LINE
  5
DA
330
1E
100
AcDbEntity
  8
0
100
AcDbLine
 10
0.07115
 20
92.2348
 30
0.0
 11
0.07115
 21
91.6148
 31
0.0
  0
LINE
  5
DB
330
1E
100
AcDbEntity
  8
0
100
AcDbLine
 10
0.07115
 20
92.2348
 30
0.0
 11
0.07115
 21
92.9358
 31
0.0
  0
LINE
  5
DC
330
1E
100
AcDbEntity
  8
0
100
AcDbLine
 10
24.07115
 20
92.2428
 30
0.0
 11
24.07115
 21
92.8058
 31
0.0
  0
LINE
  5
DD
330
1E
100
AcDbEntity
  8
0
100
AcDbLine
 10
0.07115
 20
92.1198
 30
0.0
 11
0.07115
 21
92.4078
 31
0.0
  0
LINE
  5
DE
330
1E
100
AcDbEntity
  8
0
100
AcDbLine
 10
0.07115
 20
92.1198
 30
0.0
 11
0.07115
 21
91.9328
 31
0.0
  0
LINE
  5
DF
330
1E
100
AcDbEntity
  8
0
100
AcDbLine
 10
26.60685
 20
91.992
 30
0.0
 11
26.60685
 21
91.2297
 31
0.0
  0
LINE
  5
E0
330
1E
100
AcDbEntity
  8
0
100
AcDbLine
 10
26.60685
 20
91.992
 30
0.0
 11
26.60685
 21
93.1276
 31
0.0
  0
LINE
  5
E1
330
1E
100
AcDbEntity
  8
0
100
AcDbLine
 10
26.60685
 20
91.2297
 30
0.0
 11
26.60685
 21
90.4554
 31
0.0
  0
LINE
  5
E2
330
1E
100
AcDbEntity
  8
0
100
AcDbLine
 10
26.60685
 20
91.2297
 30
0.0
 11
26.60685
 21
91.992
 31
0.0
  0
LINE
  5
E3
330
1E
100
AcDbEntity
  8
0
100
AcDbLine
 10
18.59397
 20
92.3578
 30
0.0
 11
18.59397
 21
92.4538
 31
0.0
  0
LINE
  5
E4
330
1E
100
AcDbEntity
  8
0
100
AcDbLine
 10
18.59397
 20
92.3578
 30
0.0
 11
18.59397
 21
89.6348
 31
0.0
  0
LINE
  5
E5
330
1E
100
AcDbEntity
  8
0
100
AcDbLine
 10
18.59397
 20
92.3578
 30
0.0
 11
18.59397
 21
89.7698
 31
0.0
  0
LINE
  5
E6
330
1E
100
AcDbEntity
  8
0
100
AcDbLine
 10
18.59397
 20
92.4538
 30
0.0
 11
18.59397
 21
92.6378
 31
0.0
  0
LINE
  5
E7
330
1E
100
AcDbEntity
  8
0
100
AcDbLine
 10
18.59397
 20
92.4538
 30
0.0
 11
18.59397
 21
92.3578
 31
0.0
  0
LINE
  5
E8
330
1E
100
AcDbEntity
  8
0
100
AcDbLine
 10
0.07115
 20
92.4078
 30
0.0
 11
0.07115
 21
92.7938
 31
0.0
  0
LINE
  5
E9
330
1E
100
AcDbEntity
  8
0
100
AcDbLine
 10
0.07115
 20
92.4078
 30
0.0
 11
0.07115
 21
92.1198
 31
0.0
  0
LINE
  5
EA
330
1E
100
AcDbEntity
  8
0
100
AcDbLine
 10
0.07115
 20
92.7643
 30
0.0
 11
0.07115
 21
93.0163
 31
0.0
  0
LINE
  5
EB
330
1E
100
AcDbEntity
  8
0
100
AcDbLine
 10
0.07115
 20
93.6883
 30
0.0
 11
0.07115
 21
94.7803
 31
0.0
  0
LINE
  5
EC
330
1E
100
AcDbEntity
  8
0
100
AcDbLine
 10
0.07115
 20
93.6883
 30
0.0
 11
0.07115
 21
93.0163
 31
0.0
  0
LINE
  5
ED
330
1E
100
AcDbEntity
  8
0
100
AcDbLine
 10
0.07115
 20
93.0163
 30
0.0
 11
0.07115
 21
93.6883
 31
0.0
  0
LINE
  5
EE
330
1E
100
AcDbEntity
  8
0
100
AcDbLine
 10
0.07115
 20
93.0163
 30
0.0
 11
0.07115
 21
92.7643
 31
0.0
  0
LINE
  5
EF
330
1E
100
AcDbEntity
  8
0
100
AcDbLine
 10
0.07115
 20
93.8338
 30
0.0
 11
0.07115
 21
94.4748
 31
0.0
  0
LINE
  5
F0
330
1E
100
AcDbEntity
  8
0
100
AcDbLine
 10
0.07115
 20
93.8338
 30
0.0
 11
0.07115
 21
93.2708
 31
0.0
  0
LINE
  5
F1
330
1E
100
AcDbEntity
  8
0
100
AcDbLine
 10
0.07115
 20
92.9358
 30
0.0
 11
0.07115
 21
92.2348
 31
0.0
  0
LINE
  5
F2
330
1E
100
AcDbEntity
  8
0
100
AcDbLine
 10
0.07115
 20
92.9358
 30
0.0
 11
0.07115
 21
93.7098
 31
0.0
  0
LINE
  5
F3
330
1E
100
AcDbEntity
  8
0
100
AcDbLine
 10
0.07115
 20
93.7098
 30
0.0
 11
0.07115
 21
92.9358
 31
0.0
  0
LINE
  5
F4
330
1E
100
AcDbEntity
  8
0
100
AcDbLine
 10
0.07115
 20
93.7098
 30
0.0
 11
0.07115
 21
94.5478
 31
0.0
  0
LINE
  5
F5
330
1E
100
AcDbEntity
  8
0
100
AcDbLine
 10
0.07115
 20
92.7938
 30
0.0
 11
0.07115
 21
93.2708
 31
0.0
  0
LINE
  5
F6
330
1E
100
AcDbEntity
  8
0
100
AcDbLine
 10
0.07115
 20
92.7938
 30
0.0
 11
0.07115
 21
92.4078
 31
0.0
  0
LINE
  5
F7
330
1E
100
AcDbEntity
  8
0
100
AcDbLine
 10
0.36995
 20
92.6568
 30
0.0
 11
0.36995
 21
91.9638
 31
0.0
  0
LINE
  5
F8
330
1E
100
AcDbEntity
  8
0
100
AcDbLine
 10
0.36995
 20
92.6568
 30
0.0
 11
0.36995
 21
93.4208
 31
0.0
  0
LINE
  5
F9
330
1E
100
AcDbEntity
  8
0
100
AcDbLine
 10
18.3948
 20
92.6568
 30
0.0
 11
18.3948
 21
93.4208
 31
0.0
  0
LINE
  5
FA
330
1E
100
AcDbEntity
  8
0
100
AcDbLine
 10
18.3948
 20
92.6568
 30
0.0
 11
18.3948
 21
91.9638
 31
0.0
  0
LINE
  5
FB
330
1E
100
AcDbEntity
  8
0
100
AcDbLine
 10
18.59397
 20
92.9098
 30
0.0
 11
18.59397
 21
93.2668
 31
0.0
  0
LINE
  5
FC
330
1E
100
AcDbEntity
  8
0
100
AcDbLine
 10
18.59397
 20
92.9098
 30
0.0
 11
18.59397
 21
92.6378
 31
0.0
  0
LINE
  5
FD
330
1E
100
AcDbEntity
  8
0
100
AcDbLine
 10
0.36995
 20
93.4208
 30
0.0
 11
0.36995
 21
92.6568
 31
0.0
  0
LINE
  5
FE
330
1E
100
AcDbEntity
  8
0
100
AcDbLine
 10
0.36995
 20
93.4208
 30
0.0
 11
0.36995
 21
94.2488
 31
0.0
  0
LINE
  5
FF
330
1E
100
AcDbEntity
  8
0
100
AcDbLine
 10
18.3948
 20
93.4208
 30
0.0
 11
18.3948
 21
94.2488
 31
0.0
  0
LINE
  5
100
330
1E
100
AcDbEntity
  8
0
100
AcDbLine
 10
18.3948
 20
93.4208
 30
0.0
 11
18.3948
 21
92.6568
 31
0.0
  0
LINE
  5
101
330
1E
100
AcDbEntity
  8
0
100
AcDbLine
 10
18.59397
 20
93.2668
 30
0.0
 11
18.59397
 21
93.7028
 31
0.0
  0
LINE
  5
102
330
1E
100
AcDbEntity
  8
0
100
AcDbLine
 10
18.59397
 20
93.2668
 30
0.0
 11
18.59397
 21
92.9098
 31
0.0
  0
LINE
  5
103
330
1E
100
AcDbEntity
  8
0
100
AcDbLine
 10
18.59397
 20
93.7028
 30
0.0
 11
18.59397
 21
94.2128
 31
0.0
  0
LINE
  5
104
330
1E
100
AcDbEntity
  8
0
100
AcDbLine
 10
18.59397
 20
93.7028
 30
0.0
 11
18.59397
 21
93.2668
 31
0.0
  0
LINE
  5
105
330
1E
100
AcDbEntity
  8
0
100
AcDbLine
 10
18.59397
 20
92.6378
 30
0.0
 11
18.59397
 21
92.9098
 31
0.0
  0
LINE
  5
106
330
1E
100
AcDbEntity
  8
0
100
AcDbLine
 10
18.59397
 20
92.6378
 30
0.0
 11
18.59397
 21
92.4538
 31
0.0
  0
LINE
  5
107
330
1E
100
AcDbEntity
  8
0
100
AcDbLine
 10
0.07115
 20
93.2708
 30
0.0
 11
0.07115
 21
93.8338
 31
0.0
  0
LINE
  5
108
330
1E
100
AcDbEntity
  8
0
100
AcDbLine
 10
0.07115
 20
93.2708
 30
0.0
 11
0.07115
 21
92.7938
 31
0.0
  0
LINE
  5
109
330
1E
100
AcDbEntity
  8
0
100
AcDbLine
 10
0.07115
 20
94.5478
 30
0.0
 11
0.07115
 21
93.7098
 31
0.0
  0
LINE
  5
10A
330
1E
100
AcDbEntity
  8
0
100
AcDbLine
 10
0.07115
 20
94.5478
 30
0.0
 11
0.07115
 21
95.4418
 31
0.0
  0
LINE
  5
10B
330
1E
100
AcDbEntity
  8
0
100
AcDbLine
 10
0.36995
 20
94.2488
 30
0.0
 11
0.36995
 21
93.4208
 31
0.0
  0
LINE
  5
10C
330
1E
100
AcDbEntity
  8
0
100
AcDbLine
 10
0.36995
 20
94.2488
 30
0.0
 11
0.36995
 21
95.1308
 31
0.0
  0
LINE
  5
10D
330
1E
100
AcDbEntity
  8
0
100
AcDbLine
 10
18.3948
 20
94.2488
 30
0.0
 11
18.3948
 21
95.1308
 31
0.0
  0
LINE
  5
10E
330
1E
100
AcDbEntity
  8
0
100
AcDbLine
 10
18.3948
 20
94.2488
 30
0.0
 11
18.3948
 21
93.4208
 31
0.0
  0
LINE
  5
10F
330
1E
100
AcDbEntity
  8
0
100
AcDbLine
 10
18.59397
 20
94.2128
 30
0.0
 11
18.59397
 21
94.7908
 31
0.0
  0
LINE
  5
110
330
1E
100
AcDbEntity
  8
0
100
AcDbLine
 10
18.59397
 20
94.2128
 30
0.0
 11
18.59397
 21
93.7028
 31
0.0
  0
LINE
  5
111
330
1E
100
AcDbEntity
  8
0
100
AcDbLine
 10
0.07115
 20
94.4748
 30
0.0
 11
0.07115
 21
95.1848
 31
0.0
  0
LINE
  5
112
330
1E
100
AcDbEntity
  8
0
100
AcDbLine
 10
0.07115
 20
94.4748
 30
0.0
 11
0.07115
 21
93.8338
 31
0.0
  0
LINE
  5
113
330
1E
100
AcDbEntity
  8
0
100
AcDbLine
 10
18.59397
 20
93.9638
 30
0.0
 11
18.59397
 21
94.8008
 31
0.0
  0
LINE
  5
114
330
1E
100
AcDbEntity
  8
0
100
AcDbLine
 10
18.59397
 20
93.9638
 30
0.0
 11
18.59397
 21
93.1808
 31
0.0
  0
LINE
  5
115
330
1E
100
AcDbEntity
  8
0
100
AcDbLine
 10
24.07115
 20
93.5963
 30
0.0
 11
26.60685
 21
93.5963
 31
0.0
  0
LINE
  5
116
330
1E
100
AcDbEntity
  8
0
100
AcDbLine
 10
24.07115
 20
92.8058
 30
0.0
 11
24.07115
 21
93.4378
 31
0.0
  0
LINE
  5
117
330
1E
100
AcDbEntity
  8
0
100
AcDbLine
 10
24.07115
 20
93.4378
 30
0.0
 11
24.07115
 21
94.1338
 31
0.0
  0
LINE
  5
118
330
1E
100
AcDbEntity
  8
0
100
AcDbLine
 10
24.07115
 20
94.1338
 30
0.0
 11
24.07115
 21
94.8858
 31
0.0
  0
LINE
  5
119
330
1E
100
AcDbEntity
  8
0
100
AcDbLine
 10
18.59397
 20
93.1808
 30
0.0
 11
18.59397
 21
93.9638
 31
0.0
  0
LINE
  5
11A
330
1E
100
AcDbEntity
  8
0
100
AcDbLine
 10
18.59397
 20
93.1808
 30
0.0
 11
18.59397
 21
92.4598
 31
0.0
  0
LINE
  5
11B
330
1E
100
AcDbEntity
  8
0
100
AcDbLine
 10
18.59397
 20
92.4598
 30
0.0
 11
18.59397
 21
93.1808
 31
0.0
  0
LINE
  5
11C
330
1E
100
AcDbEntity
  8
0
100
AcDbLine
 10
18.59397
 20
92.4598
 30
0.0
 11
18.59397
 21
91.8068
 31
0.0
  0
LINE
  5
11D
330
1E
100
AcDbEntity
  8
0
100
AcDbLine
 10
26.60685
 20
93.5963
 30
0.0
 11
26.60685
 21
92.2794
 31
0.0
  0
LINE
  5
11E
330
1E
100
AcDbEntity
  8
0
100
AcDbLine
 10
0.07115
 20
94.7803
 30
0.0
 11
0.07115
 21
96.2083
 31
0.0
  0
LINE
  5
11F
330
1E
100
AcDbEntity
  8
0
100
AcDbLine
 10
0.07115
 20
94.7803
 30
0.0
 11
0.07115
 21
93.6883
 31
0.0
  0
LINE
  5
120
330
1E
100
AcDbEntity
  8
0
100
AcDbLine
 10
0.36995
 20
95.1308
 30
0.0
 11
0.36995
 21
94.2488
 31
0.0
  0
LINE
  5
121
330
1E
100
AcDbEntity
  8
0
100
AcDbLine
 10
0.36995
 20
95.1308
 30
0.0
 11
0.36995
 21
96.0588
 31
0.0
  0
LINE
  5
122
330
1E
100
AcDbEntity
  8
0
100
AcDbLine
 10
18.3948
 20
95.1308
 30
0.0
 11
18.3948
 21
96.0588
 31
0.0
  0
LINE
  5
123
330
1E
100
AcDbEntity
  8
0
100
AcDbLine
 10
18.3948
 20
95.1308
 30
0.0
 11
18.3948
 21
94.2488
 31
0.0
  0
LINE
  5
124
330
1E
100
AcDbEntity
  8
0
100
AcDbLine
 10
18.59397
 20
94.7908
 30
0.0
 11
18.59397
 21
95.4288
 31
0.0
  0
LINE
  5
125
330
1E
100
AcDbEntity
  8
0
100
AcDbLine
 10
18.59397
 20
94.7908
 30
0.0
 11
18.59397
 21
94.2128
 31
0.0
  0
LINE
  5
126
330
1E
100
AcDbEntity
  8
0
100
AcDbLine
 10
24.07115
 20
94.8858
 30
0.0
 11
24.07115
 21
95.6858
 31
0.0
  0
LINE
  5
127
330
1E
100
AcDbEntity
  8
0
100
AcDbLine
 10
18.59397
 20
94.8008
 30
0.0
 11
18.59397
 21
95.6838
 31
0.0
  0
LINE
  5
128
330
1E
100
AcDbEntity
  8
0
100
AcDbLine
 10
18.59397
 20
94.8008
 30
0.0
 11
18.59397
 21
93.9638
 31
0.0
  0
LINE
  5
129
330
1E
100
AcDbEntity
  8
0
100
AcDbLine
 10
26.60685
 20
94.5534
 30
0.0
 11
26.60685
 21
93.1276
 31
0.0
  0
LINE
  5
12A
330
1E
100
AcDbEntity
  8
0
100
AcDbLine
 10
26.60685
 20
94.5534
 30
0.0
 11
26.60685
 21
95.7219
 31
0.0
  0
LINE
  5
12B
330
1E
100
AcDbEntity
  8
0
100
AcDbLine
 10
26.60685
 20
93.1276
 30
0.0
 11
26.60685
 21
91.992
 31
0.0
  0
LINE
  5
12C
330
1E
100
AcDbEntity
  8
0
100
AcDbLine
 10
26.60685
 20
93.1276
 30
0.0
 11
26.60685
 21
94.5534
 31
0.0
  0
LINE
  5
12D
330
1E
100
AcDbEntity
  8
0
100
AcDbLine
 10
26.60685
 20
92.2794
 30
0.0
 11
26.60685
 21
93.6514
 31
0.0
  0
LINE
  5
12E
330
1E
100
AcDbEntity
  8
0
100
AcDbLine
 10
26.60685
 20
92.2794
 30
0.0
 11
26.60685
 21
91.097
 31
0.0
  0
LINE
  5
12F
330
1E
100
AcDbEntity
  8
0
100
AcDbLine
 10
26.60685
 20
92.2794
 30
0.0
 11
26.60685
 21
93.5963
 31
0.0
  0
LINE
  5
130
330
1E
100
AcDbEntity
  8
0
100
AcDbLine
 10
26.60685
 20
93.6514
 30
0.0
 11
26.60685
 21
95.1721
 31
0.0
  0
LINE
  5
131
330
1E
100
AcDbEntity
  8
0
100
AcDbLine
 10
26.60685
 20
93.6514
 30
0.0
 11
26.60685
 21
92.2794
 31
0.0
  0
LINE
  5
132
330
1E
100
AcDbEntity
  8
0
100
AcDbLine
 10
26.60685
 20
91.097
 30
0.0
 11
26.60685
 21
92.2794
 31
0.0
  0
LINE
  5
133
330
1E
100
AcDbEntity
  8
0
100
AcDbLine
 10
26.60685
 20
91.097
 30
0.0
 11
26.60685
 21
90.1431
 31
0.0
  0
LINE
  5
134
330
1E
100
AcDbEntity
  8
0
100
AcDbLine
 10
26.87985
 20
87.3053
 30
0.0
 11
27.57185
 21
85.8355
 31
0.0
  0
LINE
  5
135
330
1E
100
AcDbEntity
  8
0
100
AcDbLine
 10
27.57185
 20
85.8355
 30
0.0
 11
28.63385
 21
84.6042
 31
0.0
  0
LINE
  5
136
330
1E
100
AcDbEntity
  8
0
100
AcDbLine
 10
26.60985
 20
88.9068
 30
0.0
 11
26.87985
 21
87.3053
 31
0.0
  0
LINE
  5
137
330
1E
100
AcDbEntity
  8
0
100
AcDbLine
 10
26.60985
 20
88.9068
 30
0.0
 11
26.87985
 21
87.3053
 31
0.0
  0
LINE
  5
138
330
1E
100
AcDbEntity
  8
0
100
AcDbLine
 10
26.60785
 20
89.0774
 30
0.0
 11
26.60985
 21
88.9068
 31
0.0
  0
LINE
  5
139
330
1E
100
AcDbEntity
  8
0
100
AcDbLine
 10
26.60685
 20
89.3757
 30
0.0
 11
26.60785
 21
89.0774
 31
0.0
  0
LINE
  5
13A
330
1E
100
AcDbEntity
  8
0
100
AcDbLine
 10
26.60685
 20
89.3757
 30
0.0
 11
26.60685
 21
90.1431
 31
0.0
  0
LINE
  5
13B
330
1E
100
AcDbEntity
  8
0
100
AcDbLine
 10
26.60685
 20
89.3757
 30
0.0
 11
26.60685
 21
89.8607
 31
0.0
  0
LINE
  5
13C
330
1E
100
AcDbEntity
  8
0
100
AcDbLine
 10
28.63385
 20
84.6042
 30
0.0
 11
29.98885
 21
83.7041
 31
0.0
  0
LINE
  5
13D
330
1E
100
AcDbEntity
  8
0
100
AcDbLine
 10
90.77335
 20
80.2296
 30
0.0
 11
92.66175
 21
78.7878
 31
0.0
  0
LINE
  5
13E
330
1E
100
AcDbEntity
  8
0
100
AcDbLine
 10
97.12235
 20
73.0593
 30
0.0
 11
97.84815
 21
71.4727
 31
0.0
  0
LINE
  5
13F
330
1E
100
AcDbEntity
  8
0
100
AcDbLine
 10
96.21065
 20
74.6378
 30
0.0
 11
97.12235
 21
73.0593
 31
0.0
  0
LINE
  5
140
330
1E
100
AcDbEntity
  8
0
100
AcDbLine
 10
94.55215
 20
76.866
 30
0.0
 11
96.21065
 21
74.6378
 31
0.0
  0
LINE
  5
141
330
1E
100
AcDbEntity
  8
0
100
AcDbLine
 10
92.66175
 20
78.7878
 30
0.0
 11
94.55215
 21
76.866
 31
0.0
  0
LINE
  5
142
330
1E
100
AcDbEntity
  8
0
100
AcDbLine
 10
89.74265
 20
80.8303
 30
0.0
 11
90.77335
 21
80.2296
 31
0.0
  0
LINE
  5
143
330
1E
100
AcDbEntity
  8
0
100
AcDbLine
 10
88.67005
 20
81.3462
 30
0.0
 11
89.74265
 21
80.8303
 31
0.0
  0
LINE
  5
145
330
1E
100
AcDbEntity
  8
0
100
AcDbLine
 10
32.54485
 20
83.0705
 30
0.0
 11
34.44285
 21
83.0176
 31
0.0
  0
LINE
  5
146
330
1E
100
AcDbEntity
  8
0
100
AcDbLine
 10
31.53485
 20
83.2012
 30
0.0
 11
31.59985
 21
83.1892
 31
0.0
  0
LINE
  5
147
330
1E
100
AcDbEntity
  8
0
100
AcDbLine
 10
31.59985
 20
83.1892
 30
0.0
 11
32.54485
 21
83.0705
 31
0.0
  0
LINE
  5
14B
330
1E
100
AcDbEntity
  8
0
100
AcDbLine
 10
75.51225
 20
83.0176
 30
0.0
 11
79.20105
 21
82.9976
 31
0.0
  0
LINE
  5
14C
330
1E
100
AcDbEntity
  8
0
100
AcDbLine
 10
79.20105
 20
82.9976
 30
0.0
 11
81.02745
 21
82.9387
 31
0.0
  0
LINE
  5
14D
330
1E
100
AcDbEntity
  8
0
100
AcDbLine
 10
81.02745
 20
82.9387
 30
0.0
 11
82.88085
 21
82.7991
 31
0.0
  0
LINE
  5
14E
330
1E
100
AcDbEntity
  8
0
100
AcDbLine
 10
82.88085
 20
82.7991
 30
0.0
 11
84.587404058688
 21
82.556925108684
 31
0.0
  0
LINE
  5
14F
330
1E
100
AcDbEntity
  8
0
100
AcDbLine
 10
84.587404058688
 20
82.556925108684
 30
0.0
 11
86.47075
 21
82.1295
 31
0.0
  0
LINE
  5
151
330
1E
100
AcDbEntity
  8
0
100
AcDbLine
 10
86.47075
 20
82.1295
 30
0.0
 11
88.67005
 21
81.3462
 31
0.0
  0
LINE
  5
154
330
1E
100
AcDbEntity
  8
0
100
AcDbLine
 10
34.44285
 20
83.0176
 30
0.0
 11
75.51225
 21
83.0176
 31
0.0
  0
LINE
  5
157
330
1E
100
AcDbEntity
  8
0
100
AcDbLine
 10
99.21865
 20
65.0677
 30
0.0
 11
99.28865
 21
63.2935
 31
0.0
  0
LINE
  5
158
330
1E
100
AcDbEntity
  8
0
100
AcDbLine
 10
98.49285
 20
69.5599
 30
0.0
 11
98.90175
 21
67.7299
 31
0.0
  0
LINE
  5
159
330
1E
100
AcDbEntity
  8
0
100
AcDbLine
 10
98.90175
 20
67.7299
 30
0.0
 11
99.21865
 21
65.0677
 31
0.0
  0
LINE
  5
15A
330
1E
100
AcDbEntity
  8
0
100
AcDbLine
 10
97.84815
 20
71.4727
 30
0.0
 11
98.49285
 21
69.5599
 31
0.0
  0
LINE
  5
161
330
1E
100
AcDbEntity
  8
0
100
AcDbLine
 10
31.38385
 20
83.2505
 30
0.0
 11
31.53485
 21
83.2012
 31
0.0
  0
LINE
  5
162
330
1E
100
AcDbEntity
  8
0
100
AcDbLine
 10
29.98885
 20
83.7041
 30
0.0
 11
31.53485
 21
83.2012
 31
0.0
  0
LINE
  5
164
330
1E
100
AcDbEntity
  8
0
100
AcDbLine
 10
18.59397
 20
95.4288
 30
0.0
 11
18.59397
 21
96.1188
 31
0.0
  0
LINE
  5
165
330
1E
100
AcDbEntity
  8
0
100
AcDbLine
 10
18.59397
 20
95.4288
 30
0.0
 11
18.59397
 21
94.7908
 31
0.0
  0
LINE
  5
166
330
1E
100
AcDbEntity
  8
0
100
AcDbLine
 10
0.07115
 20
95.1848
 30
0.0
 11
0.07115
 21
95.9538
 31
0.0
  0
LINE
  5
167
330
1E
100
AcDbEntity
  8
0
100
AcDbLine
 10
0.07115
 20
95.1848
 30
0.0
 11
0.07115
 21
94.4748
 31
0.0
  0
LINE
  5
168
330
1E
100
AcDbEntity
  8
0
100
AcDbLine
 10
0.07115
 20
96.2083
 30
0.0
 11
0.07115
 21
97.8323
 31
0.0
  0
LINE
  5
169
330
1E
100
AcDbEntity
  8
0
100
AcDbLine
 10
0.07115
 20
96.2083
 30
0.0
 11
0.07115
 21
94.7803
 31
0.0
  0
LINE
  5
16A
330
1E
100
AcDbEntity
  8
0
100
AcDbLine
 10
0.07115
 20
96.7728
 30
0.0
 11
0.07115
 21
97.6298
 31
0.0
  0
LINE
  5
16B
330
1E
100
AcDbEntity
  8
0
100
AcDbLine
 10
0.07115
 20
96.7728
 30
0.0
 11
0.07115
 21
95.9538
 31
0.0
  0
LINE
  5
16C
330
1E
100
AcDbEntity
  8
0
100
AcDbLine
 10
0.07115
 20
95.9538
 30
0.0
 11
0.07115
 21
96.7728
 31
0.0
  0
LINE
  5
16D
330
1E
100
AcDbEntity
  8
0
100
AcDbLine
 10
0.07115
 20
95.9538
 30
0.0
 11
0.07115
 21
95.1848
 31
0.0
  0
LINE
  5
16E
330
1E
100
AcDbEntity
  8
0
100
AcDbLine
 10
0.36995
 20
96.0588
 30
0.0
 11
0.36995
 21
95.1308
 31
0.0
  0
LINE
  5
16F
330
1E
100
AcDbEntity
  8
0
100
AcDbLine
 10
0.36995
 20
96.0588
 30
0.0
 11
0.36995
 21
97.0238
 31
0.0
  0
LINE
  5
170
330
1E
100
AcDbEntity
  8
0
100
AcDbLine
 10
18.3948
 20
96.0588
 30
0.0
 11
18.3948
 21
97.0238
 31
0.0
  0
LINE
  5
171
330
1E
100
AcDbEntity
  8
0
100
AcDbLine
 10
18.3948
 20
96.0588
 30
0.0
 11
18.3948
 21
95.1308
 31
0.0
  0
LINE
  5
172
330
1E
100
AcDbEntity
  8
0
100
AcDbLine
 10
18.59397
 20
96.1188
 30
0.0
 11
18.59397
 21
96.8528
 31
0.0
  0
LINE
  5
173
330
1E
100
AcDbEntity
  8
0
100
AcDbLine
 10
18.59397
 20
96.1188
 30
0.0
 11
18.59397
 21
95.4288
 31
0.0
  0
LINE
  5
174
330
1E
100
AcDbEntity
  8
0
100
AcDbLine
 10
24.07115
 20
96.5258
 30
0.0
 11
24.07115
 21
97.3978
 31
0.0
  0
LINE
  5
175
330
1E
100
AcDbEntity
  8
0
100
AcDbLine
 10
24.07115
 20
95.6858
 30
0.0
 11
24.07115
 21
96.5258
 31
0.0
  0
LINE
  5
176
330
1E
100
AcDbEntity
  8
0
100
AcDbLine
 10
18.59397
 20
96.6048
 30
0.0
 11
18.59397
 21
97.5548
 31
0.0
  0
LINE
  5
177
330
1E
100
AcDbEntity
  8
0
100
AcDbLine
 10
18.59397
 20
96.6048
 30
0.0
 11
18.59397
 21
95.6838
 31
0.0
  0
LINE
  5
178
330
1E
100
AcDbEntity
  8
0
100
AcDbLine
 10
18.59397
 20
95.6838
 30
0.0
 11
18.59397
 21
96.6048
 31
0.0
  0
LINE
  5
179
330
1E
100
AcDbEntity
  8
0
100
AcDbLine
 10
18.59397
 20
95.6838
 30
0.0
 11
18.59397
 21
94.8008
 31
0.0
  0
LINE
  5
17A
330
1E
100
AcDbEntity
  8
0
100
AcDbLine
 10
0.07115
 20
96.3808
 30
0.0
 11
0.07115
 21
95.4418
 31
0.0
  0
LINE
  5
17B
330
1E
100
AcDbEntity
  8
0
100
AcDbLine
 10
0.07115
 20
96.3808
 30
0.0
 11
0.07115
 21
97.3548
 31
0.0
  0
LINE
  5
17C
330
1E
100
AcDbEntity
  8
0
100
AcDbLine
 10
0.07115
 20
95.4418
 30
0.0
 11
0.07115
 21
94.5478
 31
0.0
  0
LINE
  5
17D
330
1E
100
AcDbEntity
  8
0
100
AcDbLine
 10
0.07115
 20
95.4418
 30
0.0
 11
0.07115
 21
96.3808
 31
0.0
  0
LINE
  5
17E
330
1E
100
AcDbEntity
  8
0
100
AcDbLine
 10
26.60685
 20
95.7219
 30
0.0
 11
26.60685
 21
94.5534
 31
0.0
  0
LINE
  5
17F
330
1E
100
AcDbEntity
  8
0
100
AcDbLine
 10
26.60685
 20
95.7219
 30
0.0
 11
26.60685
 21
97.3434
 31
0.0
  0
LINE
  5
180
330
1E
100
AcDbEntity
  8
0
100
AcDbLine
 10
0.36995
 20
97.0238
 30
0.0
 11
0.36995
 21
96.0588
 31
0.0
  0
LINE
  5
181
330
1E
100
AcDbEntity
  8
0
100
AcDbLine
 10
0.36995
 20
97.0238
 30
0.0
 11
0.36995
 21
98.0148
 31
0.0
  0
LINE
  5
182
330
1E
100
AcDbEntity
  8
0
100
AcDbLine
 10
18.3948
 20
97.0238
 30
0.0
 11
18.3948
 21
98.0138
 31
0.0
  0
LINE
  5
183
330
1E
100
AcDbEntity
  8
0
100
AcDbLine
 10
18.3948
 20
97.0238
 30
0.0
 11
18.3948
 21
96.0588
 31
0.0
  0
LINE
  5
184
330
1E
100
AcDbEntity
  8
0
100
AcDbLine
 10
18.59397
 20
96.8528
 30
0.0
 11
18.59397
 21
97.6218
 31
0.0
  0
LINE
  5
185
330
1E
100
AcDbEntity
  8
0
100
AcDbLine
 10
18.59397
 20
96.8528
 30
0.0
 11
18.59397
 21
96.1188
 31
0.0
  0
LINE
  5
186
330
1E
100
AcDbEntity
  8
0
100
AcDbLine
 10
0.07115
 20
97.8323
 30
0.0
 11
0.07115
 21
99.5963
 31
0.0
  0
LINE
  5
187
330
1E
100
AcDbEntity
  8
0
100
AcDbLine
 10
0.07115
 20
97.8323
 30
0.0
 11
0.07115
 21
96.2083
 31
0.0
  0
LINE
  5
188
330
1E
100
AcDbEntity
  8
0
100
AcDbLine
 10
0.36995
 20
98.0148
 30
0.0
 11
0.36995
 21
97.0238
 31
0.0
  0
LINE
  5
189
330
1E
100
AcDbEntity
  8
0
100
AcDbLine
 10
0.36995
 20
98.0148
 30
0.0
 11
0.36995
 21
99.0218
 31
0.0
  0
LINE
  5
18A
330
1E
100
AcDbEntity
  8
0
100
AcDbLine
 10
18.3948
 20
98.0138
 30
0.0
 11
18.3948
 21
98.1468
 31
0.0
  0
LINE
  5
18B
330
1E
100
AcDbEntity
  8
0
100
AcDbLine
 10
18.3948
 20
98.0138
 30
0.0
 11
18.3948
 21
99.0208
 31
0.0
  0
LINE
  5
18C
330
1E
100
AcDbEntity
  8
0
100
AcDbLine
 10
18.3948
 20
98.0138
 30
0.0
 11
18.3948
 21
97.0238
 31
0.0
  0
LINE
  5
18D
330
1E
100
AcDbEntity
  8
0
100
AcDbLine
 10
18.59397
 20
97.6218
 30
0.0
 11
18.59397
 21
98.4158
 31
0.0
  0
LINE
  5
18E
330
1E
100
AcDbEntity
  8
0
100
AcDbLine
 10
18.59397
 20
97.6218
 30
0.0
 11
18.59397
 21
96.8528
 31
0.0
  0
LINE
  5
18F
330
1E
100
AcDbEntity
  8
0
100
AcDbLine
 10
0.07115
 20
97.6298
 30
0.0
 11
0.07115
 21
98.5138
 31
0.0
  0
LINE
  5
190
330
1E
100
AcDbEntity
  8
0
100
AcDbLine
 10
0.07115
 20
97.6298
 30
0.0
 11
0.07115
 21
96.7728
 31
0.0
  0
LINE
  5
191
330
1E
100
AcDbEntity
  8
0
100
AcDbLine
 10
0.07115
 20
98.3538
 30
0.0
 11
0.07115
 21
97.3548
 31
0.0
  0
LINE
  5
192
330
1E
100
AcDbEntity
  8
0
100
AcDbLine
 10
0.07115
 20
98.3538
 30
0.0
 11
0.07115
 21
99.3658
 31
0.0
  0
LINE
  5
194
330
1E
100
AcDbEntity
  8
0
100
AcDbLine
 10
0.36995
 20
99.0218
 30
0.0
 11
0.36995
 21
98.0148
 31
0.0
  0
LINE
  5
195
330
1E
100
AcDbEntity
  8
0
100
AcDbLine
 10
0.36995
 20
99.0218
 30
0.0
 11
0.36995
 21
99.5963
 31
0.0
  0
LINE
  5
196
330
1E
100
AcDbEntity
  8
0
100
AcDbLine
 10
18.3948
 20
99.0208
 30
0.0
 11
18.3948
 21
99.5963
 31
0.0
  0
LINE
  5
197
330
1E
100
AcDbEntity
  8
0
100
AcDbLine
 10
0.07115
 20
98.5138
 30
0.0
 11
0.07115
 21
99.4118
 31
0.0
  0
LINE
  5
198
330
1E
100
AcDbEntity
  8
0
100
AcDbLine
 10
0.07115
 20
98.5138
 30
0.0
 11
0.07115
 21
97.6298
 31
0.0
  0
LINE
  5
199
330
1E
100
AcDbEntity
  8
0
100
AcDbLine
 10
18.3948
 20
98.1468
 30
0.0
 11
18.3948
 21
98.0138
 31
0.0
  0
LINE
  5
19A
330
1E
100
AcDbEntity
  8
0
100
AcDbLine
 10
24.07115
 20
97.3978
 30
0.0
 11
24.07115
 21
98.2918
 31
0.0
  0
LINE
  5
19C
330
1E
100
AcDbEntity
  8
0
100
AcDbLine
 10
24.07115
 20
98.2918
 30
0.0
 11
24.07115
 21
99.1988
 31
0.0
  0
LINE
  5
19F
330
1E
100
AcDbEntity
  8
0
100
AcDbLine
 10
18.59397
 20
98.4158
 30
0.0
 11
18.59397
 21
99.2238
 31
0.0
  0
LINE
  5
1A8
330
1E
100
AcDbEntity
  8
0
100
AcDbLine
 10
18.59397
 20
98.5238
 30
0.0
 11
18.59397
 21
99.5038
 31
0.0
  0
LINE
  5
1AA
330
1E
100
AcDbEntity
  8
0
100
AcDbLine
 10
18.59397
 20
97.5548
 30
0.0
 11
18.59397
 21
98.5238
 31
0.0
  0
LINE
  5
1AB
330
1E
100
AcDbEntity
  8
0
100
AcDbLine
 10
18.59397
 20
97.5548
 30
0.0
 11
18.59397
 21
96.6048
 31
0.0
  0
LINE
  5
1AC
330
1E
100
AcDbEntity
  8
0
100
AcDbLine
 10
0.07115
 20
97.3548
 30
0.0
 11
0.07115
 21
96.3808
 31
0.0
  0
LINE
  5
1AD
330
1E
100
AcDbEntity
  8
0
100
AcDbLine
 10
0.07115
 20
97.3548
 30
0.0
 11
0.07115
 21
98.3538
 31
0.0
  0
LINE
  5
1AE
330
1E
100
AcDbEntity
  8
0
100
AcDbLine
 10
26.60685
 20
97.3434
 30
0.0
 11
26.60685
 21
95.7219
 31
0.0
  0
LINE
  5
1AF
330
1E
100
AcDbEntity
  8
0
100
AcDbLine
 10
26.60685
 20
97.3434
 30
0.0
 11
26.60685
 21
99.1434
 31
0.0
  0
LINE
  5
1B0
330
1E
100
AcDbEntity
  8
0
100
AcDbLine
 10
26.60685
 20
96.7936
 30
0.0
 11
26.60685
 21
98.4649
 31
0.0
  0
LINE
  5
1B1
330
1E
100
AcDbEntity
  8
0
100
AcDbLine
 10
26.60685
 20
96.7936
 30
0.0
 11
26.60685
 21
95.1721
 31
0.0
  0
LINE
  5
1B2
330
1E
100
AcDbEntity
  8
0
100
AcDbLine
 10
26.60685
 20
98.4649
 30
0.0
 11
26.60685
 21
100.1333
 31
0.0
  0
LINE
  5
1B3
330
1E
100
AcDbEntity
  8
0
100
AcDbLine
 10
26.60685
 20
98.4649
 30
0.0
 11
26.60685
 21
96.7936
 31
0.0
  0
LINE
  5
1B4
330
1E
100
AcDbEntity
  8
0
100
AcDbLine
 10
0.07115
 20
99.3658
 30
0.0
 11
0.07115
 21
98.3538
 31
0.0
  0
LINE
  5
1B5
330
1E
100
AcDbEntity
  8
0
100
AcDbLine
 10
0.07115
 20
99.3658
 30
0.0
 11
0.07115
 21
99.5963
 31
0.0
  0
LINE
  5
1B8
330
1E
100
AcDbEntity
  8
0
100
AcDbLine
 10
0.07115
 20
99.8268
 30
0.0
 11
0.07115
 21
99.5963
 31
0.0
  0
LINE
  5
1B9
330
1E
100
AcDbEntity
  8
0
100
AcDbLine
 10
0.07115
 20
99.8268
 30
0.0
 11
0.07115
 21
100.839
 31
0.0
  0
LINE
  5
1BC
330
1E
100
AcDbEntity
  8
0
100
AcDbLine
 10
0.07115
 20
99.7808
 30
0.0
 11
0.07115
 21
100.679
 31
0.0
  0
LINE
  5
1BD
330
1E
100
AcDbEntity
  8
0
100
AcDbLine
 10
0.07115
 20
99.7808
 30
0.0
 11
0.07115
 21
99.5963
 31
0.0
  0
LINE
  5
1BE
330
1E
100
AcDbEntity
  8
0
100
AcDbLine
 10
0.07115
 20
99.4118
 30
0.0
 11
0.07115
 21
99.5963
 31
0.0
  0
LINE
  5
1BF
330
1E
100
AcDbEntity
  8
0
100
AcDbLine
 10
0.07115
 20
99.4118
 30
0.0
 11
0.07115
 21
98.5138
 31
0.0
  0
LINE
  5
1C1
330
1E
100
AcDbEntity
  8
0
100
AcDbLine
 10
18.59397
 20
99.2238
 30
0.0
 11
18.59397
 21
99.5963
 31
0.0
  0
LINE
  5
1C2
330
1E
100
AcDbEntity
  8
0
100
AcDbLine
 10
18.59397
 20
99.2238
 30
0.0
 11
18.59397
 21
98.4158
 31
0.0
  0
LINE
  5
1C3
330
1E
100
AcDbEntity
  8
0
100
AcDbLine
 10
18.3948
 20
99.5963
 30
0.0
 11
18.3948
 21
99.0208
 31
0.0
  0
LINE
  5
1C4
330
1E
100
AcDbEntity
  8
0
100
AcDbLine
 10
18.3948
 20
99.5963
 30
0.0
 11
18.3948
 21
100.1718
 31
0.0
  0
LINE
  5
1C5
330
1E
100
AcDbEntity
  8
0
100
AcDbLine
 10
18.59397
 20
99.9688
 30
0.0
 11
18.59397
 21
100.777
 31
0.0
  0
LINE
  5
1C6
330
1E
100
AcDbEntity
  8
0
100
AcDbLine
 10
18.59397
 20
99.9688
 30
0.0
 11
18.59397
 21
99.5963
 31
0.0
  0
LINE
  5
1C7
330
1E
100
AcDbEntity
  8
0
100
AcDbLine
 10
18.59397
 20
99.6888
 30
0.0
 11
18.59397
 21
100.669
 31
0.0
  0
LINE
  5
1C8
330
1E
100
AcDbEntity
  8
0
100
AcDbLine
 10
18.59397
 20
99.6888
 30
0.0
 11
18.59397
 21
99.5963
 31
0.0
  0
LINE
  5
1CA
330
1E
100
AcDbEntity
  8
0
100
AcDbLine
 10
0.36995
 20
99.5963
 30
0.0
 11
0.36995
 21
99.0218
 31
0.0
  0
LINE
  5
1CB
330
1E
100
AcDbEntity
  8
0
100
AcDbLine
 10
0.36995
 20
99.5963
 30
0.0
 11
0.36995
 21
100.1708
 31
0.0
  0
LINE
  5
1D2
330
1E
100
AcDbEntity
  8
0
100
AcDbLine
 10
24.07115
 20
99.1988
 30
0.0
 11
24.07115
 21
100.901
 31
0.0
  0
LINE
  5
1D6
330
1E
100
AcDbEntity
  8
0
100
AcDbLine
 10
18.59397
 20
99.5963
 30
0.0
 11
18.59397
 21
99.5038
 31
0.0
  0
LINE
  5
1D8
330
1E
100
AcDbEntity
  8
0
100
AcDbLine
 10
18.59397
 20
99.5963
 30
0.0
 11
18.59397
 21
99.2238
 31
0.0
  0
LINE
  5
1D9
330
1E
100
AcDbEntity
  8
0
100
AcDbLine
 10
18.59397
 20
99.5963
 30
0.0
 11
18.59397
 21
99.6888
 31
0.0
  0
LINE
  5
1DA
330
1E
100
AcDbEntity
  8
0
100
AcDbLine
 10
18.59397
 20
99.5963
 30
0.0
 11
18.59397
 21
99.9688
 31
0.0
  0
LINE
  5
1DB
330
1E
100
AcDbEntity
  8
0
100
AcDbLine
 10
18.59397
 20
99.5038
 30
0.0
 11
18.59397
 21
99.5963
 31
0.0
  0
LINE
  5
1DC
330
1E
100
AcDbEntity
  8
0
100
AcDbLine
 10
18.59397
 20
99.5038
 30
0.0
 11
18.59397
 21
98.5238
 31
0.0
  0
LINE
  5
1DE
330
1E
100
AcDbEntity
  8
0
100
AcDbLine
 10
0.07115
 20
99.5963
 30
0.0
 11
0.07115
 21
99.3658
 31
0.0
  0
LINE
  5
1DF
330
1E
100
AcDbEntity
  8
0
100
AcDbLine
 10
0.07115
 20
99.5963
 30
0.0
 11
0.07115
 21
99.4118
 31
0.0
  0
LINE
  5
1E0
330
1E
100
AcDbEntity
  8
0
100
AcDbLine
 10
0.07115
 20
99.5963
 30
0.0
 11
0.07115
 21
99.7808
 31
0.0
  0
LINE
  5
1E1
330
1E
100
AcDbEntity
  8
0
100
AcDbLine
 10
0.07115
 20
99.5963
 30
0.0
 11
0.07115
 21
99.8268
 31
0.0
  0
LINE
  5
1E2
330
1E
100
AcDbEntity
  8
0
100
AcDbLine
 10
0.07115
 20
99.5963
 30
0.0
 11
0.07115
 21
97.8323
 31
0.0
  0
LINE
  5
1E3
330
1E
100
AcDbEntity
  8
0
100
AcDbLine
 10
0.07115
 20
99.5963
 30
0.0
 11
0.07115
 21
101.36
 31
0.0
  0
LINE
  5
1E4
330
1E
100
AcDbEntity
  8
0
100
AcDbLine
 10
0.07115
 20
100.839
 30
0.0
 11
0.07115
 21
99.8268
 31
0.0
  0
LINE
  5
1E5
330
1E
100
AcDbEntity
  8
0
100
AcDbLine
 10
0.07115
 20
100.839
 30
0.0
 11
0.07115
 21
101.838
 31
0.0
  0
LINE
  5
1E7
330
1E
100
AcDbEntity
  8
0
100
AcDbLine
 10
0.07115
 20
100.679
 30
0.0
 11
0.07115
 21
101.563
 31
0.0
  0
LINE
  5
1E8
330
1E
100
AcDbEntity
  8
0
100
AcDbLine
 10
0.07115
 20
100.679
 30
0.0
 11
0.07115
 21
99.7808
 31
0.0
  0
LINE
  5
1E9
330
1E
100
AcDbEntity
  8
0
100
AcDbLine
 10
0.07115
 20
101.36
 30
0.0
 11
0.07115
 21
102.984
 31
0.0
  0
LINE
  5
1EA
330
1E
100
AcDbEntity
  8
0
100
AcDbLine
 10
0.07115
 20
101.36
 30
0.0
 11
0.07115
 21
99.5963
 31
0.0
  0
LINE
  5
1EB
330
1E
100
AcDbEntity
  8
0
100
AcDbLine
 10
0.07115
 20
101.838
 30
0.0
 11
0.07115
 21
100.839
 31
0.0
  0
LINE
  5
1EC
330
1E
100
AcDbEntity
  8
0
100
AcDbLine
 10
0.07115
 20
101.838
 30
0.0
 11
0.07115
 21
102.812
 31
0.0
  0
LINE
  5
1ED
330
1E
100
AcDbEntity
  8
0
100
AcDbLine
 10
0.07115
 20
101.563
 30
0.0
 11
0.07115
 21
102.42
 31
0.0
  0
LINE
  5
1EE
330
1E
100
AcDbEntity
  8
0
100
AcDbLine
 10
0.07115
 20
101.563
 30
0.0
 11
0.07115
 21
100.679
 31
0.0
  0
LINE
  5
1EF
330
1E
100
AcDbEntity
  8
0
100
AcDbLine
 10
0.07115
 20
102.984
 30
0.0
 11
0.07115
 21
104.412
 31
0.0
  0
LINE
  5
1F0
330
1E
100
AcDbEntity
  8
0
100
AcDbLine
 10
0.07115
 20
102.984
 30
0.0
 11
0.07115
 21
101.36
 31
0.0
  0
LINE
  5
1F1
330
1E
100
AcDbEntity
  8
0
100
AcDbLine
 10
0.07115
 20
102.42
 30
0.0
 11
0.07115
 21
103.239
 31
0.0
  0
LINE
  5
1F2
330
1E
100
AcDbEntity
  8
0
100
AcDbLine
 10
0.07115
 20
102.42
 30
0.0
 11
0.07115
 21
101.563
 31
0.0
  0
LINE
  5
1F3
330
1E
100
AcDbEntity
  8
0
100
AcDbLine
 10
0.07115
 20
102.812
 30
0.0
 11
0.07115
 21
101.838
 31
0.0
  0
LINE
  5
1F4
330
1E
100
AcDbEntity
  8
0
100
AcDbLine
 10
0.07115
 20
102.812
 30
0.0
 11
0.07115
 21
103.751
 31
0.0
  0
LINE
  5
1F5
330
1E
100
AcDbEntity
  8
0
100
AcDbLine
 10
0.07115
 20
103.239
 30
0.0
 11
0.07115
 21
104.008
 31
0.0
  0
LINE
  5
1F6
330
1E
100
AcDbEntity
  8
0
100
AcDbLine
 10
0.07115
 20
103.239
 30
0.0
 11
0.07115
 21
102.42
 31
0.0
  0
LINE
  5
1F7
330
1E
100
AcDbEntity
  8
0
100
AcDbLine
 10
0.36995
 20
103.134
 30
0.0
 11
0.36995
 21
102.169
 31
0.0
  0
LINE
  5
1F8
330
1E
100
AcDbEntity
  8
0
100
AcDbLine
 10
0.36995
 20
103.134
 30
0.0
 11
0.36995
 21
104.062
 31
0.0
  0
LINE
  5
1F9
330
1E
100
AcDbEntity
  8
0
100
AcDbLine
 10
0.36995
 20
102.169
 30
0.0
 11
0.36995
 21
101.178
 31
0.0
  0
LINE
  5
1FA
330
1E
100
AcDbEntity
  8
0
100
AcDbLine
 10
0.36995
 20
102.169
 30
0.0
 11
0.36995
 21
103.134
 31
0.0
  0
LINE
  5
1FB
330
1E
100
AcDbEntity
  8
0
100
AcDbLine
 10
0.36995
 20
101.178
 30
0.0
 11
0.36995
 21
100.1708
 31
0.0
  0
LINE
  5
1FC
330
1E
100
AcDbEntity
  8
0
100
AcDbLine
 10
0.36995
 20
101.178
 30
0.0
 11
0.36995
 21
102.169
 31
0.0
  0
LINE
  5
1FD
330
1E
100
AcDbEntity
  8
0
100
AcDbLine
 10
18.3948
 20
103.134
 30
0.0
 11
18.3948
 21
104.062
 31
0.0
  0
LINE
  5
1FE
330
1E
100
AcDbEntity
  8
0
100
AcDbLine
 10
18.3948
 20
103.134
 30
0.0
 11
18.3948
 21
102.169
 31
0.0
  0
LINE
  5
1FF
330
1E
100
AcDbEntity
  8
0
100
AcDbLine
 10
18.3948
 20
102.169
 30
0.0
 11
18.3948
 21
103.134
 31
0.0
  0
LINE
  5
200
330
1E
100
AcDbEntity
  8
0
100
AcDbLine
 10
18.3948
 20
102.169
 30
0.0
 11
18.3948
 21
101.179
 31
0.0
  0
LINE
  5
201
330
1E
100
AcDbEntity
  8
0
100
AcDbLine
 10
18.59397
 20
102.34
 30
0.0
 11
18.59397
 21
103.074
 31
0.0
  0
LINE
  5
202
330
1E
100
AcDbEntity
  8
0
100
AcDbLine
 10
18.59397
 20
102.34
 30
0.0
 11
18.59397
 21
101.571
 31
0.0
  0
LINE
  5
203
330
1E
100
AcDbEntity
  8
0
100
AcDbLine
 10
18.59397
 20
101.571
 30
0.0
 11
18.59397
 21
102.34
 31
0.0
  0
LINE
  5
204
330
1E
100
AcDbEntity
  8
0
100
AcDbLine
 10
18.59397
 20
101.571
 30
0.0
 11
18.59397
 21
100.777
 31
0.0
  0
LINE
  5
205
330
1E
100
AcDbEntity
  8
0
100
AcDbLine
 10
18.59397
 20
100.777
 30
0.0
 11
18.59397
 21
101.571
 31
0.0
  0
LINE
  5
206
330
1E
100
AcDbEntity
  8
0
100
AcDbLine
 10
18.59397
 20
100.777
 30
0.0
 11
18.59397
 21
99.9688
 31
0.0
  0
LINE
  5
207
330
1E
100
AcDbEntity
  8
0
100
AcDbLine
 10
18.59397
 20
100.669
 30
0.0
 11
18.59397
 21
101.638
 31
0.0
  0
LINE
  5
208
330
1E
100
AcDbEntity
  8
0
100
AcDbLine
 10
18.59397
 20
100.669
 30
0.0
 11
18.59397
 21
99.6888
 31
0.0
  0
LINE
  5
20D
330
1E
100
AcDbEntity
  8
0
100
AcDbLine
 10
24.07115
 20
101.795
 30
0.0
 11
24.07115
 21
102.667
 31
0.0
  0
LINE
  5
20E
330
1E
100
AcDbEntity
  8
0
100
AcDbLine
 10
24.07115
 20
100.901
 30
0.0
 11
24.07115
 21
101.795
 31
0.0
  0
LINE
  5
217
330
1E
100
AcDbEntity
  8
0
100
AcDbLine
 10
18.59397
 20
101.638
 30
0.0
 11
18.59397
 21
102.588
 31
0.0
  0
LINE
  5
218
330
1E
100
AcDbEntity
  8
0
100
AcDbLine
 10
18.59397
 20
101.638
 30
0.0
 11
18.59397
 21
100.669
 31
0.0
  0
LINE
  5
219
330
1E
100
AcDbEntity
  8
0
100
AcDbLine
 10
24.07115
 20
102.667
 30
0.0
 11
24.07115
 21
103.507
 31
0.0
  0
LINE
  5
21A
330
1E
100
AcDbEntity
  8
0
100
AcDbLine
 10
18.59397
 20
103.074
 30
0.0
 11
18.59397
 21
103.764
 31
0.0
  0
LINE
  5
21B
330
1E
100
AcDbEntity
  8
0
100
AcDbLine
 10
18.59397
 20
103.074
 30
0.0
 11
18.59397
 21
102.34
 31
0.0
  0
LINE
  5
21C
330
1E
100
AcDbEntity
  8
0
100
AcDbLine
 10
18.59397
 20
102.588
 30
0.0
 11
18.59397
 21
103.509
 31
0.0
  0
LINE
  5
21D
330
1E
100
AcDbEntity
  8
0
100
AcDbLine
 10
18.59397
 20
102.588
 30
0.0
 11
18.59397
 21
101.638
 31
0.0
  0
LINE
  5
21E
330
1E
100
AcDbEntity
  8
0
100
AcDbLine
 10
18.3948
 20
101.179
 30
0.0
 11
18.3948
 21
102.169
 31
0.0
  0
LINE
  5
21F
330
1E
100
AcDbEntity
  8
0
100
AcDbLine
 10
18.3948
 20
101.179
 30
0.0
 11
18.3948
 21
100.1718
 31
0.0
  0
LINE
  5
220
330
1E
100
AcDbEntity
  8
0
100
AcDbLine
 10
18.3948
 20
100.1718
 30
0.0
 11
18.3948
 21
101.179
 31
0.0
  0
LINE
  5
221
330
1E
100
AcDbEntity
  8
0
100
AcDbLine
 10
18.3948
 20
100.1718
 30
0.0
 11
18.3948
 21
99.5963
 31
0.0
  0
LINE
  5
222
330
1E
100
AcDbEntity
  8
0
100
AcDbLine
 10
0.36995
 20
100.1708
 30
0.0
 11
0.36995
 21
99.5963
 31
0.0
  0
LINE
  5
223
330
1E
100
AcDbEntity
  8
0
100
AcDbLine
 10
0.36995
 20
100.1708
 30
0.0
 11
0.36995
 21
101.178
 31
0.0
  0
LINE
  5
224
330
1E
100
AcDbEntity
  8
0
100
AcDbLine
 10
26.60685
 20
100.1333
 30
0.0
 11
26.60685
 21
101.748
 31
0.0
  0
LINE
  5
225
330
1E
100
AcDbEntity
  8
0
100
AcDbLine
 10
26.60685
 20
100.1333
 30
0.0
 11
26.60685
 21
98.4649
 31
0.0
  0
LINE
  5
226
330
1E
100
AcDbEntity
  8
0
100
AcDbLine
 10
26.60685
 20
101.748
 30
0.0
 11
26.60685
 21
103.256
 31
0.0
  0
LINE
  5
227
330
1E
100
AcDbEntity
  8
0
100
AcDbLine
 10
26.60685
 20
101.748
 30
0.0
 11
26.60685
 21
100.1333
 31
0.0
  0
LINE
  5
228
330
1E
100
AcDbEntity
  8
0
100
AcDbLine
 10
26.60685
 20
103.256
 30
0.0
 11
26.60685
 21
104.613
 31
0.0
  0
LINE
  5
229
330
1E
100
AcDbEntity
  8
0
100
AcDbLine
 10
26.60685
 20
103.256
 30
0.0
 11
26.60685
 21
101.748
 31
0.0
  0
LINE
  5
22A
330
1E
100
AcDbEntity
  8
0
100
AcDbLine
 10
26.60685
 20
100.933
 30
0.0
 11
26.60685
 21
99.1434
 31
0.0
  0
LINE
  5
22B
330
1E
100
AcDbEntity
  8
0
100
AcDbLine
 10
26.60685
 20
100.933
 30
0.0
 11
26.60685
 21
101.961
 31
0.0
  0
LINE
  5
22C
330
1E
100
AcDbEntity
  8
0
100
AcDbLine
 10
26.60685
 20
99.1434
 30
0.0
 11
26.60685
 21
97.3434
 31
0.0
  0
LINE
  5
22D
330
1E
100
AcDbEntity
  8
0
100
AcDbLine
 10
26.60685
 20
99.1434
 30
0.0
 11
26.60685
 21
100.933
 31
0.0
  0
LINE
  5
22E
330
1E
100
AcDbEntity
  8
0
100
AcDbLine
 10
26.60685
 20
101.961
 30
0.0
 11
26.60685
 21
100.933
 31
0.0
  0
LINE
  5
22F
330
1E
100
AcDbEntity
  8
0
100
AcDbLine
 10
26.60685
 20
101.961
 30
0.0
 11
26.60685
 21
103.415
 31
0.0
  0
LINE
  5
230
330
1E
100
AcDbEntity
  8
0
100
AcDbLine
 10
0.07115
 20
104.412
 30
0.0
 11
0.07115
 21
105.504
 31
0.0
  0
LINE
  5
231
330
1E
100
AcDbEntity
  8
0
100
AcDbLine
 10
0.07115
 20
104.412
 30
0.0
 11
0.07115
 21
102.984
 31
0.0
  0
LINE
  5
232
330
1E
100
AcDbEntity
  8
0
100
AcDbLine
 10
0.07115
 20
104.008
 30
0.0
 11
0.07115
 21
104.718
 31
0.0
  0
LINE
  5
233
330
1E
100
AcDbEntity
  8
0
100
AcDbLine
 10
0.07115
 20
104.008
 30
0.0
 11
0.07115
 21
103.239
 31
0.0
  0
LINE
  5
234
330
1E
100
AcDbEntity
  8
0
100
AcDbLine
 10
0.07115
 20
104.718
 30
0.0
 11
0.07115
 21
105.359
 31
0.0
  0
LINE
  5
235
330
1E
100
AcDbEntity
  8
0
100
AcDbLine
 10
0.07115
 20
104.718
 30
0.0
 11
0.07115
 21
104.008
 31
0.0
  0
LINE
  5
236
330
1E
100
AcDbEntity
  8
0
100
AcDbLine
 10
0.07115
 20
104.645
 30
0.0
 11
0.07115
 21
103.751
 31
0.0
  0
LINE
  5
237
330
1E
100
AcDbEntity
  8
0
100
AcDbLine
 10
0.07115
 20
104.645
 30
0.0
 11
0.07115
 21
105.483
 31
0.0
  0
LINE
  5
238
330
1E
100
AcDbEntity
  8
0
100
AcDbLine
 10
0.07115
 20
103.751
 30
0.0
 11
0.07115
 21
102.812
 31
0.0
  0
LINE
  5
239
330
1E
100
AcDbEntity
  8
0
100
AcDbLine
 10
0.07115
 20
103.751
 30
0.0
 11
0.07115
 21
104.645
 31
0.0
  0
LINE
  5
23A
330
1E
100
AcDbEntity
  8
0
100
AcDbLine
 10
0.07115
 20
105.504
 30
0.0
 11
0.07115
 21
106.176
 31
0.0
  0
LINE
  5
23B
330
1E
100
AcDbEntity
  8
0
100
AcDbLine
 10
0.07115
 20
105.504
 30
0.0
 11
0.07115
 21
104.412
 31
0.0
  0
LINE
  5
23C
330
1E
100
AcDbEntity
  8
0
100
AcDbLine
 10
0.07115
 20
105.359
 30
0.0
 11
0.07115
 21
105.922
 31
0.0
  0
LINE
  5
23D
330
1E
100
AcDbEntity
  8
0
100
AcDbLine
 10
0.07115
 20
105.359
 30
0.0
 11
0.07115
 21
104.718
 31
0.0
  0
LINE
  5
23E
330
1E
100
AcDbEntity
  8
0
100
AcDbLine
 10
0.07115
 20
105.483
 30
0.0
 11
0.07115
 21
104.645
 31
0.0
  0
LINE
  5
23F
330
1E
100
AcDbEntity
  8
0
100
AcDbLine
 10
0.07115
 20
105.483
 30
0.0
 11
0.07115
 21
106.257
 31
0.0
  0
LINE
  5
240
330
1E
100
AcDbEntity
  8
0
100
AcDbLine
 10
0.36995
 20
104.944
 30
0.0
 11
0.36995
 21
104.062
 31
0.0
  0
LINE
  5
241
330
1E
100
AcDbEntity
  8
0
100
AcDbLine
 10
0.36995
 20
104.944
 30
0.0
 11
0.36995
 21
105.772
 31
0.0
  0
LINE
  5
242
330
1E
100
AcDbEntity
  8
0
100
AcDbLine
 10
18.59397
 20
103.764
 30
0.0
 11
18.59397
 21
104.402
 31
0.0
  0
LINE
  5
243
330
1E
100
AcDbEntity
  8
0
100
AcDbLine
 10
18.59397
 20
103.764
 30
0.0
 11
18.59397
 21
103.074
 31
0.0
  0
LINE
  5
244
330
1E
100
AcDbEntity
  8
0
100
AcDbLine
 10
24.07115
 20
103.507
 30
0.0
 11
24.07115
 21
104.307
 31
0.0
  0
LINE
  5
245
330
1E
100
AcDbEntity
  8
0
100
AcDbLine
 10
18.59397
 20
103.509
 30
0.0
 11
18.59397
 21
104.392
 31
0.0
  0
LINE
  5
246
330
1E
100
AcDbEntity
  8
0
100
AcDbLine
 10
18.59397
 20
103.509
 30
0.0
 11
18.59397
 21
102.588
 31
0.0
  0
LINE
  5
247
330
1E
100
AcDbEntity
  8
0
100
AcDbLine
 10
24.07115
 20
104.307
 30
0.0
 11
24.07115
 21
105.059
 31
0.0
  0
LINE
  5
248
330
1E
100
AcDbEntity
  8
0
100
AcDbLine
 10
18.59397
 20
104.98
 30
0.0
 11
18.59397
 21
105.49
 31
0.0
  0
LINE
  5
249
330
1E
100
AcDbEntity
  8
0
100
AcDbLine
 10
18.59397
 20
104.98
 30
0.0
 11
18.59397
 21
104.402
 31
0.0
  0
LINE
  5
24A
330
1E
100
AcDbEntity
  8
0
100
AcDbLine
 10
18.59397
 20
105.49
 30
0.0
 11
18.59397
 21
105.926
 31
0.0
  0
LINE
  5
24B
330
1E
100
AcDbEntity
  8
0
100
AcDbLine
 10
18.59397
 20
105.49
 30
0.0
 11
18.59397
 21
104.98
 31
0.0
  0
LINE
  5
24C
330
1E
100
AcDbEntity
  8
0
100
AcDbLine
 10
18.59397
 20
105.229
 30
0.0
 11
18.59397
 21
104.392
 31
0.0
  0
LINE
  5
24D
330
1E
100
AcDbEntity
  8
0
100
AcDbLine
 10
18.59397
 20
105.229
 30
0.0
 11
18.59397
 21
106.012
 31
0.0
  0
LINE
  5
24E
330
1E
100
AcDbEntity
  8
0
100
AcDbLine
 10
24.07115
 20
105.596
 30
0.0
 11
26.60685
 21
105.596
 31
0.0
  0
LINE
  5
24F
330
1E
100
AcDbEntity
  8
0
100
AcDbLine
 10
24.07115
 20
105.059
 30
0.0
 11
24.07115
 21
105.755
 31
0.0
  0
LINE
  5
250
330
1E
100
AcDbEntity
  8
0
100
AcDbLine
 10
18.59397
 20
104.402
 30
0.0
 11
18.59397
 21
104.98
 31
0.0
  0
LINE
  5
251
330
1E
100
AcDbEntity
  8
0
100
AcDbLine
 10
18.59397
 20
104.402
 30
0.0
 11
18.59397
 21
103.764
 31
0.0
  0
LINE
  5
252
330
1E
100
AcDbEntity
  8
0
100
AcDbLine
 10
18.59397
 20
104.392
 30
0.0
 11
18.59397
 21
103.509
 31
0.0
  0
LINE
  5
253
330
1E
100
AcDbEntity
  8
0
100
AcDbLine
 10
18.59397
 20
104.392
 30
0.0
 11
18.59397
 21
105.229
 31
0.0
  0
LINE
  5
254
330
1E
100
AcDbEntity
  8
0
100
AcDbLine
 10
18.3948
 20
104.944
 30
0.0
 11
18.3948
 21
105.772
 31
0.0
  0
LINE
  5
255
330
1E
100
AcDbEntity
  8
0
100
AcDbLine
 10
18.3948
 20
104.944
 30
0.0
 11
18.3948
 21
104.062
 31
0.0
  0
LINE
  5
256
330
1E
100
AcDbEntity
  8
0
100
AcDbLine
 10
18.3948
 20
104.062
 30
0.0
 11
18.3948
 21
104.944
 31
0.0
  0
LINE
  5
257
330
1E
100
AcDbEntity
  8
0
100
AcDbLine
 10
18.3948
 20
104.062
 30
0.0
 11
18.3948
 21
103.134
 31
0.0
  0
LINE
  5
258
330
1E
100
AcDbEntity
  8
0
100
AcDbLine
 10
0.36995
 20
104.062
 30
0.0
 11
0.36995
 21
103.134
 31
0.0
  0
LINE
  5
259
330
1E
100
AcDbEntity
  8
0
100
AcDbLine
 10
0.36995
 20
104.062
 30
0.0
 11
0.36995
 21
104.944
 31
0.0
  0
LINE
  5
25A
330
1E
100
AcDbEntity
  8
0
100
AcDbLine
 10
24.07115
 20
105.755
 30
0.0
 11
24.07115
 21
106.387
 31
0.0
  0
LINE
  5
25B
330
1E
100
AcDbEntity
  8
0
100
AcDbLine
 10
18.3948
 20
105.772
 30
0.0
 11
18.3948
 21
106.536
 31
0.0
  0
LINE
  5
25C
330
1E
100
AcDbEntity
  8
0
100
AcDbLine
 10
18.3948
 20
105.772
 30
0.0
 11
18.3948
 21
104.944
 31
0.0
  0
LINE
  5
25D
330
1E
100
AcDbEntity
  8
0
100
AcDbLine
 10
0.36995
 20
105.772
 30
0.0
 11
0.36995
 21
104.944
 31
0.0
  0
LINE
  5
25E
330
1E
100
AcDbEntity
  8
0
100
AcDbLine
 10
0.36995
 20
105.772
 30
0.0
 11
0.36995
 21
106.536
 31
0.0
  0
LINE
  5
25F
330
1E
100
AcDbEntity
  8
0
100
AcDbLine
 10
26.60685
 20
105.596
 30
0.0
 11
26.60685
 21
105.774
 31
0.0
  0
LINE
  5
260
330
1E
100
AcDbEntity
  8
0
100
AcDbLine
 10
26.60685
 20
105.403
 30
0.0
 11
26.60685
 21
103.415
 31
0.0
  0
LINE
  5
261
330
1E
100
AcDbEntity
  8
0
100
AcDbLine
 10
26.60685
 20
105.403
 30
0.0
 11
26.60685
 21
106.641
 31
0.0
  0
LINE
  5
262
330
1E
100
AcDbEntity
  8
0
100
AcDbLine
 10
0.07115
 20
106.176
 30
0.0
 11
0.07115
 21
106.428
 31
0.0
  0
LINE
  5
263
330
1E
100
AcDbEntity
  8
0
100
AcDbLine
 10
0.07115
 20
106.176
 30
0.0
 11
0.07115
 21
105.504
 31
0.0
  0
LINE
  5
264
330
1E
100
AcDbEntity
  8
0
100
AcDbLine
 10
0.07115
 20
105.922
 30
0.0
 11
0.07115
 21
106.399
 31
0.0
  0
LINE
  5
265
330
1E
100
AcDbEntity
  8
0
100
AcDbLine
 10
0.07115
 20
105.922
 30
0.0
 11
0.07115
 21
105.359
 31
0.0
  0
LINE
  5
266
330
1E
100
AcDbEntity
  8
0
100
AcDbLine
 10
0.07115
 20
106.428
 30
0.0
 11
0.07115
 21
106.176
 31
0.0
  0
LINE
  5
267
330
1E
100
AcDbEntity
  8
0
100
AcDbLine
 10
0.07115
 20
106.399
 30
0.0
 11
0.07115
 21
106.785
 31
0.0
  0
LINE
  5
268
330
1E
100
AcDbEntity
  8
0
100
AcDbLine
 10
0.07115
 20
106.399
 30
0.0
 11
0.07115
 21
105.922
 31
0.0
  0
LINE
  5
269
330
1E
100
AcDbEntity
  8
0
100
AcDbLine
 10
0.07115
 20
106.428
 30
0.0
 11
0.07115
 21
106.958
 31
0.0
  0
LINE
  5
26A
330
1E
100
AcDbEntity
  8
0
100
AcDbLine
 10
0.07115
 20
106.257
 30
0.0
 11
0.07115
 21
105.483
 31
0.0
  0
LINE
  5
26B
330
1E
100
AcDbEntity
  8
0
100
AcDbLine
 10
0.07115
 20
106.257
 30
0.0
 11
0.07115
 21
106.958
 31
0.0
  0
LINE
  5
26C
330
1E
100
AcDbEntity
  8
0
100
AcDbLine
 10
18.59397
 20
105.926
 30
0.0
 11
18.59397
 21
106.283
 31
0.0
  0
LINE
  5
26D
330
1E
100
AcDbEntity
  8
0
100
AcDbLine
 10
18.59397
 20
105.926
 30
0.0
 11
18.59397
 21
105.49
 31
0.0
  0
LINE
  5
26E
330
1E
100
AcDbEntity
  8
0
100
AcDbLine
 10
24.07115
 20
106.387
 30
0.0
 11
24.07115
 21
106.95
 31
0.0
  0
LINE
  5
26F
330
1E
100
AcDbEntity
  8
0
100
AcDbLine
 10
18.59397
 20
106.283
 30
0.0
 11
18.59397
 21
106.555
 31
0.0
  0
LINE
  5
270
330
1E
100
AcDbEntity
  8
0
100
AcDbLine
 10
18.59397
 20
106.283
 30
0.0
 11
18.59397
 21
105.926
 31
0.0
  0
LINE
  5
271
330
1E
100
AcDbEntity
  8
0
100
AcDbLine
 10
18.59397
 20
106.012
 30
0.0
 11
18.59397
 21
106.733
 31
0.0
  0
LINE
  5
272
330
1E
100
AcDbEntity
  8
0
100
AcDbLine
 10
18.59397
 20
106.012
 30
0.0
 11
18.59397
 21
105.229
 31
0.0
  0
LINE
  5
273
330
1E
100
AcDbEntity
  8
0
100
AcDbLine
 10
18.3948
 20
106.536
 30
0.0
 11
18.3948
 21
107.229
 31
0.0
  0
LINE
  5
274
330
1E
100
AcDbEntity
  8
0
100
AcDbLine
 10
18.3948
 20
106.536
 30
0.0
 11
18.3948
 21
105.772
 31
0.0
  0
LINE
  5
275
330
1E
100
AcDbEntity
  8
0
100
AcDbLine
 10
0.07115
 20
106.785
 30
0.0
 11
0.07115
 21
107.073
 31
0.0
  0
LINE
  5
276
330
1E
100
AcDbEntity
  8
0
100
AcDbLine
 10
0.07115
 20
106.785
 30
0.0
 11
0.07115
 21
106.399
 31
0.0
  0
LINE
  5
277
330
1E
100
AcDbEntity
  8
0
100
AcDbLine
 10
0.07115
 20
107.26
 30
0.0
 11
0.07115
 21
107.343
 31
0.0
  0
LINE
  5
278
330
1E
100
AcDbEntity
  8
0
100
AcDbLine
 10
0.07115
 20
107.26
 30
0.0
 11
0.07115
 21
107.073
 31
0.0
  0
LINE
  5
279
330
1E
100
AcDbEntity
  8
0
100
AcDbLine
 10
0.07115
 20
107.073
 30
0.0
 11
0.07115
 21
107.26
 31
0.0
  0
LINE
  5
27A
330
1E
100
AcDbEntity
  8
0
100
AcDbLine
 10
0.36995
 20
107.229
 30
0.0
 11
0.36995
 21
107.844
 31
0.0
  0
LINE
  5
27B
330
1E
100
AcDbEntity
  8
0
100
AcDbLine
 10
0.07115
 20
106.958
 30
0.0
 11
0.07115
 21
107.578
 31
0.0
  0
LINE
  5
27C
330
1E
100
AcDbEntity
  8
0
100
AcDbLine
 10
0.07115
 20
107.343
 30
0.0
 11
0.07115
 21
107.26
 31
0.0
  0
LINE
  5
27D
330
1E
100
AcDbEntity
  8
0
100
AcDbLine
 10
0.07115
 20
107.578
 30
0.0
 11
0.07115
 21
106.958
 31
0.0
  0
LINE
  5
27E
330
1E
100
AcDbEntity
  8
0
100
AcDbLine
 10
0.07115
 20
107.578
 30
0.0
 11
0.07115
 21
108.111
 31
0.0
  0
LINE
  5
27F
330
1E
100
AcDbEntity
  8
0
100
AcDbLine
 10
18.3948
 20
107.844
 30
0.0
 11
18.3948
 21
108.374
 31
0.0
  0
LINE
  5
280
330
1E
100
AcDbEntity
  8
0
100
AcDbLine
 10
18.3948
 20
107.844
 30
0.0
 11
18.3948
 21
107.229
 31
0.0
  0
LINE
  5
281
330
1E
100
AcDbEntity
  8
0
100
AcDbLine
 10
0.07115
 20
108.55
 30
0.0
 11
0.07115
 21
108.111
 31
0.0
  0
LINE
  5
282
330
1E
100
AcDbEntity
  8
0
100
AcDbLine
 10
0.07115
 20
108.55
 30
0.0
 11
0.07115
 21
108.891
 31
0.0
  0
LINE
  5
283
330
1E
100
AcDbEntity
  8
0
100
AcDbLine
 10
0.07115
 20
108.111
 30
0.0
 11
0.07115
 21
107.578
 31
0.0
  0
LINE
  5
284
330
1E
100
AcDbEntity
  8
0
100
AcDbLine
 10
0.07115
 20
108.111
 30
0.0
 11
0.07115
 21
108.55
 31
0.0
  0
LINE
  5
285
330
1E
100
AcDbEntity
  8
0
100
AcDbLine
 10
18.3948
 20
108.374
 30
0.0
 11
18.3948
 21
108.814
 31
0.0
  0
LINE
  5
286
330
1E
100
AcDbEntity
  8
0
100
AcDbLine
 10
18.3948
 20
108.374
 30
0.0
 11
18.3948
 21
107.844
 31
0.0
  0
LINE
  5
287
330
1E
100
AcDbEntity
  8
0
100
AcDbLine
 10
0.36995
 20
108.374
 30
0.0
 11
0.36995
 21
107.844
 31
0.0
  0
LINE
  5
288
330
1E
100
AcDbEntity
  8
0
100
AcDbLine
 10
0.36995
 20
108.374
 30
0.0
 11
0.36995
 21
108.814
 31
0.0
  0
LINE
  5
289
330
1E
100
AcDbEntity
  8
0
100
AcDbLine
 10
0.36995
 20
107.844
 30
0.0
 11
0.36995
 21
107.229
 31
0.0
  0
LINE
  5
28A
330
1E
100
AcDbEntity
  8
0
100
AcDbLine
 10
0.36995
 20
107.844
 30
0.0
 11
0.36995
 21
108.374
 31
0.0
  0
LINE
  5
28B
330
1E
100
AcDbEntity
  8
0
100
AcDbLine
 10
18.59397
 20
106.555
 30
0.0
 11
18.59397
 21
106.739
 31
0.0
  0
LINE
  5
28C
330
1E
100
AcDbEntity
  8
0
100
AcDbLine
 10
18.59397
 20
106.555
 30
0.0
 11
18.59397
 21
106.283
 31
0.0
  0
LINE
  5
28D
330
1E
100
AcDbEntity
  8
0
100
AcDbLine
 10
18.59397
 20
106.739
 30
0.0
 11
18.59397
 21
106.835
 31
0.0
  0
LINE
  5
28E
330
1E
100
AcDbEntity
  8
0
100
AcDbLine
 10
18.59397
 20
106.739
 30
0.0
 11
18.59397
 21
106.555
 31
0.0
  0
LINE
  5
28F
330
1E
100
AcDbEntity
  8
0
100
AcDbLine
 10
18.59397
 20
106.733
 30
0.0
 11
18.59397
 21
107.386
 31
0.0
  0
LINE
  5
290
330
1E
100
AcDbEntity
  8
0
100
AcDbLine
 10
18.59397
 20
106.733
 30
0.0
 11
18.59397
 21
106.012
 31
0.0
  0
LINE
  5
291
330
1E
100
AcDbEntity
  8
0
100
AcDbLine
 10
18.59397
 20
106.835
 30
0.0
 11
18.59397
 21
109.558
 31
0.0
  0
LINE
  5
292
330
1E
100
AcDbEntity
  8
0
100
AcDbLine
 10
18.59397
 20
106.835
 30
0.0
 11
18.59397
 21
109.423
 31
0.0
  0
LINE
  5
293
330
1E
100
AcDbEntity
  8
0
100
AcDbLine
 10
18.59397
 20
106.835
 30
0.0
 11
18.59397
 21
106.739
 31
0.0
  0
LINE
  5
294
330
1E
100
AcDbEntity
  8
0
100
AcDbLine
 10
18.59397
 20
108.46
 30
0.0
 11
18.59397
 21
108.871
 31
0.0
  0
LINE
  5
295
330
1E
100
AcDbEntity
  8
0
100
AcDbLine
 10
18.59397
 20
108.46
 30
0.0
 11
18.59397
 21
107.963
 31
0.0
  0
LINE
  5
296
330
1E
100
AcDbEntity
  8
0
100
AcDbLine
 10
18.59397
 20
107.386
 30
0.0
 11
18.59397
 21
107.963
 31
0.0
  0
LINE
  5
297
330
1E
100
AcDbEntity
  8
0
100
AcDbLine
 10
18.59397
 20
107.386
 30
0.0
 11
18.59397
 21
106.733
 31
0.0
  0
LINE
  5
298
330
1E
100
AcDbEntity
  8
0
100
AcDbLine
 10
24.07115
 20
108.167
 30
0.0
 11
24.07115
 21
108.401
 31
0.0
  0
LINE
  5
299
330
1E
100
AcDbEntity
  8
0
100
AcDbLine
 10
24.07115
 20
108.401
 30
0.0
 11
24.07115
 21
108.546
 31
0.0
  0
LINE
  5
29A
330
1E
100
AcDbEntity
  8
0
100
AcDbLine
 10
24.07115
 20
107.845
 30
0.0
 11
24.07115
 21
108.167
 31
0.0
  0
LINE
  5
29B
330
1E
100
AcDbEntity
  8
0
100
AcDbLine
 10
24.07115
 20
107.438
 30
0.0
 11
24.07115
 21
107.845
 31
0.0
  0
LINE
  5
29C
330
1E
100
AcDbEntity
  8
0
100
AcDbLine
 10
24.07115
 20
106.95
 30
0.0
 11
24.07115
 21
107.438
 31
0.0
  0
LINE
  5
29D
330
1E
100
AcDbEntity
  8
0
100
AcDbLine
 10
18.59397
 20
107.963
 30
0.0
 11
18.59397
 21
108.46
 31
0.0
  0
LINE
  5
29E
330
1E
100
AcDbEntity
  8
0
100
AcDbLine
 10
18.59397
 20
107.963
 30
0.0
 11
18.59397
 21
107.386
 31
0.0
  0
LINE
  5
29F
330
1E
100
AcDbEntity
  8
0
100
AcDbLine
 10
18.3948
 20
107.229
 30
0.0
 11
18.3948
 21
107.844
 31
0.0
  0
LINE
  5
2A0
330
1E
100
AcDbEntity
  8
0
100
AcDbLine
 10
18.3948
 20
107.229
 30
0.0
 11
18.3948
 21
106.536
 31
0.0
  0
LINE
  5
2A1
330
1E
100
AcDbEntity
  8
0
100
AcDbLine
 10
0.36995
 20
106.536
 30
0.0
 11
0.36995
 21
105.772
 31
0.0
  0
LINE
  5
2A2
330
1E
100
AcDbEntity
  8
0
100
AcDbLine
 10
0.36995
 20
106.536
 30
0.0
 11
0.36995
 21
107.229
 31
0.0
  0
LINE
  5
2A3
330
1E
100
AcDbEntity
  8
0
100
AcDbLine
 10
26.60685
 20
106.705
 30
0.0
 11
26.60685
 21
105.774
 31
0.0
  0
LINE
  5
2A4
330
1E
100
AcDbEntity
  8
0
100
AcDbLine
 10
26.60685
 20
105.774
 30
0.0
 11
26.60685
 21
106.705
 31
0.0
  0
LINE
  5
2A5
330
1E
100
AcDbEntity
  8
0
100
AcDbLine
 10
26.60685
 20
105.774
 30
0.0
 11
26.60685
 21
104.613
 31
0.0
  0
LINE
  5
2A6
330
1E
100
AcDbEntity
  8
0
100
AcDbLine
 10
26.60685
 20
105.774
 30
0.0
 11
26.60685
 21
105.596
 31
0.0
  0
LINE
  5
2A7
330
1E
100
AcDbEntity
  8
0
100
AcDbLine
 10
26.60685
 20
104.613
 30
0.0
 11
26.60685
 21
105.774
 31
0.0
  0
LINE
  5
2A8
330
1E
100
AcDbEntity
  8
0
100
AcDbLine
 10
26.60685
 20
104.613
 30
0.0
 11
26.60685
 21
103.256
 31
0.0
  0
LINE
  5
2A9
330
1E
100
AcDbEntity
  8
0
100
AcDbLine
 10
26.60685
 20
103.415
 30
0.0
 11
26.60685
 21
101.961
 31
0.0
  0
LINE
  5
2AA
330
1E
100
AcDbEntity
  8
0
100
AcDbLine
 10
26.60685
 20
103.415
 30
0.0
 11
26.60685
 21
105.403
 31
0.0
  0
LINE
  5
2AB
330
1E
100
AcDbEntity
  8
0
100
AcDbLine
 10
26.60685
 20
107.703
 30
0.0
 11
26.60685
 21
108.563
 31
0.0
  0
LINE
  5
2AC
330
1E
100
AcDbEntity
  8
0
100
AcDbLine
 10
26.60685
 20
107.553
 30
0.0
 11
26.60685
 21
107.864
 31
0.0
  0
LINE
  5
2AD
330
1E
100
AcDbEntity
  8
0
100
AcDbLine
 10
26.60685
 20
107.864
 30
0.0
 11
26.60685
 21
107.553
 31
0.0
  0
LINE
  5
2AE
330
1E
100
AcDbEntity
  8
0
100
AcDbLine
 10
26.60685
 20
106.641
 30
0.0
 11
26.60685
 21
107.703
 31
0.0
  0
LINE
  5
2AF
330
1E
100
AcDbEntity
  8
0
100
AcDbLine
 10
26.60685
 20
106.641
 30
0.0
 11
26.60685
 21
105.403
 31
0.0
  0
LINE
  5
2B0
330
1E
100
AcDbEntity
  8
0
100
AcDbLine
 10
0.07115
 20
108.891
 30
0.0
 11
0.07115
 21
108.55
 31
0.0
  0
LINE
  5
2B1
330
1E
100
AcDbEntity
  8
0
100
AcDbLine
 10
0.07115
 20
108.891
 30
0.0
 11
0.07115
 21
109.131
 31
0.0
  0
LINE
  5
2B2
330
1E
100
AcDbEntity
  8
0
100
AcDbLine
 10
0.07115
 20
109.131
 30
0.0
 11
0.07115
 21
108.891
 31
0.0
  0
LINE
  5
2B3
330
1E
100
AcDbEntity
  8
0
100
AcDbLine
 10
0.07115
 20
109.131
 30
0.0
 11
0.07115
 21
109.266
 31
0.0
  0
LINE
  5
2B4
330
1E
100
AcDbEntity
  8
0
100
AcDbLine
 10
0.07115
 20
109.288
 30
0.0
 11
0.36995
 21
109.595
 31
0.0
  0
LINE
  5
2B5
330
1E
100
AcDbEntity
  8
0
100
AcDbLine
 10
0.07115
 20
109.266
 30
0.0
 11
0.07115
 21
109.131
 31
0.0
  0
LINE
  5
2B6
330
1E
100
AcDbEntity
  8
0
100
AcDbLine
 10
0.36995
 20
109.553
 30
0.0
 11
0.36995
 21
109.407
 31
0.0
  0
LINE
  5
2B7
330
1E
100
AcDbEntity
  8
0
100
AcDbLine
 10
0.36995
 20
109.407
 30
0.0
 11
0.36995
 21
109.159
 31
0.0
  0
LINE
  5
2B8
330
1E
100
AcDbEntity
  8
0
100
AcDbLine
 10
0.36995
 20
109.407
 30
0.0
 11
0.36995
 21
109.553
 31
0.0
  0
LINE
  5
2B9
330
1E
100
AcDbEntity
  8
0
100
AcDbLine
 10
0.36995
 20
109.159
 30
0.0
 11
0.36995
 21
108.814
 31
0.0
  0
LINE
  5
2BA
330
1E
100
AcDbEntity
  8
0
100
AcDbLine
 10
0.36995
 20
109.159
 30
0.0
 11
0.36995
 21
109.407
 31
0.0
  0
LINE
  5
2BB
330
1E
100
AcDbEntity
  8
0
100
AcDbLine
 10
24.05714
 20
108.705
 30
0.0
 11
24.07115
 21
108.598
 31
0.0
  0
LINE
  5
2BC
330
1E
100
AcDbEntity
  8
0
100
AcDbLine
 10
24.05714
 20
108.705
 30
0.0
 11
24.07115
 21
108.595
 31
0.0
  0
LINE
  5
2BD
330
1E
100
AcDbEntity
  8
0
100
AcDbLine
 10
18.3948
 20
109.553
 30
0.0
 11
18.3948
 21
109.407
 31
0.0
  0
LINE
  5
2BE
330
1E
100
AcDbEntity
  8
0
100
AcDbLine
 10
18.3948
 20
109.407
 30
0.0
 11
18.3948
 21
109.553
 31
0.0
  0
LINE
  5
2BF
330
1E
100
AcDbEntity
  8
0
100
AcDbLine
 10
18.3948
 20
109.407
 30
0.0
 11
18.3948
 21
109.159
 31
0.0
  0
LINE
  5
2C0
330
1E
100
AcDbEntity
  8
0
100
AcDbLine
 10
23.32725
 20
109.098
 30
0.0
 11
23.43381
 21
109.098
 31
0.0
  0
LINE
  5
2C1
330
1E
100
AcDbEntity
  8
0
100
AcDbLine
 10
23.43381
 20
109.098
 30
0.0
 11
23.51945
 21
109.098
 31
0.0
  0
LINE
  5
2C2
330
1E
100
AcDbEntity
  8
0
100
AcDbLine
 10
23.51945
 20
109.098
 30
0.0
 11
23.59016
 21
109.098
 31
0.0
  0
LINE
  5
2C3
330
1E
100
AcDbEntity
  8
0
100
AcDbLine
 10
23.59016
 20
109.098
 30
0.0
 11
23.68078
 21
109.098
 31
0.0
  0
LINE
  5
2C4
330
1E
100
AcDbEntity
  8
0
100
AcDbLine
 10
23.0753
 20
109.098
 30
0.0
 11
23.17987
 21
109.098
 31
0.0
  0
LINE
  5
2C5
330
1E
100
AcDbEntity
  8
0
100
AcDbLine
 10
23.17987
 20
109.098
 30
0.0
 11
23.32725
 21
109.098
 31
0.0
  0
LINE
  5
2C6
330
1E
100
AcDbEntity
  8
0
100
AcDbLine
 10
23.68078
 20
109.098
 30
0.0
 11
23.80128
 21
109.098
 31
0.0
  0
LINE
  5
2C7
330
1E
100
AcDbEntity
  8
0
100
AcDbLine
 10
23.80128
 20
109.098
 30
0.0
 11
23.88194
 21
109.098
 31
0.0
  0
LINE
  5
2C8
330
1E
100
AcDbEntity
  8
0
100
AcDbLine
 10
23.88194
 20
109.098
 30
0.0
 11
23.93273
 21
109.098
 31
0.0
  0
LINE
  5
2CA
330
1E
100
AcDbEntity
  8
0
100
AcDbLine
 10
21.0836
 20
109.098
 30
0.0
 11
21.0836
 21
109.342
 31
0.0
  0
LINE
  5
2CB
330
1E
100
AcDbEntity
  8
0
100
AcDbLine
 10
21.0836
 20
109.098
 30
0.0
 11
23.0753
 21
109.098
 31
0.0
  0
LINE
  5
2CC
330
1E
100
AcDbEntity
  8
0
100
AcDbLine
 10
18.59397
 20
108.871
 30
0.0
 11
18.59397
 21
109.194
 31
0.0
  0
LINE
  5
2CD
330
1E
100
AcDbEntity
  8
0
100
AcDbLine
 10
18.59397
 20
108.871
 30
0.0
 11
18.59397
 21
108.46
 31
0.0
  0
LINE
  5
2CE
330
1E
100
AcDbEntity
  8
0
100
AcDbLine
 10
18.59397
 20
109.194
 30
0.0
 11
18.59397
 21
109.423
 31
0.0
  0
LINE
  5
2CF
330
1E
100
AcDbEntity
  8
0
100
AcDbLine
 10
18.59397
 20
109.194
 30
0.0
 11
18.59397
 21
108.871
 31
0.0
  0
LINE
  5
2D1
330
1E
100
AcDbEntity
  8
0
100
AcDbLine
 10
24.03729
 20
108.852
 30
0.0
 11
24.05714
 21
108.705
 31
0.0
  0
LINE
  5
2D2
330
1E
100
AcDbEntity
  8
0
100
AcDbLine
 10
24.03729
 20
108.82
 30
0.0
 11
24.07115
 21
108.598
 31
0.0
  0
LINE
  5
2D3
330
1E
100
AcDbEntity
  8
0
100
AcDbLine
 10
24.03729
 20
108.82
 30
0.0
 11
24.07115
 21
108.546
 31
0.0
  0
LINE
  5
2D4
330
1E
100
AcDbEntity
  8
0
100
AcDbLine
 10
24.01839
 20
108.9
 30
0.0
 11
24.03729
 21
108.852
 31
0.0
  0
LINE
  5
2D5
330
1E
100
AcDbEntity
  8
0
100
AcDbLine
 10
23.93457
 20
109.098
 30
0.0
 11
24.01839
 21
108.9
 31
0.0
  0
LINE
  5
2D6
330
1E
100
AcDbEntity
  8
0
100
AcDbLine
 10
23.93771
 20
109.06
 30
0.0
 11
24.01839
 21
108.9
 31
0.0
  0
LINE
  5
2D7
330
1E
100
AcDbEntity
  8
0
100
AcDbLine
 10
23.93273
 20
109.098
 30
0.0
 11
24.01839
 21
108.9
 31
0.0
  0
LINE
  5
2D8
330
1E
100
AcDbEntity
  8
0
100
AcDbLine
 10
18.59397
 20
109.423
 30
0.0
 11
18.59397
 21
109.558
 31
0.0
  0
LINE
  5
2D9
330
1E
100
AcDbEntity
  8
0
100
AcDbLine
 10
18.59397
 20
109.423
 30
0.0
 11
18.59397
 21
109.194
 31
0.0
  0
LINE
  5
2DA
330
1E
100
AcDbEntity
  8
0
100
AcDbLine
 10
18.59397
 20
109.423
 30
0.0
 11
18.59397
 21
106.835
 31
0.0
  0
LINE
  5
2DB
330
1E
100
AcDbEntity
  8
0
100
AcDbLine
 10
18.59397
 20
109.558
 30
0.0
 11
18.59397
 21
106.835
 31
0.0
  0
LINE
  5
2DC
330
1E
100
AcDbEntity
  8
0
100
AcDbLine
 10
18.59397
 20
109.558
 30
0.0
 11
18.59397
 21
109.423
 31
0.0
  0
LINE
  5
2DD
330
1E
100
AcDbEntity
  8
0
100
AcDbLine
 10
18.59397
 20
109.594
 30
0.0
 11
21.0836
 21
109.588
 31
0.0
  0
LINE
  5
2DE
330
1E
100
AcDbEntity
  8
0
100
AcDbLine
 10
21.0836
 20
109.588
 30
0.0
 11
21.0836
 21
109.506
 31
0.0
  0
LINE
  5
2DF
330
1E
100
AcDbEntity
  8
0
100
AcDbLine
 10
21.0836
 20
109.506
 30
0.0
 11
21.0836
 21
109.342
 31
0.0
  0
LINE
  5
2E0
330
1E
100
AcDbEntity
  8
0
100
AcDbLine
 10
21.0836
 20
109.506
 30
0.0
 11
21.0836
 21
109.588
 31
0.0
  0
LINE
  5
2E1
330
1E
100
AcDbEntity
  8
0
100
AcDbLine
 10
21.0836
 20
109.342
 30
0.0
 11
21.0836
 21
109.098
 31
0.0
  0
LINE
  5
2E2
330
1E
100
AcDbEntity
  8
0
100
AcDbLine
 10
21.0836
 20
109.342
 30
0.0
 11
21.0836
 21
109.506
 31
0.0
  0
LINE
  5
2E3
330
1E
100
AcDbEntity
  8
0
100
AcDbLine
 10
18.3948
 20
109.159
 30
0.0
 11
18.3948
 21
109.407
 31
0.0
  0
LINE
  5
2E4
330
1E
100
AcDbEntity
  8
0
100
AcDbLine
 10
18.3948
 20
109.159
 30
0.0
 11
18.3948
 21
108.814
 31
0.0
  0
LINE
  5
2E5
330
1E
100
AcDbEntity
  8
0
100
AcDbLine
 10
18.3948
 20
108.814
 30
0.0
 11
18.3948
 21
109.159
 31
0.0
  0
LINE
  5
2E6
330
1E
100
AcDbEntity
  8
0
100
AcDbLine
 10
18.3948
 20
108.814
 30
0.0
 11
18.3948
 21
108.374
 31
0.0
  0
LINE
  5
2E7
330
1E
100
AcDbEntity
  8
0
100
AcDbLine
 10
0.36995
 20
108.814
 30
0.0
 11
0.36995
 21
108.374
 31
0.0
  0
LINE
  5
2E8
330
1E
100
AcDbEntity
  8
0
100
AcDbLine
 10
0.36995
 20
108.814
 30
0.0
 11
0.36995
 21
109.159
 31
0.0
  0
LINE
  5
2E9
330
1E
100
AcDbEntity
  8
0
100
AcDbLine
 10
0.36995
 20
109.595
 30
0.0
 11
18.3948
 21
109.595
 31
0.0
  0
LINE
  5
2EA
330
1E
100
AcDbEntity
  8
0
100
AcDbLine
 10
26.60685
 20
109.372
 30
0.0
 11
26.60685
 21
109.595
 31
0.0
  0
LINE
  5
2EB
330
1E
100
AcDbEntity
  8
0
100
AcDbLine
 10
26.60685
 20
109.372
 30
0.0
 11
26.60685
 21
108.563
 31
0.0
  0
LINE
  5
2EC
330
1E
100
AcDbEntity
  8
0
100
AcDbLine
 10
26.60685
 20
108.563
 30
0.0
 11
26.60685
 21
107.703
 31
0.0
  0
LINE
  5
2ED
330
1E
100
AcDbEntity
  8
0
100
AcDbLine
 10
26.60685
 20
108.563
 30
0.0
 11
26.60685
 21
109.372
 31
0.0
  0
LINE
  5
2EE
330
1E
100
AcDbEntity
  8
0
100
AcDbLine
 10
26.60685
 20
109.595
 30
0.0
 11
26.60685
 21
109.372
 31
0.0
  0
LINE
  5
2EF
330
1E
100
AcDbEntity
  8
0
100
AcDbLine
 10
26.60685
 20
109.595
 30
0.0
 11
26.60685
 21
109.69
 31
0.0
  0
LINE
  5
2F0
330
1E
100
AcDbEntity
  8
0
100
AcDbLine
 10
26.79685
 20
111.186
 30
0.0
 11
26.98285
 21
111.845
 31
0.0
  0
LINE
  5
2F1
330
1E
100
AcDbEntity
  8
0
100
AcDbLine
 10
26.60685
 20
109.69
 30
0.0
 11
26.60685
 21
109.595
 31
0.0
  0
LINE
  5
2F2
330
1E
100
AcDbEntity
  8
0
100
AcDbLine
 10
26.60685
 20
109.69
 30
0.0
 11
26.79685
 21
111.186
 31
0.0
  0
LINE
  5
2F4
330
1E
100
AcDbEntity
  8
0
100
AcDbLine
 10
26.98285
 20
111.845
 30
0.0
 11
27.16285
 21
112.101
 31
0.0
  0
LINE
  5
2F6
330
1E
100
AcDbEntity
  8
0
100
AcDbLine
 10
27.16285
 20
112.101
 30
0.0
 11
27.46085
 21
112.2
 31
0.0
  0
LINE
  5
2FD
330
1E
100
AcDbEntity
  8
0
100
AcDbLine
 10
26.60685
 20
95.1721
 30
0.0
 11
26.60685
 21
96.7936
 31
0.0
  0
LINE
  5
2FE
330
1E
100
AcDbEntity
  8
0
100
AcDbLine
 10
26.60685
 20
95.1721
 30
0.0
 11
26.60685
 21
93.6514
 31
0.0
  0
LINE
  5
3DE
330
1E
100
AcDbEntity
  8
0
100
AcDbLine
 10
143.06485
 20
112.134
 30
0.0
 11
143.24785
 21
111.957
 31
0.0
  0
LINE
  5
3E2
330
1E
100
AcDbEntity
  8
0
100
AcDbLine
 10
144.21985
 20
67.7259
 30
0.0
 11
144.37375684447
 21
60.263145569003
 31
0.0
  0
LINE
  5
3E3
330
1E
100
AcDbEntity
  8
0
100
AcDbLine
 10
143.31785
 20
111.711
 30
0.0
 11
144.21985
 21
67.7259
 31
0.0
  0
LINE
  5
3E7
330
1E
100
AcDbEntity
  8
0
100
AcDbLine
 10
144.16085
 20
67.7259
 30
0.0
 11
144.21985
 21
67.7259
 31
0.0
  0
LINE
  5
3E9
330
1E
100
AcDbEntity
  8
0
100
AcDbLine
 10
143.24785
 20
111.957
 30
0.0
 11
143.31685
 21
111.715
 31
0.0
  0
LINE
  5
3EE
330
1E
100
AcDbEntity
  8
0
100
AcDbLine
 10
142.81785
 20
112.2
 30
0.0
 11
143.06485
 21
112.134
 31
0.0
  0
LINE
  5
419
330
1E
100
AcDbEntity
  8
0
100
AcDbLine
 10
147.55885
 20
60.6615
 30
0.0
 11
155.97885
 21
59.8285
 31
0.0
  0
LINE
  5
41A
330
1E
100
AcDbEntity
  8
0
100
AcDbLine
 10
155.03885
 20
59.8285
 30
0.0
 11
155.97885
 21
59.8285
 31
0.0
  0
LINE
  5
41B
330
1E
100
AcDbEntity
  8
0
100
AcDbLine
 10
154.24085
 20
59.0495
 30
0.0
 11
155.03885
 21
59.8285
 31
0.0
  0
LINE
  5
41C
330
1E
100
AcDbEntity
  8
0
100
AcDbLine
 10
156.70085
 20
59.0495
 30
0.0
 11
156.92885
 21
57.7885
 31
0.0
  0
LINE
  5
41D
330
1E
100
AcDbEntity
  8
0
100
AcDbLine
 10
156.57585
 20
56.5285
 30
0.0
 11
156.92885
 21
57.7885
 31
0.0
  0
LINE
  5
41E
330
1E
100
AcDbEntity
  8
0
100
AcDbLine
 10
155.97885
 20
59.8285
 30
0.0
 11
156.70085
 21
59.0495
 31
0.0
  0
LINE
  5
423
330
1E
100
AcDbEntity
  8
0
100
AcDbLine
 10
99.22435
 20
58.2221
 30
0.0
 11
98.03205
 21
0.2
 31
0.0
  0
LINE
  5
55C
330
1E
100
AcDbEntity
  8
0
100
AcDbLine
 10
143.706498350035
 20
121.151430512375
 30
0.0
 11
143.904498350035
 21
121.211430512375
 31
0.0
  0
LINE
  5
55D
330
1E
100
AcDbEntity
  8
0
100
AcDbLine
 10
144.218498350035
 20
121.493430512375
 30
0.0
 11
144.258498350035
 21
121.703430512375
 31
0.0
  0
LINE
  5
55E
330
1E
100
AcDbEntity
  8
0
100
AcDbLine
 10
144.092498350035
 20
121.318430512375
 30
0.0
 11
144.163498350035
 21
121.398430512375
 31
0.0
  0
LINE
  5
55F
330
1E
100
AcDbEntity
  8
0
100
AcDbLine
 10
144.163498350035
 20
121.398430512375
 30
0.0
 11
144.218498350035
 21
121.493430512375
 31
0.0
  0
LINE
  5
560
330
1E
100
AcDbEntity
  8
0
100
AcDbLine
 10
143.904498350035
 20
121.211430512375
 30
0.0
 11
144.092498350035
 21
121.318430512375
 31
0.0
  0
LINE
  5
561
330
1E
100
AcDbEntity
  8
0
100
AcDbLine
 10
143.906498350035
 20
121.212430512375
 30
0.0
 11
144.092498350035
 21
121.318430512375
 31
0.0
  0
LINE
  5
562
330
1E
100
AcDbEntity
  8
0
100
AcDbLine
 10
143.393498350035
 20
151.376430512375
 30
0.0
 11
144.258498350035
 21
121.703430512375
 31
0.0
  0
LINE
  5
563
330
1E
100
AcDbEntity
  8
0
100
AcDbLine
 10
143.282498350035
 20
152.160430512375
 30
0.0
 11
143.347498350035
 21
151.938430512375
 31
0.0
  0
LINE
  5
564
330
1E
100
AcDbEntity
  8
0
100
AcDbLine
 10
143.347498350035
 20
151.938430512375
 30
0.0
 11
143.393498350035
 21
151.376430512375
 31
0.0
  0
LINE
  5
565
330
1E
100
AcDbEntity
  8
0
100
AcDbLine
 10
143.109498350035
 20
152.420430512375
 30
0.0
 11
143.282498350035
 21
152.160430512375
 31
0.0
  0
LINE
  5
566
330
1E
100
AcDbEntity
  8
0
100
AcDbLine
 10
143.176498350035
 20
120.989430512375
 30
0.0
 11
143.706498350035
 21
121.151430512375
 31
0.0
  0
LINE
  5
56F
330
1E
100
AcDbEntity
  8
0
100
AcDbLine
 10
141.878498350035
 20
117.360430512375
 30
0.0
 11
142.408498350035
 21
115.338430512375
 31
0.0
  0
LINE
  5
570
330
1E
100
AcDbEntity
  8
0
100
AcDbLine
 10
141.144498350035
 20
119.315430512375
 30
0.0
 11
141.878498350035
 21
117.360430512375
 31
0.0
  0
LINE
  5
571
330
1E
100
AcDbEntity
  8
0
100
AcDbLine
 10
142.844498350035
 20
152.585430512375
 30
0.0
 11
143.109498350035
 21
152.420430512375
 31
0.0
  0
LINE
  5
572
330
1E
100
AcDbEntity
  8
0
100
AcDbLine
 10
142.620498350035
 20
152.644430512375
 30
0.0
 11
142.844498350035
 21
152.585430512375
 31
0.0
  0
LINE
  5
573
330
1E
100
AcDbEntity
  8
0
100
AcDbLine
 10
142.058498350035
 20
152.673430512375
 30
0.0
 11
142.620498350035
 21
152.644430512375
 31
0.0
  0
LINE
  5
574
330
1E
100
AcDbEntity
  8
0
100
AcDbLine
 10
141.657498350035
 20
152.664430512375
 30
0.0
 11
141.879498350035
 21
152.669430512375
 31
0.0
  0
LINE
  5
575
330
1E
100
AcDbEntity
  8
0
100
AcDbLine
 10
141.879498350035
 20
152.669430512375
 30
0.0
 11
142.013498350035
 21
152.672430512375
 31
0.0
  0
LINE
  5
576
330
1E
100
AcDbEntity
  8
0
100
AcDbLine
 10
142.314498350035
 20
120.725430512375
 30
0.0
 11
143.176498350035
 21
120.989430512375
 31
0.0
  0
LINE
  5
577
330
1E
100
AcDbEntity
  8
0
100
AcDbLine
 10
140.689692203906
 20
120.228950913299
 30
0.0
 11
141.144498350035
 21
119.315430512375
 31
0.0
  0
LINE
  5
578
330
1E
100
AcDbEntity
  8
0
100
AcDbLine
 10
141.133498350035
 20
120.364430512375
 30
0.0
 11
142.314498350035
 21
120.725430512375
 31
0.0
  0
LINE
  5
579
330
1E
100
AcDbEntity
  8
0
100
AcDbLine
 10
142.408498350035
 20
115.338430512375
 30
0.0
 11
142.729498350035
 21
113.274430512375
 31
0.0
  0
LINE
  5
57A
330
1E
100
AcDbEntity
  8
0
100
AcDbLine
 10
142.729498350035
 20
113.274430512375
 30
0.0
 11
142.785215647591
 21
112.177430512375
 31
0.0
  0
LINE
  5
57B
330
1E
100
AcDbEntity
  8
0
100
AcDbLine
 10
124.372498350035
 20
115.239430512375
 30
0.0
 11
141.133498350035
 21
120.364430512375
 31
0.0
  0
LINE
  5
57C
330
1E
100
AcDbEntity
  8
0
100
AcDbLine
 10
120.732498350035
 20
114.685430512375
 30
0.0
 11
122.484498350035
 21
114.685430512375
 31
0.0
  0
LINE
  5
57D
330
1E
100
AcDbEntity
  8
0
100
AcDbLine
 10
122.630498350035
 20
114.707430512375
 30
0.0
 11
124.372498350035
 21
115.239430512375
 31
0.0
  0
LINE
  5
57E
330
1E
100
AcDbEntity
  8
0
100
AcDbLine
 10
122.484498350035
 20
114.685430512375
 30
0.0
 11
122.630498350035
 21
114.707430512375
 31
0.0
  0
LINE
  5
57F
330
1E
100
AcDbEntity
  8
0
100
AcDbLine
 10
118.364498350035
 20
114.685430512375
 30
0.0
 11
120.732498350035
 21
114.685430512375
 31
0.0
  0
LINE
  5
580
330
1E
100
AcDbEntity
  8
0
100
AcDbLine
 10
111.727498350035
 20
114.685430512375
 30
0.0
 11
113.837498350035
 21
114.685430512375
 31
0.0
  0
LINE
  5
581
330
1E
100
AcDbEntity
  8
0
100
AcDbLine
 10
113.837498350035
 20
114.685430512375
 30
0.0
 11
116.057498350035
 21
114.685430512375
 31
0.0
  0
LINE
  5
582
330
1E
100
AcDbEntity
  8
0
100
AcDbLine
 10
116.057498350035
 20
114.685430512375
 30
0.0
 11
118.364498350035
 21
114.685430512375
 31
0.0
  0
LINE
  5
583
330
1E
100
AcDbEntity
  8
0
100
AcDbLine
 10
107.475498350035
 20
114.685430512375
 30
0.0
 11
109.498498350035
 21
114.685430512375
 31
0.0
  0
LINE
  5
584
330
1E
100
AcDbEntity
  8
0
100
AcDbLine
 10
109.498498350035
 20
114.685430512375
 30
0.0
 11
111.727498350035
 21
114.685430512375
 31
0.0
  0
LINE
  5
585
330
1E
100
AcDbEntity
  8
0
100
AcDbLine
 10
105.684498350035
 20
114.685430512375
 30
0.0
 11
107.475498350035
 21
114.685430512375
 31
0.0
  0
LINE
  5
58B
330
1E
100
AcDbEntity
  8
0
100
AcDbLine
 10
102.256498350035
 20
113.274430512375
 30
0.0
 11
102.475941663989
 21
114.685430512375
 31
0.0
  0
LINE
  5
58C
330
1E
100
AcDbEntity
  8
0
100
AcDbLine
 10
104.153498350035
 20
114.685430512375
 30
0.0
 11
105.684498350035
 21
114.685430512375
 31
0.0
  0
LINE
  5
58D
330
1E
100
AcDbEntity
  8
0
100
AcDbLine
 10
102.971498350035
 20
114.685430512375
 30
0.0
 11
104.153498350035
 21
114.685430512375
 31
0.0
  0
LINE
  5
58E
330
1E
100
AcDbEntity
  8
0
100
AcDbLine
 10
102.056498350035
 20
114.685430512375
 30
0.0
 11
102.971498350035
 21
114.685430512375
 31
0.0
  0
LINE
  5
591
330
1E
100
AcDbEntity
  8
0
100
AcDbLine
 10
102.200651290599
 20
112.185151885813
 30
0.0
 11
102.256498350035
 21
113.274430512375
 31
0.0
  0
LINE
  5
5A7
330
1E
100
AcDbEntity
  8
0
100
AcDbLine
 10
100.523498350035
 20
115.170430512375
 30
0.0
 11
100.594498350035
 21
114.926430512375
 31
0.0
  0
LINE
  5
5A8
330
1E
100
AcDbEntity
  8
0
100
AcDbLine
 10
100.594498350035
 20
114.926430512375
 30
0.0
 11
100.776498350035
 21
114.749430512375
 31
0.0
  0
LINE
  5
5A9
330
1E
100
AcDbEntity
  8
0
100
AcDbLine
 10
100.776498350035
 20
114.749430512375
 30
0.0
 11
101.021498350035
 21
114.685430512375
 31
0.0
  0
LINE
  5
5AA
330
1E
100
AcDbEntity
  8
0
100
AcDbLine
 10
101.869498350035
 20
114.685430512375
 30
0.0
 11
102.475941663989
 21
114.685430512375
 31
0.0
  0
LINE
  5
5AB
330
1E
100
AcDbEntity
  8
0
100
AcDbLine
 10
101.324498350035
 20
114.685430512375
 30
0.0
 11
101.869498350035
 21
114.685430512375
 31
0.0
  0
LINE
  5
5AC
330
1E
100
AcDbEntity
  8
0
100
AcDbLine
 10
101.422498350035
 20
114.685430512375
 30
0.0
 11
102.056498350035
 21
114.685430512375
 31
0.0
  0
LINE
  5
5AD
330
1E
100
AcDbEntity
  8
0
100
AcDbLine
 10
101.143498350035
 20
114.685430512375
 30
0.0
 11
101.324498350035
 21
114.685430512375
 31
0.0
  0
LINE
  5
5AE
330
1E
100
AcDbEntity
  8
0
100
AcDbLine
 10
101.021498350035
 20
114.685430512375
 30
0.0
 11
101.081498350035
 21
114.685430512375
 31
0.0
  0
LINE
  5
5AF
330
1E
100
AcDbEntity
  8
0
100
AcDbLine
 10
101.081498350035
 20
114.685430512375
 30
0.0
 11
101.422498350035
 21
114.685430512375
 31
0.0
  0
LINE
  5
5B0
330
1E
100
AcDbEntity
  8
0
100
AcDbLine
 10
99.798498350035
 20
134.075430512375
 30
0.0
 11
100.010498350035
 21
131.973430512375
 31
0.0
  0
LINE
  5
5B1
330
1E
100
AcDbEntity
  8
0
100
AcDbLine
 10
86.953398350035
 20
142.215430512375
 30
0.0
 11
88.352198350035
 21
142.057430512375
 31
0.0
  0
LINE
  5
5B2
330
1E
100
AcDbEntity
  8
0
100
AcDbLine
 10
88.47626353004
 20
142.039247737318
 30
0.0
 11
90.467398350035
 21
141.747430512375
 31
0.0
  0
LINE
  5
5B3
330
1E
100
AcDbEntity
  8
0
100
AcDbLine
 10
90.467398350035
 20
141.747430512375
 30
0.0
 11
92.018798350035
 21
141.444430512375
 31
0.0
  0
LINE
  5
5B4
330
1E
100
AcDbEntity
  8
0
100
AcDbLine
 10
92.018798350035
 20
141.444430512375
 30
0.0
 11
93.498498350035
 21
141.059430512375
 31
0.0
  0
LINE
  5
5B5
330
1E
100
AcDbEntity
  8
0
100
AcDbLine
 10
93.498498350035
 20
141.059430512375
 30
0.0
 11
94.540098350035
 21
140.707430512375
 31
0.0
  0
LINE
  5
5B6
330
1E
100
AcDbEntity
  8
0
100
AcDbLine
 10
98.096498350035
 20
138.315430512375
 30
0.0
 11
98.825498350035
 21
137.206430512375
 31
0.0
  0
LINE
  5
5B7
330
1E
100
AcDbEntity
  8
0
100
AcDbLine
 10
94.540098350035
 20
140.707430512375
 30
0.0
 11
95.508498350035
 21
140.289430512375
 31
0.0
  0
LINE
  5
5B8
330
1E
100
AcDbEntity
  8
0
100
AcDbLine
 10
95.508498350035
 20
140.289430512375
 30
0.0
 11
96.395498350035
 21
139.801430512375
 31
0.0
  0
LINE
  5
5B9
330
1E
100
AcDbEntity
  8
0
100
AcDbLine
 10
96.395498350035
 20
139.801430512375
 30
0.0
 11
97.190498350035
 21
139.228430512375
 31
0.0
  0
LINE
  5
5BA
330
1E
100
AcDbEntity
  8
0
100
AcDbLine
 10
97.190498350035
 20
139.228430512375
 30
0.0
 11
98.096498350035
 21
138.315430512375
 31
0.0
  0
LINE
  5
5BB
330
1E
100
AcDbEntity
  8
0
100
AcDbLine
 10
98.825498350035
 20
137.206430512375
 30
0.0
 11
99.380498350035
 21
135.870430512375
 31
0.0
  0
LINE
  5
5BC
330
1E
100
AcDbEntity
  8
0
100
AcDbLine
 10
99.380498350035
 20
135.870430512375
 30
0.0
 11
99.798498350035
 21
134.075430512375
 31
0.0
  0
LINE
  5
5BD
330
1E
100
AcDbEntity
  8
0
100
AcDbLine
 10
100.010498350035
 20
131.973430512375
 30
0.0
 11
100.523498350035
 21
115.170430512375
 31
0.0
  0
LINE
  5
5C1
330
1E
100
AcDbEntity
  8
0
100
AcDbLine
 10
84.714498350035
 20
152.673430512375
 30
0.0
 11
142.058498350035
 21
152.673430512375
 31
0.0
  0
LINE
  5
5C2
330
1E
100
AcDbEntity
  8
0
100
AcDbLine
 10
79.133198350035
 20
152.681430512375
 30
0.0
 11
84.714498350035
 21
152.673430512375
 31
0.0
  0
LINE
  5
5C3
330
1E
100
AcDbEntity
  8
0
100
AcDbLine
 10
76.489298350035
 20
152.685430512375
 30
0.0
 11
77.434198350035
 21
152.639430512375
 31
0.0
  0
LINE
  5
5C4
330
1E
100
AcDbEntity
  8
0
100
AcDbLine
 10
76.489298350035
 20
152.685430512375
 30
0.0
 11
79.133198350035
 21
152.681430512375
 31
0.0
  0
LINE
  5
5C5
330
1E
100
AcDbEntity
  8
0
100
AcDbLine
 10
72.142298350035
 20
152.725430512375
 30
0.0
 11
76.489298350035
 21
152.685430512375
 31
0.0
  0
LINE
  5
5C6
330
1E
100
AcDbEntity
  8
0
100
AcDbLine
 10
71.799098350035
 20
143.455430512375
 30
0.0
 11
78.159498350035
 21
142.980430512375
 31
0.0
  0
LINE
  5
5C7
330
1E
100
AcDbEntity
  8
0
100
AcDbLine
 10
78.159498350035
 20
142.980430512375
 30
0.0
 11
84.306498350035
 21
142.464430512375
 31
0.0
  0
LINE
  5
5C8
330
1E
100
AcDbEntity
  8
0
100
AcDbLine
 10
84.306498350035
 20
142.464430512375
 30
0.0
 11
86.953398350035
 21
142.215430512375
 31
0.0
  0
LINE
  5
5C9
330
1E
100
AcDbEntity
  8
0
100
AcDbLine
 10
49.717498350035
 20
154.475430512375
 30
0.0
 11
53.078798350035
 21
153.966430512375
 31
0.0
  0
LINE
  5
5CA
330
1E
100
AcDbEntity
  8
0
100
AcDbLine
 10
52.070098350035
 20
146.297430512375
 30
0.0
 11
54.485598350035
 21
145.635430512375
 31
0.0
  0
LINE
  5
5CB
330
1E
100
AcDbEntity
  8
0
100
AcDbLine
 10
67.927898350035
 20
143.723430512375
 30
0.0
 11
71.799098350035
 21
143.455430512375
 31
0.0
  0
LINE
  5
5CC
330
1E
100
AcDbEntity
  8
0
100
AcDbLine
 10
65.237998350035
 20
152.920430512375
 30
0.0
 11
72.142298350035
 21
152.725430512375
 31
0.0
  0
LINE
  5
5CD
330
1E
100
AcDbEntity
  8
0
100
AcDbLine
 10
65.787798350035
 20
143.894430512375
 30
0.0
 11
67.927898350035
 21
143.723430512375
 31
0.0
  0
LINE
  5
5CE
330
1E
100
AcDbEntity
  8
0
100
AcDbLine
 10
60.888998350035
 20
153.170430512375
 30
0.0
 11
65.237998350035
 21
152.920430512375
 31
0.0
  0
LINE
  5
5CF
330
1E
100
AcDbEntity
  8
0
100
AcDbLine
 10
59.423998350035
 20
153.300430512375
 30
0.0
 11
60.888998350035
 21
153.170430512375
 31
0.0
  0
LINE
  5
5D0
330
1E
100
AcDbEntity
  8
0
100
AcDbLine
 10
56.331398350035
 20
153.573430512375
 30
0.0
 11
59.423998350035
 21
153.300430512375
 31
0.0
  0
LINE
  5
5D1
330
1E
100
AcDbEntity
  8
0
100
AcDbLine
 10
53.078798350035
 20
153.966430512375
 30
0.0
 11
56.331398350035
 21
153.573430512375
 31
0.0
  0
LINE
  5
5D2
330
1E
100
AcDbEntity
  8
0
100
AcDbLine
 10
54.485598350035
 20
145.635430512375
 30
0.0
 11
56.870198350035
 21
145.102430512375
 31
0.0
  0
LINE
  5
5D3
330
1E
100
AcDbEntity
  8
0
100
AcDbLine
 10
56.870198350035
 20
145.102430512375
 30
0.0
 11
59.662798350035
 21
144.609430512375
 31
0.0
  0
LINE
  5
5D4
330
1E
100
AcDbEntity
  8
0
100
AcDbLine
 10
59.662798350035
 20
144.609430512375
 30
0.0
 11
62.365598350035
 21
144.241430512375
 31
0.0
  0
LINE
  5
5D5
330
1E
100
AcDbEntity
  8
0
100
AcDbLine
 10
62.365598350035
 20
144.241430512375
 30
0.0
 11
65.787798350035
 21
143.894430512375
 31
0.0
  0
LINE
  5
5D6
330
1E
100
AcDbEntity
  8
0
100
AcDbLine
 10
50.134498350035
 20
146.930430512375
 30
0.0
 11
52.070098350035
 21
146.297430512375
 31
0.0
  0
LINE
  5
5DC
330
1E
100
AcDbEntity
  8
0
100
AcDbLine
 10
38.767498350035
 20
153.260430512375
 30
0.0
 11
38.968098350035
 21
152.999430512375
 31
0.0
  0
LINE
  5
5DD
330
1E
100
AcDbEntity
  8
0
100
AcDbLine
 10
40.948498350035
 20
156.359430512375
 30
0.0
 11
45.424298350035
 21
155.293430512375
 31
0.0
  0
LINE
  5
5DE
330
1E
100
AcDbEntity
  8
0
100
AcDbLine
 10
45.424298350035
 20
155.293430512375
 30
0.0
 11
46.804298350035
 21
155.030430512375
 31
0.0
  0
LINE
  5
5DF
330
1E
100
AcDbEntity
  8
0
100
AcDbLine
 10
45.424298350035
 20
155.293430512375
 30
0.0
 11
49.717498350035
 21
154.475430512375
 31
0.0
  0
LINE
  5
5E0
330
1E
100
AcDbEntity
  8
0
100
AcDbLine
 10
46.804298350035
 20
155.030430512375
 30
0.0
 11
49.717498350035
 21
154.475430512375
 31
0.0
  0
LINE
  5
5E1
330
1E
100
AcDbEntity
  8
0
100
AcDbLine
 10
39.547698350035
 20
152.511430512375
 30
0.0
 11
40.963498350035
 21
151.514430512375
 31
0.0
  0
LINE
  5
5E2
330
1E
100
AcDbEntity
  8
0
100
AcDbLine
 10
38.968098350035
 20
152.999430512375
 30
0.0
 11
39.547698350035
 21
152.511430512375
 31
0.0
  0
LINE
  5
5E3
330
1E
100
AcDbEntity
  8
0
100
AcDbLine
 10
40.629698350035
 20
156.431430512375
 30
0.0
 11
40.948498350035
 21
156.359430512375
 31
0.0
  0
LINE
  5
5E4
330
1E
100
AcDbEntity
  8
0
100
AcDbLine
 10
40.478598350035
 20
156.465430512375
 30
0.0
 11
40.629698350035
 21
156.431430512375
 31
0.0
  0
LINE
  5
5E5
330
1E
100
AcDbEntity
  8
0
100
AcDbLine
 10
40.020698350035
 20
156.423430512375
 30
0.0
 11
40.478598350035
 21
156.465430512375
 31
0.0
  0
LINE
  5
5E6
330
1E
100
AcDbEntity
  8
0
100
AcDbLine
 10
39.047898350035
 20
155.149430512375
 30
0.0
 11
39.398098350035
 21
155.734430512375
 31
0.0
  0
LINE
  5
5E7
330
1E
100
AcDbEntity
  8
0
100
AcDbLine
 10
39.398098350035
 20
155.734430512375
 30
0.0
 11
39.661498350035
 21
156.136430512375
 31
0.0
  0
LINE
  5
5E8
330
1E
100
AcDbEntity
  8
0
100
AcDbLine
 10
39.661498350035
 20
156.136430512375
 30
0.0
 11
40.020698350035
 21
156.423430512375
 31
0.0
  0
LINE
  5
5E9
330
1E
100
AcDbEntity
  8
0
100
AcDbLine
 10
40.963498350035
 20
151.514430512375
 30
0.0
 11
42.392198350035
 21
150.597430512375
 31
0.0
  0
LINE
  5
5EA
330
1E
100
AcDbEntity
  8
0
100
AcDbLine
 10
42.392198350035
 20
150.597430512375
 30
0.0
 11
45.280598350035
 21
148.990430512375
 31
0.0
  0
LINE
  5
5EB
330
1E
100
AcDbEntity
  8
0
100
AcDbLine
 10
45.280598350035
 20
148.990430512375
 30
0.0
 11
48.193998350035
 21
147.666430512375
 31
0.0
  0
LINE
  5
5EC
330
1E
100
AcDbEntity
  8
0
100
AcDbLine
 10
48.193998350035
 20
147.666430512375
 30
0.0
 11
50.134598350035
 21
146.930430512375
 31
0.0
  0
LINE
  5
5ED
330
1E
100
AcDbEntity
  8
0
100
AcDbLine
 10
38.599898350035
 20
153.690430512375
 30
0.0
 11
38.601898350035
 21
154.154430512375
 31
0.0
  0
LINE
  5
5EE
330
1E
100
AcDbEntity
  8
0
100
AcDbLine
 10
38.599898350035
 20
153.690430512375
 30
0.0
 11
38.767498350035
 21
153.260430512375
 31
0.0
  0
LINE
  5
5EF
330
1E
100
AcDbEntity
  8
0
100
AcDbLine
 10
38.601898350035
 20
154.154430512375
 30
0.0
 11
38.692698350035
 21
154.474430512375
 31
0.0
  0
LINE
  5
5F0
330
1E
100
AcDbEntity
  8
0
100
AcDbLine
 10
38.692698350035
 20
154.474430512375
 30
0.0
 11
39.047898350035
 21
155.149430512375
 31
0.0
  0
LINE
  5
688
330
1E
100
AcDbEntity
  8
0
100
AcDbLine
 10
27.46085
 20
112.2
 30
0.0
 11
142.81785
 21
112.2
 31
0.0
  0
ENDSEC
  0
SECTION
  2
OBJECTS
  0
DICTIONARY
  5
C
330
0
100
AcDbDictionary
281
     1
  3
ACAD_GROUP
350
D
  3
ACAD_LAYOUT
350
19
  3
ACAD_MLEADERSTYLE
350
6B2
  3
ACAD_MLINESTYLE
350
16
  3
ACAD_PLOTSETTINGS
350
18
  3
ACAD_PLOTSTYLENAME
350
E
  3
ACAD_SCALELIST
350
68E
  3
AcDbVariableDictionary
350
68A
  3
DWGPROPS
350
6B5
  0
DICTIONARY
  5
D
102
{ACAD_REACTORS
330
C
102
}
330
C
100
AcDbDictionary
281
     1
  0
DICTIONARY
  5
19
102
{ACAD_REACTORS
330
C
102
}
330
C
100
AcDbDictionary
281
     1
  3
Layout1
350
1D
  3
Model
350
21
  0
DICTIONARY
  5
6B2
102
{ACAD_REACTORS
330
C
102
}
330
C
100
AcDbDictionary
281
     1
  0
DICTIONARY
  5
16
102
{ACAD_REACTORS
330
C
102
}
330
C
100
AcDbDictionary
281
     1
  3
Standard
350
17
  0
DICTIONARY
  5
18
102
{ACAD_REACTORS
330
C
102
}
330
C
100
AcDbDictionary
281
     1
  0
ACDBDICTIONARYWDFLT
  5
E
102
{ACAD_REACTORS
330
C
102
}
330
C
100
AcDbDictionary
281
     1
  3
Normal
350
F
100
AcDbDictionaryWithDefault
340
F
  0
DICTIONARY
  5
68E
102
{ACAD_REACTORS
330
C
102
}
330
C
100
AcDbDictionary
281
     1
  3
A0
350
68F
  3
A1
350
690
  3
A2
350
691
  3
A3
350
692
  3
A4
350
693
  3
A5
350
694
  3
A6
350
695
  3
A7
350
696
  3
A8
350
697
  3
A9
350
698
  3
B0
350
699
  3
B1
350
69A
  3
B2
350
69B
  3
B3
350
69C
  3
B4
350
69D
  3
B5
350
69E
  3
B6
350
69F
  3
B7
350
6A0
  3
B8
350
6A1
  3
B9
350
6A2
  3
C0
350
6A3
  3
C1
350
6A4
  3
C2
350
6A5
  3
C3
350
6A6
  3
C4
350
6A7
  3
C5
350
6A8
  3
C6
350
6A9
  3
C7
350
6AA
  3
C8
350
6AB
  3
C9
350
6AC
  3
D0
350
6AD
  3
D1
350
6AE
  3
D2
350
6AF
  0
DICTIONARY
  5
68A
102
{ACAD_REACTORS
330
C
102
}
330
C
100
AcDbDictionary
281
     1
  3
CANNOSCALE
350
6B3
  3
DIMASSOC
350
68B
  0
XRECORD
  5
6B5
102
{ACAD_REACTORS
330
C
102
}
330
C
100
AcDbXrecord
280
     1
  1
DWGPROPS COOKIE
  2

  3

  4

  6

  7

  8
MARTIN
  9

300
=
301
=
302
=
303
=
304
=
305
=
306
=
307
=
308
=
309
=
 40
0.0
 41
2455654.842950474
 42
2455820.798580729
  1

 90
        0
  0
LAYOUT
  5
1D
102
{ACAD_REACTORS
330
19
102
}
330
19
100
AcDbPlotSettings
  1

  2
C:\Programme\AutoCAD LT 2002 Deu\plotters\DWF ePlot (optimized for plotting).pc3
  4

  6

 40
0.0
 41
0.0
 42
0.0
 43
0.0
 44
0.0
 45
0.0
 46
0.0
 47
0.0
 48
0.0
 49
0.0
140
0.0
141
0.0
142
1.0
143
1.0
 70
   688
 72
     0
 73
     0
 74
     5
  7

 75
    16
147
1.0
148
0.0
149
0.0
100
AcDbLayout
  1
Layout1
 70
     1
 71
     1
 10
0.0
 20
0.0
 11
12.0
 21
9.0
 12
0.0
 22
0.0
 32
0.0
 14
1.000000000000E+20
 24
1.000000000000E+20
 34
1.000000000000E+20
 15
-1.000000000000E+20
 25
-1.000000000000E+20
 35
-1.000000000000E+20
146
0.0
 13
0.0
 23
0.0
 33
0.0
 16
1.0
 26
0.0
 36
0.0
 17
0.0
 27
1.0
 37
0.0
 76
     0
330
1A
  0
LAYOUT
  5
21
102
{ACAD_REACTORS
330
19
102
}
330
19
100
AcDbPlotSettings
  1

  2
C:\Programme\AutoCAD LT 2002 Deu\plotters\DWF ePlot (optimized for plotting).pc3
  4

  6

 40
0.0
 41
0.0
 42
0.0
 43
0.0
 44
0.0
 45
0.0
 46
0.0
 47
0.0
 48
0.0
 49
0.0
140
0.0
141
0.0
142
1.0
143
1.0
 70
  1712
 72
     0
 73
     0
 74
     0
  7

 75
     0
147
1.0
148
0.0
149
0.0
100
AcDbLayout
  1
Model
 70
     1
 71
     0
 10
0.0
 20
0.0
 11
12.0
 21
9.0
 12
0.0
 22
0.0
 32
0.0
 14
0.0
 24
0.0
 34
0.0
 15
0.0
 25
0.0
 35
0.0
146
0.0
 13
0.0
 23
0.0
 33
0.0
 16
1.0
 26
0.0
 36
0.0
 17
0.0
 27
1.0
 37
0.0
 76
     0
330
1E
331
68D
  0
MLINESTYLE
  5
17
102
{ACAD_REACTORS
330
16
102
}
330
16
100
AcDbMlineStyle
  2
STANDARD
 70
     0
  3

 62
   256
 51
90.0
 52
90.0
 71
     2
 49
0.5
 62
   256
  6
BYLAYER
 49
-0.5
 62
   256
  6
BYLAYER
  0
ACDBPLACEHOLDER
  5
F
102
{ACAD_REACTORS
330
E
102
}
330
E
  0
SCALE
  5
68F
102
{ACAD_REACTORS
330
68E
102
}
330
68E
100
AcDbScale
 70
     0
300
1:1
140
1.0
141
1.0
290
     1
  0
SCALE
  5
690
102
{ACAD_REACTORS
330
68E
102
}
330
68E
100
AcDbScale
 70
     0
300
1:2
140
1.0
141
2.0
290
     0
  0
SCALE
  5
691
102
{ACAD_REACTORS
330
68E
102
}
330
68E
100
AcDbScale
 70
     0
300
1:4
140
1.0
141
4.0
290
     0
  0
SCALE
  5
692
102
{ACAD_REACTORS
330
68E
102
}
330
68E
100
AcDbScale
 70
     0
300
1:5
140
1.0
141
5.0
290
     0
  0
SCALE
  5
693
102
{ACAD_REACTORS
330
68E
102
}
330
68E
100
AcDbScale
 70
     0
300
1:8
140
1.0
141
8.0
290
     0
  0
SCALE
  5
694
102
{ACAD_REACTORS
330
68E
102
}
330
68E
100
AcDbScale
 70
     0
300
1:10
140
1.0
141
10.0
290
     0
  0
SCALE
  5
695
102
{ACAD_REACTORS
330
68E
102
}
330
68E
100
AcDbScale
 70
     0
300
1:16
140
1.0
141
16.0
290
     0
  0
SCALE
  5
696
102
{ACAD_REACTORS
330
68E
102
}
330
68E
100
AcDbScale
 70
     0
300
1:20
140
1.0
141
20.0
290
     0
  0
SCALE
  5
697
102
{ACAD_REACTORS
330
68E
102
}
330
68E
100
AcDbScale
 70
     0
300
1:30
140
1.0
141
30.0
290
     0
  0
SCALE
  5
698
102
{ACAD_REACTORS
330
68E
102
}
330
68E
100
AcDbScale
 70
     0
300
1:40
140
1.0
141
40.0
290
     0
  0
SCALE
  5
699
102
{ACAD_REACTORS
330
68E
102
}
330
68E
100
AcDbScale
 70
     0
300
1:50
140
1.0
141
50.0
290
     0
  0
SCALE
  5
69A
102
{ACAD_REACTORS
330
68E
102
}
330
68E
100
AcDbScale
 70
     0
300
1:100
140
1.0
141
100.0
290
     0
  0
SCALE
  5
69B
102
{ACAD_REACTORS
330
68E
102
}
330
68E
100
AcDbScale
 70
     0
300
2:1
140
2.0
141
1.0
290
     0
  0
SCALE
  5
69C
102
{ACAD_REACTORS
330
68E
102
}
330
68E
100
AcDbScale
 70
     0
300
4:1
140
4.0
141
1.0
290
     0
  0
SCALE
  5
69D
102
{ACAD_REACTORS
330
68E
102
}
330
68E
100
AcDbScale
 70
     0
300
8:1
140
8.0
141
1.0
290
     0
  0
SCALE
  5
69E
102
{ACAD_REACTORS
330
68E
102
}
330
68E
100
AcDbScale
 70
     0
300
10:1
140
10.0
141
1.0
290
     0
  0
SCALE
  5
69F
102
{ACAD_REACTORS
330
68E
102
}
330
68E
100
AcDbScale
 70
     0
300
100:1
140
100.0
141
1.0
290
     0
  0
SCALE
  5
6A0
102
{ACAD_REACTORS
330
68E
102
}
330
68E
100
AcDbScale
 70
     0
300
1/128" = 1'-0"
140
0.0078125
141
12.0
290
     0
  0
SCALE
  5
6A1
102
{ACAD_REACTORS
330
68E
102
}
330
68E
100
AcDbScale
 70
     0
300
1/64" = 1'-0"
140
0.015625
141
12.0
290
     0
  0
SCALE
  5
6A2
102
{ACAD_REACTORS
330
68E
102
}
330
68E
100
AcDbScale
 70
     0
300
1/32" = 1'-0"
140
0.03125
141
12.0
290
     0
  0
SCALE
  5
6A3
102
{ACAD_REACTORS
330
68E
102
}
330
68E
100
AcDbScale
 70
     0
300
1/16" = 1'-0"
140
0.0625
141
12.0
290
     0
  0
SCALE
  5
6A4
102
{ACAD_REACTORS
330
68E
102
}
330
68E
100
AcDbScale
 70
     0
300
3/32" = 1'-0"
140
0.09375
141
12.0
290
     0
  0
SCALE
  5
6A5
102
{ACAD_REACTORS
330
68E
102
}
330
68E
100
AcDbScale
 70
     0
300
1/8" = 1'-0"
140
0.125
141
12.0
290
     0
  0
SCALE
  5
6A6
102
{ACAD_REACTORS
330
68E
102
}
330
68E
100
AcDbScale
 70
     0
300
3/16" = 1'-0"
140
0.1875
141
12.0
290
     0
  0
SCALE
  5
6A7
102
{ACAD_REACTORS
330
68E
102
}
330
68E
100
AcDbScale
 70
     0
300
1/4" = 1'-0"
140
0.25
141
12.0
290
     0
  0
SCALE
  5
6A8
102
{ACAD_REACTORS
330
68E
102
}
330
68E
100
AcDbScale
 70
     0
300
3/8" = 1'-0"
140
0.375
141
12.0
290
     0
  0
SCALE
  5
6A9
102
{ACAD_REACTORS
330
68E
102
}
330
68E
100
AcDbScale
 70
     0
300
1/2" = 1'-0"
140
0.5
141
12.0
290
     0
  0
SCALE
  5
6AA
102
{ACAD_REACTORS
330
68E
102
}
330
68E
100
AcDbScale
 70
     0
300
3/4" = 1'-0"
140
0.75
141
12.0
290
     0
  0
SCALE
  5
6AB
102
{ACAD_REACTORS
330
68E
102
}
330
68E
100
AcDbScale
 70
     0
300
1" = 1'-0"
140
1.0
141
12.0
290
     0
  0
SCALE
  5
6AC
102
{ACAD_REACTORS
330
68E
102
}
330
68E
100
AcDbScale
 70
     0
300
1-1/2" = 1'-0"
140
1.5
141
12.0
290
     0
  0
SCALE
  5
6AD
102
{ACAD_REACTORS
330
68E
102
}
330
68E
100
AcDbScale
 70
     0
300
3" = 1'-0"
140
3.0
141
12.0
290
     0
  0
SCALE
  5
6AE
102
{ACAD_REACTORS
330
68E
102
}
330
68E
100
AcDbScale
 70
     0
300
6" = 1'-0"
140
6.0
141
12.0
290
     0
  0
SCALE
  5
6AF
102
{ACAD_REACTORS
330
68E
102
}
330
68E
100
AcDbScale
 70
     0
300
1'-0" = 1'-0"
140
12.0
141
12.0
290
     0
  0
DICTIONARYVAR
  5
6B3
102
{ACAD_REACTORS
330
68A
102
}
330
68A
100
DictionaryVariables
280
     0
  1
1:1
  0
DICTIONARYVAR
  5
68B
102
{ACAD_REACTORS
330
68A
102
}
330
68A
100
DictionaryVariables
280
     0
  1
1
  0
ENDSEC
  0
SECTION
  2
THUMBNAILIMAGE
 90
    16364
310
28000000B40000005500000001000800000000000000000000000000000000000000000000000000FFFFFF000000FF0000FFFF0000FF0000FFFF0000FF000000FF00FF000000000080808000C0C0C0000000FF007F7FFF000000A5005252A50000007F003F3F7F0000004C0026264C000000260013132600003FFF007F9FFF
310
000029A5005267A500001F7F003F4F7F0000134C00262F4C000009260013172600007FFF007FBFFF000052A500527CA500003F7F003F5F7F0000264C0026394C0000132600131C260000BFFF007FDFFF00007CA5005291A500005F7F003F6F7F0000394C0026424C00001C26001321260000FFFF007FFFFF0000A5A50052A5
310
A500007F7F003F7F7F00004C4C00264C4C00002626001326260000FFBF007FFFDF0000A57C0052A59100007F5F003F7F6F00004C3900264C420000261C001326210000FF7F007FFFBF0000A5520052A57C00007F3F003F7F5F00004C2600264C39000026130013261C0000FF3F007FFF9F0000A5290052A56700007F1F003F
310
7F4F00004C1300264C2F00002609001326170000FF00007FFF7F0000A5000052A55200007F00003F7F3F00004C0000264C260000260000132613003FFF00009FFF7F0029A5000067A552001F7F00004F7F3F00134C00002F4C260009260000172613007FFF0000BFFF7F0052A500007CA552003F7F00005F7F3F00264C0000
310
394C2600132600001C261300BFFF0000DFFF7F007CA5000091A552005F7F00006F7F3F00394C0000424C26001C26000021261300FFFF0000FFFF7F00A5A50000A5A552007F7F00007F7F3F004C4C00004C4C26002626000026261300FFBF0000FFDF7F00A57C0000A59152007F5F00007F6F3F004C3900004C422600261C00
310
0026211300FF7F0000FFBF7F00A5520000A57C52007F3F00007F5F3F004C2600004C39260026130000261C1300FF3F0000FF9F7F00A5290000A56752007F1F00007F4F3F004C1300004C2F26002609000026171300FF000000FF7F7F00A5000000A55252007F0000007F3F3F004C0000004C2626002600000026131300FF00
310
3F00FF7F9F00A5002900A55267007F001F007F3F4F004C0013004C262F002600090026131700FF007F00FF7FBF00A5005200A5527C007F003F007F3F5F004C0026004C2639002600130026131C00FF00BF00FF7FDF00A5007C00A55291007F005F007F3F6F004C0039004C26420026001C0026132100FF00FF00FF7FFF00A5
310
00A500A552A5007F007F007F3F7F004C004C004C264C002600260026132600BF00FF00DF7FFF007C00A5009152A5005F007F006F3F7F0039004C0042264C001C002600211326007F00FF00BF7FFF005200A5007C52A5003F007F005F3F7F0026004C0039264C00130026001C1326003F00FF009F7FFF002900A5006752A500
310
1F007F004F3F7F0013004C002F264C000900260017132600000000002D2D2D005B5B5B0089898900B7B7B700B3B3B30000000000000000000000000000000000000000000000000000000000000000000000000000000000000000000000000000000000000000000000000000000000000000000000000000000000000000
310
00000000000000000000000000000000000000000000070000000000000000000000000000000000000000000000000700000000000000000000000000000000000000000000000000000000000000000000000000000000000000000000000000000000000000000000000000000000000000000000000000000000000000
310
00000000000000000000000000000000000000000000000000000000000000000000000000000000000000000000000000000000000000000000000000000000000000000000000000000007000000000000000000000000000000000000000000000000070000000000000000000000000000000000000000000000000000
310
00000000000000000000000000000000000000000000000000000000000000000000000000000000000000000000000000000000000000000000000000000000000000000000000000000000000000000000000000000000000000000000000000000000000000000000000000000000000000000000000000000000000000
310
00070000000000000000000000000000000000000000000000000700000000000000000000000000000000000000000000000000000000000000000000000000000000000000000000000000000000000000000000000000000000000000000000000000000000000000000000000000000000000000000000000000000000
310
00000000000000000000000000000000000000000000000000000000000000000000000000000000000000000000000000000000000007000000000000000000000000000000000000000000000000070000000000000000000000000000000000000000000000000000000000000000000000000000000000000000000000
310
00000000000000000000000000000000000000000000000000000000000000000000000000000000000000000000000000000000000000000000000000000000000000000000000000000000000000000000000000000000000000000000000000000000000000000000000700000000000000000000000000000000000000
310
00000000000700000000000000000000000000000000000000000000000000000000000000000000000000000000000000000000000000000000000000000000000000000000000000000000000000000000000000000000000000000000000000000000000000000000000000000000000000000000000000000000000000
310
00000000000000000000000000000000000000000000000000000000000000000007000000000000000000000000000000000000000000000000070000000000000000000000000000000000000000000000000000000000000000000000000000000000000000000000000000000000000000000000000000000000000000
310
00000000000000000000000000000000000000000000000000000000000000000000000000000000000000000000000000000000000000000000000000000000000000000000000000000000000000000000000000000700000000000000000000000000000000000000000000000007000000000000000000000000000000
310
00000000000000000000000000000000000000000000000000000000000000000000000000000000000000000000000000000000000000000000000000000000000000000000000000000000000000000000000000000000000000000000000000000000000000000000000000000000000000000000000000000000000000
310
00000000000000000000000007000000000000000000000000000000000000000000000000070000000000000000000000000000000000000000000000000000000000000000000000000000000000000000000000000000000000000000000000000000000000000000000000000000000000000000000000000000000000
310
00000000000000000000000000000000000000000000000000000000000000000000000000000000000000000000000000000000000000000000000000000000000700000000000000000000000000000000000000000000000007000000000000000000000000000000000000000000000000000000000000000000000000
310
00000000000000000000000000000000000000000000000000000000000000000000000000000000000000000000000000000000000000000000000000000000000000000000000000000000000000000000000000000000000000000000000000000000000000000000000000000000000000000000070000000000000000
310
00000000000000000000000000000000070000000000000000000000000000000000000000000000000000000000000000000000000000000000000000000000000000000000000000000000000000000000000000000000000000000000000000000000000000000000000000000000000000000000000000000000000000
310
00000000000000000000000000000000000000000000000000000000000000000000000000000000000000000700000000000000000000000000000000000000000000000007000000000000000000000000000000000000000000000000000000000000000000000000000000000000000000000000000000000000000000
310
00000000000000000000000000000000000000000000000000000000000000000000000000000000000000000000000000000000000000000000000000000000000000000000000000000000000000000000000000000000000000000000000000070000000000000000000000000000000000000000000000000700000000
310
00000000000000000000000000000000000000000000000000000000000000000000000000000000000000000000000000000000000000000000000000000000000000000000000000000000000000000000000000000000000000000000000000000000000000000000000000000000000000000000000000000000000000
310
00000000000000000000000000000000000000000000000700000000000000000000000000000000000000000000000007000000000000000000000000000000000000000000000000000000000000000000000000000000000000000000000000000000000000000000000000000000000000000000000000000000000000
310
00000000000000000000000000000000000000000000000000000000000000000000000000000000000000000000000000000000000000000000000000000000000000000000000000000000070000000000000000000000000000000000000000000000000700000000000000000000000000000000000000000000000000
310
00000000000000000000000000000000000000000000000000000000000000000000000000000000000000000000000000000000000000000000000000000000000000000000000000000000000000000000000000000000000000000000000000000000000000000000000000000000000000000000000000000000000000
310
00000700000000000000000000000000000000000000000000000007000000000000000000000000000000000000000000000000000000000000000000000000000000000000000000000000000000000000000000000000000000000000000000000000000000000000000000000000000000000000000000000000000000
310
00000000000000000000000000000000000000000000000000000000000000000000000000000000000000000000000000000000000000070000000000000000000000000000000000000000000000000700000000000000000000000000000000000000000000000000000000000000000000000000000000000000000000
310
00000000000000000000000000000000000000000000000000000000000000000000000000000000000000000000000000000000000000000000000000000000000000000000000000000000000000000000000000000000000000000000000000000000000000000000000007000000000000000000000000000000000000
310
00000000000007000000000000000000000000000000000000000000000000000000000000000000000000000000000000000000000000000000000000000000000000000000000000000000000000000000000000000000000000000000000000000000000000000000000000000000000000000000000000000000000000
310
00000000000000000000000000000000000000000000000000000000000000000000070000000000000000000000000000000000000000000000000700000000000000000000000000000000000000000000000000000000000000000000000000000000000000000000000000000000000000000000000000000000000000
310
00000000000000000000000000000000000000000000000000000000000000000000000000000000000000000000000000000000000000000000000000000000000000000000000000000000000000000000000000000007000000000000000000000000000000000000000000000000070000000000000000000000000000
310
00000000000000000000000000000000000000000000000000000000000000000000000000000000000000000000000000000000000000000000000000000000000000000000000000000000000000000000000000000000000000000000000000000000000000000000000000000000000000000000000000000000000000
310
00000000000000000000000000070000000000000000000000000000000000000000000000000700000000000000000000000000000000000000000000000000000000000000000000000000000000000000000000000000000000000000000000000000000000000000000000000000000000000000000000000000000000
310
00000000000000000000000000000000000000000000000000000000000000000000000000000000000000000000000000000000000000000000000000000000000007000000000000000000000000000000000000000000000000070000000000000000000000000000000000000000000000000000000000000000000000
310
00000000000000000000000000000000000000000000000000000000000000000000000000000000000000000000000000000000000000000000000000000000000000000000000000000000000000000000000000000000000000000000000000000000000000000000000000000000000000000000000700000000000000
310
00000000000000000000000000000000000700000000000000000000000000000000000000000000000000000000000000000000000000000000000000000000000000000000000000000000000000000000000000000000000000000000000000000000000000000000000000000000000000000000000000000000000000
310
00000000000000000000000000000000000000000000000000000000000000000000000000000000000000000007000000000000000000000000000000000000000000000700070000000000000000000000000000000000000000000000000000000000000000000000000000000000000000000000000000000000000000
310
00000000000000000000000000000000000000000000000000000000000000000000000000000000000000000000000000000000000000000000000000000000000000000000000000000000000000000000000000000000000000000000000000000700000000000000000000000000000000000000000000070007000000
310
00000000000000000000000000000000000000000000000000000000000000000000000000000000000000000000000000000000000000000000000000000000000000000000000000000000000000000000000000000000000000000000000000000000000000000000000000000000000000000000000000000000000000
310
00000000000000000000000000000000000000000000000007000000000000000000000000000000000000000000000700070000000000000000000000000000000000000000000000000000000000000000000000000000000000000000000000000000000000000000000000000000000000000000000000000000000000
310
00000000000000000000000000000000000000000000000000000000000000000000000000000000000000000000000000000000000000000000000000000000000000000000000000000000000700000000000000000000000000000000000000000000070007000000000000000000000000000000000000000000000000
310
00000000000000000000000000000000000000000000000000000000000000000000000000000000000000000000000000000000000000000000000000000000000000000000000000000000000000000000000000000000000000000000000000000000000000000000000000000000000000000000000000000000000000
310
00000007000000000000000000000000000000000000000000000007070000000000000000000000000000000000000000000000000000000000000000000000000000000000000000000000000000000000000000000000000000000000000000000000000000000000000000000000000000000000000000000000000000
310
00000000000000000000000000000000000000000000000000000000000000000000000000000000000000000000000000000000000000000700000000000000000000000000000000000000000007000707000000000000000000000000000000000000000000000000000000000000000000000000000000000000000000
310
00000000000000000000000000000000000000000000000000000000000000000000000000000000000000000000000000000000000000000000000000000000000000000000000000000000000000000000000000000000000000000000000000000000000000000000000000070000000000000000000000000000000000
310
00000000070007070000000000000000000000000000000000000000000000000000000000000000000000000000000000000000000000000000000000000000000000000000000000000000000000000000000000000000000000000000000000000000000000000000000000000000000000000000000000000000000000
310
00000000000000000000000000000000000000000000000000000000000000000000000700000000000000000000000000000000000000000007000007000000070707000000000000000000000000000000000000000000000000000000000000000000000000000000000000000000000000000000000000000000000000
310
00000000000000000000000000000000000000000000000000000000000000000000000000000000000000000000000000000000000000000000000000000000000000000000000000000000000000000000000000000000070000000000000000000000000000000000000000000007000007070700070700000000000000
310
00000000000000000000000000000000000000000000000000000000000000000000000000000000000000000000000000000000000000000000000000000000000000000000000000000000000000000000000000000000000000000000000000000000000000000000000000000000000000000000000000000000000000
310
00000000000000000000000000000700000000000000000000000000000000000000000000000700000000000707000000000000000000000000000000000000000000000000000000000000000000000000000000000000000000000000000000000000000000000000000000000000000000000000000000000000000000
310
00000000000000000000000000000000000000000000000000000000000000000000000000000000000000000000000000000000000000000000000000000000000000070000000000000000000000000000000000000000000000000707070707070700000000000000000000000000000000000000000000000000000000
310
00000000000000000000000000000000000000000000000000000000000000000000000000000000000000000000000000000000000000000000000000000000000000000000000000000000000000000000000000000000000000000000000000000000000000000000000000000000000000000000000000000000000000
310
00000000000000000000000000000000000007000000000000000000000000000000000000000000000000000000000000000000000000000000000000000000000000000000000000000000000000000000000000000000000000000000000000000000000000000000000000000000000000000000000000000000000000
310
00000000000000000000000000000000000000000000000000000000000000000000000000000000000000000000070000000000000000000000000000000000000000000000000700000000000000000000000000000000000000000000000000000000000000000000000000000000000000000000000000000000000000
310
00000000000000000000000000000000000000000000000000000000000000000000000000000000000000000000000000000000000000000000000000000000000000000000000000000000000000000000000000000000000000000000000000000007000000000000000000000000000000000000000000000000070000
310
00000000000000000000000000000000000000000000000000000000000000000000000000000000000000000000000000000000000000000000000000000000000000000000000000000000000000000000000000000000000000000000000000000000000000000000000000000000000000000000000000000000000000
310
00000000000000000000000000000000000000000000000000070000000000000000000000000000000000000000000000070700000000000000000000000000000000000000000000000000000000000000000000000000000000000000000000000000000000000000000000000000000000000000000000000000000000
310
00000000000000000000000000000000000000000000000000000000000000000000000000000000000000000000000000000000000000000000000000000000000000000000000000000000000007000000000000000000000000000000000000000000000000070000000000000000000000000000000000000000000000
310
00000000000000000000000000000000000000000000000000000000000000000000000000000000000000000000000000000000000000000000000000000000000000000000000000000000000000000000000000000000000000000000000000000000000000000000000000000000000000000000000000000000000000
310
00000007000000000000000000000000000000000000000000000000000700000000000000000000000000000000000000000000000000000000000000000000000000000000000000000000000000000000000000000000000000000000000000000000000000000000000000000000000000000000000000000000000000
310
00000000000000000000000000000000000000000000000000000000000000000000000000000000000000000000000000000000000000000700000000000000000000000000000000000000000000000000070000000000000000000000000000000000000000000000000000000000000000000000000000000000000000
310
00000000000000000000000000000000000000000000000000000000000000000000000000000000000000000000000000000000000000000000000000000000000000000000000000000000000000000000000000000000000000000000000000000000000000000000000000070000000000000000000000000000000000
310
00000000000000000700000000000000000000000000000000000000000000000000000000000000000000000000000000000000000000000000000000000000000000000000000000000000000000000000000000000000000000000000000000000000000000000000000000000000000000000000000000000000000000
310
00000000000000000000000000000000000000000000000000000000000000000000070000000000000000000000000000000000000000000000000000070000000000000000000000000000000000000000000000000000000000000000000000000000000000000000000000000000000000000000000000000000000000
310
00000000000000000000000000000000000000000000000000000000000000000000000000000000000000000000000000000000000000000000000000000000000000000000000000000000000000000000000000000700000000000000000000000000000000000000000000000000000007000000000000000000000000
310
00000000000000000000000000000000000000000000000000000000000000000000000000000000000000000000000000000000000000000000000000000000000000000000000000000000000000000000000000000000000000000000000000000000000000000000000000000000000000000000000000000000000000
310
00000000000000000007070700000000000000000000000000000000000000000000000000000000070000000000000000000000000000000000000000000000000000000000000000000000000000000000000000000000000000000000000000000000000000000000000000000000000000000000000000000000000000
310
00000000000000000000000000000000000000000000000000000000000000070707070707070707070707070707070707070707070707070707070707070000000000000000000000000000000000000000000000000000000000000007000000000000000000000000000000000000000000000000000000000000000000
310
00000000000000000000000000000000000000000000000000000000000000000000000000000000000000000000000000000000000000000000000000000000000000000000000000000000000000000000000700000000000000000000000000000000000000000000000000000000000000000000000000000000000000
310
00000000000000000000000000000000000000070000000000000000000000000000000000000000000000000000000000000000000000000000000000000000000000000000000000000000000000000000000000000000000000000000000000000000000000000000000000000000000000000000000000000000000000
310
00000000000000000700000000000000000000000000000000000000000000000000000000000000000000000000000000000000000000000000000000000000000000000000000007000000000000000000000000000000000000000000000000000000000000000000000000000000000000000000000000000000000000
310
00000000000000000000000000000000000000000000000000000000000000000000000000000000000000000000000000000000000000000000000000070000000000000000000000000000000000000000000000000000000000000000000000000000000000000000000000000000000000000000000000000000000700
310
00000000000000000000000000000000000000000000000000000000000000000000000000000000000000000000000000000000000000000000000000000000000000000000000000000000000000000000000000000000000000000000000000000000070707070707070707070707070707000000000000000000000000
310
00000000000000000000000000000000000000000000000000000000000000000000000000000000000000000000000000000700000000000000000000000000000000000000000000000000000000000000000000000000000000000000000000000000000000000000000000000000000000000000000000000000000000
310
00000000000000000000000000000000000000000000000000000700000000000000000007000007070000000000000000000000000000000000000000000000000000000000000000000000000000000000000000000000000000000000000000000000000000070000000000000000000000000000000000000000000000
310
00000000000000000000000000000000000000000000000000000000000000000000000000000000000000000000000000000000000000000000000000000000000000000000000000000000000000070000000000000000000700000707000000000000000000000000000000000000000000000000000000000000000000
310
00000000000000000000000000000000000000000000000000000000000700000000000000000000000000000000000000000000000000000000000000000000000000000000000000000000000000000000000000000000000000000000000000000000000000000000000000000000000000000000000000000000000000
310
00000000000700000000000000000007000007070000000000000000000000000000000000000000000000000000000000000000000000000000000000000000000000000000000000000000000000000000070000000000000000000000000000000000000000000000000000000000000000000000000000000000000000
310
00000000000000000000000000000000000000000000000000000000000000000000000000000000000000000000000000000000000000000000070000000000000000000700000707000000000000000000000000000000000000000000000000000000000000000000000000000000000000000000000000000000000000
310
00000000000000000700000000000000000000000000000000000000000000000000000000000000000000000000000000000000000000000000000000000000000000000000000000000000000000000000000000000000000000000000000000000000000000000000000000000007000000000000000000070000070700
310
00000000000000000000000000000000000000000000000000000000000000000000000000000000000000000000000000000000000000000000000000070000000000000000000000000000000000000000000000000000000000000000000000000000000000000000000000000000000000000000000000000000000000
310
00000000000000000000000000000000000000000000000000000000000000000000000000070000000000000000000700000707000000000000000000000000000000000000000000000000000000000000000000000000000000000000000000000000000000000000000000000000000007000000000000000000000000
310
00000000000000000000000000000000000000000000000000000000000000000000000000000000000000000000000000000000000000000000000000000000000000000000000000000000000000000000000000000000000007000000000000000000070000070700000000000000000000000000000000000000000000
310
00000000000000000000000000000000000000000000000000000000000000000000000000000000070000000000000000000000000000000000000000000000000000000000000000000000000000000000000000000000000000000000000000000000000000000000000000000000000000000000000000000000000000
310
00000000000000000000000000000000070000000000000000000700000707000000000000000000000000000000000000000000000000000000000000000000000000000000000000000000000000000000000000000000000000000007000000000000000000000000000000000000000000000000000000000000000000
310
00000000000000000000000000000000000000000000000000000000000000000000000000000000000000000000000000000000000000000000000000000000000000000007000000000000000000070000070700000000000000000000000000000000000000000000000000000000000000000000000000000000000000
310
00000000000000000000000000000000000000070000000000000000000000000000000000000000000000000000000000000000000000000000000000000000000000000000000000000000000000000000000000000000000000000000000000000000000000000000000000000000000000000000000000000707070707
310
07070707070707070707000000000000000000000000000000000000000000000000000000000000000000000000000000000000000000000000000000000000000000000000000007000000000000000000000000000000000000000000000000000000000000000000000000000000000000000000000000000000000000
310
00000000000000000000000000000000000000000000000000000000000000000000000000000000000000000000000000000000000000000000000000000700000000000000000000000000000000000000000000000000000000000000000000000000000000000000000000000000000000000000000000000000000700
310
00000000000000000000000000000000000000000000000000000000000000000000000000000000000000000000000000000000000000000000000000000000000000000000000000000000000000000000000000000000000000000000000000000000000000000000000000000000000000070707070707070707070707
310
07070707070707070707070707070707070707070707070707070707070707070707070707070707070707070707070707070707000000000000000000000000000000000000000000000000000000000000000000000000000000000000000000000000000000000000000000000000000000000000000000000000000000
310
00000000000000000000000000000000000000000000000000000000000000000000000000000000000000000000000000000000000000000000000000000000000000000000000000000000000000000007070707070707070707070707070700000000000000000700000000000000000000000000000000000000000000
310
00000000000000000000000000000000000000000000000000000000000000000000000000000000000000000000000000000000000000000000000000000000000000000000000000000000000000000000000000000000000000000000000000000000000000000000000000000000000000000000000000000000000000
310
00000000000000070000000000000000000000000000070707000000000700000000000000000000000000000000000000000000000000000000000000000000000000000000000000000000000000000000000000000000000000000000000000000000000000000000000000000000000000000000000000000000000000
310
00000000000000000000000000000000000000000000000000000000000000000000000000000000000000000000000000000000000000000000000007000000000000000000000000000000000007070700070000000000000000000000000000000000000000000000000000000000000000000000000000000000000000
310
00000000000000000000000000000000000000000000000000000000000000000000000000000000000000000000000000000000000000000000000000000000000000000000000000000000000000000000000000000000000000000000000000000000000000000000000000000000000700000000000000000000000000
310
00000000000000070700000000000000000000000000000000000000000000000000000000000000000000000000000000000000000000000000000000000000000000000000000000000000000000000000000000000000000000000000000000000000000000000000000000000000000000000000000000000000000000
310
00000000000000000000000000000000000000000000000000000000000000000000000000000007000000000000000000000000000000000000000000000707000000000000000000000000000000000000000000000000000000000000000000000000000000000000000000000000000000000000000000000000000000
310
00000000000000000000000000000000000000000000000000000000000000000000000000000000000000000000000000000000000000000000000000000000000000000000000000000000000000000000000000000000000000000700000000000000000000000000000000000000000000000700000000000000000000
310
00000000000000000000000000000000000000000000000000000000000000000000000000000000000000000000000000000000000000000000000000000000000000000000000000000000000000000000000000000000000000000000000000000000000000000000000000000000000000000000000000000000000000
310
00000000000000000000000000000000000007000000000000000000000000000000000000000000000007000000000000000000000000000000000000000000000000000000000000000000000000000000000000000000000000000000000000000000000000000000000000000000000000000000000000000000000000
310
00000000000000000000000000000000000000000000000000000000000000000000000000000000000000000000000000000000000000000000000000000000000000000000000700000000000000000000000000000000000000000000000700000000000000000000000000000000000000000000000000000000000000
310
00000000000000000000000000000000000000000000000000000000000000000000000000000000000000000000000000000000000000000000000000000000000000000000000000000000000000000000000000000000000000000000000000000000000000000000000000000000000000000000000000000000070000
310
00000000000000000000000000000000000000000007000000000000000000000000000000000000000000000000000000000000000000000000000000000000000000000000000000000000000000000000000000000000000000000000000000000000000000000000000000000000000000000000000000000000000000
310
00000000000000000000000000000000000000000000000000000000000000000000000000000000000000000000000000000700000000000000000000000000000000000000000000000700000000000000000000000000000000000000000000000000000000000000000000000000000000000000000000000000000000
310
00000000000000000000000000000000000000000000000000000000000000000000000000000000000000000000000000000000000000000000000000000000000000000000000000000000000000000000000000000000000000000000000000000000000000070000000000000000000000000000000000000000000000
310
07000000000000000000000000000000000000000000000000000000000000000000000000000000000000000000000000000000000000000000000000000000000000000000000000000000000000000000000000000000000000000000000000000000000000000000000000000000000000000000000000000000000000
310
00000000000000000000000000000000000000000000000000000000000700000000000000000000000000000000000000000000000700000000000000000000000000000000000000000000000000000000000000000000000000000000000000000000000000000000000000000000000000000000000000000000000000
310
00000000000000000000000000000000000000000000000000000000000000000000000000000000000000000000000000000000000000000000000000000000000000000000000000000000000000000007000000000000000000000000000000000000000000000007000000000000000000000000000000000000000000
310
00000000000000000000000000000000000000000000000000000000000000000000000000000000000000000000000000000000000000000000000000000000000000000000000000000000000000000000000000000000000000000000000000000000000000000000000000000000000000000000000000000000000000
310
00000000000007070000000000000000000000000000000000000000000000070000000000000000000000000000000000000000000000000000000000000000000000000000000000000000000000000000000000000000000000000000000000000000000000000000000000000000000000000000000000000000000000
310
00000000000000000000000000000000000000000000000000000000000000000000000000000000000000000000000000000000000000000007070700000000000000000000000000000000000000000000000007000000000000000000000000000000000000000000000000000000000000000000000000000000000000
310
00000000000000000000000000000000000000000000000000000000000000000000000000000000000000000000000000000000000000000000000000000000000000000000000000000000000000000000000000000000000000000000000000000000000707070707070707070000000000000000000000000000000000
310
00000000000000000000070000000000000000000000000000000000000000000000000000000000000000000000000000000000000000000000000000000000000000000000000000000000000000000000000000000000000000000000000000000000000000000000000000000000000000000000000000000000000000
310
00000000000000000000000000000000000007070707070707070700000000000000000000000000000000000000000000000000000000000000000000000007000000000000000000000000000000000000000000000000000000000000000000000000000000000000000000000000000000000000000000000000000000
310
00000000000000000000000000000000000000000000000000000000000000000000000000000000000000000000000000000000000000000000000000000000000000070707070000000000000000000000000000000000000000000000000000000000000000000000000000000000000000000700000000000000000000
310
00000000000000000000000000000000000000000000000000000000000000000000000000000000000000000000000000000000000000000000000000000000000000000000000000000000000000000000000000000000000000000000000000000000000000000000000000000000000000000000070700000000000000
310
00000000000000000000000000000000000000000000000000000000000000000000000000000000000007000000000000000000000000000000000000000000000000000000000000000000000000000000000000000000000000000000000000000000000000000000000000000000000000000000000000000000000000
310
00000000000000000000000000000000000000000000000000000000000000000000000000000000000007070000000000000000000000000000000000000000000000000000000000000000000000000000000000000000000000000000000700000000000000000000000000000000000000000000000000000000000000
310
00000000000000000000000000000000000000000000000000000000000000000000000000000000000000000000000000000000000000000000000000000000000000000000000000000000000000000000000000000000000000000007070000000000000000000000000000000000000000000000000000000000000000
310
00000000000000000000000000000000000000000007000000000000000000000000000000000000000000000000000000000000000000000000000000000000000000000000000000000000000000000000000000000000000000000000000000000000000000000000000000000000000000000000000000000000000000
310
00000000000000000000000000000000000707000000000000070707070707070707070707070707070707070707070707070707070707070707070707070707070707070707070707070700000000000000000000000000000000000000000000000000000000000000000000000000000000000000000000000000000000
310
00000000000000000000000000000000000000000000000000000000000000000000000000000000000000000000000000000000000000000000000000000000000000000000070700000707070700000000000000000000000000000000000000000000000000000000000000000000000000000000000000000000000000
310
00000000000000000000000000000000000000000000000000000000000000000000000000000000000000000000000000000000000000000000000000000000000000000000000000000000000000000000000000000000000000000000000000000000000000000000000000000000000000000000000000000000070707
310
000000000000000000000000000000000000000000000000000000000000000000000000000000000000000000000000000000000000000000000000000000000000000000000000000000000000000000000000000000000000000000000000000000000000000000000000
  0
ENDSEC
  0
EOF
