  0
SECTION
  2
HEADER
  9
$ACADVER
  1
AC1015
  9
$ACADMAINTVER
 70
     6
  9
$DWGCODEPAGE
  3
ANSI_1252
  9
$INSBASE
 10
0.0
 20
0.0
 30
0.0
  9
$EXTMIN
 10
0.0
 20
0.05046
 30
0.0
  9
$EXTMAX
 10
480.0
 20
217.94954
 30
0.0
  9
$LIMMIN
 10
0.0
 20
0.0
  9
$LIMMAX
 10
12.0
 20
9.0
  9
$ORTHOMODE
 70
     0
  9
$REGENMODE
 70
     1
  9
$FILLMODE
 70
     1
  9
$QTEXTMODE
 70
     0
  9
$MIRRTEXT
 70
     1
  9
$LTSCALE
 40
1.0
  9
$ATTMODE
 70
     1
  9
$TEXTSIZE
 40
0.2
  9
$TRACEWID
 40
0.05
  9
$TEXTSTYLE
  7
Standard
  9
$CLAYER
  8
0
  9
$CELTYPE
  6
ByBlock
  9
$CECOLOR
 62
   256
  9
$CELTSCALE
 40
1.0
  9
$DISPSILH
 70
     0
  9
$DIMSCALE
 40
1.0
  9
$DIMASZ
 40
0.18
  9
$DIMEXO
 40
0.0625
  9
$DIMDLI
 40
0.38
  9
$DIMRND
 40
0.0
  9
$DIMDLE
 40
0.0
  9
$DIMEXE
 40
0.18
  9
$DIMTP
 40
0.0
  9
$DIMTM
 40
0.0
  9
$DIMTXT
 40
0.18
  9
$DIMCEN
 40
0.09
  9
$DIMTSZ
 40
0.0
  9
$DIMTOL
 70
     0
  9
$DIMLIM
 70
     0
  9
$DIMTIH
 70
     1
  9
$DIMTOH
 70
     1
  9
$DIMSE1
 70
     0
  9
$DIMSE2
 70
     0
  9
$DIMTAD
 70
     0
  9
$DIMZIN
 70
     0
  9
$DIMBLK
  1

  9
$DIMASO
 70
     1
  9
$DIMSHO
 70
     1
  9
$DIMPOST
  1

  9
$DIMAPOST
  1

  9
$DIMALT
 70
     0
  9
$DIMALTD
 70
     2
  9
$DIMALTF
 40
25.4
  9
$DIMLFAC
 40
1.0
  9
$DIMTOFL
 70
     0
  9
$DIMTVP
 40
0.0
  9
$DIMTIX
 70
     0
  9
$DIMSOXD
 70
     0
  9
$DIMSAH
 70
     0
  9
$DIMBLK1
  1

  9
$DIMBLK2
  1

  9
$DIMSTYLE
  2
Standard
  9
$DIMCLRD
 70
     0
  9
$DIMCLRE
 70
     0
  9
$DIMCLRT
 70
     0
  9
$DIMTFAC
 40
1.0
  9
$DIMGAP
 40
0.09
  9
$DIMJUST
 70
     0
  9
$DIMSD1
 70
     0
  9
$DIMSD2
 70
     0
  9
$DIMTOLJ
 70
     1
  9
$DIMTZIN
 70
     0
  9
$DIMALTZ
 70
     0
  9
$DIMALTTZ
 70
     0
  9
$DIMUPT
 70
     0
  9
$DIMDEC
 70
     4
  9
$DIMTDEC
 70
     4
  9
$DIMALTU
 70
     2
  9
$DIMALTTD
 70
     2
  9
$DIMTXSTY
  7
Standard
  9
$DIMAUNIT
 70
     0
  9
$DIMADEC
 70
     0
  9
$DIMALTRND
 40
0.0
  9
$DIMAZIN
 70
     0
  9
$DIMDSEP
 70
    46
  9
$DIMATFIT
 70
     3
  9
$DIMFRAC
 70
     0
  9
$DIMLDRBLK
  1

  9
$DIMLUNIT
 70
     2
  9
$DIMLWD
 70
    -2
  9
$DIMLWE
 70
    -2
  9
$DIMTMOVE
 70
     2
  9
$LUNITS
 70
     2
  9
$LUPREC
 70
     4
  9
$SKETCHINC
 40
0.1
  9
$FILLETRAD
 40
0.5
  9
$AUNITS
 70
     0
  9
$AUPREC
 70
     0
  9
$MENU
  1
.
  9
$ELEVATION
 40
0.0
  9
$PELEVATION
 40
0.0
  9
$THICKNESS
 40
0.0
  9
$LIMCHECK
 70
     0
  9
$CHAMFERA
 40
0.5
  9
$CHAMFERB
 40
0.5
  9
$CHAMFERC
 40
1.0
  9
$CHAMFERD
 40
0.0
  9
$SKPOLY
 70
     0
  9
$TDCREATE
 40
2455825.015221528
  9
$TDUCREATE
 40
2455824.931888194
  9
$TDUPDATE
 40
2455825.016616389
  9
$TDUUPDATE
 40
2455824.933283056
  9
$TDINDWG
 40
0.0013945139
  9
$TDUSRTIMER
 40
0.0013945139
  9
$USRTIMER
 70
     1
  9
$ANGBASE
 50
0.0
  9
$ANGDIR
 70
     0
  9
$PDMODE
 70
     0
  9
$PDSIZE
 40
0.0
  9
$PLINEWID
 40
0.0
  9
$SPLFRAME
 70
     0
  9
$SPLINETYPE
 70
     6
  9
$SPLINESEGS
 70
     8
  9
$HANDSEED
  5
89C
  9
$SURFTAB1
 70
     6
  9
$SURFTAB2
 70
     6
  9
$SURFTYPE
 70
     6
  9
$SURFU
 70
     6
  9
$SURFV
 70
     6
  9
$UCSBASE
  2

  9
$UCSNAME
  2

  9
$UCSORG
 10
0.0
 20
0.0
 30
0.0
  9
$UCSXDIR
 10
1.0
 20
0.0
 30
0.0
  9
$UCSYDIR
 10
0.0
 20
1.0
 30
0.0
  9
$UCSORTHOREF
  2

  9
$UCSORTHOVIEW
 70
     0
  9
$UCSORGTOP
 10
0.0
 20
0.0
 30
0.0
  9
$UCSORGBOTTOM
 10
0.0
 20
0.0
 30
0.0
  9
$UCSORGLEFT
 10
0.0
 20
0.0
 30
0.0
  9
$UCSORGRIGHT
 10
0.0
 20
0.0
 30
0.0
  9
$UCSORGFRONT
 10
0.0
 20
0.0
 30
0.0
  9
$UCSORGBACK
 10
0.0
 20
0.0
 30
0.0
  9
$PUCSBASE
  2

  9
$PUCSNAME
  2

  9
$PUCSORG
 10
0.0
 20
0.0
 30
0.0
  9
$PUCSXDIR
 10
1.0
 20
0.0
 30
0.0
  9
$PUCSYDIR
 10
0.0
 20
1.0
 30
0.0
  9
$PUCSORTHOREF
  2

  9
$PUCSORTHOVIEW
 70
     0
  9
$PUCSORGTOP
 10
0.0
 20
0.0
 30
0.0
  9
$PUCSORGBOTTOM
 10
0.0
 20
0.0
 30
0.0
  9
$PUCSORGLEFT
 10
0.0
 20
0.0
 30
0.0
  9
$PUCSORGRIGHT
 10
0.0
 20
0.0
 30
0.0
  9
$PUCSORGFRONT
 10
0.0
 20
0.0
 30
0.0
  9
$PUCSORGBACK
 10
0.0
 20
0.0
 30
0.0
  9
$USERI1
 70
     0
  9
$USERI2
 70
     0
  9
$USERI3
 70
     0
  9
$USERI4
 70
     0
  9
$USERI5
 70
     0
  9
$USERR1
 40
0.0
  9
$USERR2
 40
0.0
  9
$USERR3
 40
0.0
  9
$USERR4
 40
0.0
  9
$USERR5
 40
0.0
  9
$WORLDVIEW
 70
     1
  9
$SHADEDGE
 70
     3
  9
$SHADEDIF
 70
    70
  9
$TILEMODE
 70
     1
  9
$MAXACTVP
 70
    64
  9
$PINSBASE
 10
0.0
 20
0.0
 30
0.0
  9
$PLIMCHECK
 70
     0
  9
$PEXTMIN
 10
1.000000000000E+20
 20
1.000000000000E+20
 30
1.000000000000E+20
  9
$PEXTMAX
 10
-1.000000000000E+20
 20
-1.000000000000E+20
 30
-1.000000000000E+20
  9
$PLIMMIN
 10
0.0
 20
0.0
  9
$PLIMMAX
 10
12.0
 20
9.0
  9
$UNITMODE
 70
     0
  9
$VISRETAIN
 70
     1
  9
$PLINEGEN
 70
     0
  9
$PSLTSCALE
 70
     1
  9
$TREEDEPTH
 70
  3020
  9
$CMLSTYLE
  2
Standard
  9
$CMLJUST
 70
     0
  9
$CMLSCALE
 40
1.0
  9
$PROXYGRAPHICS
 70
     1
  9
$MEASUREMENT
 70
     0
  9
$CELWEIGHT
370
    -1
  9
$ENDCAPS
280
     0
  9
$JOINSTYLE
280
     0
  9
$LWDISPLAY
290
     0
  9
$INSUNITS
 70
     0
  9
$HYPERLINKBASE
  1

  9
$STYLESHEET
  1

  9
$XEDIT
290
     1
  9
$CEPSNTYPE
380
     0
  9
$PSTYLEMODE
290
     1
  9
$FINGERPRINTGUID
  2
{E2B1A931-CECB-42C6-A4AB-D6546F4BB10B}
  9
$VERSIONGUID
  2
{FAEB1C32-E019-11D5-929B-00C0DF256EC4}
  9
$EXTNAMES
290
     1
  9
$PSVPSCALE
 40
0.0
  9
$OLESTARTUP
290
     0
  0
ENDSEC
  0
SECTION
  2
CLASSES
  0
CLASS
  1
ACDBDICTIONARYWDFLT
  2
AcDbDictionaryWithDefault
  3
ObjectDBX Classes
 90
        0
280
     0
281
     0
  0
CLASS
  1
SCALE
  2
AcDbScale
  3
ObjectDBX Classes
 90
     1153
280
     0
281
     0
  0
CLASS
  1
DICTIONARYVAR
  2
AcDbDictionaryVar
  3
ObjectDBX Classes
 90
        0
280
     0
281
     0
  0
CLASS
  1
ACDBPLACEHOLDER
  2
AcDbPlaceHolder
  3
ObjectDBX Classes
 90
        0
280
     0
281
     0
  0
CLASS
  1
LAYOUT
  2
AcDbLayout
  3
ObjectDBX Classes
 90
        0
280
     0
281
     0
  0
ENDSEC
  0
SECTION
  2
TABLES
  0
TABLE
  2
VPORT
  5
8
330
0
100
AcDbSymbolTable
 70
     1
  0
VPORT
  5
31B
330
8
100
AcDbSymbolTableRecord
100
AcDbViewportTableRecord
  2
*Active
 70
     0
 10
0.0
 20
0.0
 11
1.0
 21
1.0
 12
240.0
 22
109.0
 13
0.0
 23
0.0
 14
0.5
 24
0.5
 15
0.5
 25
0.5
 16
0.0
 26
0.0
 36
1.0
 17
0.0
 27
0.0
 37
0.0
 40
273.388640714741
 41
1.790857142857
 42
50.0
 43
0.0
 44
0.0
 50
0.0
 51
0.0
 71
    16
 72
   100
 73
     1
 74
     3
 75
     0
 76
     0
 77
     0
 78
     0
281
     0
 65
     1
110
0.0
120
0.0
130
0.0
111
1.0
121
0.0
131
0.0
112
0.0
122
1.0
132
0.0
 79
     0
146
0.0
  0
ENDTAB
  0
TABLE
  2
LTYPE
  5
5
330
0
100
AcDbSymbolTable
 70
     1
  0
LTYPE
  5
14
330
5
100
AcDbSymbolTableRecord
100
AcDbLinetypeTableRecord
  2
ByBlock
 70
     0
  3

 72
    65
 73
     0
 40
0.0
  0
LTYPE
  5
15
330
5
100
AcDbSymbolTableRecord
100
AcDbLinetypeTableRecord
  2
ByLayer
 70
     0
  3

 72
    65
 73
     0
 40
0.0
  0
LTYPE
  5
16
330
5
100
AcDbSymbolTableRecord
100
AcDbLinetypeTableRecord
  2
Continuous
 70
     0
  3
Solid line
 72
    65
 73
     0
 40
0.0
  0
ENDTAB
  0
TABLE
  2
LAYER
  5
2
330
0
100
AcDbSymbolTable
 70
     1
  0
LAYER
  5
10
330
2
100
AcDbSymbolTableRecord
100
AcDbLayerTableRecord
  2
0
 70
     0
 62
     7
  6
Continuous
370
    -3
390
F
  0
ENDTAB
  0
TABLE
  2
STYLE
  5
3
330
0
100
AcDbSymbolTable
 70
     1
  0
STYLE
  5
11
330
3
100
AcDbSymbolTableRecord
100
AcDbTextStyleTableRecord
  2
Standard
 70
     0
 40
0.0
 41
1.0
 50
0.0
 71
     0
 42
0.2
  3
txt
  4

  0
ENDTAB
  0
TABLE
  2
VIEW
  5
6
330
0
100
AcDbSymbolTable
 70
     0
  0
ENDTAB
  0
TABLE
  2
UCS
  5
7
330
0
100
AcDbSymbolTable
 70
     0
  0
ENDTAB
  0
TABLE
  2
APPID
  5
9
330
0
100
AcDbSymbolTable
 70
     1
  0
APPID
  5
12
330
9
100
AcDbSymbolTableRecord
100
AcDbRegAppTableRecord
  2
ACAD
 70
     0
  0
ENDTAB
  0
TABLE
  2
DIMSTYLE
  5
A
330
0
100
AcDbSymbolTable
 70
     1
100
AcDbDimStyleTable
  0
DIMSTYLE
105
20
330
A
100
AcDbSymbolTableRecord
100
AcDbDimStyleTableRecord
  2
Standard
 70
     0
340
11
  0
ENDTAB
  0
TABLE
  2
BLOCK_RECORD
  5
1
330
0
100
AcDbSymbolTable
 70
     2
  0
BLOCK_RECORD
  5
1D
330
1
100
AcDbSymbolTableRecord
100
AcDbBlockTableRecord
  2
*Model_Space
340
1E
  0
BLOCK_RECORD
  5
1B
330
1
100
AcDbSymbolTableRecord
100
AcDbBlockTableRecord
  2
*Paper_Space
340
1C
  0
ENDTAB
  0
ENDSEC
  0
SECTION
  2
BLOCKS
  0
BLOCK
  5
31E
330
1D
100
AcDbEntity
  8
0
100
AcDbBlockBegin
  2
*Model_Space
 70
     0
 10
0.0
 20
0.0
 30
0.0
  3
*Model_Space
  1
*Model_Space
  0
ENDBLK
  5
31F
330
1D
100
AcDbEntity
  8
0
100
AcDbBlockEnd
  0
BLOCK
  5
31C
330
1B
100
AcDbEntity
 67
     1
  8
0
100
AcDbBlockBegin
  2
*Paper_Space
 70
     0
 10
0.0
 20
0.0
 30
0.0
  3
*Paper_Space
  1
*Paper_Space
  0
ENDBLK
  5
31D
330
1B
100
AcDbEntity
 67
     1
  8
0
100
AcDbBlockEnd
  0
ENDSEC
  0
SECTION
  2
ENTITIES
  0
LINE
  5
145
330
1D
100
AcDbEntity
  8
0
100
AcDbLine
 10
55.0
 20
212.19054
 30
0.0
 11
75.0
 21
212.19054
 31
0.0
  0
LINE
  5
30D
330
1D
100
AcDbEntity
  8
0
100
AcDbLine
 10
155.703
 20
212.18854
 30
0.0
 11
156.984660868812
 21
212.188557169278
 31
0.0
  0
LINE
  5
4E8
330
1D
100
AcDbEntity
  8
0
100
AcDbLine
 10
0.7
 20
122.69054
 30
0.0
 11
2.3
 21
114.39054
 31
0.0
  0
LINE
  5
4E9
330
1D
100
AcDbEntity
  8
0
100
AcDbLine
 10
19.1
 20
85.29054
 30
0.0
 11
25.5
 21
79.69054
 31
0.0
  0
LINE
  5
4EA
330
1D
100
AcDbEntity
  8
0
100
AcDbLine
 10
15.1
 20
92.89054
 30
0.0
 11
20.5
 21
86.69054
 31
0.0
  0
LINE
  5
4EB
330
1D
100
AcDbEntity
  8
0
100
AcDbLine
 10
13.5
 20
91.69054
 30
0.0
 11
19.1
 21
85.29054
 31
0.0
  0
LINE
  5
4EC
330
1D
100
AcDbEntity
  8
0
100
AcDbLine
 10
10.4
 20
99.79054
 30
0.0
 11
15.1
 21
92.89054
 31
0.0
  0
LINE
  5
4ED
330
1D
100
AcDbEntity
  8
0
100
AcDbLine
 10
6.9
 20
107.09054
 30
0.0
 11
10.4
 21
99.79054
 31
0.0
  0
LINE
  5
4EE
330
1D
100
AcDbEntity
  8
0
100
AcDbLine
 10
8.7
 20
98.79054
 30
0.0
 11
13.5
 21
91.69054
 31
0.0
  0
LINE
  5
4EF
330
1D
100
AcDbEntity
  8
0
100
AcDbLine
 10
5.1
 20
106.39054
 30
0.0
 11
8.7
 21
98.79054
 31
0.0
  0
LINE
  5
4F0
330
1D
100
AcDbEntity
  8
0
100
AcDbLine
 10
4.3
 20
114.99054
 30
0.0
 11
6.9
 21
107.09054
 31
0.0
  0
LINE
  5
4F1
330
1D
100
AcDbEntity
  8
0
100
AcDbLine
 10
2.6
 20
122.99054
 30
0.0
 11
4.3
 21
114.99054
 31
0.0
  0
LINE
  5
4F2
330
1D
100
AcDbEntity
  8
0
100
AcDbLine
 10
2.3
 20
114.39054
 30
0.0
 11
5.1
 21
106.39054
 31
0.0
  0
LINE
  5
4F3
330
1D
100
AcDbEntity
  8
0
100
AcDbLine
 10
2.0
 20
131.19054
 30
0.0
 11
2.6
 21
139.39054
 31
0.0
  0
LINE
  5
4F4
330
1D
100
AcDbEntity
  8
0
100
AcDbLine
 10
2.0
 20
131.19054
 30
0.0
 11
2.6
 21
122.99054
 31
0.0
  0
LINE
  5
4F5
330
1D
100
AcDbEntity
  8
0
100
AcDbLine
 10
4.3
 20
147.39054
 30
0.0
 11
6.9
 21
155.29054
 31
0.0
  0
LINE
  5
4F6
330
1D
100
AcDbEntity
  8
0
100
AcDbLine
 10
2.6
 20
139.39054
 30
0.0
 11
4.3
 21
147.39054
 31
0.0
  0
LINE
  5
4F7
330
1D
100
AcDbEntity
  8
0
100
AcDbLine
 10
6.9
 20
155.29054
 30
0.0
 11
10.4
 21
162.59054
 31
0.0
  0
LINE
  5
4F8
330
1D
100
AcDbEntity
  8
0
100
AcDbLine
 10
5.1
 20
155.99054
 30
0.0
 11
8.7
 21
163.59054
 31
0.0
  0
LINE
  5
4F9
330
1D
100
AcDbEntity
  8
0
100
AcDbLine
 10
2.3
 20
147.99054
 30
0.0
 11
5.1
 21
155.99054
 31
0.0
  0
LINE
  5
4FA
330
1D
100
AcDbEntity
  8
0
100
AcDbLine
 10
0.7
 20
139.69054
 30
0.0
 11
2.3
 21
147.99054
 31
0.0
  0
LINE
  5
4FB
330
1D
100
AcDbEntity
  8
0
100
AcDbLine
 10
0.0
 20
131.19054
 30
0.0
 11
0.7
 21
139.69054
 31
0.0
  0
LINE
  5
4FC
330
1D
100
AcDbEntity
  8
0
100
AcDbLine
 10
0.0
 20
131.19054
 30
0.0
 11
0.7
 21
122.69054
 31
0.0
  0
LINE
  5
4FD
330
1D
100
AcDbEntity
  8
0
100
AcDbLine
 10
33.416
 20
36.07124
 30
0.0
 11
34.83
 21
33.49934
 31
0.0
  0
LINE
  5
4FE
330
1D
100
AcDbEntity
  8
0
100
AcDbLine
 10
34.227
 20
34.67204
 30
0.0
 11
34.83
 21
33.49934
 31
0.0
  0
LINE
  5
4FF
330
1D
100
AcDbEntity
  8
0
100
AcDbLine
 10
28.784
 20
47.97944
 30
0.0
 11
29.624
 21
45.19754
 31
0.0
  0
LINE
  5
500
330
1D
100
AcDbEntity
  8
0
100
AcDbLine
 10
31.62
 20
39.75634
 30
0.0
 11
34.227
 21
34.67204
 31
0.0
  0
LINE
  5
501
330
1D
100
AcDbEntity
  8
0
100
AcDbLine
 10
31.62
 20
39.75634
 30
0.0
 11
33.416
 21
36.07124
 31
0.0
  0
LINE
  5
502
330
1D
100
AcDbEntity
  8
0
100
AcDbLine
 10
30.54
 20
42.43164
 30
0.0
 11
31.62
 21
39.75634
 31
0.0
  0
LINE
  5
503
330
1D
100
AcDbEntity
  8
0
100
AcDbLine
 10
29.624
 20
45.19754
 30
0.0
 11
30.54
 21
42.43164
 31
0.0
  0
LINE
  5
504
330
1D
100
AcDbEntity
  8
0
100
AcDbLine
 10
27.964
 20
51.65454
 30
0.0
 11
28.784
 21
47.97944
 31
0.0
  0
LINE
  5
505
330
1D
100
AcDbEntity
  8
0
100
AcDbLine
 10
34.83
 20
33.49934
 30
0.0
 11
37.978
 21
28.77584
 31
0.0
  0
LINE
  5
506
330
1D
100
AcDbEntity
  8
0
100
AcDbLine
 10
37.978
 20
28.77584
 30
0.0
 11
41.628
 21
24.38374
 31
0.0
  0
LINE
  5
507
330
1D
100
AcDbEntity
  8
0
100
AcDbLine
 10
27.0
 20
60.91124
 30
0.0
 11
27.015
 21
61.39444
 31
0.0
  0
LINE
  5
508
330
1D
100
AcDbEntity
  8
0
100
AcDbLine
 10
27.0
 20
60.91124
 30
0.0
 11
27.11
 21
57.85884
 31
0.0
  0
LINE
  5
509
330
1D
100
AcDbEntity
  8
0
100
AcDbLine
 10
27.076611515553
 20
62.439256677697
 30
0.0
 11
27.22
 21
65.29914
 31
0.0
  0
LINE
  5
50A
330
1D
100
AcDbEntity
  8
0
100
AcDbLine
 10
27.441
 20
54.80954
 30
0.0
 11
27.964
 21
51.65454
 31
0.0
  0
LINE
  5
50B
330
1D
100
AcDbEntity
  8
0
100
AcDbLine
 10
27.11
 20
57.85884
 30
0.0
 11
27.441
 21
54.80954
 31
0.0
  0
LINE
  5
50C
330
1D
100
AcDbEntity
  8
0
100
AcDbLine
 10
27.22
 20
65.29914
 30
0.0
 11
27.316
 21
66.49884
 31
0.0
  0
LINE
  5
50D
330
1D
100
AcDbEntity
  8
0
100
AcDbLine
 10
27.076611515553
 20
62.439256677697
 30
0.0
 11
27.22
 21
65.29914
 31
0.0
  0
LINE
  5
50E
330
1D
100
AcDbEntity
  8
0
100
AcDbLine
 10
29.724
 20
76.55064
 30
0.0
 11
31.817
 21
81.41404
 31
0.0
  0
LINE
  5
50F
330
1D
100
AcDbEntity
  8
0
100
AcDbLine
 10
28.219
 20
71.56554
 30
0.0
 11
29.724
 21
76.55064
 31
0.0
  0
LINE
  5
510
330
1D
100
AcDbEntity
  8
0
100
AcDbLine
 10
27.316
 20
66.49884
 30
0.0
 11
28.219
 21
71.56554
 31
0.0
  0
LINE
  5
511
330
1D
100
AcDbEntity
  8
0
100
AcDbLine
 10
27.015
 20
61.39444
 30
0.0
 11
27.316
 21
66.49884
 31
0.0
  0
LINE
  5
512
330
1D
100
AcDbEntity
  8
0
100
AcDbLine
 10
45.751
 20
20.31014
 30
0.0
 11
46.934
 21
19.25844
 31
0.0
  0
LINE
  5
513
330
1D
100
AcDbEntity
  8
0
100
AcDbLine
 10
46.934
 20
19.25844
 30
0.0
 11
50.603
 21
16.30274
 31
0.0
  0
LINE
  5
514
330
1D
100
AcDbEntity
  8
0
100
AcDbLine
 10
41.628
 20
24.38374
 30
0.0
 11
43.553
 21
22.41464
 31
0.0
  0
LINE
  5
515
330
1D
100
AcDbEntity
  8
0
100
AcDbLine
 10
43.553
 20
22.41464
 30
0.0
 11
45.751
 21
20.31014
 31
0.0
  0
LINE
  5
516
330
1D
100
AcDbEntity
  8
0
100
AcDbLine
 10
20.5
 20
86.69054
 30
0.0
 11
26.7
 21
81.29054
 31
0.0
  0
LINE
  5
517
330
1D
100
AcDbEntity
  8
0
100
AcDbLine
 10
31.817
 20
81.41404
 30
0.0
 11
34.271
 21
85.77974
 31
0.0
  0
LINE
  5
518
330
1D
100
AcDbEntity
  8
0
100
AcDbLine
 10
34.271
 20
85.77974
 30
0.0
 11
37.206
 21
89.95584
 31
0.0
  0
LINE
  5
519
330
1D
100
AcDbEntity
  8
0
100
AcDbLine
 10
37.206
 20
89.95584
 30
0.0
 11
40.151
 21
93.44044
 31
0.0
  0
LINE
  5
51A
330
1D
100
AcDbEntity
  8
0
100
AcDbLine
 10
40.151
 20
93.44044
 30
0.0
 11
40.518
 21
93.83274
 31
0.0
  0
LINE
  5
51B
330
1D
100
AcDbEntity
  8
0
100
AcDbLine
 10
40.518
 20
93.83274
 30
0.0
 11
43.786
 21
97.14014
 31
0.0
  0
LINE
  5
51C
330
1D
100
AcDbEntity
  8
0
100
AcDbLine
 10
43.786
 20
97.14014
 30
0.0
 11
47.343
 21
100.25534
 31
0.0
  0
LINE
  5
51D
330
1D
100
AcDbEntity
  8
0
100
AcDbLine
 10
47.343
 20
100.25534
 30
0.0
 11
51.164
 21
103.17154
 31
0.0
  0
LINE
  5
51E
330
1D
100
AcDbEntity
  8
0
100
AcDbLine
 10
26.7
 20
81.29054
 30
0.0
 11
30.615928007336
 21
78.623168748627
 31
0.0
  0
LINE
  5
51F
330
1D
100
AcDbEntity
  8
0
100
AcDbLine
 10
26.7
 20
81.29054
 30
0.0
 11
30.615928007336
 21
78.623168748627
 31
0.0
  0
LINE
  5
520
330
1D
100
AcDbEntity
  8
0
100
AcDbLine
 10
25.5
 20
79.69054
 30
0.0
 11
29.81875527643
 21
76.770818122977
 31
0.0
  0
LINE
  5
521
330
1D
100
AcDbEntity
  8
0
100
AcDbLine
 10
19.7692
 20
161.19054
 30
0.0
 11
48.2308
 21
161.19054
 31
0.0
  0
LINE
  5
522
330
1D
100
AcDbEntity
  8
0
100
AcDbLine
 10
19.0
 20
161.57454
 30
0.0
 11
19.0
 21
162.15054
 31
0.0
  0
LINE
  5
523
330
1D
100
AcDbEntity
  8
0
100
AcDbLine
 10
19.0
 20
161.57454
 30
0.0
 11
19.7692
 21
161.19054
 31
0.0
  0
LINE
  5
524
330
1D
100
AcDbEntity
  8
0
100
AcDbLine
 10
19.7692
 20
161.19054
 30
0.0
 11
48.2308
 21
161.19054
 31
0.0
  0
LINE
  5
525
330
1D
100
AcDbEntity
  8
0
100
AcDbLine
 10
49.0
 20
161.57454
 30
0.0
 11
49.0
 21
162.15054
 31
0.0
  0
LINE
  5
526
330
1D
100
AcDbEntity
  8
0
100
AcDbLine
 10
48.2308
 20
161.19054
 30
0.0
 11
49.0
 21
161.57454
 31
0.0
  0
LINE
  5
527
330
1D
100
AcDbEntity
  8
0
100
AcDbLine
 10
10.4
 20
162.59054
 30
0.0
 11
15.1
 21
169.49054
 31
0.0
  0
LINE
  5
528
330
1D
100
AcDbEntity
  8
0
100
AcDbLine
 10
8.7
 20
163.59054
 30
0.0
 11
13.5
 21
170.69054
 31
0.0
  0
LINE
  5
529
330
1D
100
AcDbEntity
  8
0
100
AcDbLine
 10
19.0
 20
162.15054
 30
0.0
 11
19.0
 21
163.68654
 31
0.0
  0
LINE
  5
52A
330
1D
100
AcDbEntity
  8
0
100
AcDbLine
 10
19.0
 20
162.15054
 30
0.0
 11
19.0
 21
161.57454
 31
0.0
  0
LINE
  5
52B
330
1D
100
AcDbEntity
  8
0
100
AcDbLine
 10
49.0
 20
162.15054
 30
0.0
 11
49.0
 21
163.68654
 31
0.0
  0
LINE
  5
52C
330
1D
100
AcDbEntity
  8
0
100
AcDbLine
 10
49.0
 20
162.15054
 30
0.0
 11
49.0
 21
161.57454
 31
0.0
  0
LINE
  5
52D
330
1D
100
AcDbEntity
  8
0
100
AcDbLine
 10
49.0
 20
163.68654
 30
0.0
 11
49.0
 21
166.18254
 31
0.0
  0
LINE
  5
52E
330
1D
100
AcDbEntity
  8
0
100
AcDbLine
 10
49.0
 20
163.68654
 30
0.0
 11
49.0
 21
162.15054
 31
0.0
  0
LINE
  5
52F
330
1D
100
AcDbEntity
  8
0
100
AcDbLine
 10
19.0
 20
163.68654
 30
0.0
 11
19.0
 21
166.18254
 31
0.0
  0
LINE
  5
530
330
1D
100
AcDbEntity
  8
0
100
AcDbLine
 10
19.0
 20
163.68654
 30
0.0
 11
19.0
 21
162.15054
 31
0.0
  0
LINE
  5
531
330
1D
100
AcDbEntity
  8
0
100
AcDbLine
 10
15.1
 20
169.49054
 30
0.0
 11
19.0
 21
173.968317777778
 31
0.0
  0
LINE
  5
532
330
1D
100
AcDbEntity
  8
0
100
AcDbLine
 10
13.5
 20
170.69054
 30
0.0
 11
16.775602476516
 21
174.434085687447
 31
0.0
  0
LINE
  5
533
330
1D
100
AcDbEntity
  8
0
100
AcDbLine
 10
19.0
 20
166.18254
 30
0.0
 11
19.0
 21
169.44654
 31
0.0
  0
LINE
  5
534
330
1D
100
AcDbEntity
  8
0
100
AcDbLine
 10
19.0
 20
166.18254
 30
0.0
 11
19.0
 21
163.68654
 31
0.0
  0
LINE
  5
535
330
1D
100
AcDbEntity
  8
0
100
AcDbLine
 10
49.0
 20
166.18254
 30
0.0
 11
49.0
 21
169.44654
 31
0.0
  0
LINE
  5
536
330
1D
100
AcDbEntity
  8
0
100
AcDbLine
 10
49.0
 20
166.18254
 30
0.0
 11
49.0
 21
163.68654
 31
0.0
  0
LINE
  5
537
330
1D
100
AcDbEntity
  8
0
100
AcDbLine
 10
49.0
 20
169.44654
 30
0.0
 11
49.0
 21
173.15854
 31
0.0
  0
LINE
  5
538
330
1D
100
AcDbEntity
  8
0
100
AcDbLine
 10
49.0
 20
169.44654
 30
0.0
 11
49.0
 21
166.18254
 31
0.0
  0
LINE
  5
539
330
1D
100
AcDbEntity
  8
0
100
AcDbLine
 10
19.0
 20
169.44654
 30
0.0
 11
19.0
 21
173.15854
 31
0.0
  0
LINE
  5
53A
330
1D
100
AcDbEntity
  8
0
100
AcDbLine
 10
19.0
 20
169.44654
 30
0.0
 11
19.0
 21
166.18254
 31
0.0
  0
LINE
  5
53B
330
1D
100
AcDbEntity
  8
0
100
AcDbLine
 10
17.8283
 20
174.19054
 30
0.0
 11
19.7692
 21
174.19054
 31
0.0
  0
LINE
  5
53C
330
1D
100
AcDbEntity
  8
0
100
AcDbLine
 10
17.8283
 20
174.19054
 30
0.0
 11
18.5587
 21
174.29854
 31
0.0
  0
LINE
  5
53D
330
1D
100
AcDbEntity
  8
0
100
AcDbLine
 10
18.5587
 20
174.29854
 30
0.0
 11
19.2434
 21
174.58654
 31
0.0
  0
LINE
  5
53E
330
1D
100
AcDbEntity
  8
0
100
AcDbLine
 10
17.0979
 20
174.29854
 30
0.0
 11
17.8283
 21
174.19054
 31
0.0
  0
LINE
  5
53F
330
1D
100
AcDbEntity
  8
0
100
AcDbLine
 10
16.4131
 20
174.58654
 30
0.0
 11
17.0979
 21
174.29854
 31
0.0
  0
LINE
  5
540
330
1D
100
AcDbEntity
  8
0
100
AcDbLine
 10
15.8082
 20
175.06654
 30
0.0
 11
16.4131
 21
174.58654
 31
0.0
  0
LINE
  5
541
330
1D
100
AcDbEntity
  8
0
100
AcDbLine
 10
15.3517
 20
175.70254
 30
0.0
 11
15.8082
 21
175.06654
 31
0.0
  0
LINE
  5
542
330
1D
100
AcDbEntity
  8
0
100
AcDbLine
 10
19.0
 20
174.19054
 30
0.0
 11
19.0
 21
173.15854
 31
0.0
  0
LINE
  5
543
330
1D
100
AcDbEntity
  8
0
100
AcDbLine
 10
19.2434
 20
174.58654
 30
0.0
 11
19.8483
 21
175.06654
 31
0.0
  0
LINE
  5
544
330
1D
100
AcDbEntity
  8
0
100
AcDbLine
 10
19.8483
 20
175.06654
 30
0.0
 11
20.3048
 21
175.70254
 31
0.0
  0
LINE
  5
545
330
1D
100
AcDbEntity
  8
0
100
AcDbLine
 10
20.3048
 20
175.70254
 30
0.0
 11
20.5787
 21
176.42254
 31
0.0
  0
LINE
  5
546
330
1D
100
AcDbEntity
  8
0
100
AcDbLine
 10
49.0
 20
173.15854
 30
0.0
 11
49.0
 21
177.19054
 31
0.0
  0
LINE
  5
547
330
1D
100
AcDbEntity
  8
0
100
AcDbLine
 10
49.0
 20
173.15854
 30
0.0
 11
49.0
 21
169.44654
 31
0.0
  0
LINE
  5
548
330
1D
100
AcDbEntity
  8
0
100
AcDbLine
 10
19.0
 20
173.15854
 30
0.0
 11
19.0
 21
174.19054
 31
0.0
  0
LINE
  5
549
330
1D
100
AcDbEntity
  8
0
100
AcDbLine
 10
19.0
 20
173.15854
 30
0.0
 11
19.0
 21
169.44654
 31
0.0
  0
LINE
  5
54A
330
1D
100
AcDbEntity
  8
0
100
AcDbLine
 10
49.0
 20
173.01954
 30
0.0
 11
49.0
 21
169.16854
 31
0.0
  0
LINE
  5
54B
330
1D
100
AcDbEntity
  8
0
100
AcDbLine
 10
49.0
 20
169.16854
 30
0.0
 11
49.0
 21
165.91754
 31
0.0
  0
LINE
  5
54C
330
1D
100
AcDbEntity
  8
0
100
AcDbLine
 10
49.0
 20
165.91754
 30
0.0
 11
49.0
 21
163.29054
 31
0.0
  0
LINE
  5
54D
330
1D
100
AcDbEntity
  8
0
100
AcDbLine
 10
49.0
 20
163.29054
 30
0.0
 11
49.0
 21
161.73254
 31
0.0
  0
LINE
  5
54E
330
1D
100
AcDbEntity
  8
0
100
AcDbLine
 10
49.0
 20
161.73254
 30
0.0
 11
49.0
 21
161.13054
 31
0.0
  0
LINE
  5
54F
330
1D
100
AcDbEntity
  8
0
100
AcDbLine
 10
50.603
 20
16.30274
 30
0.0
 11
53.963
 21
13.93944
 31
0.0
  0
LINE
  5
550
330
1D
100
AcDbEntity
  8
0
100
AcDbLine
 10
53.963
 20
13.93944
 30
0.0
 11
58.552
 21
11.14158
 31
0.0
  0
LINE
  5
551
330
1D
100
AcDbEntity
  8
0
100
AcDbLine
 10
55.265131427965
 20
13.175364485444
 30
0.0
 11
58.552
 21
11.14158
 31
0.0
  0
LINE
  5
552
330
1D
100
AcDbEntity
  8
0
100
AcDbLine
 10
51.164
 20
103.17154
 30
0.0
 11
56.031
 21
106.39154
 31
0.0
  0
LINE
  5
553
330
1D
100
AcDbEntity
  8
0
100
AcDbLine
 10
58.552
 20
11.14158
 30
0.0
 11
63.448
 21
8.61604
 31
0.0
  0
LINE
  5
554
330
1D
100
AcDbEntity
  8
0
100
AcDbLine
 10
63.448
 20
8.61604
 30
0.0
 11
68.518
 21
6.42389
 31
0.0
  0
LINE
  5
555
330
1D
100
AcDbEntity
  8
0
100
AcDbLine
 10
56.031
 20
106.39154
 30
0.0
 11
61.145
 21
109.35154
 31
0.0
  0
LINE
  5
556
330
1D
100
AcDbEntity
  8
0
100
AcDbLine
 10
61.145
 20
109.35154
 30
0.0
 11
66.398
 21
112.11754
 31
0.0
  0
LINE
  5
557
330
1D
100
AcDbEntity
  8
0
100
AcDbLine
 10
62.184
 20
166.58654
 30
0.0
 11
65.0
 21
166.19054
 31
0.0
  0
LINE
  5
558
330
1D
100
AcDbEntity
  8
0
100
AcDbLine
 10
65.0
 20
166.45454
 30
0.0
 11
67.772
 21
166.85054
 31
0.0
  0
LINE
  5
559
330
1D
100
AcDbEntity
  8
0
100
AcDbLine
 10
68.518
 20
6.42389
 30
0.0
 11
73.851
 21
4.52276
 31
0.0
  0
LINE
  5
55A
330
1D
100
AcDbEntity
  8
0
100
AcDbLine
 10
66.398
 20
112.11754
 30
0.0
 11
71.624
 21
114.81454
 31
0.0
  0
LINE
  5
55B
330
1D
100
AcDbEntity
  8
0
100
AcDbLine
 10
65.0
 20
166.19054
 30
0.0
 11
67.816
 21
166.58654
 31
0.0
  0
LINE
  5
55C
330
1D
100
AcDbEntity
  8
0
100
AcDbLine
 10
62.228
 20
166.85054
 30
0.0
 11
65.0
 21
166.45454
 31
0.0
  0
LINE
  5
55D
330
1D
100
AcDbEntity
  8
0
100
AcDbLine
 10
59.676
 20
167.90654
 30
0.0
 11
62.228
 21
166.85054
 31
0.0
  0
LINE
  5
55E
330
1D
100
AcDbEntity
  8
0
100
AcDbLine
 10
59.544
 20
167.64254
 30
0.0
 11
62.184
 21
166.58654
 31
0.0
  0
LINE
  5
55F
330
1D
100
AcDbEntity
  8
0
100
AcDbLine
 10
57.212
 20
169.40254
 30
0.0
 11
59.544
 21
167.64254
 31
0.0
  0
LINE
  5
560
330
1D
100
AcDbEntity
  8
0
100
AcDbLine
 10
67.772
 20
166.85054
 30
0.0
 11
70.324
 21
167.90654
 31
0.0
  0
LINE
  5
561
330
1D
100
AcDbEntity
  8
0
100
AcDbLine
 10
70.324
 20
167.90654
 30
0.0
 11
72.568
 21
169.62254
 31
0.0
  0
LINE
  5
562
330
1D
100
AcDbEntity
  8
0
100
AcDbLine
 10
67.816
 20
166.58654
 30
0.0
 11
70.456
 21
167.64254
 31
0.0
  0
LINE
  5
563
330
1D
100
AcDbEntity
  8
0
100
AcDbLine
 10
73.851
 20
4.52276
 30
0.0
 11
79.361
 21
2.947702
 31
0.0
  0
LINE
  5
564
330
1D
100
AcDbEntity
  8
0
100
AcDbLine
 10
73.851
 20
4.52276
 30
0.0
 11
78.651925169879
 21
3.170417143549
 31
0.0
  0
LINE
  5
565
330
1D
100
AcDbEntity
  8
0
100
AcDbLine
 10
71.624
 20
114.81454
 30
0.0
 11
73.985
 21
116.11254
 31
0.0
  0
LINE
  5
566
330
1D
100
AcDbEntity
  8
0
100
AcDbLine
 10
73.985
 20
116.11254
 30
0.0
 11
76.505
 21
117.65554
 31
0.0
  0
LINE
  5
567
330
1D
100
AcDbEntity
  8
0
100
AcDbLine
 10
70.456
 20
167.64254
 30
0.0
 11
72.788
 21
169.40254
 31
0.0
  0
LINE
  5
568
330
1D
100
AcDbEntity
  8
0
100
AcDbLine
 10
57.432
 20
169.62254
 30
0.0
 11
59.676
 21
167.90654
 31
0.0
  0
LINE
  5
569
330
1D
100
AcDbEntity
  8
0
100
AcDbLine
 10
55.716
 20
171.86654
 30
0.0
 11
57.432
 21
169.62254
 31
0.0
  0
LINE
  5
56A
330
1D
100
AcDbEntity
  8
0
100
AcDbLine
 10
55.452
 20
171.73454
 30
0.0
 11
57.212
 21
169.40254
 31
0.0
  0
LINE
  5
56B
330
1D
100
AcDbEntity
  8
0
100
AcDbLine
 10
54.396
 20
174.37454
 30
0.0
 11
55.452
 21
171.73454
 31
0.0
  0
LINE
  5
56C
330
1D
100
AcDbEntity
  8
0
100
AcDbLine
 10
72.568
 20
169.62254
 30
0.0
 11
74.284
 21
171.86654
 31
0.0
  0
LINE
  5
56D
330
1D
100
AcDbEntity
  8
0
100
AcDbLine
 10
74.284
 20
171.86654
 30
0.0
 11
75.34
 21
174.41854
 31
0.0
  0
LINE
  5
56E
330
1D
100
AcDbEntity
  8
0
100
AcDbLine
 10
72.788
 20
169.40254
 30
0.0
 11
74.548
 21
171.73454
 31
0.0
  0
LINE
  5
56F
330
1D
100
AcDbEntity
  8
0
100
AcDbLine
 10
85.108
 20
1.689088
 30
0.0
 11
88.86
 21
1.0661
 31
0.0
  0
LINE
  5
570
330
1D
100
AcDbEntity
  8
0
100
AcDbLine
 10
88.86
 20
1.0661
 30
0.0
 11
92.699
 21
0.58595
 31
0.0
  0
LINE
  5
571
330
1D
100
AcDbEntity
  8
0
100
AcDbLine
 10
79.361
 20
2.947702
 30
0.0
 11
85.108
 21
1.689088
 31
0.0
  0
LINE
  5
572
330
1D
100
AcDbEntity
  8
0
100
AcDbLine
 10
76.505
 20
117.65554
 30
0.0
 11
78.803
 21
119.29454
 31
0.0
  0
LINE
  5
573
330
1D
100
AcDbEntity
  8
0
100
AcDbLine
 10
83.384542914546
 20
124.985350672775
 30
0.0
 11
84.015
 21
127.39954
 31
0.0
  0
LINE
  5
574
330
1D
100
AcDbEntity
  8
0
100
AcDbLine
 10
83.967499973804
 20
127.217649655787
 30
0.0
 11
84.197
 21
129.27054
 31
0.0
  0
LINE
  5
575
330
1D
100
AcDbEntity
  8
0
100
AcDbLine
 10
84.489
 20
134.08254
 30
0.0
 11
84.812
 21
139.04354
 31
0.0
  0
LINE
  5
576
330
1D
100
AcDbEntity
  8
0
100
AcDbLine
 10
84.549
 20
135.15054
 30
0.0
 11
84.581461126935
 21
135.502662757657
 31
0.0
  0
LINE
  5
577
330
1D
100
AcDbEntity
  8
0
100
AcDbLine
 10
84.812
 20
139.04354
 30
0.0
 11
85.618
 21
146.74654
 31
0.0
  0
LINE
  5
578
330
1D
100
AcDbEntity
  8
0
100
AcDbLine
 10
84.197
 20
129.27054
 30
0.0
 11
84.489
 21
134.08254
 31
0.0
  0
LINE
  5
579
330
1D
100
AcDbEntity
  8
0
100
AcDbLine
 10
82.905
 20
123.93654
 30
0.0
 11
83.696
 21
125.66654
 31
0.0
  0
LINE
  5
57A
330
1D
100
AcDbEntity
  8
0
100
AcDbLine
 10
81.802128093603
 20
122.210869840579
 30
0.0
 11
82.905
 21
123.93654
 31
0.0
  0
LINE
  5
57B
330
1D
100
AcDbEntity
  8
0
100
AcDbLine
 10
80.793
 20
121.04654
 30
0.0
 11
82.386
 21
122.88454
 31
0.0
  0
LINE
  5
57C
330
1D
100
AcDbEntity
  8
0
100
AcDbLine
 10
78.803
 20
119.29454
 30
0.0
 11
80.793
 21
121.04654
 31
0.0
  0
LINE
  5
57D
330
1D
100
AcDbEntity
  8
0
100
AcDbLine
 10
85.156355512527
 20
142.334570413145
 30
0.0
 11
85.246
 21
143.36954
 31
0.0
  0
LINE
  5
57E
330
1D
100
AcDbEntity
  8
0
100
AcDbLine
 10
85.246
 20
143.36954
 30
0.0
 11
85.618
 21
146.74654
 31
0.0
  0
LINE
  5
57F
330
1D
100
AcDbEntity
  8
0
100
AcDbLine
 10
85.618
 20
146.74654
 30
0.0
 11
86.777
 21
154.40554
 31
0.0
  0
LINE
  5
580
330
1D
100
AcDbEntity
  8
0
100
AcDbLine
 10
86.777
 20
154.40554
 30
0.0
 11
88.185164344241
 21
161.917270860303
 31
0.0
  0
LINE
  5
581
330
1D
100
AcDbEntity
  8
0
100
AcDbLine
 10
86.777
 20
154.40554
 30
0.0
 11
88.185164344241
 21
161.917270860303
 31
0.0
  0
LINE
  5
582
330
1D
100
AcDbEntity
  8
0
100
AcDbLine
 10
88.769
 20
165.17554
 30
0.0
 11
89.45
 21
167.84554
 31
0.0
  0
LINE
  5
583
330
1D
100
AcDbEntity
  8
0
100
AcDbLine
 10
89.45
 20
167.84554
 30
0.0
 11
89.605
 21
168.42654
 31
0.0
  0
LINE
  5
584
330
1D
100
AcDbEntity
  8
0
100
AcDbLine
 10
89.605
 20
168.42654
 30
0.0
 11
89.958
 21
169.30654
 31
0.0
  0
LINE
  5
585
330
1D
100
AcDbEntity
  8
0
100
AcDbLine
 10
89.958
 20
169.30654
 30
0.0
 11
90.089
 21
169.55654
 31
0.0
  0
LINE
  5
586
330
1D
100
AcDbEntity
  8
0
100
AcDbLine
 10
74.548
 20
171.73454
 30
0.0
 11
75.604
 21
174.37454
 31
0.0
  0
LINE
  5
587
330
1D
100
AcDbEntity
  8
0
100
AcDbLine
 10
54.66
 20
174.41854
 30
0.0
 11
55.716
 21
171.86654
 31
0.0
  0
LINE
  5
588
330
1D
100
AcDbEntity
  8
0
100
AcDbLine
 10
75.34
 20
174.41854
 30
0.0
 11
75.736
 21
177.19054
 31
0.0
  0
LINE
  5
589
330
1D
100
AcDbEntity
  8
0
100
AcDbLine
 10
75.604
 20
174.37454
 30
0.0
 11
76.0
 21
177.19054
 31
0.0
  0
LINE
  5
58A
330
1D
100
AcDbEntity
  8
0
100
AcDbLine
 10
49.0
 20
161.13054
 30
0.0
 11
49.0
 21
161.57454
 31
0.0
  0
LINE
  5
58B
330
1D
100
AcDbEntity
  8
0
100
AcDbLine
 10
49.0
 20
161.13054
 30
0.0
 11
88.037682177135
 21
161.13054
 31
0.0
  0
LINE
  5
58C
330
1D
100
AcDbEntity
  8
0
100
AcDbLine
 10
20.5787
 20
176.42254
 30
0.0
 11
20.6814
 21
177.19054
 31
0.0
  0
LINE
  5
58D
330
1D
100
AcDbEntity
  8
0
100
AcDbLine
 10
15.0778
 20
176.42254
 30
0.0
 11
15.3517
 21
175.70254
 31
0.0
  0
LINE
  5
58E
330
1D
100
AcDbEntity
  8
0
100
AcDbLine
 10
15.3517
 20
178.67854
 30
0.0
 11
15.8082
 21
179.31454
 31
0.0
  0
LINE
  5
58F
330
1D
100
AcDbEntity
  8
0
100
AcDbLine
 10
15.0778
 20
177.95854
 30
0.0
 11
15.3517
 21
178.67854
 31
0.0
  0
LINE
  5
590
330
1D
100
AcDbEntity
  8
0
100
AcDbLine
 10
16.4131
 20
179.79454
 30
0.0
 11
17.0979
 21
180.08254
 31
0.0
  0
LINE
  5
591
330
1D
100
AcDbEntity
  8
0
100
AcDbLine
 10
15.8082
 20
179.31454
 30
0.0
 11
16.4131
 21
179.79454
 31
0.0
  0
LINE
  5
592
330
1D
100
AcDbEntity
  8
0
100
AcDbLine
 10
17.0979
 20
180.08254
 30
0.0
 11
17.8283
 21
180.19054
 31
0.0
  0
LINE
  5
593
330
1D
100
AcDbEntity
  8
0
100
AcDbLine
 10
17.8283
 20
180.19054
 30
0.0
 11
18.5587
 21
180.08254
 31
0.0
  0
LINE
  5
594
330
1D
100
AcDbEntity
  8
0
100
AcDbLine
 10
17.8283
 20
180.19054
 30
0.0
 11
19.7692
 21
180.19054
 31
0.0
  0
LINE
  5
595
330
1D
100
AcDbEntity
  8
0
100
AcDbLine
 10
18.5587
 20
180.08254
 30
0.0
 11
19.2434
 21
179.79454
 31
0.0
  0
LINE
  5
596
330
1D
100
AcDbEntity
  8
0
100
AcDbLine
 10
19.2434
 20
179.79454
 30
0.0
 11
19.8483
 21
179.31454
 31
0.0
  0
LINE
  5
597
330
1D
100
AcDbEntity
  8
0
100
AcDbLine
 10
19.8483
 20
179.31454
 30
0.0
 11
20.3048
 21
178.67854
 31
0.0
  0
LINE
  5
598
330
1D
100
AcDbEntity
  8
0
100
AcDbLine
 10
20.3048
 20
178.67854
 30
0.0
 11
20.5787
 21
177.95854
 31
0.0
  0
LINE
  5
599
330
1D
100
AcDbEntity
  8
0
100
AcDbLine
 10
20.5787
 20
177.95854
 30
0.0
 11
20.6814
 21
177.19054
 31
0.0
  0
LINE
  5
59A
330
1D
100
AcDbEntity
  8
0
100
AcDbLine
 10
14.9751
 20
177.19054
 30
0.0
 11
15.0778
 21
176.42254
 31
0.0
  0
LINE
  5
59B
330
1D
100
AcDbEntity
  8
0
100
AcDbLine
 10
14.9751
 20
177.19054
 30
0.0
 11
15.0778
 21
177.95854
 31
0.0
  0
LINE
  5
59C
330
1D
100
AcDbEntity
  8
0
100
AcDbLine
 10
49.0
 20
177.19054
 30
0.0
 11
49.0
 21
173.15854
 31
0.0
  0
LINE
  5
59D
330
1D
100
AcDbEntity
  8
0
100
AcDbLine
 10
49.0
 20
177.19054
 30
0.0
 11
49.0
 21
181.22254
 31
0.0
  0
LINE
  5
59E
330
1D
100
AcDbEntity
  8
0
100
AcDbLine
 10
49.0
 20
181.22254
 30
0.0
 11
49.0
 21
184.93454
 31
0.0
  0
LINE
  5
59F
330
1D
100
AcDbEntity
  8
0
100
AcDbLine
 10
49.0
 20
181.22254
 30
0.0
 11
49.0
 21
177.19054
 31
0.0
  0
LINE
  5
5A0
330
1D
100
AcDbEntity
  8
0
100
AcDbLine
 10
19.0
 20
181.22254
 30
0.0
 11
19.0
 21
184.93454
 31
0.0
  0
LINE
  5
5A1
330
1D
100
AcDbEntity
  8
0
100
AcDbLine
 10
19.0
 20
181.22254
 30
0.0
 11
19.0
 21
180.19054
 31
0.0
  0
LINE
  5
5A2
330
1D
100
AcDbEntity
  8
0
100
AcDbLine
 10
19.0
 20
180.19054
 30
0.0
 11
19.0
 21
181.22254
 31
0.0
  0
LINE
  5
5A3
330
1D
100
AcDbEntity
  8
0
100
AcDbLine
 10
49.0
 20
177.14654
 30
0.0
 11
49.0
 21
173.01954
 31
0.0
  0
LINE
  5
5A4
330
1D
100
AcDbEntity
  8
0
100
AcDbLine
 10
19.0
 20
188.19854
 30
0.0
 11
19.0
 21
190.69454
 31
0.0
  0
LINE
  5
5A5
330
1D
100
AcDbEntity
  8
0
100
AcDbLine
 10
19.0
 20
188.19854
 30
0.0
 11
19.0
 21
184.93454
 31
0.0
  0
LINE
  5
5A6
330
1D
100
AcDbEntity
  8
0
100
AcDbLine
 10
49.0
 20
188.19854
 30
0.0
 11
49.0
 21
190.69454
 31
0.0
  0
LINE
  5
5A7
330
1D
100
AcDbEntity
  8
0
100
AcDbLine
 10
49.0
 20
188.19854
 30
0.0
 11
49.0
 21
184.93454
 31
0.0
  0
LINE
  5
5A8
330
1D
100
AcDbEntity
  8
0
100
AcDbLine
 10
49.0
 20
184.93454
 30
0.0
 11
49.0
 21
188.19854
 31
0.0
  0
LINE
  5
5A9
330
1D
100
AcDbEntity
  8
0
100
AcDbLine
 10
49.0
 20
184.93454
 30
0.0
 11
49.0
 21
181.22254
 31
0.0
  0
LINE
  5
5AA
330
1D
100
AcDbEntity
  8
0
100
AcDbLine
 10
19.0
 20
184.93454
 30
0.0
 11
19.0
 21
188.19854
 31
0.0
  0
LINE
  5
5AB
330
1D
100
AcDbEntity
  8
0
100
AcDbLine
 10
19.0
 20
184.93454
 30
0.0
 11
19.0
 21
181.22254
 31
0.0
  0
LINE
  5
5AC
330
1D
100
AcDbEntity
  8
0
100
AcDbLine
 10
49.0
 20
181.30454
 30
0.0
 11
49.0
 21
177.14654
 31
0.0
  0
LINE
  5
5AD
330
1D
100
AcDbEntity
  8
0
100
AcDbLine
 10
49.0
 20
185.20654
 30
0.0
 11
49.0
 21
181.30454
 31
0.0
  0
LINE
  5
5AE
330
1D
100
AcDbEntity
  8
0
100
AcDbLine
 10
19.0
 20
192.23054
 30
0.0
 11
19.0
 21
192.80654
 31
0.0
  0
LINE
  5
5AF
330
1D
100
AcDbEntity
  8
0
100
AcDbLine
 10
19.0
 20
192.23054
 30
0.0
 11
19.0
 21
190.69454
 31
0.0
  0
LINE
  5
5B0
330
1D
100
AcDbEntity
  8
0
100
AcDbLine
 10
49.0
 20
192.23054
 30
0.0
 11
49.0
 21
192.80654
 31
0.0
  0
LINE
  5
5B1
330
1D
100
AcDbEntity
  8
0
100
AcDbLine
 10
49.0
 20
192.23054
 30
0.0
 11
49.0
 21
190.69454
 31
0.0
  0
LINE
  5
5B2
330
1D
100
AcDbEntity
  8
0
100
AcDbLine
 10
49.0
 20
190.69454
 30
0.0
 11
49.0
 21
192.23054
 31
0.0
  0
LINE
  5
5B3
330
1D
100
AcDbEntity
  8
0
100
AcDbLine
 10
49.0
 20
190.69454
 30
0.0
 11
49.0
 21
188.19854
 31
0.0
  0
LINE
  5
5B4
330
1D
100
AcDbEntity
  8
0
100
AcDbLine
 10
19.0
 20
190.69454
 30
0.0
 11
19.0
 21
192.23054
 31
0.0
  0
LINE
  5
5B5
330
1D
100
AcDbEntity
  8
0
100
AcDbLine
 10
19.0
 20
190.69454
 30
0.0
 11
19.0
 21
188.19854
 31
0.0
  0
LINE
  5
5B6
330
1D
100
AcDbEntity
  8
0
100
AcDbLine
 10
49.0
 20
188.45554
 30
0.0
 11
49.0
 21
185.20654
 31
0.0
  0
LINE
  5
5B7
330
1D
100
AcDbEntity
  8
0
100
AcDbLine
 10
54.264
 20
177.19054
 30
0.0
 11
54.66
 21
174.41854
 31
0.0
  0
LINE
  5
5B8
330
1D
100
AcDbEntity
  8
0
100
AcDbLine
 10
54.264
 20
177.19054
 30
0.0
 11
54.66
 21
179.96254
 31
0.0
  0
LINE
  5
5B9
330
1D
100
AcDbEntity
  8
0
100
AcDbLine
 10
54.66
 20
179.96254
 30
0.0
 11
55.716
 21
182.51454
 31
0.0
  0
LINE
  5
5BA
330
1D
100
AcDbEntity
  8
0
100
AcDbLine
 10
54.396
 20
180.00654
 30
0.0
 11
55.452
 21
182.64654
 31
0.0
  0
LINE
  5
5BB
330
1D
100
AcDbEntity
  8
0
100
AcDbLine
 10
54.396
 20
180.00654
 30
0.0
 11
55.0
 21
181.51654
 31
0.0
  0
LINE
  5
5BC
330
1D
100
AcDbEntity
  8
0
100
AcDbLine
 10
54.0
 20
177.19054
 30
0.0
 11
54.396
 21
174.37454
 31
0.0
  0
LINE
  5
5BD
330
1D
100
AcDbEntity
  8
0
100
AcDbLine
 10
54.0
 20
177.19054
 30
0.0
 11
54.396
 21
180.00654
 31
0.0
  0
LINE
  5
5BE
330
1D
100
AcDbEntity
  8
0
100
AcDbLine
 10
75.34
 20
179.96254
 30
0.0
 11
75.736
 21
177.19054
 31
0.0
  0
LINE
  5
5BF
330
1D
100
AcDbEntity
  8
0
100
AcDbLine
 10
55.0
 20
181.51654
 30
0.0
 11
55.0
 21
212.19054
 31
0.0
  0
LINE
  5
5C0
330
1D
100
AcDbEntity
  8
0
100
AcDbLine
 10
57.432
 20
184.75854
 30
0.0
 11
59.676
 21
186.47454
 31
0.0
  0
LINE
  5
5C1
330
1D
100
AcDbEntity
  8
0
100
AcDbLine
 10
55.716
 20
182.51454
 30
0.0
 11
57.432
 21
184.75854
 31
0.0
  0
LINE
  5
5C2
330
1D
100
AcDbEntity
  8
0
100
AcDbLine
 10
55.452
 20
182.64654
 30
0.0
 11
57.212
 21
184.97854
 31
0.0
  0
LINE
  5
5C3
330
1D
100
AcDbEntity
  8
0
100
AcDbLine
 10
57.212
 20
184.97854
 30
0.0
 11
59.544
 21
186.73854
 31
0.0
  0
LINE
  5
5C4
330
1D
100
AcDbEntity
  8
0
100
AcDbLine
 10
72.568
 20
184.75854
 30
0.0
 11
74.284
 21
182.51454
 31
0.0
  0
LINE
  5
5C5
330
1D
100
AcDbEntity
  8
0
100
AcDbLine
 10
74.284
 20
182.51454
 30
0.0
 11
75.34
 21
179.96254
 31
0.0
  0
LINE
  5
5C6
330
1D
100
AcDbEntity
  8
0
100
AcDbLine
 10
62.228
 20
187.53054
 30
0.0
 11
65.0
 21
187.92654
 31
0.0
  0
LINE
  5
5C7
330
1D
100
AcDbEntity
  8
0
100
AcDbLine
 10
59.676
 20
186.47454
 30
0.0
 11
62.228
 21
187.53054
 31
0.0
  0
LINE
  5
5C8
330
1D
100
AcDbEntity
  8
0
100
AcDbLine
 10
59.544
 20
186.73854
 30
0.0
 11
62.184
 21
187.79454
 31
0.0
  0
LINE
  5
5C9
330
1D
100
AcDbEntity
  8
0
100
AcDbLine
 10
62.184
 20
187.79454
 30
0.0
 11
65.0
 21
188.19054
 31
0.0
  0
LINE
  5
5CA
330
1D
100
AcDbEntity
  8
0
100
AcDbLine
 10
67.772
 20
187.53054
 30
0.0
 11
70.324
 21
186.47454
 31
0.0
  0
LINE
  5
5CB
330
1D
100
AcDbEntity
  8
0
100
AcDbLine
 10
70.324
 20
186.47454
 30
0.0
 11
72.568
 21
184.75854
 31
0.0
  0
LINE
  5
5CC
330
1D
100
AcDbEntity
  8
0
100
AcDbLine
 10
65.0
 20
187.92654
 30
0.0
 11
67.772
 21
187.53054
 31
0.0
  0
LINE
  5
5CD
330
1D
100
AcDbEntity
  8
0
100
AcDbLine
 10
65.0
 20
188.19054
 30
0.0
 11
67.816
 21
187.79454
 31
0.0
  0
LINE
  5
5CE
330
1D
100
AcDbEntity
  8
0
100
AcDbLine
 10
67.816
 20
187.79454
 30
0.0
 11
70.456
 21
186.73854
 31
0.0
  0
LINE
  5
5CF
330
1D
100
AcDbEntity
  8
0
100
AcDbLine
 10
70.456
 20
186.73854
 30
0.0
 11
72.788
 21
184.97854
 31
0.0
  0
LINE
  5
5D0
330
1D
100
AcDbEntity
  8
0
100
AcDbLine
 10
72.788
 20
184.97854
 30
0.0
 11
74.548
 21
182.64654
 31
0.0
  0
LINE
  5
5D1
330
1D
100
AcDbEntity
  8
0
100
AcDbLine
 10
75.0
 20
181.51654
 30
0.0
 11
75.0
 21
212.19054
 31
0.0
  0
LINE
  5
5D2
330
1D
100
AcDbEntity
  8
0
100
AcDbLine
 10
74.548
 20
182.64654
 30
0.0
 11
75.604
 21
180.00654
 31
0.0
  0
LINE
  5
5D3
330
1D
100
AcDbEntity
  8
0
100
AcDbLine
 10
75.604
 20
180.00654
 30
0.0
 11
76.0
 21
177.19054
 31
0.0
  0
LINE
  5
5D4
330
1D
100
AcDbEntity
  8
0
100
AcDbLine
 10
49.0
 20
191.02554
 30
0.0
 11
49.0
 21
188.45554
 31
0.0
  0
LINE
  5
5D5
330
1D
100
AcDbEntity
  8
0
100
AcDbLine
 10
19.0
 20
192.80654
 30
0.0
 11
19.7692
 21
193.19054
 31
0.0
  0
LINE
  5
5D6
330
1D
100
AcDbEntity
  8
0
100
AcDbLine
 10
19.0
 20
192.80654
 30
0.0
 11
19.0
 21
192.23054
 31
0.0
  0
LINE
  5
5D7
330
1D
100
AcDbEntity
  8
0
100
AcDbLine
 10
46.2
 20
193.19054
 30
0.0
 11
48.2
 21
193.89054
 31
0.0
  0
LINE
  5
5D8
330
1D
100
AcDbEntity
  8
0
100
AcDbLine
 10
19.7692
 20
193.19054
 30
0.0
 11
48.2308
 21
193.19054
 31
0.0
  0
LINE
  5
5D9
330
1D
100
AcDbEntity
  8
0
100
AcDbLine
 10
48.2
 20
193.89054
 30
0.0
 11
55.0
 21
195.201383373494
 31
0.0
  0
LINE
  5
5DA
330
1D
100
AcDbEntity
  8
0
100
AcDbLine
 10
19.7692
 20
193.19054
 30
0.0
 11
48.2308
 21
193.19054
 31
0.0
  0
LINE
  5
5DB
330
1D
100
AcDbEntity
  8
0
100
AcDbLine
 10
48.2308
 20
193.19054
 30
0.0
 11
49.0
 21
192.80654
 31
0.0
  0
LINE
  5
5DC
330
1D
100
AcDbEntity
  8
0
100
AcDbLine
 10
49.0
 20
192.80654
 30
0.0
 11
49.0
 21
193.20654
 31
0.0
  0
LINE
  5
5DD
330
1D
100
AcDbEntity
  8
0
100
AcDbLine
 10
49.0
 20
192.80654
 30
0.0
 11
49.0
 21
192.23054
 31
0.0
  0
LINE
  5
5DE
330
1D
100
AcDbEntity
  8
0
100
AcDbLine
 10
75.0
 20
193.20654
 30
0.0
 11
89.0
 21
193.20654
 31
0.0
  0
LINE
  5
5DF
330
1D
100
AcDbEntity
  8
0
100
AcDbLine
 10
81.8
 20
193.89054
 30
0.0
 11
83.754285714286
 21
193.20654
 31
0.0
  0
LINE
  5
5E0
330
1D
100
AcDbEntity
  8
0
100
AcDbLine
 10
75.0
 20
195.201383373494
 30
0.0
 11
81.8
 21
193.89054
 31
0.0
  0
LINE
  5
5E1
330
1D
100
AcDbEntity
  8
0
100
AcDbLine
 10
55.0
 20
195.201383373494
 30
0.0
 11
55.0
 21
212.19054
 31
0.0
  0
LINE
  5
5E2
330
1D
100
AcDbEntity
  8
0
100
AcDbLine
 10
75.0
 20
193.20654
 30
0.0
 11
89.0
 21
193.20654
 31
0.0
  0
LINE
  5
5E3
330
1D
100
AcDbEntity
  8
0
100
AcDbLine
 10
49.0
 20
193.20654
 30
0.0
 11
49.0
 21
192.55554
 31
0.0
  0
LINE
  5
5E4
330
1D
100
AcDbEntity
  8
0
100
AcDbLine
 10
49.0
 20
193.20654
 30
0.0
 11
55.0
 21
193.20654
 31
0.0
  0
LINE
  5
5E5
330
1D
100
AcDbEntity
  8
0
100
AcDbLine
 10
49.0
 20
192.55554
 30
0.0
 11
49.0
 21
191.02554
 31
0.0
  0
LINE
  5
5E6
330
1D
100
AcDbEntity
  8
0
100
AcDbLine
 10
89.0
 20
193.20654
 30
0.0
 11
92.0
 21
193.20654
 31
0.0
  0
LINE
  5
5E7
330
1D
100
AcDbEntity
  8
0
100
AcDbLine
 10
90.0
 20
175.770873333333
 30
0.0
 11
90.0
 21
169.386692671756
 31
0.0
  0
LINE
  5
5E8
330
1D
100
AcDbEntity
  8
0
100
AcDbLine
 10
90.424
 20
169.93854
 30
0.0
 11
91.401
 21
170.74954
 31
0.0
  0
LINE
  5
5E9
330
1D
100
AcDbEntity
  8
0
100
AcDbLine
 10
91.697
 20
170.90754
 30
0.0
 11
92.347
 21
171.16254
 31
0.0
  0
LINE
  5
5EA
330
1D
100
AcDbEntity
  8
0
100
AcDbLine
 10
91.401
 20
170.74954
 30
0.0
 11
91.697
 21
170.90754
 31
0.0
  0
LINE
  5
5EB
330
1D
100
AcDbEntity
  8
0
100
AcDbLine
 10
90.089
 20
169.55654
 30
0.0
 11
90.424
 21
169.93854
 31
0.0
  0
LINE
  5
5EC
330
1D
100
AcDbEntity
  8
0
100
AcDbLine
 10
92.699
 20
0.58595
 30
0.0
 11
96.618
 21
0.25389
 31
0.0
  0
LINE
  5
5ED
330
1D
100
AcDbEntity
  8
0
100
AcDbLine
 10
92.347
 20
171.16254
 30
0.0
 11
92.538
 21
171.22454
 31
0.0
  0
LINE
  5
5EE
330
1D
100
AcDbEntity
  8
0
100
AcDbLine
 10
92.538
 20
171.22454
 30
0.0
 11
92.88
 21
171.32754
 31
0.0
  0
LINE
  5
5EF
330
1D
100
AcDbEntity
  8
0
100
AcDbLine
 10
92.88
 20
171.32754
 30
0.0
 11
93.622
 21
171.54454
 31
0.0
  0
LINE
  5
5F0
330
1D
100
AcDbEntity
  8
0
100
AcDbLine
 10
93.622
 20
171.54454
 30
0.0
 11
98.268
 21
172.16954
 31
0.0
  0
LINE
  5
5F1
330
1D
100
AcDbEntity
  8
0
100
AcDbLine
 10
92.0
 20
184.693682857143
 30
0.0
 11
92.0
 21
185.20654
 31
0.0
  0
LINE
  5
5F2
330
1D
100
AcDbEntity
  8
0
100
AcDbLine
 10
92.0
 20
190.048434736842
 30
0.0
 11
94.896986172011
 21
188.676178129048
 31
0.0
  0
LINE
  5
5F3
330
1D
100
AcDbEntity
  8
0
100
AcDbLine
 10
92.0
 20
187.900129041096
 30
0.0
 11
94.09360764144
 21
186.896344555474
 31
0.0
  0
LINE
  5
5F4
330
1D
100
AcDbEntity
  8
0
100
AcDbLine
 10
92.0
 20
190.048434736842
 30
0.0
 11
94.896986172011
 21
188.676178129048
 31
0.0
  0
LINE
  5
5F5
330
1D
100
AcDbEntity
  8
0
100
AcDbLine
 10
92.0
 20
185.20654
 30
0.0
 11
92.0
 21
188.45554
 31
0.0
  0
LINE
  5
5F6
330
1D
100
AcDbEntity
  8
0
100
AcDbLine
 10
92.0
 20
188.45554
 30
0.0
 11
92.0
 21
191.02554
 31
0.0
  0
LINE
  5
5F7
330
1D
100
AcDbEntity
  8
0
100
AcDbLine
 10
92.0
 20
192.55554
 30
0.0
 11
92.0
 21
193.20654
 31
0.0
  0
LINE
  5
5F8
330
1D
100
AcDbEntity
  8
0
100
AcDbLine
 10
92.0
 20
191.02554
 30
0.0
 11
92.0
 21
192.55554
 31
0.0
  0
LINE
  5
5F9
330
1D
100
AcDbEntity
  8
0
100
AcDbLine
 10
93.8
 20
186.69854
 30
0.0
 11
96.5
 21
188.51754
 31
0.0
  0
LINE
  5
5FA
330
1D
100
AcDbEntity
  8
0
100
AcDbLine
 10
91.7
 20
184.35954
 30
0.0
 11
93.8
 21
186.69854
 31
0.0
  0
LINE
  5
5FB
330
1D
100
AcDbEntity
  8
0
100
AcDbLine
 10
90.0
 20
169.386692671756
 30
0.0
 11
90.0
 21
175.770873333333
 31
0.0
  0
LINE
  5
5FC
330
1D
100
AcDbEntity
  8
0
100
AcDbLine
 10
75.0
 20
212.19054
 30
0.0
 11
75.0
 21
181.51654
 31
0.0
  0
LINE
  5
5FD
330
1D
100
AcDbEntity
  8
0
100
AcDbLine
 10
55.0
 20
212.19054
 30
0.0
 11
55.0
 21
181.51654
 31
0.0
  0
LINE
  5
5FE
330
1D
100
AcDbEntity
  8
0
100
AcDbLine
 10
55.0
 20
212.19054
 30
0.0
 11
75.0
 21
212.19054
 31
0.0
  0
LINE
  5
5FF
330
1D
100
AcDbEntity
  8
0
100
AcDbLine
 10
55.0
 20
212.19054
 30
0.0
 11
55.0
 21
195.201383373494
 31
0.0
  0
LINE
  5
600
330
1D
100
AcDbEntity
  8
0
100
AcDbLine
 10
94.1898
 20
210.95954
 30
0.0
 11
94.4529
 21
207.81654
 31
0.0
  0
LINE
  5
601
330
1D
100
AcDbEntity
  8
0
100
AcDbLine
 10
94.1898
 20
210.95954
 30
0.0
 11
95.2258
 21
213.86554
 31
0.0
  0
LINE
  5
602
330
1D
100
AcDbEntity
  8
0
100
AcDbLine
 10
94.4529
 20
207.81654
 30
0.0
 11
95.049817689948
 21
206.648984015259
 31
0.0
  0
LINE
  5
603
330
1D
100
AcDbEntity
  8
0
100
AcDbLine
 10
96.618
 20
0.25389
 30
0.0
 11
103.0
 21
0.05046
 31
0.0
  0
LINE
  5
604
330
1D
100
AcDbEntity
  8
0
100
AcDbLine
 10
96.618
 20
0.25389
 30
0.0
 11
100.617
 21
0.09669
 31
0.0
  0
LINE
  5
605
330
1D
100
AcDbEntity
  8
0
100
AcDbLine
 10
96.618
 20
0.25389
 30
0.0
 11
102.220636370485
 21
0.095976770554
 31
0.0
  0
LINE
  5
606
330
1D
100
AcDbEntity
  8
0
100
AcDbLine
 10
96.618
 20
0.25389
 30
0.0
 11
102.220636370485
 21
0.095976770554
 31
0.0
  0
LINE
  5
607
330
1D
100
AcDbEntity
  8
0
100
AcDbLine
 10
100.617
 20
0.09669
 30
0.0
 11
101.946693879859
 21
0.084034751492
 31
0.0
  0
LINE
  5
608
330
1D
100
AcDbEntity
  8
0
100
AcDbLine
 10
100.617
 20
0.09669
 30
0.0
 11
101.946693879859
 21
0.084034751492
 31
0.0
  0
LINE
  5
609
330
1D
100
AcDbEntity
  8
0
100
AcDbLine
 10
98.268
 20
172.16954
 30
0.0
 11
103.0
 21
172.45754
 31
0.0
  0
LINE
  5
60A
330
1D
100
AcDbEntity
  8
0
100
AcDbLine
 10
103.0
 20
0.05046
 30
0.0
 11
109.382
 21
0.25389
 31
0.0
  0
LINE
  5
60B
330
1D
100
AcDbEntity
  8
0
100
AcDbLine
 10
103.779363629515
 20
0.095976770554
 30
0.0
 11
109.382
 21
0.25389
 31
0.0
  0
LINE
  5
60C
330
1D
100
AcDbEntity
  8
0
100
AcDbLine
 10
105.383
 20
0.09669
 30
0.0
 11
109.382
 21
0.25389
 31
0.0
  0
LINE
  5
60D
330
1D
100
AcDbEntity
  8
0
100
AcDbLine
 10
104.053306120141
 20
0.084034751492
 30
0.0
 11
105.383
 21
0.09669
 31
0.0
  0
LINE
  5
60E
330
1D
100
AcDbEntity
  8
0
100
AcDbLine
 10
109.382
 20
0.25389
 30
0.0
 11
113.301
 21
0.58595
 31
0.0
  0
LINE
  5
60F
330
1D
100
AcDbEntity
  8
0
100
AcDbLine
 10
107.732
 20
172.16954
 30
0.0
 11
112.378
 21
171.54454
 31
0.0
  0
LINE
  5
610
330
1D
100
AcDbEntity
  8
0
100
AcDbLine
 10
96.5
 20
188.51754
 30
0.0
 11
99.6
 21
189.55654
 31
0.0
  0
LINE
  5
611
330
1D
100
AcDbEntity
  8
0
100
AcDbLine
 10
103.0
 20
172.45754
 30
0.0
 11
107.732
 21
172.16954
 31
0.0
  0
LINE
  5
612
330
1D
100
AcDbEntity
  8
0
100
AcDbLine
 10
109.5
 20
188.51754
 30
0.0
 11
112.2
 21
186.69854
 31
0.0
  0
LINE
  5
613
330
1D
100
AcDbEntity
  8
0
100
AcDbLine
 10
106.4
 20
189.55654
 30
0.0
 11
109.5
 21
188.51754
 31
0.0
  0
LINE
  5
614
330
1D
100
AcDbEntity
  8
0
100
AcDbLine
 10
103.0
 20
189.98954
 30
0.0
 11
106.4
 21
189.55654
 31
0.0
  0
LINE
  5
615
330
1D
100
AcDbEntity
  8
0
100
AcDbLine
 10
103.0
 20
172.48954
 30
0.0
 11
103.48127012141
 21
172.428248834538
 31
0.0
  0
LINE
  5
616
330
1D
100
AcDbEntity
  8
0
100
AcDbLine
 10
99.6
 20
189.55654
 30
0.0
 11
103.0
 21
189.98954
 31
0.0
  0
LINE
  5
617
330
1D
100
AcDbEntity
  8
0
100
AcDbLine
 10
102.51872987859
 20
172.428248834538
 30
0.0
 11
103.0
 21
172.48954
 31
0.0
  0
LINE
  5
618
330
1D
100
AcDbEntity
  8
0
100
AcDbLine
 10
113.301
 20
0.58595
 30
0.0
 11
117.14
 21
1.0661
 31
0.0
  0
LINE
  5
619
330
1D
100
AcDbEntity
  8
0
100
AcDbLine
 10
113.462
 20
171.22454
 30
0.0
 11
113.653
 21
171.16254
 31
0.0
  0
LINE
  5
61A
330
1D
100
AcDbEntity
  8
0
100
AcDbLine
 10
112.378
 20
171.54454
 30
0.0
 11
113.12
 21
171.32754
 31
0.0
  0
LINE
  5
61B
330
1D
100
AcDbEntity
  8
0
100
AcDbLine
 10
113.12
 20
171.32754
 30
0.0
 11
113.462
 21
171.22454
 31
0.0
  0
LINE
  5
61C
330
1D
100
AcDbEntity
  8
0
100
AcDbLine
 10
113.653
 20
171.16254
 30
0.0
 11
114.303
 21
170.90754
 31
0.0
  0
LINE
  5
61D
330
1D
100
AcDbEntity
  8
0
100
AcDbLine
 10
114.303
 20
170.90754
 30
0.0
 11
114.599
 21
170.74954
 31
0.0
  0
LINE
  5
61E
330
1D
100
AcDbEntity
  8
0
100
AcDbLine
 10
114.599
 20
170.74954
 30
0.0
 11
115.576
 21
169.93854
 31
0.0
  0
LINE
  5
61F
330
1D
100
AcDbEntity
  8
0
100
AcDbLine
 10
112.2
 20
186.69854
 30
0.0
 11
114.3
 21
184.35954
 31
0.0
  0
LINE
  5
620
330
1D
100
AcDbEntity
  8
0
100
AcDbLine
 10
114.3
 20
184.35954
 30
0.0
 11
115.5
 21
181.67554
 31
0.0
  0
LINE
  5
621
330
1D
100
AcDbEntity
  8
0
100
AcDbLine
 10
115.911
 20
169.55654
 30
0.0
 11
116.042
 21
169.30654
 31
0.0
  0
LINE
  5
622
330
1D
100
AcDbEntity
  8
0
100
AcDbLine
 10
115.576
 20
169.93854
 30
0.0
 11
115.911
 21
169.55654
 31
0.0
  0
LINE
  5
623
330
1D
100
AcDbEntity
  8
0
100
AcDbLine
 10
116.0
 20
171.261968571429
 30
0.0
 11
116.5
 21
170.69054
 31
0.0
  0
LINE
  5
624
330
1D
100
AcDbEntity
  8
0
100
AcDbLine
 10
115.5
 20
181.67554
 30
0.0
 11
116.0
 21
178.73054
 31
0.0
  0
LINE
  5
625
330
1D
100
AcDbEntity
  8
0
100
AcDbLine
 10
116.0
 20
169.386692671756
 30
0.0
 11
116.0
 21
178.73054
 31
0.0
  0
LINE
  5
626
330
1D
100
AcDbEntity
  8
0
100
AcDbLine
 10
117.14
 20
1.0661
 30
0.0
 11
120.892
 21
1.689088
 31
0.0
  0
LINE
  5
627
330
1D
100
AcDbEntity
  8
0
100
AcDbLine
 10
120.892
 20
1.689088
 30
0.0
 11
126.639
 21
2.947702
 31
0.0
  0
LINE
  5
628
330
1D
100
AcDbEntity
  8
0
100
AcDbLine
 10
127.348074830121
 20
3.170417143549
 30
0.0
 11
132.149
 21
4.52276
 31
0.0
  0
LINE
  5
629
330
1D
100
AcDbEntity
  8
0
100
AcDbLine
 10
126.639
 20
2.947702
 30
0.0
 11
132.149
 21
4.52276
 31
0.0
  0
LINE
  5
62A
330
1D
100
AcDbEntity
  8
0
100
AcDbLine
 10
127.197
 20
119.29454
 30
0.0
 11
129.495
 21
117.65554
 31
0.0
  0
LINE
  5
62B
330
1D
100
AcDbEntity
  8
0
100
AcDbLine
 10
132.149
 20
4.52276
 30
0.0
 11
137.482
 21
6.42389
 31
0.0
  0
LINE
  5
62C
330
1D
100
AcDbEntity
  8
0
100
AcDbLine
 10
137.482
 20
6.42389
 30
0.0
 11
142.552
 21
8.61604
 31
0.0
  0
LINE
  5
62D
330
1D
100
AcDbEntity
  8
0
100
AcDbLine
 10
142.552
 20
8.61604
 30
0.0
 11
147.448
 21
11.14158
 31
0.0
  0
LINE
  5
62E
330
1D
100
AcDbEntity
  8
0
100
AcDbLine
 10
147.448
 20
11.14158
 30
0.0
 11
150.734868572035
 21
13.175364485444
 31
0.0
  0
LINE
  5
62F
330
1D
100
AcDbEntity
  8
0
100
AcDbLine
 10
147.448
 20
11.14158
 30
0.0
 11
152.037
 21
13.93944
 31
0.0
  0
LINE
  5
630
330
1D
100
AcDbEntity
  8
0
100
AcDbLine
 10
152.037
 20
13.93944
 30
0.0
 11
155.397
 21
16.30274
 31
0.0
  0
LINE
  5
631
330
1D
100
AcDbEntity
  8
0
100
AcDbLine
 10
132.015
 20
116.11254
 30
0.0
 11
134.376
 21
114.81454
 31
0.0
  0
LINE
  5
632
330
1D
100
AcDbEntity
  8
0
100
AcDbLine
 10
129.495
 20
117.65554
 30
0.0
 11
132.015
 21
116.11254
 31
0.0
  0
LINE
  5
633
330
1D
100
AcDbEntity
  8
0
100
AcDbLine
 10
134.376
 20
114.81454
 30
0.0
 11
139.602
 21
112.11754
 31
0.0
  0
LINE
  5
634
330
1D
100
AcDbEntity
  8
0
100
AcDbLine
 10
139.602
 20
112.11754
 30
0.0
 11
144.855
 21
109.35154
 31
0.0
  0
LINE
  5
635
330
1D
100
AcDbEntity
  8
0
100
AcDbLine
 10
144.855
 20
109.35154
 30
0.0
 11
149.969
 21
106.39154
 31
0.0
  0
LINE
  5
636
330
1D
100
AcDbEntity
  8
0
100
AcDbLine
 10
155.397
 20
16.30274
 30
0.0
 11
159.066
 21
19.25844
 31
0.0
  0
LINE
  5
637
330
1D
100
AcDbEntity
  8
0
100
AcDbLine
 10
159.066
 20
19.25844
 30
0.0
 11
160.249
 21
20.31014
 31
0.0
  0
LINE
  5
638
330
1D
100
AcDbEntity
  8
0
100
AcDbLine
 10
160.249
 20
20.31014
 30
0.0
 11
162.447
 21
22.41464
 31
0.0
  0
LINE
  5
639
330
1D
100
AcDbEntity
  8
0
100
AcDbLine
 10
162.447
 20
22.41464
 30
0.0
 11
164.372
 21
24.38374
 31
0.0
  0
LINE
  5
63A
330
1D
100
AcDbEntity
  8
0
100
AcDbLine
 10
164.372
 20
24.38374
 30
0.0
 11
168.022
 21
28.77584
 31
0.0
  0
LINE
  5
63B
330
1D
100
AcDbEntity
  8
0
100
AcDbLine
 10
168.022
 20
28.77584
 30
0.0
 11
171.17
 21
33.49934
 31
0.0
  0
LINE
  5
63C
330
1D
100
AcDbEntity
  8
0
100
AcDbLine
 10
149.969
 20
106.39154
 30
0.0
 11
154.836
 21
103.17154
 31
0.0
  0
LINE
  5
63D
330
1D
100
AcDbEntity
  8
0
100
AcDbLine
 10
172.584
 20
36.07124
 30
0.0
 11
174.38
 21
39.75634
 31
0.0
  0
LINE
  5
63E
330
1D
100
AcDbEntity
  8
0
100
AcDbLine
 10
171.773
 20
34.67204
 30
0.0
 11
174.38
 21
39.75634
 31
0.0
  0
LINE
  5
63F
330
1D
100
AcDbEntity
  8
0
100
AcDbLine
 10
171.17
 20
33.49934
 30
0.0
 11
171.773
 21
34.67204
 31
0.0
  0
LINE
  5
640
330
1D
100
AcDbEntity
  8
0
100
AcDbLine
 10
171.17
 20
33.49934
 30
0.0
 11
172.584
 21
36.07124
 31
0.0
  0
LINE
  5
641
330
1D
100
AcDbEntity
  8
0
100
AcDbLine
 10
154.836
 20
103.17154
 30
0.0
 11
158.657
 21
100.25534
 31
0.0
  0
LINE
  5
642
330
1D
100
AcDbEntity
  8
0
100
AcDbLine
 10
158.657
 20
100.25534
 30
0.0
 11
162.214
 21
97.14014
 31
0.0
  0
LINE
  5
643
330
1D
100
AcDbEntity
  8
0
100
AcDbLine
 10
174.38
 20
39.75634
 30
0.0
 11
175.46
 21
42.43164
 31
0.0
  0
LINE
  5
644
330
1D
100
AcDbEntity
  8
0
100
AcDbLine
 10
175.46
 20
42.43164
 30
0.0
 11
176.376
 21
45.19754
 31
0.0
  0
LINE
  5
645
330
1D
100
AcDbEntity
  8
0
100
AcDbLine
 10
176.376
 20
45.19754
 30
0.0
 11
177.216
 21
47.97944
 31
0.0
  0
LINE
  5
646
330
1D
100
AcDbEntity
  8
0
100
AcDbLine
 10
162.214
 20
97.14014
 30
0.0
 11
165.482
 21
93.83274
 31
0.0
  0
LINE
  5
647
330
1D
100
AcDbEntity
  8
0
100
AcDbLine
 10
177.216
 20
47.97944
 30
0.0
 11
178.036
 21
51.65454
 31
0.0
  0
LINE
  5
648
330
1D
100
AcDbEntity
  8
0
100
AcDbLine
 10
178.036
 20
51.65454
 30
0.0
 11
178.559
 21
54.80954
 31
0.0
  0
LINE
  5
649
330
1D
100
AcDbEntity
  8
0
100
AcDbLine
 10
178.559
 20
54.80954
 30
0.0
 11
178.89
 21
57.85884
 31
0.0
  0
LINE
  5
64A
330
1D
100
AcDbEntity
  8
0
100
AcDbLine
 10
174.183
 20
81.41404
 30
0.0
 11
176.276
 21
76.55064
 31
0.0
  0
LINE
  5
64B
330
1D
100
AcDbEntity
  8
0
100
AcDbLine
 10
176.276
 20
76.55064
 30
0.0
 11
177.781
 21
71.56554
 31
0.0
  0
LINE
  5
64C
330
1D
100
AcDbEntity
  8
0
100
AcDbLine
 10
177.781
 20
71.56554
 30
0.0
 11
178.684
 21
66.49884
 31
0.0
  0
LINE
  5
64D
330
1D
100
AcDbEntity
  8
0
100
AcDbLine
 10
178.89
 20
57.85884
 30
0.0
 11
179.0
 21
60.91124
 31
0.0
  0
LINE
  5
64E
330
1D
100
AcDbEntity
  8
0
100
AcDbLine
 10
178.985
 20
61.39444
 30
0.0
 11
179.0
 21
60.91124
 31
0.0
  0
LINE
  5
64F
330
1D
100
AcDbEntity
  8
0
100
AcDbLine
 10
178.78
 20
65.29914
 30
0.0
 11
178.923388484447
 21
62.439256677698
 31
0.0
  0
LINE
  5
650
330
1D
100
AcDbEntity
  8
0
100
AcDbLine
 10
178.684
 20
66.49884
 30
0.0
 11
178.985
 21
61.39444
 31
0.0
  0
LINE
  5
651
330
1D
100
AcDbEntity
  8
0
100
AcDbLine
 10
178.684
 20
66.49884
 30
0.0
 11
178.78
 21
65.29914
 31
0.0
  0
LINE
  5
652
330
1D
100
AcDbEntity
  8
0
100
AcDbLine
 10
171.729
 20
85.77974
 30
0.0
 11
174.183
 21
81.41404
 31
0.0
  0
LINE
  5
653
330
1D
100
AcDbEntity
  8
0
100
AcDbLine
 10
168.794
 20
89.95584
 30
0.0
 11
171.729
 21
85.77974
 31
0.0
  0
LINE
  5
654
330
1D
100
AcDbEntity
  8
0
100
AcDbLine
 10
165.849
 20
93.44044
 30
0.0
 11
168.794
 21
89.95584
 31
0.0
  0
LINE
  5
655
330
1D
100
AcDbEntity
  8
0
100
AcDbLine
 10
165.482
 20
93.83274
 30
0.0
 11
165.849
 21
93.44044
 31
0.0
  0
LINE
  5
656
330
1D
100
AcDbEntity
  8
0
100
AcDbLine
 10
128.470285493045
 20
118.38639599517
 30
0.0
 11
129.3
 21
122.69054
 31
0.0
  0
LINE
  5
657
330
1D
100
AcDbEntity
  8
0
100
AcDbLine
 10
119.223
 20
154.40554
 30
0.0
 11
120.382
 21
146.74654
 31
0.0
  0
LINE
  5
658
330
1D
100
AcDbEntity
  8
0
100
AcDbLine
 10
117.814835655759
 20
161.917270860302
 30
0.0
 11
119.223
 21
154.40554
 31
0.0
  0
LINE
  5
659
330
1D
100
AcDbEntity
  8
0
100
AcDbLine
 10
117.814835655759
 20
161.917270860302
 30
0.0
 11
119.223
 21
154.40554
 31
0.0
  0
LINE
  5
65A
330
1D
100
AcDbEntity
  8
0
100
AcDbLine
 10
121.188
 20
139.04354
 30
0.0
 11
121.511
 21
134.08254
 31
0.0
  0
LINE
  5
65B
330
1D
100
AcDbEntity
  8
0
100
AcDbLine
 10
120.754
 20
143.36954
 30
0.0
 11
120.843644487473
 21
142.334570413144
 31
0.0
  0
LINE
  5
65C
330
1D
100
AcDbEntity
  8
0
100
AcDbLine
 10
121.418538873065
 20
135.502662757657
 30
0.0
 11
121.451
 21
135.15054
 31
0.0
  0
LINE
  5
65D
330
1D
100
AcDbEntity
  8
0
100
AcDbLine
 10
120.382
 20
146.74654
 30
0.0
 11
121.188
 21
139.04354
 31
0.0
  0
LINE
  5
65E
330
1D
100
AcDbEntity
  8
0
100
AcDbLine
 10
120.382
 20
146.74654
 30
0.0
 11
120.754
 21
143.36954
 31
0.0
  0
LINE
  5
65F
330
1D
100
AcDbEntity
  8
0
100
AcDbLine
 10
121.985
 20
127.39954
 30
0.0
 11
122.615457085454
 21
124.985350672775
 31
0.0
  0
LINE
  5
660
330
1D
100
AcDbEntity
  8
0
100
AcDbLine
 10
121.803
 20
129.27054
 30
0.0
 11
122.032500026196
 21
127.217649655787
 31
0.0
  0
LINE
  5
661
330
1D
100
AcDbEntity
  8
0
100
AcDbLine
 10
121.511
 20
134.08254
 30
0.0
 11
121.803
 21
129.27054
 31
0.0
  0
LINE
  5
662
330
1D
100
AcDbEntity
  8
0
100
AcDbLine
 10
122.304
 20
125.66654
 30
0.0
 11
123.095
 21
123.93654
 31
0.0
  0
LINE
  5
663
330
1D
100
AcDbEntity
  8
0
100
AcDbLine
 10
123.095
 20
123.93654
 30
0.0
 11
124.197871906397
 21
122.210869840579
 31
0.0
  0
LINE
  5
664
330
1D
100
AcDbEntity
  8
0
100
AcDbLine
 10
123.614
 20
122.88454
 30
0.0
 11
125.207
 21
121.04654
 31
0.0
  0
LINE
  5
665
330
1D
100
AcDbEntity
  8
0
100
AcDbLine
 10
125.207
 20
121.04654
 30
0.0
 11
127.197
 21
119.29454
 31
0.0
  0
LINE
  5
666
330
1D
100
AcDbEntity
  8
0
100
AcDbLine
 10
127.4
 20
139.39054
 30
0.0
 11
128.0
 21
131.19054
 31
0.0
  0
LINE
  5
667
330
1D
100
AcDbEntity
  8
0
100
AcDbLine
 10
125.7
 20
147.39054
 30
0.0
 11
127.4
 21
139.39054
 31
0.0
  0
LINE
  5
668
330
1D
100
AcDbEntity
  8
0
100
AcDbLine
 10
121.3
 20
163.59054
 30
0.0
 11
124.9
 21
155.99054
 31
0.0
  0
LINE
  5
669
330
1D
100
AcDbEntity
  8
0
100
AcDbLine
 10
124.9
 20
155.99054
 30
0.0
 11
127.7
 21
147.99054
 31
0.0
  0
LINE
  5
66A
330
1D
100
AcDbEntity
  8
0
100
AcDbLine
 10
123.1
 20
155.29054
 30
0.0
 11
125.7
 21
147.39054
 31
0.0
  0
LINE
  5
66B
330
1D
100
AcDbEntity
  8
0
100
AcDbLine
 10
119.6
 20
162.59054
 30
0.0
 11
123.1
 21
155.29054
 31
0.0
  0
LINE
  5
66C
330
1D
100
AcDbEntity
  8
0
100
AcDbLine
 10
116.042
 20
169.30654
 30
0.0
 11
116.395
 21
168.42654
 31
0.0
  0
LINE
  5
66D
330
1D
100
AcDbEntity
  8
0
100
AcDbLine
 10
116.395
 20
168.42654
 30
0.0
 11
116.55
 21
167.84554
 31
0.0
  0
LINE
  5
66E
330
1D
100
AcDbEntity
  8
0
100
AcDbLine
 10
116.55
 20
167.84554
 30
0.0
 11
117.231
 21
165.17554
 31
0.0
  0
LINE
  5
66F
330
1D
100
AcDbEntity
  8
0
100
AcDbLine
 10
116.5
 20
170.69054
 30
0.0
 11
121.3
 21
163.59054
 31
0.0
  0
LINE
  5
670
330
1D
100
AcDbEntity
  8
0
100
AcDbLine
 10
116.866942905186
 20
166.602900415791
 30
0.0
 11
119.6
 21
162.59054
 31
0.0
  0
LINE
  5
671
330
1D
100
AcDbEntity
  8
0
100
AcDbLine
 10
127.7
 20
147.99054
 30
0.0
 11
129.3
 21
139.69054
 31
0.0
  0
LINE
  5
672
330
1D
100
AcDbEntity
  8
0
100
AcDbLine
 10
129.3
 20
139.69054
 30
0.0
 11
130.0
 21
131.19054
 31
0.0
  0
LINE
  5
673
330
1D
100
AcDbEntity
  8
0
100
AcDbLine
 10
129.3
 20
122.69054
 30
0.0
 11
130.0
 21
131.19054
 31
0.0
  0
LINE
  5
674
330
1D
100
AcDbEntity
  8
0
100
AcDbLine
 10
127.4
 20
122.99054
 30
0.0
 11
128.0
 21
131.19054
 31
0.0
  0
LINE
  5
675
330
1D
100
AcDbEntity
  8
0
100
AcDbLine
 10
126.70638661474
 20
119.726477010541
 30
0.0
 11
127.4
 21
122.99054
 31
0.0
  0
LINE
  5
676
330
1D
100
AcDbEntity
  8
0
100
AcDbLine
 10
116.0
 20
178.73054
 30
0.0
 11
116.0
 21
169.386692671756
 31
0.0
  0
LINE
  5
677
330
1D
100
AcDbEntity
  8
0
100
AcDbLine
 10
110.935
 20
193.07354
 30
0.0
 11
110.99
 21
199.47354
 31
0.0
  0
LINE
  5
678
330
1D
100
AcDbEntity
  8
0
100
AcDbLine
 10
110.888118351843
 20
187.582359525184
 30
0.0
 11
110.935
 21
193.07354
 31
0.0
  0
LINE
  5
679
330
1D
100
AcDbEntity
  8
0
100
AcDbLine
 10
111.031
 20
204.37354
 30
0.0
 11
111.06
 21
207.67254
 31
0.0
  0
LINE
  5
67A
330
1D
100
AcDbEntity
  8
0
100
AcDbLine
 10
110.99
 20
199.47354
 30
0.0
 11
111.031
 21
204.37354
 31
0.0
  0
LINE
  5
67B
330
1D
100
AcDbEntity
  8
0
100
AcDbLine
 10
110.502
 20
212.67754
 30
0.0
 11
111.076
 21
209.57354
 31
0.0
  0
LINE
  5
67C
330
1D
100
AcDbEntity
  8
0
100
AcDbLine
 10
111.06
 20
207.67254
 30
0.0
 11
111.076
 21
209.57354
 31
0.0
  0
LINE
  5
67D
330
1D
100
AcDbEntity
  8
0
100
AcDbLine
 10
106.239
 20
217.01454
 30
0.0
 11
108.723
 21
215.19354
 31
0.0
  0
LINE
  5
67E
330
1D
100
AcDbEntity
  8
0
100
AcDbLine
 10
108.723
 20
215.19354
 30
0.0
 11
110.502
 21
212.67754
 31
0.0
  0
LINE
  5
67F
330
1D
100
AcDbEntity
  8
0
100
AcDbLine
 10
103.1053
 20
217.94954
 30
0.0
 11
105.087965065515
 21
217.247699598075
 31
0.0
  0
LINE
  5
680
330
1D
100
AcDbEntity
  8
0
100
AcDbLine
 10
99.9615
 20
217.68654
 30
0.0
 11
103.1053
 21
217.94954
 31
0.0
  0
LINE
  5
681
330
1D
100
AcDbEntity
  8
0
100
AcDbLine
 10
97.1637
 20
216.25754
 30
0.0
 11
99.9615
 21
217.68654
 31
0.0
  0
LINE
  5
682
330
1D
100
AcDbEntity
  8
0
100
AcDbLine
 10
95.2258
 20
213.86554
 30
0.0
 11
97.1637
 21
216.25754
 31
0.0
  0
LINE
  5
683
330
1D
100
AcDbEntity
  8
0
100
AcDbLine
 10
95.0597
 20
207.80954
 30
0.0
 11
95.0756
 21
209.70854
 31
0.0
  0
LINE
  5
684
330
1D
100
AcDbEntity
  8
0
100
AcDbLine
 10
95.0316
 20
204.50954
 30
0.0
 11
95.0597
 21
207.80954
 31
0.0
  0
LINE
  5
685
330
1D
100
AcDbEntity
  8
0
100
AcDbLine
 10
94.9897
 20
199.60954
 30
0.0
 11
95.0316
 21
204.50954
 31
0.0
  0
LINE
  5
686
330
1D
100
AcDbEntity
  8
0
100
AcDbLine
 10
94.9358
 20
193.21054
 30
0.0
 11
94.9897
 21
199.60954
 31
0.0
  0
LINE
  5
687
330
1D
100
AcDbEntity
  8
0
100
AcDbLine
 10
94.886322391315
 20
187.430399418445
 30
0.0
 11
94.9358
 21
193.21054
 31
0.0
  0
LINE
  5
688
330
1D
100
AcDbEntity
  8
0
100
AcDbLine
 10
90.0
 20
175.770873333333
 30
0.0
 11
90.0
 21
181.229895063565
 31
0.0
  0
LINE
  5
689
330
1D
100
AcDbEntity
  8
0
100
AcDbLine
 10
90.0
 20
181.229895063565
 30
0.0
 11
90.442522809206
 21
182.935327499709
 31
0.0
  0
LINE
  5
68A
330
1D
100
AcDbEntity
  8
0
100
AcDbLine
 10
90.442522809206
 20
182.935327499709
 30
0.0
 11
91.7
 21
184.35954
 31
0.0
  0
LINE
  5
794
330
1D
100
AcDbEntity
  8
0
100
AcDbLine
 10
154.0
 20
110.19054
 30
0.0
 11
154.0
 21
110.41154
 31
0.0
  0
LINE
  5
795
330
1D
100
AcDbEntity
  8
0
100
AcDbLine
 10
154.0
 20
110.19054
 30
0.0
 11
155.0
 21
110.19054
 31
0.0
  0
LINE
  5
796
330
1D
100
AcDbEntity
  8
0
100
AcDbLine
 10
155.0
 20
103.063037842614
 30
0.0
 11
155.0
 21
211.23354
 31
0.0
  0
LINE
  5
797
330
1D
100
AcDbEntity
  8
0
100
AcDbLine
 10
155.0
 20
109.63954
 30
0.0
 11
155.0
 21
110.18354
 31
0.0
  0
LINE
  5
798
330
1D
100
AcDbEntity
  8
0
100
AcDbLine
 10
154.0
 20
114.56754
 30
0.0
 11
154.0
 21
116.35754
 31
0.0
  0
LINE
  5
799
330
1D
100
AcDbEntity
  8
0
100
AcDbLine
 10
154.0
 20
114.56754
 30
0.0
 11
154.0
 21
112.99754
 31
0.0
  0
LINE
  5
79A
330
1D
100
AcDbEntity
  8
0
100
AcDbLine
 10
154.0
 20
112.99754
 30
0.0
 11
154.0
 21
114.56754
 31
0.0
  0
LINE
  5
79B
330
1D
100
AcDbEntity
  8
0
100
AcDbLine
 10
154.0
 20
112.99754
 30
0.0
 11
154.0
 21
111.82654
 31
0.0
  0
LINE
  5
79C
330
1D
100
AcDbEntity
  8
0
100
AcDbLine
 10
154.0
 20
111.82654
 30
0.0
 11
154.0
 21
112.99754
 31
0.0
  0
LINE
  5
79D
330
1D
100
AcDbEntity
  8
0
100
AcDbLine
 10
154.0
 20
111.82654
 30
0.0
 11
154.0
 21
110.94254
 31
0.0
  0
LINE
  5
79E
330
1D
100
AcDbEntity
  8
0
100
AcDbLine
 10
154.0
 20
110.94254
 30
0.0
 11
154.0
 21
111.82654
 31
0.0
  0
LINE
  5
79F
330
1D
100
AcDbEntity
  8
0
100
AcDbLine
 10
154.0
 20
110.94254
 30
0.0
 11
154.0
 21
110.41154
 31
0.0
  0
LINE
  5
7A0
330
1D
100
AcDbEntity
  8
0
100
AcDbLine
 10
154.0
 20
110.41154
 30
0.0
 11
154.0
 21
110.94254
 31
0.0
  0
LINE
  5
7A1
330
1D
100
AcDbEntity
  8
0
100
AcDbLine
 10
154.0
 20
110.41154
 30
0.0
 11
154.0
 21
110.19054
 31
0.0
  0
LINE
  5
7A2
330
1D
100
AcDbEntity
  8
0
100
AcDbLine
 10
154.0
 20
116.35754
 30
0.0
 11
154.0
 21
118.41354
 31
0.0
  0
LINE
  5
7A3
330
1D
100
AcDbEntity
  8
0
100
AcDbLine
 10
154.0
 20
116.35754
 30
0.0
 11
154.0
 21
114.56754
 31
0.0
  0
LINE
  5
7A4
330
1D
100
AcDbEntity
  8
0
100
AcDbLine
 10
154.0
 20
118.41354
 30
0.0
 11
154.0
 21
120.73454
 31
0.0
  0
LINE
  5
7A5
330
1D
100
AcDbEntity
  8
0
100
AcDbLine
 10
154.0
 20
118.41354
 30
0.0
 11
154.0
 21
116.35754
 31
0.0
  0
LINE
  5
7A6
330
1D
100
AcDbEntity
  8
0
100
AcDbLine
 10
130.0
 20
126.23154
 30
0.0
 11
130.0
 21
127.13154
 31
0.0
  0
LINE
  5
7A7
330
1D
100
AcDbEntity
  8
0
100
AcDbLine
 10
130.0
 20
126.23154
 30
0.0
 11
130.0
 21
125.66754
 31
0.0
  0
LINE
  5
7A8
330
1D
100
AcDbEntity
  8
0
100
AcDbLine
 10
130.0
 20
125.66754
 30
0.0
 11
130.0
 21
126.23154
 31
0.0
  0
LINE
  5
7A9
330
1D
100
AcDbEntity
  8
0
100
AcDbLine
 10
130.0
 20
125.66754
 30
0.0
 11
130.0
 21
125.45554
 31
0.0
  0
LINE
  5
7AA
330
1D
100
AcDbEntity
  8
0
100
AcDbLine
 10
130.0
 20
127.13154
 30
0.0
 11
130.0
 21
128.33154
 31
0.0
  0
LINE
  5
7AB
330
1D
100
AcDbEntity
  8
0
100
AcDbLine
 10
130.0
 20
127.13154
 30
0.0
 11
130.0
 21
126.23154
 31
0.0
  0
LINE
  5
7AC
330
1D
100
AcDbEntity
  8
0
100
AcDbLine
 10
130.0
 20
128.33154
 30
0.0
 11
130.0
 21
129.70854
 31
0.0
  0
LINE
  5
7AD
330
1D
100
AcDbEntity
  8
0
100
AcDbLine
 10
130.0
 20
128.33154
 30
0.0
 11
130.0
 21
127.13154
 31
0.0
  0
LINE
  5
7AE
330
1D
100
AcDbEntity
  8
0
100
AcDbLine
 10
130.0
 20
129.70854
 30
0.0
 11
130.0
 21
131.19054
 31
0.0
  0
LINE
  5
7AF
330
1D
100
AcDbEntity
  8
0
100
AcDbLine
 10
130.0
 20
129.70854
 30
0.0
 11
130.0
 21
128.33154
 31
0.0
  0
LINE
  5
7B0
330
1D
100
AcDbEntity
  8
0
100
AcDbLine
 10
130.0
 20
125.45554
 30
0.0
 11
130.1923
 21
125.27854
 31
0.0
  0
LINE
  5
7B1
330
1D
100
AcDbEntity
  8
0
100
AcDbLine
 10
130.0
 20
125.45554
 30
0.0
 11
130.0
 21
125.66754
 31
0.0
  0
LINE
  5
7B2
330
1D
100
AcDbEntity
  8
0
100
AcDbLine
 10
154.0
 20
120.73454
 30
0.0
 11
154.0
 21
123.16654
 31
0.0
  0
LINE
  5
7B3
330
1D
100
AcDbEntity
  8
0
100
AcDbLine
 10
154.0
 20
120.73454
 30
0.0
 11
154.0
 21
118.41354
 31
0.0
  0
LINE
  5
7B4
330
1D
100
AcDbEntity
  8
0
100
AcDbLine
 10
154.0
 20
126.00254
 30
0.0
 11
154.0
 21
125.40254
 31
0.0
  0
LINE
  5
7B5
330
1D
100
AcDbEntity
  8
0
100
AcDbLine
 10
154.0
 20
126.00254
 30
0.0
 11
154.0
 21
126.95554
 31
0.0
  0
LINE
  5
7B6
330
1D
100
AcDbEntity
  8
0
100
AcDbLine
 10
154.0
 20
125.40254
 30
0.0
 11
154.0
 21
125.19054
 31
0.0
  0
LINE
  5
7B7
330
1D
100
AcDbEntity
  8
0
100
AcDbLine
 10
154.0
 20
125.40254
 30
0.0
 11
154.0
 21
126.00254
 31
0.0
  0
LINE
  5
7B8
330
1D
100
AcDbEntity
  8
0
100
AcDbLine
 10
154.0
 20
126.95554
 30
0.0
 11
154.0
 21
128.20854
 31
0.0
  0
LINE
  5
7B9
330
1D
100
AcDbEntity
  8
0
100
AcDbLine
 10
154.0
 20
126.95554
 30
0.0
 11
154.0
 21
126.00254
 31
0.0
  0
LINE
  5
7BA
330
1D
100
AcDbEntity
  8
0
100
AcDbLine
 10
154.0
 20
128.20854
 30
0.0
 11
154.0
 21
126.95554
 31
0.0
  0
LINE
  5
7BB
330
1D
100
AcDbEntity
  8
0
100
AcDbLine
 10
154.0
 20
128.20854
 30
0.0
 11
154.0
 21
129.65554
 31
0.0
  0
LINE
  5
7BC
330
1D
100
AcDbEntity
  8
0
100
AcDbLine
 10
130.1923
 20
125.27854
 30
0.0
 11
130.5769
 21
125.19054
 31
0.0
  0
LINE
  5
7BD
330
1D
100
AcDbEntity
  8
0
100
AcDbLine
 10
130.5769
 20
125.19054
 30
0.0
 11
154.0
 21
125.19054
 31
0.0
  0
LINE
  5
7BE
330
1D
100
AcDbEntity
  8
0
100
AcDbLine
 10
154.0
 20
125.77454
 30
0.0
 11
154.0
 21
123.16654
 31
0.0
  0
LINE
  5
7BF
330
1D
100
AcDbEntity
  8
0
100
AcDbLine
 10
154.0
 20
125.77454
 30
0.0
 11
154.0
 21
128.44954
 31
0.0
  0
LINE
  5
7C0
330
1D
100
AcDbEntity
  8
0
100
AcDbLine
 10
154.0
 20
129.65554
 30
0.0
 11
154.0
 21
128.20854
 31
0.0
  0
LINE
  5
7C1
330
1D
100
AcDbEntity
  8
0
100
AcDbLine
 10
154.0
 20
129.65554
 30
0.0
 11
154.0
 21
131.19054
 31
0.0
  0
LINE
  5
7C2
330
1D
100
AcDbEntity
  8
0
100
AcDbLine
 10
154.0
 20
128.44954
 30
0.0
 11
154.0
 21
125.77454
 31
0.0
  0
LINE
  5
7C3
330
1D
100
AcDbEntity
  8
0
100
AcDbLine
 10
154.0
 20
128.44954
 30
0.0
 11
154.0
 21
131.19054
 31
0.0
  0
LINE
  5
7C4
330
1D
100
AcDbEntity
  8
0
100
AcDbLine
 10
154.0
 20
125.19054
 30
0.0
 11
154.0
 21
123.16654
 31
0.0
  0
LINE
  5
7C5
330
1D
100
AcDbEntity
  8
0
100
AcDbLine
 10
154.0
 20
125.19054
 30
0.0
 11
154.0
 21
125.40254
 31
0.0
  0
LINE
  5
7C6
330
1D
100
AcDbEntity
  8
0
100
AcDbLine
 10
154.0
 20
123.16654
 30
0.0
 11
154.0
 21
125.19054
 31
0.0
  0
LINE
  5
7C7
330
1D
100
AcDbEntity
  8
0
100
AcDbLine
 10
154.0
 20
123.16654
 30
0.0
 11
154.0
 21
120.73454
 31
0.0
  0
LINE
  5
7C8
330
1D
100
AcDbEntity
  8
0
100
AcDbLine
 10
154.0
 20
123.16654
 30
0.0
 11
154.0
 21
125.77454
 31
0.0
  0
LINE
  5
7C9
330
1D
100
AcDbEntity
  8
0
100
AcDbLine
 10
130.0
 20
131.19054
 30
0.0
 11
130.0
 21
132.67254
 31
0.0
  0
LINE
  5
7CA
330
1D
100
AcDbEntity
  8
0
100
AcDbLine
 10
130.0
 20
131.19054
 30
0.0
 11
130.0
 21
129.70854
 31
0.0
  0
LINE
  5
7CB
330
1D
100
AcDbEntity
  8
0
100
AcDbLine
 10
130.0
 20
132.67254
 30
0.0
 11
130.0
 21
131.19054
 31
0.0
  0
LINE
  5
7CC
330
1D
100
AcDbEntity
  8
0
100
AcDbLine
 10
130.0
 20
132.67254
 30
0.0
 11
130.0
 21
134.04954
 31
0.0
  0
LINE
  5
7CD
330
1D
100
AcDbEntity
  8
0
100
AcDbLine
 10
154.0
 20
131.19054
 30
0.0
 11
154.0
 21
132.72554
 31
0.0
  0
LINE
  5
7CE
330
1D
100
AcDbEntity
  8
0
100
AcDbLine
 10
154.0
 20
131.19054
 30
0.0
 11
154.0
 21
133.93154
 31
0.0
  0
LINE
  5
7CF
330
1D
100
AcDbEntity
  8
0
100
AcDbLine
 10
154.0
 20
131.19054
 30
0.0
 11
154.0
 21
128.44954
 31
0.0
  0
LINE
  5
7D0
330
1D
100
AcDbEntity
  8
0
100
AcDbLine
 10
154.0
 20
131.19054
 30
0.0
 11
154.0
 21
129.65554
 31
0.0
  0
LINE
  5
7D1
330
1D
100
AcDbEntity
  8
0
100
AcDbLine
 10
130.0
 20
135.24954
 30
0.0
 11
130.0
 21
134.04954
 31
0.0
  0
LINE
  5
7D2
330
1D
100
AcDbEntity
  8
0
100
AcDbLine
 10
130.0
 20
135.24954
 30
0.0
 11
130.0
 21
136.14954
 31
0.0
  0
LINE
  5
7D3
330
1D
100
AcDbEntity
  8
0
100
AcDbLine
 10
154.0
 20
133.93154
 30
0.0
 11
154.0
 21
131.19054
 31
0.0
  0
LINE
  5
7D4
330
1D
100
AcDbEntity
  8
0
100
AcDbLine
 10
154.0
 20
133.93154
 30
0.0
 11
154.0
 21
136.60654
 31
0.0
  0
LINE
  5
7D5
330
1D
100
AcDbEntity
  8
0
100
AcDbLine
 10
130.0
 20
134.04954
 30
0.0
 11
130.0
 21
132.67254
 31
0.0
  0
LINE
  5
7D6
330
1D
100
AcDbEntity
  8
0
100
AcDbLine
 10
130.0
 20
134.04954
 30
0.0
 11
130.0
 21
135.24954
 31
0.0
  0
LINE
  5
7D7
330
1D
100
AcDbEntity
  8
0
100
AcDbLine
 10
130.0
 20
136.14954
 30
0.0
 11
130.0
 21
135.24954
 31
0.0
  0
LINE
  5
7D8
330
1D
100
AcDbEntity
  8
0
100
AcDbLine
 10
130.0
 20
136.14954
 30
0.0
 11
130.0
 21
136.71354
 31
0.0
  0
LINE
  5
7D9
330
1D
100
AcDbEntity
  8
0
100
AcDbLine
 10
154.0
 20
136.60654
 30
0.0
 11
154.0
 21
133.93154
 31
0.0
  0
LINE
  5
7DA
330
1D
100
AcDbEntity
  8
0
100
AcDbLine
 10
154.0
 20
136.60654
 30
0.0
 11
154.0
 21
139.21454
 31
0.0
  0
LINE
  5
7DB
330
1D
100
AcDbEntity
  8
0
100
AcDbLine
 10
130.0
 20
136.71354
 30
0.0
 11
130.0
 21
136.14954
 31
0.0
  0
LINE
  5
7DC
330
1D
100
AcDbEntity
  8
0
100
AcDbLine
 10
130.0
 20
136.71354
 30
0.0
 11
130.0
 21
136.92554
 31
0.0
  0
LINE
  5
7DD
330
1D
100
AcDbEntity
  8
0
100
AcDbLine
 10
130.0
 20
136.92554
 30
0.0
 11
130.0
 21
136.71354
 31
0.0
  0
LINE
  5
7DE
330
1D
100
AcDbEntity
  8
0
100
AcDbLine
 10
130.0
 20
136.92554
 30
0.0
 11
130.1923
 21
137.10254
 31
0.0
  0
LINE
  5
7DF
330
1D
100
AcDbEntity
  8
0
100
AcDbLine
 10
154.0
 20
136.37854
 30
0.0
 11
154.0
 21
135.42554
 31
0.0
  0
LINE
  5
7E0
330
1D
100
AcDbEntity
  8
0
100
AcDbLine
 10
154.0
 20
136.37854
 30
0.0
 11
154.0
 21
136.97854
 31
0.0
  0
LINE
  5
7E1
330
1D
100
AcDbEntity
  8
0
100
AcDbLine
 10
130.1923
 20
137.10254
 30
0.0
 11
130.5769
 21
137.19054
 31
0.0
  0
LINE
  5
7E2
330
1D
100
AcDbEntity
  8
0
100
AcDbLine
 10
154.0
 20
147.81354
 30
0.0
 11
154.0
 21
146.02354
 31
0.0
  0
LINE
  5
7E3
330
1D
100
AcDbEntity
  8
0
100
AcDbLine
 10
154.0
 20
147.81354
 30
0.0
 11
154.0
 21
149.38354
 31
0.0
  0
LINE
  5
7E4
330
1D
100
AcDbEntity
  8
0
100
AcDbLine
 10
154.0
 20
149.38354
 30
0.0
 11
154.0
 21
147.81354
 31
0.0
  0
LINE
  5
7E5
330
1D
100
AcDbEntity
  8
0
100
AcDbLine
 10
154.0
 20
149.38354
 30
0.0
 11
154.0
 21
150.55454
 31
0.0
  0
LINE
  5
7E6
330
1D
100
AcDbEntity
  8
0
100
AcDbLine
 10
154.0
 20
150.55454
 30
0.0
 11
154.0
 21
149.38354
 31
0.0
  0
LINE
  5
7E7
330
1D
100
AcDbEntity
  8
0
100
AcDbLine
 10
154.0
 20
150.55454
 30
0.0
 11
154.0
 21
151.43854
 31
0.0
  0
LINE
  5
7E8
330
1D
100
AcDbEntity
  8
0
100
AcDbLine
 10
154.0
 20
151.43854
 30
0.0
 11
154.0
 21
150.55454
 31
0.0
  0
LINE
  5
7E9
330
1D
100
AcDbEntity
  8
0
100
AcDbLine
 10
154.0
 20
151.43854
 30
0.0
 11
154.0
 21
151.96954
 31
0.0
  0
LINE
  5
7EA
330
1D
100
AcDbEntity
  8
0
100
AcDbLine
 10
154.0
 20
151.96954
 30
0.0
 11
154.0
 21
151.43854
 31
0.0
  0
LINE
  5
7EB
330
1D
100
AcDbEntity
  8
0
100
AcDbLine
 10
154.0
 20
151.96954
 30
0.0
 11
154.0
 21
152.19054
 31
0.0
  0
LINE
  5
7EC
330
1D
100
AcDbEntity
  8
0
100
AcDbLine
 10
154.0
 20
152.19054
 30
0.0
 11
154.0
 21
151.96954
 31
0.0
  0
LINE
  5
7ED
330
1D
100
AcDbEntity
  8
0
100
AcDbLine
 10
154.0
 20
152.19054
 30
0.0
 11
155.0
 21
152.19054
 31
0.0
  0
LINE
  5
7EE
330
1D
100
AcDbEntity
  8
0
100
AcDbLine
 10
154.0
 20
146.02354
 30
0.0
 11
154.0
 21
143.96754
 31
0.0
  0
LINE
  5
7EF
330
1D
100
AcDbEntity
  8
0
100
AcDbLine
 10
154.0
 20
146.02354
 30
0.0
 11
154.0
 21
147.81354
 31
0.0
  0
LINE
  5
7F0
330
1D
100
AcDbEntity
  8
0
100
AcDbLine
 10
154.0
 20
143.96754
 30
0.0
 11
154.0
 21
141.64654
 31
0.0
  0
LINE
  5
7F1
330
1D
100
AcDbEntity
  8
0
100
AcDbLine
 10
154.0
 20
143.96754
 30
0.0
 11
154.0
 21
146.02354
 31
0.0
  0
LINE
  5
7F2
330
1D
100
AcDbEntity
  8
0
100
AcDbLine
 10
154.0
 20
141.64654
 30
0.0
 11
154.0
 21
139.21454
 31
0.0
  0
LINE
  5
7F3
330
1D
100
AcDbEntity
  8
0
100
AcDbLine
 10
154.0
 20
141.64654
 30
0.0
 11
154.0
 21
143.96754
 31
0.0
  0
LINE
  5
7F4
330
1D
100
AcDbEntity
  8
0
100
AcDbLine
 10
154.0
 20
139.21454
 30
0.0
 11
154.0
 21
136.60654
 31
0.0
  0
LINE
  5
7F5
330
1D
100
AcDbEntity
  8
0
100
AcDbLine
 10
154.0
 20
139.21454
 30
0.0
 11
154.0
 21
141.64654
 31
0.0
  0
LINE
  5
7F6
330
1D
100
AcDbEntity
  8
0
100
AcDbLine
 10
154.0
 20
139.21454
 30
0.0
 11
154.0
 21
137.19054
 31
0.0
  0
LINE
  5
7F7
330
1D
100
AcDbEntity
  8
0
100
AcDbLine
 10
130.5769
 20
137.19054
 30
0.0
 11
154.0
 21
137.19054
 31
0.0
  0
LINE
  5
7F8
330
1D
100
AcDbEntity
  8
0
100
AcDbLine
 10
154.0
 20
136.97854
 30
0.0
 11
154.0
 21
136.37854
 31
0.0
  0
LINE
  5
7F9
330
1D
100
AcDbEntity
  8
0
100
AcDbLine
 10
154.0
 20
136.97854
 30
0.0
 11
154.0
 21
137.19054
 31
0.0
  0
LINE
  5
7FA
330
1D
100
AcDbEntity
  8
0
100
AcDbLine
 10
154.0
 20
137.19054
 30
0.0
 11
154.0
 21
136.97854
 31
0.0
  0
LINE
  5
7FB
330
1D
100
AcDbEntity
  8
0
100
AcDbLine
 10
154.0
 20
137.19054
 30
0.0
 11
154.0
 21
139.21454
 31
0.0
  0
LINE
  5
7FC
330
1D
100
AcDbEntity
  8
0
100
AcDbLine
 10
154.0
 20
135.42554
 30
0.0
 11
154.0
 21
134.17254
 31
0.0
  0
LINE
  5
7FD
330
1D
100
AcDbEntity
  8
0
100
AcDbLine
 10
154.0
 20
135.42554
 30
0.0
 11
154.0
 21
136.37854
 31
0.0
  0
LINE
  5
7FE
330
1D
100
AcDbEntity
  8
0
100
AcDbLine
 10
154.0
 20
134.17254
 30
0.0
 11
154.0
 21
132.72554
 31
0.0
  0
LINE
  5
7FF
330
1D
100
AcDbEntity
  8
0
100
AcDbLine
 10
154.0
 20
134.17254
 30
0.0
 11
154.0
 21
135.42554
 31
0.0
  0
LINE
  5
800
330
1D
100
AcDbEntity
  8
0
100
AcDbLine
 10
154.0
 20
132.72554
 30
0.0
 11
154.0
 21
131.19054
 31
0.0
  0
LINE
  5
801
330
1D
100
AcDbEntity
  8
0
100
AcDbLine
 10
154.0
 20
132.72554
 30
0.0
 11
154.0
 21
134.17254
 31
0.0
  0
LINE
  5
802
330
1D
100
AcDbEntity
  8
0
100
AcDbLine
 10
155.0
 20
152.19054
 30
0.0
 11
155.0
 21
152.51354
 31
0.0
  0
LINE
  5
804
330
1D
100
AcDbEntity
  8
0
100
AcDbLine
 10
155.0
 20
153.05754
 30
0.0
 11
155.0
 21
152.51354
 31
0.0
  0
LINE
  5
805
330
1D
100
AcDbEntity
  8
0
100
AcDbLine
 10
155.0
 20
152.51354
 30
0.0
 11
155.0
 21
152.19054
 31
0.0
  0
LINE
  5
806
330
1D
100
AcDbEntity
  8
0
100
AcDbLine
 10
155.0
 20
152.51354
 30
0.0
 11
155.0
 21
153.05754
 31
0.0
  0
LINE
  5
808
330
1D
100
AcDbEntity
  8
0
100
AcDbLine
 10
155.0
 20
110.18354
 30
0.0
 11
155.0
 21
109.63954
 31
0.0
  0
LINE
  5
809
330
1D
100
AcDbEntity
  8
0
100
AcDbLine
 10
155.703
 20
212.18854
 30
0.0
 11
156.984660868812
 21
212.188557169278
 31
0.0
  0
LINE
  5
80A
330
1D
100
AcDbEntity
  8
0
100
AcDbLine
 10
155.621
 20
212.15954
 30
0.0
 11
155.703
 21
212.18854
 31
0.0
  0
LINE
  5
80B
330
1D
100
AcDbEntity
  8
0
100
AcDbLine
 10
155.17
 20
211.79154
 30
0.0
 11
155.621
 21
212.15954
 31
0.0
  0
LINE
  5
80C
330
1D
100
AcDbEntity
  8
0
100
AcDbLine
 10
155.0
 20
211.23354
 30
0.0
 11
155.17
 21
211.79154
 31
0.0
  0
LINE
  5
811
330
1D
100
AcDbEntity
  8
0
100
AcDbLine
 10
173.184413060907
 20
83.19054
 30
0.0
 11
305.0
 21
83.19054
 31
0.0
  0
LINE
  5
812
330
1D
100
AcDbEntity
  8
0
100
AcDbLine
 10
156.99203
 20
212.19054
 30
0.0
 11
305.0
 21
212.19054
 31
0.0
  0
LINE
  5
813
330
1D
100
AcDbEntity
  8
0
100
AcDbLine
 10
156.99203
 20
212.19054
 30
0.0
 11
305.0
 21
212.19054
 31
0.0
  0
LINE
  5
814
330
1D
100
AcDbEntity
  8
0
100
AcDbLine
 10
444.5418
 20
83.19054
 30
0.0
 11
305.0
 21
83.19054
 31
0.0
  0
LINE
  5
815
330
1D
100
AcDbEntity
  8
0
100
AcDbLine
 10
444.087
 20
83.19054
 30
0.0
 11
305.0
 21
83.19054
 31
0.0
  0
LINE
  5
816
330
1D
100
AcDbEntity
  8
0
100
AcDbLine
 10
453.00797
 20
212.19054
 30
0.0
 11
305.0
 21
212.19054
 31
0.0
  0
LINE
  5
817
330
1D
100
AcDbEntity
  8
0
100
AcDbLine
 10
453.00797
 20
212.19054
 30
0.0
 11
305.0
 21
212.19054
 31
0.0
  0
LINE
  5
818
330
1D
100
AcDbEntity
  8
0
100
AcDbLine
 10
455.0
 20
93.67854
 30
0.0
 11
455.0
 21
210.19254
 31
0.0
  0
LINE
  5
819
330
1D
100
AcDbEntity
  8
0
100
AcDbLine
 10
455.0
 20
93.81724
 30
0.0
 11
455.0
 21
211.23354
 31
0.0
  0
LINE
  5
81A
330
1D
100
AcDbEntity
  8
0
100
AcDbLine
 10
455.0
 20
210.19254
 30
0.0
 11
455.0
 21
93.67854
 31
0.0
  0
LINE
  5
81B
330
1D
100
AcDbEntity
  8
0
100
AcDbLine
 10
447.7739
 20
83.70354
 30
0.0
 11
444.5418
 21
83.19054
 31
0.0
  0
LINE
  5
81C
330
1D
100
AcDbEntity
  8
0
100
AcDbLine
 10
480.0
 20
127.13154
 30
0.0
 11
480.0
 21
128.33154
 31
0.0
  0
LINE
  5
81D
330
1D
100
AcDbEntity
  8
0
100
AcDbLine
 10
480.0
 20
128.33154
 30
0.0
 11
480.0
 21
127.13154
 31
0.0
  0
LINE
  5
81E
330
1D
100
AcDbEntity
  8
0
100
AcDbLine
 10
456.0
 20
126.95554
 30
0.0
 11
456.0
 21
128.20854
 31
0.0
  0
LINE
  5
81F
330
1D
100
AcDbEntity
  8
0
100
AcDbLine
 10
456.0
 20
128.20854
 30
0.0
 11
456.0
 21
126.95554
 31
0.0
  0
LINE
  5
820
330
1D
100
AcDbEntity
  8
0
100
AcDbLine
 10
456.0
 20
125.77454
 30
0.0
 11
456.0
 21
128.44954
 31
0.0
  0
LINE
  5
821
330
1D
100
AcDbEntity
  8
0
100
AcDbLine
 10
456.0
 20
128.44954
 30
0.0
 11
456.0
 21
125.77454
 31
0.0
  0
LINE
  5
822
330
1D
100
AcDbEntity
  8
0
100
AcDbLine
 10
479.4231
 20
125.19054
 30
0.0
 11
456.0
 21
125.19054
 31
0.0
  0
LINE
  5
823
330
1D
100
AcDbEntity
  8
0
100
AcDbLine
 10
480.0
 20
126.23154
 30
0.0
 11
480.0
 21
127.13154
 31
0.0
  0
LINE
  5
824
330
1D
100
AcDbEntity
  8
0
100
AcDbLine
 10
480.0
 20
126.23154
 30
0.0
 11
480.0
 21
125.66754
 31
0.0
  0
LINE
  5
825
330
1D
100
AcDbEntity
  8
0
100
AcDbLine
 10
480.0
 20
125.66754
 30
0.0
 11
480.0
 21
126.23154
 31
0.0
  0
LINE
  5
826
330
1D
100
AcDbEntity
  8
0
100
AcDbLine
 10
480.0
 20
125.66754
 30
0.0
 11
480.0
 21
125.45554
 31
0.0
  0
LINE
  5
827
330
1D
100
AcDbEntity
  8
0
100
AcDbLine
 10
480.0
 20
127.13154
 30
0.0
 11
480.0
 21
126.23154
 31
0.0
  0
LINE
  5
828
330
1D
100
AcDbEntity
  8
0
100
AcDbLine
 10
480.0
 20
125.45554
 30
0.0
 11
479.8077
 21
125.27854
 31
0.0
  0
LINE
  5
829
330
1D
100
AcDbEntity
  8
0
100
AcDbLine
 10
480.0
 20
125.45554
 30
0.0
 11
480.0
 21
125.66754
 31
0.0
  0
LINE
  5
82A
330
1D
100
AcDbEntity
  8
0
100
AcDbLine
 10
479.8077
 20
125.27854
 30
0.0
 11
479.4231
 21
125.19054
 31
0.0
  0
LINE
  5
82B
330
1D
100
AcDbEntity
  8
0
100
AcDbLine
 10
455.0
 20
93.67854
 30
0.0
 11
454.488048
 21
90.43754
 31
0.0
  0
LINE
  5
82C
330
1D
100
AcDbEntity
  8
0
100
AcDbLine
 10
454.488048
 20
90.43754
 30
0.0
 11
453.00299
 21
87.51354
 31
0.0
  0
LINE
  5
82D
330
1D
100
AcDbEntity
  8
0
100
AcDbLine
 10
453.00299
 20
87.51354
 30
0.0
 11
450.68924
 21
85.19354
 31
0.0
  0
LINE
  5
82E
330
1D
100
AcDbEntity
  8
0
100
AcDbLine
 10
450.68924
 20
85.19354
 30
0.0
 11
447.7739
 21
83.70354
 31
0.0
  0
LINE
  5
82F
330
1D
100
AcDbEntity
  8
0
100
AcDbLine
 10
456.0
 20
116.35754
 30
0.0
 11
456.0
 21
118.41354
 31
0.0
  0
LINE
  5
830
330
1D
100
AcDbEntity
  8
0
100
AcDbLine
 10
456.0
 20
118.41354
 30
0.0
 11
456.0
 21
116.35754
 31
0.0
  0
LINE
  5
831
330
1D
100
AcDbEntity
  8
0
100
AcDbLine
 10
456.0
 20
110.19054
 30
0.0
 11
456.0
 21
110.41154
 31
0.0
  0
LINE
  5
832
330
1D
100
AcDbEntity
  8
0
100
AcDbLine
 10
456.0
 20
110.19054
 30
0.0
 11
455.0
 21
110.19054
 31
0.0
  0
LINE
  5
833
330
1D
100
AcDbEntity
  8
0
100
AcDbLine
 10
455.0
 20
109.63954
 30
0.0
 11
455.0
 21
110.18354
 31
0.0
  0
LINE
  5
834
330
1D
100
AcDbEntity
  8
0
100
AcDbLine
 10
456.0
 20
114.56754
 30
0.0
 11
456.0
 21
116.35754
 31
0.0
  0
LINE
  5
835
330
1D
100
AcDbEntity
  8
0
100
AcDbLine
 10
456.0
 20
114.56754
 30
0.0
 11
456.0
 21
112.99754
 31
0.0
  0
LINE
  5
836
330
1D
100
AcDbEntity
  8
0
100
AcDbLine
 10
456.0
 20
112.99754
 30
0.0
 11
456.0
 21
114.56754
 31
0.0
  0
LINE
  5
837
330
1D
100
AcDbEntity
  8
0
100
AcDbLine
 10
456.0
 20
112.99754
 30
0.0
 11
456.0
 21
111.82654
 31
0.0
  0
LINE
  5
838
330
1D
100
AcDbEntity
  8
0
100
AcDbLine
 10
456.0
 20
111.82654
 30
0.0
 11
456.0
 21
112.99754
 31
0.0
  0
LINE
  5
839
330
1D
100
AcDbEntity
  8
0
100
AcDbLine
 10
456.0
 20
111.82654
 30
0.0
 11
456.0
 21
110.94254
 31
0.0
  0
LINE
  5
83A
330
1D
100
AcDbEntity
  8
0
100
AcDbLine
 10
456.0
 20
110.94254
 30
0.0
 11
456.0
 21
111.82654
 31
0.0
  0
LINE
  5
83B
330
1D
100
AcDbEntity
  8
0
100
AcDbLine
 10
456.0
 20
110.94254
 30
0.0
 11
456.0
 21
110.41154
 31
0.0
  0
LINE
  5
83C
330
1D
100
AcDbEntity
  8
0
100
AcDbLine
 10
456.0
 20
110.41154
 30
0.0
 11
456.0
 21
110.94254
 31
0.0
  0
LINE
  5
83D
330
1D
100
AcDbEntity
  8
0
100
AcDbLine
 10
456.0
 20
110.41154
 30
0.0
 11
456.0
 21
110.19054
 31
0.0
  0
LINE
  5
83E
330
1D
100
AcDbEntity
  8
0
100
AcDbLine
 10
456.0
 20
116.35754
 30
0.0
 11
456.0
 21
114.56754
 31
0.0
  0
LINE
  5
83F
330
1D
100
AcDbEntity
  8
0
100
AcDbLine
 10
455.0
 20
110.18354
 30
0.0
 11
455.0
 21
109.63954
 31
0.0
  0
LINE
  5
840
330
1D
100
AcDbEntity
  8
0
100
AcDbLine
 10
456.0
 20
118.41354
 30
0.0
 11
456.0
 21
120.73454
 31
0.0
  0
LINE
  5
841
330
1D
100
AcDbEntity
  8
0
100
AcDbLine
 10
456.0
 20
120.73454
 30
0.0
 11
456.0
 21
123.16654
 31
0.0
  0
LINE
  5
842
330
1D
100
AcDbEntity
  8
0
100
AcDbLine
 10
456.0
 20
120.73454
 30
0.0
 11
456.0
 21
118.41354
 31
0.0
  0
LINE
  5
843
330
1D
100
AcDbEntity
  8
0
100
AcDbLine
 10
456.0
 20
126.00254
 30
0.0
 11
456.0
 21
125.40254
 31
0.0
  0
LINE
  5
844
330
1D
100
AcDbEntity
  8
0
100
AcDbLine
 10
456.0
 20
126.00254
 30
0.0
 11
456.0
 21
126.95554
 31
0.0
  0
LINE
  5
845
330
1D
100
AcDbEntity
  8
0
100
AcDbLine
 10
456.0
 20
125.40254
 30
0.0
 11
456.0
 21
125.19054
 31
0.0
  0
LINE
  5
846
330
1D
100
AcDbEntity
  8
0
100
AcDbLine
 10
456.0
 20
125.40254
 30
0.0
 11
456.0
 21
126.00254
 31
0.0
  0
LINE
  5
847
330
1D
100
AcDbEntity
  8
0
100
AcDbLine
 10
456.0
 20
126.95554
 30
0.0
 11
456.0
 21
126.00254
 31
0.0
  0
LINE
  5
848
330
1D
100
AcDbEntity
  8
0
100
AcDbLine
 10
456.0
 20
125.77454
 30
0.0
 11
456.0
 21
123.16654
 31
0.0
  0
LINE
  5
849
330
1D
100
AcDbEntity
  8
0
100
AcDbLine
 10
456.0
 20
125.19054
 30
0.0
 11
456.0
 21
123.16654
 31
0.0
  0
LINE
  5
84A
330
1D
100
AcDbEntity
  8
0
100
AcDbLine
 10
456.0
 20
125.19054
 30
0.0
 11
456.0
 21
125.40254
 31
0.0
  0
LINE
  5
84B
330
1D
100
AcDbEntity
  8
0
100
AcDbLine
 10
456.0
 20
123.16654
 30
0.0
 11
456.0
 21
125.19054
 31
0.0
  0
LINE
  5
84C
330
1D
100
AcDbEntity
  8
0
100
AcDbLine
 10
456.0
 20
123.16654
 30
0.0
 11
456.0
 21
120.73454
 31
0.0
  0
LINE
  5
84D
330
1D
100
AcDbEntity
  8
0
100
AcDbLine
 10
456.0
 20
123.16654
 30
0.0
 11
456.0
 21
125.77454
 31
0.0
  0
LINE
  5
84E
330
1D
100
AcDbEntity
  8
0
100
AcDbLine
 10
479.4231
 20
137.19054
 30
0.0
 11
456.0
 21
137.19054
 31
0.0
  0
LINE
  5
84F
330
1D
100
AcDbEntity
  8
0
100
AcDbLine
 10
480.0
 20
128.33154
 30
0.0
 11
480.0
 21
129.70854
 31
0.0
  0
LINE
  5
850
330
1D
100
AcDbEntity
  8
0
100
AcDbLine
 10
480.0
 20
129.70854
 30
0.0
 11
480.0
 21
131.19054
 31
0.0
  0
LINE
  5
851
330
1D
100
AcDbEntity
  8
0
100
AcDbLine
 10
480.0
 20
129.70854
 30
0.0
 11
480.0
 21
128.33154
 31
0.0
  0
LINE
  5
852
330
1D
100
AcDbEntity
  8
0
100
AcDbLine
 10
480.0
 20
131.19054
 30
0.0
 11
480.0
 21
132.67254
 31
0.0
  0
LINE
  5
853
330
1D
100
AcDbEntity
  8
0
100
AcDbLine
 10
480.0
 20
131.19054
 30
0.0
 11
480.0
 21
129.70854
 31
0.0
  0
LINE
  5
854
330
1D
100
AcDbEntity
  8
0
100
AcDbLine
 10
480.0
 20
132.67254
 30
0.0
 11
480.0
 21
131.19054
 31
0.0
  0
LINE
  5
855
330
1D
100
AcDbEntity
  8
0
100
AcDbLine
 10
480.0
 20
132.67254
 30
0.0
 11
480.0
 21
134.04954
 31
0.0
  0
LINE
  5
856
330
1D
100
AcDbEntity
  8
0
100
AcDbLine
 10
480.0
 20
135.24954
 30
0.0
 11
480.0
 21
134.04954
 31
0.0
  0
LINE
  5
857
330
1D
100
AcDbEntity
  8
0
100
AcDbLine
 10
480.0
 20
135.24954
 30
0.0
 11
480.0
 21
136.14954
 31
0.0
  0
LINE
  5
858
330
1D
100
AcDbEntity
  8
0
100
AcDbLine
 10
480.0
 20
134.04954
 30
0.0
 11
480.0
 21
132.67254
 31
0.0
  0
LINE
  5
859
330
1D
100
AcDbEntity
  8
0
100
AcDbLine
 10
480.0
 20
134.04954
 30
0.0
 11
480.0
 21
135.24954
 31
0.0
  0
LINE
  5
85A
330
1D
100
AcDbEntity
  8
0
100
AcDbLine
 10
480.0
 20
136.14954
 30
0.0
 11
480.0
 21
135.24954
 31
0.0
  0
LINE
  5
85B
330
1D
100
AcDbEntity
  8
0
100
AcDbLine
 10
480.0
 20
136.14954
 30
0.0
 11
480.0
 21
136.71354
 31
0.0
  0
LINE
  5
85C
330
1D
100
AcDbEntity
  8
0
100
AcDbLine
 10
480.0
 20
136.71354
 30
0.0
 11
480.0
 21
136.14954
 31
0.0
  0
LINE
  5
85D
330
1D
100
AcDbEntity
  8
0
100
AcDbLine
 10
480.0
 20
136.71354
 30
0.0
 11
480.0
 21
136.92554
 31
0.0
  0
LINE
  5
85E
330
1D
100
AcDbEntity
  8
0
100
AcDbLine
 10
480.0
 20
136.92554
 30
0.0
 11
480.0
 21
136.71354
 31
0.0
  0
LINE
  5
85F
330
1D
100
AcDbEntity
  8
0
100
AcDbLine
 10
480.0
 20
136.92554
 30
0.0
 11
479.8077
 21
137.10254
 31
0.0
  0
LINE
  5
860
330
1D
100
AcDbEntity
  8
0
100
AcDbLine
 10
479.8077
 20
137.10254
 30
0.0
 11
479.4231
 21
137.19054
 31
0.0
  0
LINE
  5
861
330
1D
100
AcDbEntity
  8
0
100
AcDbLine
 10
456.0
 20
147.81354
 30
0.0
 11
456.0
 21
149.38354
 31
0.0
  0
LINE
  5
862
330
1D
100
AcDbEntity
  8
0
100
AcDbLine
 10
456.0
 20
149.38354
 30
0.0
 11
456.0
 21
147.81354
 31
0.0
  0
LINE
  5
863
330
1D
100
AcDbEntity
  8
0
100
AcDbLine
 10
456.0
 20
136.60654
 30
0.0
 11
456.0
 21
139.21454
 31
0.0
  0
LINE
  5
864
330
1D
100
AcDbEntity
  8
0
100
AcDbLine
 10
456.0
 20
139.21454
 30
0.0
 11
456.0
 21
136.60654
 31
0.0
  0
LINE
  5
865
330
1D
100
AcDbEntity
  8
0
100
AcDbLine
 10
456.0
 20
139.21454
 30
0.0
 11
456.0
 21
137.19054
 31
0.0
  0
LINE
  5
866
330
1D
100
AcDbEntity
  8
0
100
AcDbLine
 10
456.0
 20
137.19054
 30
0.0
 11
456.0
 21
139.21454
 31
0.0
  0
LINE
  5
867
330
1D
100
AcDbEntity
  8
0
100
AcDbLine
 10
456.0
 20
131.19054
 30
0.0
 11
456.0
 21
133.93154
 31
0.0
  0
LINE
  5
868
330
1D
100
AcDbEntity
  8
0
100
AcDbLine
 10
456.0
 20
133.93154
 30
0.0
 11
456.0
 21
131.19054
 31
0.0
  0
LINE
  5
869
330
1D
100
AcDbEntity
  8
0
100
AcDbLine
 10
456.0
 20
134.17254
 30
0.0
 11
456.0
 21
132.72554
 31
0.0
  0
LINE
  5
86A
330
1D
100
AcDbEntity
  8
0
100
AcDbLine
 10
456.0
 20
132.72554
 30
0.0
 11
456.0
 21
134.17254
 31
0.0
  0
LINE
  5
86B
330
1D
100
AcDbEntity
  8
0
100
AcDbLine
 10
456.0
 20
128.20854
 30
0.0
 11
456.0
 21
129.65554
 31
0.0
  0
LINE
  5
86C
330
1D
100
AcDbEntity
  8
0
100
AcDbLine
 10
456.0
 20
129.65554
 30
0.0
 11
456.0
 21
128.20854
 31
0.0
  0
LINE
  5
86D
330
1D
100
AcDbEntity
  8
0
100
AcDbLine
 10
456.0
 20
129.65554
 30
0.0
 11
456.0
 21
131.19054
 31
0.0
  0
LINE
  5
86E
330
1D
100
AcDbEntity
  8
0
100
AcDbLine
 10
456.0
 20
128.44954
 30
0.0
 11
456.0
 21
131.19054
 31
0.0
  0
LINE
  5
86F
330
1D
100
AcDbEntity
  8
0
100
AcDbLine
 10
456.0
 20
131.19054
 30
0.0
 11
456.0
 21
132.72554
 31
0.0
  0
LINE
  5
870
330
1D
100
AcDbEntity
  8
0
100
AcDbLine
 10
456.0
 20
131.19054
 30
0.0
 11
456.0
 21
128.44954
 31
0.0
  0
LINE
  5
871
330
1D
100
AcDbEntity
  8
0
100
AcDbLine
 10
456.0
 20
131.19054
 30
0.0
 11
456.0
 21
129.65554
 31
0.0
  0
LINE
  5
872
330
1D
100
AcDbEntity
  8
0
100
AcDbLine
 10
456.0
 20
132.72554
 30
0.0
 11
456.0
 21
131.19054
 31
0.0
  0
LINE
  5
873
330
1D
100
AcDbEntity
  8
0
100
AcDbLine
 10
456.0
 20
133.93154
 30
0.0
 11
456.0
 21
136.60654
 31
0.0
  0
LINE
  5
874
330
1D
100
AcDbEntity
  8
0
100
AcDbLine
 10
456.0
 20
136.60654
 30
0.0
 11
456.0
 21
133.93154
 31
0.0
  0
LINE
  5
875
330
1D
100
AcDbEntity
  8
0
100
AcDbLine
 10
456.0
 20
136.37854
 30
0.0
 11
456.0
 21
135.42554
 31
0.0
  0
LINE
  5
876
330
1D
100
AcDbEntity
  8
0
100
AcDbLine
 10
456.0
 20
136.37854
 30
0.0
 11
456.0
 21
136.97854
 31
0.0
  0
LINE
  5
877
330
1D
100
AcDbEntity
  8
0
100
AcDbLine
 10
456.0
 20
136.97854
 30
0.0
 11
456.0
 21
136.37854
 31
0.0
  0
LINE
  5
878
330
1D
100
AcDbEntity
  8
0
100
AcDbLine
 10
456.0
 20
136.97854
 30
0.0
 11
456.0
 21
137.19054
 31
0.0
  0
LINE
  5
879
330
1D
100
AcDbEntity
  8
0
100
AcDbLine
 10
456.0
 20
137.19054
 30
0.0
 11
456.0
 21
136.97854
 31
0.0
  0
LINE
  5
87A
330
1D
100
AcDbEntity
  8
0
100
AcDbLine
 10
456.0
 20
135.42554
 30
0.0
 11
456.0
 21
134.17254
 31
0.0
  0
LINE
  5
87B
330
1D
100
AcDbEntity
  8
0
100
AcDbLine
 10
456.0
 20
135.42554
 30
0.0
 11
456.0
 21
136.37854
 31
0.0
  0
LINE
  5
87C
330
1D
100
AcDbEntity
  8
0
100
AcDbLine
 10
456.0
 20
134.17254
 30
0.0
 11
456.0
 21
135.42554
 31
0.0
  0
LINE
  5
87D
330
1D
100
AcDbEntity
  8
0
100
AcDbLine
 10
456.0
 20
147.81354
 30
0.0
 11
456.0
 21
146.02354
 31
0.0
  0
LINE
  5
87E
330
1D
100
AcDbEntity
  8
0
100
AcDbLine
 10
456.0
 20
146.02354
 30
0.0
 11
456.0
 21
143.96754
 31
0.0
  0
LINE
  5
87F
330
1D
100
AcDbEntity
  8
0
100
AcDbLine
 10
456.0
 20
146.02354
 30
0.0
 11
456.0
 21
147.81354
 31
0.0
  0
LINE
  5
880
330
1D
100
AcDbEntity
  8
0
100
AcDbLine
 10
456.0
 20
143.96754
 30
0.0
 11
456.0
 21
141.64654
 31
0.0
  0
LINE
  5
881
330
1D
100
AcDbEntity
  8
0
100
AcDbLine
 10
456.0
 20
143.96754
 30
0.0
 11
456.0
 21
146.02354
 31
0.0
  0
LINE
  5
882
330
1D
100
AcDbEntity
  8
0
100
AcDbLine
 10
456.0
 20
141.64654
 30
0.0
 11
456.0
 21
139.21454
 31
0.0
  0
LINE
  5
883
330
1D
100
AcDbEntity
  8
0
100
AcDbLine
 10
456.0
 20
141.64654
 30
0.0
 11
456.0
 21
143.96754
 31
0.0
  0
LINE
  5
884
330
1D
100
AcDbEntity
  8
0
100
AcDbLine
 10
456.0
 20
139.21454
 30
0.0
 11
456.0
 21
141.64654
 31
0.0
  0
LINE
  5
885
330
1D
100
AcDbEntity
  8
0
100
AcDbLine
 10
456.0
 20
149.38354
 30
0.0
 11
456.0
 21
150.55454
 31
0.0
  0
LINE
  5
886
330
1D
100
AcDbEntity
  8
0
100
AcDbLine
 10
456.0
 20
150.55454
 30
0.0
 11
456.0
 21
149.38354
 31
0.0
  0
LINE
  5
887
330
1D
100
AcDbEntity
  8
0
100
AcDbLine
 10
456.0
 20
150.55454
 30
0.0
 11
456.0
 21
151.43854
 31
0.0
  0
LINE
  5
888
330
1D
100
AcDbEntity
  8
0
100
AcDbLine
 10
456.0
 20
151.43854
 30
0.0
 11
456.0
 21
150.55454
 31
0.0
  0
LINE
  5
889
330
1D
100
AcDbEntity
  8
0
100
AcDbLine
 10
456.0
 20
151.43854
 30
0.0
 11
456.0
 21
151.96954
 31
0.0
  0
LINE
  5
88A
330
1D
100
AcDbEntity
  8
0
100
AcDbLine
 10
456.0
 20
151.96954
 30
0.0
 11
456.0
 21
151.43854
 31
0.0
  0
LINE
  5
88B
330
1D
100
AcDbEntity
  8
0
100
AcDbLine
 10
456.0
 20
151.96954
 30
0.0
 11
456.0
 21
152.19054
 31
0.0
  0
LINE
  5
88C
330
1D
100
AcDbEntity
  8
0
100
AcDbLine
 10
456.0
 20
152.19054
 30
0.0
 11
456.0
 21
151.96954
 31
0.0
  0
LINE
  5
88D
330
1D
100
AcDbEntity
  8
0
100
AcDbLine
 10
456.0
 20
152.19054
 30
0.0
 11
455.0
 21
152.19054
 31
0.0
  0
LINE
  5
88E
330
1D
100
AcDbEntity
  8
0
100
AcDbLine
 10
455.0
 20
152.19054
 30
0.0
 11
455.0
 21
152.51354
 31
0.0
  0
LINE
  5
88F
330
1D
100
AcDbEntity
  8
0
100
AcDbLine
 10
455.0
 20
153.05754
 30
0.0
 11
455.0
 21
152.51354
 31
0.0
  0
LINE
  5
890
330
1D
100
AcDbEntity
  8
0
100
AcDbLine
 10
455.0
 20
152.51354
 30
0.0
 11
455.0
 21
152.19054
 31
0.0
  0
LINE
  5
891
330
1D
100
AcDbEntity
  8
0
100
AcDbLine
 10
455.0
 20
152.51354
 30
0.0
 11
455.0
 21
153.05754
 31
0.0
  0
LINE
  5
892
330
1D
100
AcDbEntity
  8
0
100
AcDbLine
 10
454.297
 20
212.18854
 30
0.0
 11
453.015339131188
 21
212.188557169278
 31
0.0
  0
LINE
  5
893
330
1D
100
AcDbEntity
  8
0
100
AcDbLine
 10
454.379
 20
212.15954
 30
0.0
 11
454.297
 21
212.18854
 31
0.0
  0
LINE
  5
894
330
1D
100
AcDbEntity
  8
0
100
AcDbLine
 10
454.83
 20
211.79154
 30
0.0
 11
454.379
 21
212.15954
 31
0.0
  0
LINE
  5
895
330
1D
100
AcDbEntity
  8
0
100
AcDbLine
 10
455.0
 20
211.23354
 30
0.0
 11
454.83
 21
211.79154
 31
0.0
  0
ENDSEC
  0
SECTION
  2
OBJECTS
  0
DICTIONARY
  5
C
330
0
100
AcDbDictionary
281
     1
  3
ACAD_GROUP
350
D
  3
ACAD_LAYOUT
350
1A
  3
ACAD_MLEADERSTYLE
350
898
  3
ACAD_MLINESTYLE
350
17
  3
ACAD_PLOTSETTINGS
350
19
  3
ACAD_PLOTSTYLENAME
350
E
  3
ACAD_SCALELIST
350
320
  3
AcDbVariableDictionary
350
896
  3
DWGPROPS
350
89B
  0
DICTIONARY
  5
D
102
{ACAD_REACTORS
330
C
102
}
330
C
100
AcDbDictionary
281
     1
  0
DICTIONARY
  5
1A
102
{ACAD_REACTORS
330
C
102
}
330
C
100
AcDbDictionary
281
     1
  3
Layout1
350
1C
  3
Model
350
1E
  0
DICTIONARY
  5
898
102
{ACAD_REACTORS
330
C
102
}
330
C
100
AcDbDictionary
281
     1
  0
DICTIONARY
  5
17
102
{ACAD_REACTORS
330
C
102
}
330
C
100
AcDbDictionary
281
     1
  3
Standard
350
18
  0
DICTIONARY
  5
19
102
{ACAD_REACTORS
330
C
102
}
330
C
100
AcDbDictionary
281
     1
  0
ACDBDICTIONARYWDFLT
  5
E
102
{ACAD_REACTORS
330
C
102
}
330
C
100
AcDbDictionary
281
     1
  3
Normal
350
F
100
AcDbDictionaryWithDefault
340
F
  0
DICTIONARY
  5
320
102
{ACAD_REACTORS
330
C
102
}
330
C
100
AcDbDictionary
281
     1
  3
A0
350
321
  3
A1
350
322
  3
A2
350
323
  3
A3
350
324
  3
A4
350
325
  3
A5
350
326
  3
A6
350
327
  3
A7
350
328
  3
A8
350
329
  3
A9
350
32A
  3
B0
350
32B
  3
B1
350
32C
  3
B2
350
32D
  3
B3
350
32E
  3
B4
350
32F
  3
B5
350
330
  3
B6
350
331
  3
B7
350
332
  3
B8
350
333
  3
B9
350
334
  3
C0
350
335
  3
C1
350
336
  3
C2
350
337
  3
C3
350
338
  3
C4
350
339
  3
C5
350
33A
  3
C6
350
33B
  3
C7
350
33C
  3
C8
350
33D
  3
C9
350
33E
  3
D0
350
33F
  3
D1
350
340
  3
D2
350
341
  0
DICTIONARY
  5
896
102
{ACAD_REACTORS
330
C
102
}
330
C
100
AcDbDictionary
281
     1
  3
CANNOSCALE
350
899
  0
XRECORD
  5
89B
102
{ACAD_REACTORS
330
C
102
}
330
C
100
AcDbXrecord
280
     1
  1
DWGPROPS COOKIE
  2

  3

  4

  6

  7

  8
MARTIN
  9

300
=
301
=
302
=
303
=
304
=
305
=
306
=
307
=
308
=
309
=
 40
0.0
 41
2455824.931888194
 42
2455824.933283056
  1

 90
        0
  0
LAYOUT
  5
1C
102
{ACAD_REACTORS
330
1A
102
}
330
1A
100
AcDbPlotSettings
  1

  2
none_device
  4

  6

 40
0.0
 41
0.0
 42
0.0
 43
0.0
 44
0.0
 45
0.0
 46
0.0
 47
0.0
 48
0.0
 49
0.0
140
0.0
141
0.0
142
1.0
143
1.0
 70
   688
 72
     0
 73
     0
 74
     5
  7

 75
    16
147
1.0
148
0.0
149
0.0
100
AcDbLayout
  1
Layout1
 70
     1
 71
     1
 10
0.0
 20
0.0
 11
12.0
 21
9.0
 12
0.0
 22
0.0
 32
0.0
 14
1.000000000000E+20
 24
1.000000000000E+20
 34
1.000000000000E+20
 15
-1.000000000000E+20
 25
-1.000000000000E+20
 35
-1.000000000000E+20
146
0.0
 13
0.0
 23
0.0
 33
0.0
 16
1.0
 26
0.0
 36
0.0
 17
0.0
 27
1.0
 37
0.0
 76
     0
330
1B
  0
LAYOUT
  5
1E
102
{ACAD_REACTORS
330
1A
102
}
330
1A
100
AcDbPlotSettings
  1

  2
none_device
  4

  6

 40
0.0
 41
0.0
 42
0.0
 43
0.0
 44
0.0
 45
0.0
 46
0.0
 47
0.0
 48
0.0
 49
0.0
140
0.0
141
0.0
142
1.0
143
1.0
 70
  1712
 72
     0
 73
     0
 74
     0
  7

 75
     0
147
1.0
148
0.0
149
0.0
100
AcDbLayout
  1
Model
 70
     1
 71
     0
 10
0.0
 20
0.0
 11
12.0
 21
9.0
 12
0.0
 22
0.0
 32
0.0
 14
0.0
 24
0.05046
 34
0.0
 15
480.0
 25
217.94954
 35
0.0
146
0.0
 13
0.0
 23
0.0
 33
0.0
 16
1.0
 26
0.0
 36
0.0
 17
0.0
 27
1.0
 37
0.0
 76
     0
330
1D
331
31B
  0
MLINESTYLE
  5
18
102
{ACAD_REACTORS
330
17
102
}
330
17
100
AcDbMlineStyle
  2
Standard
 70
     0
  3

 62
   256
 51
90.0
 52
90.0
 71
     2
 49
0.5
 62
   256
  6
BYLAYER
 49
-0.5
 62
   256
  6
BYLAYER
  0
ACDBPLACEHOLDER
  5
F
102
{ACAD_REACTORS
330
E
102
}
330
E
  0
SCALE
  5
321
102
{ACAD_REACTORS
330
320
102
}
330
320
100
AcDbScale
 70
     0
300
1:1
140
1.0
141
1.0
290
     1
  0
SCALE
  5
322
102
{ACAD_REACTORS
330
320
102
}
330
320
100
AcDbScale
 70
     0
300
1:2
140
1.0
141
2.0
290
     0
  0
SCALE
  5
323
102
{ACAD_REACTORS
330
320
102
}
330
320
100
AcDbScale
 70
     0
300
1:4
140
1.0
141
4.0
290
     0
  0
SCALE
  5
324
102
{ACAD_REACTORS
330
320
102
}
330
320
100
AcDbScale
 70
     0
300
1:5
140
1.0
141
5.0
290
     0
  0
SCALE
  5
325
102
{ACAD_REACTORS
330
320
102
}
330
320
100
AcDbScale
 70
     0
300
1:8
140
1.0
141
8.0
290
     0
  0
SCALE
  5
326
102
{ACAD_REACTORS
330
320
102
}
330
320
100
AcDbScale
 70
     0
300
1:10
140
1.0
141
10.0
290
     0
  0
SCALE
  5
327
102
{ACAD_REACTORS
330
320
102
}
330
320
100
AcDbScale
 70
     0
300
1:16
140
1.0
141
16.0
290
     0
  0
SCALE
  5
328
102
{ACAD_REACTORS
330
320
102
}
330
320
100
AcDbScale
 70
     0
300
1:20
140
1.0
141
20.0
290
     0
  0
SCALE
  5
329
102
{ACAD_REACTORS
330
320
102
}
330
320
100
AcDbScale
 70
     0
300
1:30
140
1.0
141
30.0
290
     0
  0
SCALE
  5
32A
102
{ACAD_REACTORS
330
320
102
}
330
320
100
AcDbScale
 70
     0
300
1:40
140
1.0
141
40.0
290
     0
  0
SCALE
  5
32B
102
{ACAD_REACTORS
330
320
102
}
330
320
100
AcDbScale
 70
     0
300
1:50
140
1.0
141
50.0
290
     0
  0
SCALE
  5
32C
102
{ACAD_REACTORS
330
320
102
}
330
320
100
AcDbScale
 70
     0
300
1:100
140
1.0
141
100.0
290
     0
  0
SCALE
  5
32D
102
{ACAD_REACTORS
330
320
102
}
330
320
100
AcDbScale
 70
     0
300
2:1
140
2.0
141
1.0
290
     0
  0
SCALE
  5
32E
102
{ACAD_REACTORS
330
320
102
}
330
320
100
AcDbScale
 70
     0
300
4:1
140
4.0
141
1.0
290
     0
  0
SCALE
  5
32F
102
{ACAD_REACTORS
330
320
102
}
330
320
100
AcDbScale
 70
     0
300
8:1
140
8.0
141
1.0
290
     0
  0
SCALE
  5
330
102
{ACAD_REACTORS
330
320
102
}
330
320
100
AcDbScale
 70
     0
300
10:1
140
10.0
141
1.0
290
     0
  0
SCALE
  5
331
102
{ACAD_REACTORS
330
320
102
}
330
320
100
AcDbScale
 70
     0
300
100:1
140
100.0
141
1.0
290
     0
  0
SCALE
  5
332
102
{ACAD_REACTORS
330
320
102
}
330
320
100
AcDbScale
 70
     0
300
1/128" = 1'-0"
140
0.0078125
141
12.0
290
     0
  0
SCALE
  5
333
102
{ACAD_REACTORS
330
320
102
}
330
320
100
AcDbScale
 70
     0
300
1/64" = 1'-0"
140
0.015625
141
12.0
290
     0
  0
SCALE
  5
334
102
{ACAD_REACTORS
330
320
102
}
330
320
100
AcDbScale
 70
     0
300
1/32" = 1'-0"
140
0.03125
141
12.0
290
     0
  0
SCALE
  5
335
102
{ACAD_REACTORS
330
320
102
}
330
320
100
AcDbScale
 70
     0
300
1/16" = 1'-0"
140
0.0625
141
12.0
290
     0
  0
SCALE
  5
336
102
{ACAD_REACTORS
330
320
102
}
330
320
100
AcDbScale
 70
     0
300
3/32" = 1'-0"
140
0.09375
141
12.0
290
     0
  0
SCALE
  5
337
102
{ACAD_REACTORS
330
320
102
}
330
320
100
AcDbScale
 70
     0
300
1/8" = 1'-0"
140
0.125
141
12.0
290
     0
  0
SCALE
  5
338
102
{ACAD_REACTORS
330
320
102
}
330
320
100
AcDbScale
 70
     0
300
3/16" = 1'-0"
140
0.1875
141
12.0
290
     0
  0
SCALE
  5
339
102
{ACAD_REACTORS
330
320
102
}
330
320
100
AcDbScale
 70
     0
300
1/4" = 1'-0"
140
0.25
141
12.0
290
     0
  0
SCALE
  5
33A
102
{ACAD_REACTORS
330
320
102
}
330
320
100
AcDbScale
 70
     0
300
3/8" = 1'-0"
140
0.375
141
12.0
290
     0
  0
SCALE
  5
33B
102
{ACAD_REACTORS
330
320
102
}
330
320
100
AcDbScale
 70
     0
300
1/2" = 1'-0"
140
0.5
141
12.0
290
     0
  0
SCALE
  5
33C
102
{ACAD_REACTORS
330
320
102
}
330
320
100
AcDbScale
 70
     0
300
3/4" = 1'-0"
140
0.75
141
12.0
290
     0
  0
SCALE
  5
33D
102
{ACAD_REACTORS
330
320
102
}
330
320
100
AcDbScale
 70
     0
300
1" = 1'-0"
140
1.0
141
12.0
290
     0
  0
SCALE
  5
33E
102
{ACAD_REACTORS
330
320
102
}
330
320
100
AcDbScale
 70
     0
300
1-1/2" = 1'-0"
140
1.5
141
12.0
290
     0
  0
SCALE
  5
33F
102
{ACAD_REACTORS
330
320
102
}
330
320
100
AcDbScale
 70
     0
300
3" = 1'-0"
140
3.0
141
12.0
290
     0
  0
SCALE
  5
340
102
{ACAD_REACTORS
330
320
102
}
330
320
100
AcDbScale
 70
     0
300
6" = 1'-0"
140
6.0
141
12.0
290
     0
  0
SCALE
  5
341
102
{ACAD_REACTORS
330
320
102
}
330
320
100
AcDbScale
 70
     0
300
1'-0" = 1'-0"
140
12.0
141
12.0
290
     0
  0
DICTIONARYVAR
  5
899
102
{ACAD_REACTORS
330
896
102
}
330
896
100
DictionaryVariables
280
     0
  1
1:1
  0
ENDSEC
  0
SECTION
  2
THUMBNAILIMAGE
 90
    16364
310
28000000B40000005500000001000800000000000000000000000000000000000000000000000000FFFFFF000000FF0000FFFF0000FF0000FFFF0000FF000000FF00FF000000000080808000C0C0C0000000FF007F7FFF000000A5005252A50000007F003F3F7F0000004C0026264C000000260013132600003FFF007F9FFF
310
000029A5005267A500001F7F003F4F7F0000134C00262F4C000009260013172600007FFF007FBFFF000052A500527CA500003F7F003F5F7F0000264C0026394C0000132600131C260000BFFF007FDFFF00007CA5005291A500005F7F003F6F7F0000394C0026424C00001C26001321260000FFFF007FFFFF0000A5A50052A5
310
A500007F7F003F7F7F00004C4C00264C4C00002626001326260000FFBF007FFFDF0000A57C0052A59100007F5F003F7F6F00004C3900264C420000261C001326210000FF7F007FFFBF0000A5520052A57C00007F3F003F7F5F00004C2600264C39000026130013261C0000FF3F007FFF9F0000A5290052A56700007F1F003F
310
7F4F00004C1300264C2F00002609001326170000FF00007FFF7F0000A5000052A55200007F00003F7F3F00004C0000264C260000260000132613003FFF00009FFF7F0029A5000067A552001F7F00004F7F3F00134C00002F4C260009260000172613007FFF0000BFFF7F0052A500007CA552003F7F00005F7F3F00264C0000
310
394C2600132600001C261300BFFF0000DFFF7F007CA5000091A552005F7F00006F7F3F00394C0000424C26001C26000021261300FFFF0000FFFF7F00A5A50000A5A552007F7F00007F7F3F004C4C00004C4C26002626000026261300FFBF0000FFDF7F00A57C0000A59152007F5F00007F6F3F004C3900004C422600261C00
310
0026211300FF7F0000FFBF7F00A5520000A57C52007F3F00007F5F3F004C2600004C39260026130000261C1300FF3F0000FF9F7F00A5290000A56752007F1F00007F4F3F004C1300004C2F26002609000026171300FF000000FF7F7F00A5000000A55252007F0000007F3F3F004C0000004C2626002600000026131300FF00
310
3F00FF7F9F00A5002900A55267007F001F007F3F4F004C0013004C262F002600090026131700FF007F00FF7FBF00A5005200A5527C007F003F007F3F5F004C0026004C2639002600130026131C00FF00BF00FF7FDF00A5007C00A55291007F005F007F3F6F004C0039004C26420026001C0026132100FF00FF00FF7FFF00A5
310
00A500A552A5007F007F007F3F7F004C004C004C264C002600260026132600BF00FF00DF7FFF007C00A5009152A5005F007F006F3F7F0039004C0042264C001C002600211326007F00FF00BF7FFF005200A5007C52A5003F007F005F3F7F0026004C0039264C00130026001C1326003F00FF009F7FFF002900A5006752A500
310
1F007F004F3F7F0013004C002F264C000900260017132600000000002D2D2D005B5B5B0089898900B7B7B700B3B3B30000000000000000000000000000000000000000000000000000000000000000000000000000000000000000000000000000000000000000000000000000000000000000000000000000000000000000
310
00000000000000000000000000000000000000000000000000000000000000000000000000000000000000000000000000000000000000000000000000000000000000000000000000000000000000000000000000000000000000000000000000000000000000000000000000000000000000000000000000000000000000
310
00000000000000000000000000000000000000000000000000000000000000000000000000000000000000000000000000000000000000000000000000000000000000000000000000000000000000000000000000000000000000000000000000000000000000000000000000000000000000000000000000000000000000
310
00000000000000000000000000000000000000000000000000000000000000000000000000000000000000000000000000000000000000000000000000000000000000000000000000000000000000000000000000000000000000000000000000000000000000000000000000000000000000000000000000000000000000
310
00000000000000000000000000000000000000000000000000000000000000000000000000000000000000000000000000000000000000000000000000000000000000000000000000000000000000000000000000000000000000000000000000000000000000000000000000000000000000000000000000000000000000
310
00000000000000000000000000000000000000000000000000000000000000000000000000000000000000000000000000000000000000000000000000000000000000000000000000000000000000000000000000000000000000000000000000000000000000000000000000000000000000000000000000000000000000
310
00000000000000000000000000000000000000000000000000000000000000000000000000000000000000000000000000000000000000000000000000000000000000000000000000000000000000000000000000000000000000000000000000000000000000000000000000000000000000000000000000000000000000
310
00000000000000000000000000000000000000000000000000000000000000000000000000000000000000000000000000000000000000000000000000000000000000000000000000000000000000000000000000000000000000000000000000000000000000000000000000000000000000000000000000000000000000
310
00000000000000000000000000000000000000000000000000000000000000000000000000000000000000000000000000000000000000000000000000000000000000000000000000000000000000000000000000000000000000000000000000000000000000000000000000000000000000000000000000000000000000
310
00000000000000000000000000000000000000000000000000000000000000000000000000000000000000000000000000000000000000000000000000000000000000000000000000000000000000000000000000000000000000000000000000000000000000000000000000000000000000000000000000000000000000
310
00000000000000000000000000000000000000000000000000000000000000000000000000000000000000000000000000000000000000000000000000000000000000000000000000000000000000000000000000000000000000000000000000000000000000000000000000000000000000000000000000000000000000
310
00000000000000000000000000000000000000000000000000000000000000000000000000000000000000000000000000000000000000000000000000000000000000000000000000000000000000000000000000000000000000000000000000000000000000000000000000000000000000000000000000000000000000
310
00000000000007070707070707070707070700000000000000000000000000000000000000000000000000000000000000000000000000000000000000000000000000000000000000000000000000000000000000000000000000000000000000000000000000000000000000000000000000000000000000000000000000
310
00000000000000000000000000000000000000000000000000000000000000000000000000000000000000000000000000000000000000070707070000000000000000000000000707070000000000000000000000000000000000000000000000000000000000000000000000000000000000000000000000000000000000
310
00000000000000000000000000000000000000000000000000000000000000000000000000000000000000000000000000000000000000000000000000000000000000000000000000000000000000000000000000000000000000000000000000000000000000000007070700000000000000000000000000000000000000
310
07070707000000000000000000000000000000000000000000000000000000000000000000000000000000000000000000000000000000000000000000000000000000000000000000000000000000000000000000000000000000000000000000000000000000000000000000000000000000000000000000000000000000
310
00000000000000000000000000000000000000000000000000000000000007000000000000000000000000000000000000000000000000000007000000000000000000000000000000000000000000000000000000000000000000000000000000000000000000000000000000000000000000000000000000000000000000
310
00000000000000000000000000000000000000000000000000000000000000000000000000000000000000000000000000000000000000000000000000000000000000000000000000000000000000000007070000000000000000000000000000000000000000000000000000000007070000000000000000000000000000
310
00000000000000000000000000000000000000000000000000000000000000000000000000000000000000000000000000000000000000000000000000000000000000000000000000000000000000000000000000000000000000000000000000000000000000000000000000000000000000000000000000000000000000
310
00000000000007000000000000000000000000000000000000000000000000000000000000000007000000000000000000000000000000000000000000000000000000000000000000000000000000000000000000000000000000000000000000000000000000000000000000000000000000000000000000000000000000
310
00000000000000000000000000000000000000000000000000000000000000000000000000000000000000000000000000000000000000000000070000000000000000000000000000000000000000000000000000000000000000000007000000000000000000000000000000000000000000000000000000000000000000
310
00000000000000000000000000000000000000000000000000000000000000000000000000000000000000000000000000000000000000000000000000000000000000000000000000000000000000000000000000000000000000000000000000000000000000000000000000070700000000000000000000000000000000
310
00000000000000000000000000000000000000000700000000000000000000000000000000000000000000000000000000000000000000000000000000000000000000000000000000000000000000000000000000000000000000000000000000000000000000000000000000000000000000000000000000000000000000
310
00000000000000000000000000000000000000000000000000000000000000000000070000000000000000000000000000000000000000000000000000000000000000000000000000000700000000000000000000000000000000000000000000000000000000000000000000000000000000000000000000000000000000
310
00000000000000000000000000000000000000000000000000000000000000000000000000000000000000000000000000000000000000000000000000000000000000000000000000000000000000000000000000000007000000000000000000000000000000000000000000000000000000000000000000000000000000
310
00070000000000000000000000000000000000000000000000000000000000000000000000000000000000000000000000000000000000000000000000000000000000000000000000000000000000000000000000000000000000000000000000000000000000000000000000000000000000000000000000000000000000
310
00000000000000000000000007000000000000000000000000000000000000000000000000000000000000000000000000000000000000070000000000000000000000000000000000000000000000000000000000000000000000000000000000000000000000000000000000000000000000000000000000000000000000
310
00000000000000000000000000000000000000000000000000000000000000000000000000000000000000000000000000000000000000000000000000000000070700000000000000000000000000000000000000000000000000000000000000000000000000000000000007000000000000000000000000000000000000
310
00000000000000000000000000000000000000000000000000000000000000000000000000000000000000000000000000000000000000000000000000000000000000000000000000000000000000000000000000000000000000000000000000000000000000000000000000000000000000000007000000000000000000
310
00000000000000000000000000000000000000000000000000000000000000000000000700000000000000000000000000000000000000000000000000000000000000000000000000000000000000000000000000000000000000000000000000000000000000000000000000000000000000000000000000000000000000
310
00000000000000000000000000000000000000000000000000000000000000000000000000000000000000070000000000000000000000000000000000000000000000000000000000000000000000000000000000000000070000000000000000000000000000000000000000000000000000000000000000000000000000
310
00000000000000000000000000000000000000000000000000000000000000000000000000000000000000000000000000000000000000000000000000000000000000000000000000000000000000000000000000000000000000000000000007000000000000000000000000000000000000000000000000000000000000
310
00000000000000000000000000000700000000000000000000000000000000000000000000000000000000000000000000000000000000000000000000000000000000000000000000000000000000000000000000000000000000000000000000000000000000000000000000000000000000000000000000000000000000
310
00000000000000000000000000000000000000000007000000000000000000000000000000000000000000000000000000000000000000000000000000000000000000070000000000000000000000000000000000000000000000000000000000000000000000000000000000000000000000000000000000000000000000
310
00000000000000000000000000000000000000000000000000000000000000000000000000000000000000000000000000000000000000000000000000000000000000000000000000000700000000000000000000000000000000000000000000000000000000000000000000000000000000000000000000070000000000
310
00000000000000000000000000000000000000000000000000000000000000000000000000000000000000000000000000000000000000000000000000000000000000000000000000000000000000000000000000000000000000000000000000000000000000000000000000000000000000000000000000000000000000
310
07000000000000000000000000000000000000000000000000000000000000000000000000000000000000000000000700000000000000000000000000000000000000000000000000000000000000000000000000000000000000000000000000000000000000000000000000000000000000000000000000000000000000
310
00000000000000000000000000000000000000000000000000000000000000000000000000000000000000000000000000000000000700000000000000000000000000000000000000000000000000000000000000000000000000000000000000000000070000000000000000000000000000000000000000000000000000
310
00000000000000000000000000000000000000000000000000000000000000000000000000000000000000000000000000000000000000000000000000000000000000000000000000000000000000000000000000000000000000000000000000000000000000000000070000000000000000000000000000000000000000
310
00000000000000000000000000000000000000000000000000000700000000000000000000000000000000000000000000000000000000000000000000000000000000000000000000000000000000000000000000000000000000000000000000000000000000000000000000000000000000000000000000000000000000
310
00000000000000000000000000000000000000000000000000000000000000000700000000000000000000000000000000000000000000000000000000000000000000000000000000000000000000070000000000000000000000000000000000000000000000000000000000000000000000000000000000000000000000
310
00000000000000000000000000000000000000000000000000000000000000000000000000000000000000000000000000000000000000000000000000000000000000000000000000000000000000000000000000070000000000000000000000000000000000000000000000000000000000000000000000000000000000
310
00000000000700000000000000000000000000000000000000000000000000000000000000000000000000000000000000000000000000000000000000000000000000000000000000000000000000000000000000000000000000000000000000000000000000000000000000000000000000000000000000000000000000
310
00000000000000000000000700000000000000000000000000000000000000000000000000000000000000000000000000000000000000000000070000000000000000000000000000000000000000000000000000000000000000000000000000000000000000000000000000000000000000000000000000000000000000
310
00000000000000000000000000000000000000000000000000000000000000000000000000000000000000000000000000000000000000000000000000000000000700000000000000000000000000000000000000000000000000000000000000000000000000000000000000000700000000000000000000000000000000
310
00000000000000000000000000000000000000000000000000000000000000000000000000000000000000000000000000000000000000000000000000000000000000000000000000000000000000000000000000000000000000000000000000000000000000000000000000000000000000000707070000000000000000
310
00000000000000000000000000000000000000000000000000000000000000000000000007000000000000000000000000000000000000000000000000000000000000000000000000000000000000000000000000000000000000000000000000000000000000000000000000000000000000000000000000000000000000
310
00000000000000000000000000000000000000000000000000000000000000000000000000000000000700070700000000000000000000000000000000000000000000000000000000000000000000000000000000000000070707070707070707070707070707070707070707070707070707070707070707070707070707
310
07070007070707070707070707070707070707070707070707070707070707070707070707070707070707070707070000000000000000000000000000000000000000000000000000000000000000000000000000000000000000000007000700000700000000000000000000000000000000000000000000000000000000
310
00000000000000000000000000000700000000000000000000000000000000000000000000000000000000000000000000000000000000000000000000000000000000000000000000000000000000000000000000000000000000000000000000000000070700000000000000000000000000000000000000000000000000
310
00000000000000000000000000000000000007000700000007000000000000000000000000000000000000000000000000000000000000000000000000000000000007000000000000000000000000000000000000000000000000000000000000000000000000000000000000000000000000000000000000000000000000
310
00000000000000000000000000000000000000000000000000000007000000000000000000000000000000000000000000000000000000000000000000000000000000000000000707000000000007000000000000000000000000000000000000000000000000000000000000000000000000000000000700000000000000
310
00000000000000000000000000000000000000000000000000000000000000000000000000000000000000000000000000000000000000000000000000000000000000000000000000000000000000000007000000000000000000000000000000000000000000000000000000000000000000000000000000000007070000
310
00000000000700000000000000000000000000000000000000000000000000000000000000000000000000000700000000000000000000000000000000000000000000000000000000000000000000000000000000000000000000000000000000000000000000000000000000000000000000000000000000000000000000
310
00000000000000070000000000000000000000000000000000000000000000000000000000000000000000000000000007070000000000000000000700000000000000000000000000000000000000000000000000000000000000000000000007000000000000000000000000000000000000000000000000000000000000
310
00000000000000000000000000000000000000000000000000000000000000000000000000000000000000000000000000000000000000000000000007000000000000000000000000000000000000000000000000000000000000000000000000000000000707000000000000000000000700000000000000000000000000
310
00000000000000000000000000000000000000000007000000000000000000000000000000000000000000000000000000000000000000000000000000000000000000000000000000000000000000000000000000000000000000000000000000000000000000000000000000000000000700000000000000000000000000
310
00000000000000000000000000000000000000000000000000000707000000000000000000000000070000000000000000000000000000000000000000000000000000000000000000070000000000000000000000000000000000000000000000000000000000000000000000000000000000000000000000000000000000
310
00000000000000000000000000000000000000000000000000000000000000000000000000000007000000000000000000000000000000000000000000000000000000000000000000000000000000070700000000000000000000000000070700000000000000000000000000000000000000000000000000000000070707
310
00000000000000000000000000000000000000000000000000000000000000000000000000000000000000000000000000000000000000000000000000000000000000000000000000000000000000000000000000000000000000000700000000000000000000000000000000000000000000000000000000000000000000
310
00000000070700000000000000000000000000000000070707000000000000000000000000000000000000000000000707070007070000000000000000000000000000000000000000000000000000000000000000000000000000000000000000000000000000000000000000000000000000000000000000000000000000
310
00000000000000000000000000000000000007000000000000000000000000000000000000000000000000000000000000000000000000000007070000000000000000000000000000000000000007070000000000000000000000000000000000000707000000000707000000000000000000000000000000000000000000
310
00000000000000000000000000000000000000000000000000000000000000000000000000000000000000000000000000000000000000000000000000000000000000000000000700000000000000000000000000000000000000000000000000000000000000000000000000000707000000000000000000000000000000
310
00000000000707000000000000000000000000000000070700000000000007070000000000000000000000000000000000000000000000000000000000000000000000000000000000000000000000000000000000000000000000000000000000000000000000000000000000000000000000000000000000000000070000
310
00000000000000000000000000000000000000000000000000000000000000000000000007000000000000000000000000000000000000000000000007070000000000000000000000000707000000000000000707000000000000000000000000000000000000000000000000000000000000000000000000000000000000
310
00000000000000000000000000000000000000000000000000000000000000000000000000000000000000000000000000000700000000000000000000000000000000000000000000000000000000000000000000000000000700000000000000000000000000000000000000000000000007000000000000000000000000
310
07070700000000000007070000000000000000000000000000000000000000000000000000000000000000000000000000000000000000000000000000000000000000000000000000000000000000000000000000000000000000000000000000000000000000070000000000000000000000000000000000000000000000
310
00000000000000000000000000000707000000000000000000000000000000000000000000000000070000000000000000000000070007070707070707070707000000000000000000000000000000000000000000000000000000000000000000000000000000000000000000000000000000000000000000000000000000
310
00000000000000000000000000000000000000000000000000000000000707070707070707070000000000000000000000000000000000000000000000000000000000070700000000000000000000000000000000000000000000000000070000000000000000000007000007000000000000070700000000000000000000
310
00000000000000000000000000000000000000000000000000000000000000000000000000000000000000000000000000000000000000000000000000000000000000000000000000000000000000000000070000000000000007000000000000000000000000000000000000000000000000000000000007070000000000
310
00000000000000000000000000000000000000000700000000000000000000070007070000000000000707000000000000000000000000000000000000000000000000000000000000000000000000000000000000000000000000000000000000000000000000000000000000000000000000000000000000000000000000
310
00000000000000000700000000000000070000000000000000000000000000000000000000000000000000000000000700000000000000000000000000000000000000000000000000070000000000000000000007000707070707070707070700000000000000000000000000000000000000000000000000000000000000
310
00000000000000000000000000000000000000000000000000000000000000000000000000000000000000000000000000000000000000000000000000070707070707070707000000000000000000000000000000000000000000000000000000000000070000000000000000000000000000000000000000000000000007
310
00000000000000000000070007070000000000000707000000000000000000000000000000000000000000000000000000000000000000000000000000000000000000000000000000000000000000000000000000000000000000000000000000000000000000000000000000000000000007000000000000000000000000
310
00000000000000000000000000000000000000000000000000000700000000000000000000000000000000000000000000000000070000000000000000000007070007000000000000070700000000000000000000000000000000000000000000000000000000000000000000000000000000000000000000000000000000
310
00000000000000000000000000000000000000000000000000000000000000000000000000000000070000000000000000000000000000000000000000000000000000000000000000000000000000070700000000000000000000000000000000000000000000000007000000000000000000000707070000000000000007
310
07000000000000000000000000000000000000000000000000000000000000000000000000000000000000000000000000000000000000000000000000000000000000000000000000000000000000000000000000000000000000000007000000000000000000000000000000000000000000000000000000000000000000
310
00000000000707000000000000000000000000000000000000000000000000070000000000000000000007070700000000000000070700000000000000000000000000000000000000000000000000000000000000000000000000000000000000000000000000000000000000000000000000000000000000000000000000
310
00000000000000000000000000000000000000070000000000000000000000000000000000000000000000000000000000000000000000000000070007000000000000000000000000000000000000000000000007000000000000000000070007000000000000000007070000000000000000000000000000000000000000
310
00000000000000000000000000000000000000000000000000000000000000000000000000000000000000000000000000000000000000000000000000000000000000000000000007000000000000000000000000000000000000000000000000000000000000000000000000000000070700000000000000000000000000
310
00000000000000000000070000000000000000000700070000000000000000000700000000000000000000000000000000000000000000000000000000000000000000000000000000000000000000000000000000000000000000000000000000000000000000000000000000000000000000000000000000000000000700
310
00000000000000000000000000000000000000000000000000000000000000000000000000000707000000000000000000000000000000000000000000000007000000000000000000070700000000000000000000070000000000000000000000000000000000000000000000000000000000000000000000000000000000
310
00000000000000000000000000000000000000000000000000000000000000000000000000000000000000000000000000000007000000000000000000000000000000000000000000000000000000000000000000000000000000000707000707070707070707070707070707070707070707070700000000000000000007
310
07000000000000000000000700000000000000000000000000000000000000000000000000000000000000000000000000000000000000000000000000000000000000000000000000000000000000000000000000000000000000000000000000000000000000000700000000000000000000000000000000000000000000
310
00000000000000000000000000000000000000070007000000000000000000070000000707000000000000070000000000000000070700000000000000000000070000000000000000000000000000000000000000000000000000000000000000000000000000000000000000000000000000000000000000000000000000
310
00000000000000000000000000000000000000000000000000000000000007000000000000000000000000000000000000000000000000000000000000000000000000000000000007070700000000000000000007000707000007070000000007000000000000000707000000000000000000000007000000000000000000
310
00000000000000000000000000000000000000000000000000000000000000000000000000000000000000000000000000000000000000000000000000000000000000000000000000000000000000000000000700000000000000000000000000000000000000000000000000000000000000000000000000000000000007
310
07000000000000000000070007000000000707000000070707070707070707070000000000000000000000070000000000000000000000000000000000000000000000000000000000000000000000000000000000000000000000000000000000000000000000000000000000000000000000000000000000000000000000
310
00000000000000000007000000000000000000000000000000000000000000000000000000000000000000000000000000000000070707000000000000000007070000000000000700000007000000000000000700000000000000000000000007000000000000000000000000000000000000000000000000000000000000
310
00000000000000000000000000000000000000000000000000000000000000000000000000000000000000000000000000000000000000000000000000000700000000000000000000000000000000000000000000000000000000000000000000000000000000000007000700000000000000000707000000000000000000
310
00070000000000000007000000000000000000000000070000000000000000000000000000000000000000000000000000000000000000000000000000000000000000000000000000000000000000000000000000000000000000000000000000000000000000000000000000000000000000070000000000000000000000
310
00000000000000000000000000000000000000000000000000000000000000070700000000000000000007070700000000070700000007070000000000000700000000000000000000000007000000000000000000000000000000000000000000000000000000000000000000000000000000000000000000000000000000
310
00000000000000000000000000000000000000000000000000000000000000000000000000000000000700000000000000000000000000000000000000000000000000000000000000000000000000000000000000070000000000000000000707070000000007070000000007000000000000070000000000000000000000
310
00070000000000000000000000000000000000000000000000000000000000000000000000000000000000000000000000000000000000000000000000000000000000000000000000000000000000000000000000000000000000000000070000000000000000000000000000000000000000000000000000000000000000
310
00000000000000000000000700000000000000000007070007070707000700000000070700000007070000000000000000000000000007000000000000000000000000000000000000000000000000000000000000000000000000000000000000000000000000000000000000000000000000000000000000000000000000
310
00000000000000000000000000000000000000000700000000000000000000000000000000000000000000000000000000000000000000000000000000000000070000000000000000000707000000000000070000000007070707070007000000000000000000000000000700000000000000000000000000000000000000
310
00000000000000000000000000000000000000000000000000000000000000000000000000000000000000000000000000000000000000000000000000000000000000000000000000070000000000000000000000000000000000000000000000000000000000000000000000000000000000000007070707070707070707
310
07070000000000000707070707000700000000070000000000000000000000000007000000000000000000000000000000000000000000000000000000000000000000000000000000000000000000000000000000000000000000000000000000000000000000000000000000000000000000000000000000000000000007
310
00000000000000000000000000000000000000000000000000000000000000000000000000000000000000000000000000000000000007000000000000070000000000070000000007000000000000000000000000000700000000000000000000000000000000000000000000000000000000000000000000000000000000
310
00000000000000000000000000000000000000000000000000000000000000000000000000000000000000000000000000000000070000000000000000000000000000000000000000000000000000000000000000000000000000000000000000000000000000000000000700000000000007000000000007000000000700
310
00000000000000000000000007000000000000000000000000000000000000000000000000000000000000000000000000000000000000000000000000000000000000000000000000000000000000000000000000000000000000000000000000000000000000000007000000000000000000000000000000000000000000
310
00000000000000000000000000000000000000000000000000000000000000000007000000000000070000000000070000000007000000000000000000000000000700000000000000000000000000000000000000000000000000000000000000000000000000000000000000000000000000000000000000000000000000
310
00000000000000000000000000000000000000000000000000000000000000070000000000000000000000000000000000000000000000000000000000000000000000000000000000000000000000000000000000000700000000000007000000000007000000000700000000000000000000000000070000000000000000
310
00000000000000000000000000000000000000000000000000000000000000000000000000000000000000000000000000000000000000000000000000000000000000000000000000000000000000000000000007000000000000000000000000000000000000000000000000000000000000000000000000000000000000
310
00000000000000000000000007000000000000070000000000070000000000000000000000000000000000000700000000000000000000000000000000000000000000000000000000000000000000000000000000000000000000000000000000000000000000000000000000000000000000000000000000000000000000
310
00000000000000000000070000000000000000000000000000000000000000000000000000000000000000000000000000000000000000000000000000000000000707070707070707000000000007000000000700000000000000000000000000070707070707070707070707070707070707070707070707070707070707
310
07070707070707070707070707070707000707070707070707070707070707070707070707070707070707070707070707070707070707070707070707070707000000000000000000000000000000000000000000000000000000000000000000000000000000000000000000000000000000000000000000000000000000
310
00000000000707070700000000000000000000000000000000000000000000000000000000000000000000000000000000000000000000000000000000000000000000000000000000000000000000000000000000000000000000000000000000000000000000000000000000000000000000000000000000000000000000
310
00000000000000000000000000000000000000000000000000000000000000000000000000000000000000000000000000000000000000000000000000000000000000000000000000000000000000000000000000000000000000000000000000000000000000000000000000000000000000000000000000000000000000
310
00000000000000000000000000000000000000000000000000000000000000000000000000000000000000000000000000000000000000000000000000000000000000000000000000000000000000000000000000000000000000000000000000000000000000000000000000000000000000000000000000000000000000
310
00000000000000000000000000000000000000000000000000000000000000000000000000000000000000000000000000000000000000000000000000000000000000000000000000000000000000000000000000000000000000000000000000000000000000000000000000000000000000000000000000000000000000
310
00000000000000000000000000000000000000000000000000000000000000000000000000000000000000000000000000000000000000000000000000000000000000000000000000000000000000000000000000000000000000000000000000000000000000000000000000000000000000000000000000000000000000
310
00000000000000000000000000000000000000000000000000000000000000000000000000000000000000000000000000000000000000000000000000000000000000000000000000000000000000000000000000000000000000000000000000000000000000000000000000000000000000000000000000000000000000
310
00000000000000000000000000000000000000000000000000000000000000000000000000000000000000000000000000000000000000000000000000000000000000000000000000000000000000000000000000000000000000000000000000000000000000000000000000000000000000000000000000000000000000
310
00000000000000000000000000000000000000000000000000000000000000000000000000000000000000000000000000000000000000000000000000000000000000000000000000000000000000000000000000000000000000000000000000000000000000000000000000000000000000000000000000000000000000
310
00000000000000000000000000000000000000000000000000000000000000000000000000000000000000000000000000000000000000000000000000000000000000000000000000000000000000000000000000000000000000000000000000000000000000000000000000000000000000000000000000000000000000
310
00000000000000000000000000000000000000000000000000000000000000000000000000000000000000000000000000000000000000000000000000000000000000000000000000000000000000000000000000000000000000000000000000000000000000000000000000000000000000000000000000000000000000
310
00000000000000000000000000000000000000000000000000000000000000000000000000000000000000000000000000000000000000000000000000000000000000000000000000000000000000000000000000000000000000000000000000000000000000000000000000000000000000000000000000000000000000
310
00000000000000000000000000000000000000000000000000000000000000000000000000000000000000000000000000000000000000000000000000000000000000000000000000000000000000000000000000000000000000000000000000000000000000000000000000000000000000000000000000000000000000
310
00000000000000000000000000000000000000000000000000000000000000000000000000000000000000000000000000000000000000000000000000000000000000000000000000000000000000000000000000000000000000000000000000000000000000000000000000000000000000000000000000000000000000
310
000000000000000000000000000000000000000000000000000000000000000000000000000000000000000000000000000000000000000000000000000000000000000000000000000000000000000000000000000000000000000000000000000000000000000000000000
  0
ENDSEC
  0
EOF
