  0
SECTION
  2
HEADER
  9
$ACADVER
  1
AC1015
  9
$ACADMAINTVER
 70
    13
  9
$DWGCODEPAGE
  3
ANSI_1252
  9
$INSBASE
 10
0.0
 20
0.0
 30
0.0
  9
$EXTMIN
 10
155.0
 20
604.83
 30
0.0
  9
$EXTMAX
 10
565.0
 20
784.1699999999999
 30
0.0
  9
$LIMMIN
 10
0.0
 20
0.0
  9
$LIMMAX
 10
12.0
 20
9.0
  9
$ORTHOMODE
 70
     0
  9
$REGENMODE
 70
     1
  9
$FILLMODE
 70
     1
  9
$QTEXTMODE
 70
     0
  9
$MIRRTEXT
 70
     1
  9
$LTSCALE
 40
1.0
  9
$ATTMODE
 70
     1
  9
$TEXTSIZE
 40
0.2
  9
$TRACEWID
 40
0.05
  9
$TEXTSTYLE
  7
Standard
  9
$CLAYER
  8
0
  9
$CELTYPE
  6
Continuous
  9
$CECOLOR
 62
   256
  9
$CELTSCALE
 40
1.0
  9
$DISPSILH
 70
     0
  9
$DIMSCALE
 40
1.0
  9
$DIMASZ
 40
0.18
  9
$DIMEXO
 40
0.0625
  9
$DIMDLI
 40
0.38
  9
$DIMRND
 40
0.0
  9
$DIMDLE
 40
0.0
  9
$DIMEXE
 40
0.18
  9
$DIMTP
 40
0.0
  9
$DIMTM
 40
0.0
  9
$DIMTXT
 40
0.18
  9
$DIMCEN
 40
0.09
  9
$DIMTSZ
 40
0.0
  9
$DIMTOL
 70
     0
  9
$DIMLIM
 70
     0
  9
$DIMTIH
 70
     1
  9
$DIMTOH
 70
     1
  9
$DIMSE1
 70
     0
  9
$DIMSE2
 70
     0
  9
$DIMTAD
 70
     0
  9
$DIMZIN
 70
     0
  9
$DIMBLK
  1

  9
$DIMASO
 70
     1
  9
$DIMSHO
 70
     1
  9
$DIMPOST
  1

  9
$DIMAPOST
  1

  9
$DIMALT
 70
     0
  9
$DIMALTD
 70
     2
  9
$DIMALTF
 40
25.4
  9
$DIMLFAC
 40
1.0
  9
$DIMTOFL
 70
     0
  9
$DIMTVP
 40
0.0
  9
$DIMTIX
 70
     0
  9
$DIMSOXD
 70
     0
  9
$DIMSAH
 70
     0
  9
$DIMBLK1
  1

  9
$DIMBLK2
  1

  9
$DIMSTYLE
  2
Standard
  9
$DIMCLRD
 70
     0
  9
$DIMCLRE
 70
     0
  9
$DIMCLRT
 70
     0
  9
$DIMTFAC
 40
1.0
  9
$DIMGAP
 40
0.09
  9
$DIMJUST
 70
     0
  9
$DIMSD1
 70
     0
  9
$DIMSD2
 70
     0
  9
$DIMTOLJ
 70
     1
  9
$DIMTZIN
 70
     0
  9
$DIMALTZ
 70
     0
  9
$DIMALTTZ
 70
     0
  9
$DIMUPT
 70
     0
  9
$DIMDEC
 70
     4
  9
$DIMTDEC
 70
     4
  9
$DIMALTU
 70
     2
  9
$DIMALTTD
 70
     2
  9
$DIMTXSTY
  7
Standard
  9
$DIMAUNIT
 70
     0
  9
$DIMADEC
 70
     0
  9
$DIMALTRND
 40
0.0
  9
$DIMAZIN
 70
     0
  9
$DIMDSEP
 70
    46
  9
$DIMATFIT
 70
     3
  9
$DIMFRAC
 70
     0
  9
$DIMLDRBLK
  1

  9
$DIMLUNIT
 70
     2
  9
$DIMLWD
 70
    -2
  9
$DIMLWE
 70
    -2
  9
$DIMTMOVE
 70
     0
  9
$LUNITS
 70
     2
  9
$LUPREC
 70
     4
  9
$SKETCHINC
 40
0.1
  9
$FILLETRAD
 40
0.0
  9
$AUNITS
 70
     0
  9
$AUPREC
 70
     0
  9
$MENU
  1
.
  9
$ELEVATION
 40
0.0
  9
$PELEVATION
 40
0.0
  9
$THICKNESS
 40
0.0
  9
$LIMCHECK
 70
     0
  9
$CHAMFERA
 40
0.0
  9
$CHAMFERB
 40
0.0
  9
$CHAMFERC
 40
0.0
  9
$CHAMFERD
 40
0.0
  9
$SKPOLY
 70
     0
  9
$TDCREATE
 40
2455655.862908159
  9
$TDUCREATE
 40
2455655.779574826
  9
$TDUPDATE
 40
2455655.870249374
  9
$TDUUPDATE
 40
2455655.786916041
  9
$TDINDWG
 40
0.0073412153
  9
$TDUSRTIMER
 40
0.0073412153
  9
$USRTIMER
 70
     1
  9
$ANGBASE
 50
0.0
  9
$ANGDIR
 70
     0
  9
$PDMODE
 70
     0
  9
$PDSIZE
 40
0.0
  9
$PLINEWID
 40
0.0
  9
$SPLFRAME
 70
     0
  9
$SPLINETYPE
 70
     6
  9
$SPLINESEGS
 70
     8
  9
$HANDSEED
  5
116D
  9
$SURFTAB1
 70
     6
  9
$SURFTAB2
 70
     6
  9
$SURFTYPE
 70
     6
  9
$SURFU
 70
     6
  9
$SURFV
 70
     6
  9
$UCSBASE
  2

  9
$UCSNAME
  2

  9
$UCSORG
 10
0.0
 20
0.0
 30
0.0
  9
$UCSXDIR
 10
1.0
 20
0.0
 30
0.0
  9
$UCSYDIR
 10
0.0
 20
1.0
 30
0.0
  9
$UCSORTHOREF
  2

  9
$UCSORTHOVIEW
 70
     1
  9
$UCSORGTOP
 10
0.0
 20
0.0
 30
0.0
  9
$UCSORGBOTTOM
 10
0.0
 20
0.0
 30
0.0
  9
$UCSORGLEFT
 10
0.0
 20
0.0
 30
0.0
  9
$UCSORGRIGHT
 10
0.0
 20
0.0
 30
0.0
  9
$UCSORGFRONT
 10
0.0
 20
0.0
 30
0.0
  9
$UCSORGBACK
 10
0.0
 20
0.0
 30
0.0
  9
$PUCSBASE
  2

  9
$PUCSNAME
  2

  9
$PUCSORG
 10
0.0
 20
0.0
 30
0.0
  9
$PUCSXDIR
 10
1.0
 20
0.0
 30
0.0
  9
$PUCSYDIR
 10
0.0
 20
1.0
 30
0.0
  9
$PUCSORTHOREF
  2

  9
$PUCSORTHOVIEW
 70
     0
  9
$PUCSORGTOP
 10
0.0
 20
0.0
 30
0.0
  9
$PUCSORGBOTTOM
 10
0.0
 20
0.0
 30
0.0
  9
$PUCSORGLEFT
 10
0.0
 20
0.0
 30
0.0
  9
$PUCSORGRIGHT
 10
0.0
 20
0.0
 30
0.0
  9
$PUCSORGFRONT
 10
0.0
 20
0.0
 30
0.0
  9
$PUCSORGBACK
 10
0.0
 20
0.0
 30
0.0
  9
$USERI1
 70
     0
  9
$USERI2
 70
     0
  9
$USERI3
 70
     0
  9
$USERI4
 70
     0
  9
$USERI5
 70
     0
  9
$USERR1
 40
0.0
  9
$USERR2
 40
0.0
  9
$USERR3
 40
0.0
  9
$USERR4
 40
0.0
  9
$USERR5
 40
0.0
  9
$WORLDVIEW
 70
     1
  9
$SHADEDGE
 70
     3
  9
$SHADEDIF
 70
    70
  9
$TILEMODE
 70
     1
  9
$MAXACTVP
 70
    64
  9
$PINSBASE
 10
0.0
 20
0.0
 30
0.0
  9
$PLIMCHECK
 70
     0
  9
$PEXTMIN
 10
1.000000000000000E+20
 20
1.000000000000000E+20
 30
1.000000000000000E+20
  9
$PEXTMAX
 10
-1.000000000000000E+20
 20
-1.000000000000000E+20
 30
-1.000000000000000E+20
  9
$PLIMMIN
 10
0.0
 20
0.0
  9
$PLIMMAX
 10
12.0
 20
9.0
  9
$UNITMODE
 70
     0
  9
$VISRETAIN
 70
     1
  9
$PLINEGEN
 70
     0
  9
$PSLTSCALE
 70
     1
  9
$TREEDEPTH
 70
  3020
  9
$CMLSTYLE
  2
Standard
  9
$CMLJUST
 70
     0
  9
$CMLSCALE
 40
1.0
  9
$PROXYGRAPHICS
 70
     1
  9
$MEASUREMENT
 70
     0
  9
$CELWEIGHT
370
    -1
  9
$ENDCAPS
280
     0
  9
$JOINSTYLE
280
     0
  9
$LWDISPLAY
290
     0
  9
$INSUNITS
 70
     0
  9
$HYPERLINKBASE
  1

  9
$STYLESHEET
  1

  9
$XEDIT
290
     1
  9
$CEPSNTYPE
380
     0
  9
$PSTYLEMODE
290
     1
  9
$FINGERPRINTGUID
  2
{2E31CC59-F3C9-468C-8AED-315A31E7966E}
  9
$VERSIONGUID
  2
{98A82561-3885-4052-B9D1-7C20562A722B}
  9
$EXTNAMES
290
     1
  9
$PSVPSCALE
 40
0.0
  9
$OLESTARTUP
290
     0
  0
ENDSEC
  0
SECTION
  2
CLASSES
  0
CLASS
  1
ACDBDICTIONARYWDFLT
  2
AcDbDictionaryWithDefault
  3
AutoCAD 2000
 90
        0
280
     0
281
     0
  0
CLASS
  1
ACDBPLACEHOLDER
  2
AcDbPlaceHolder
  3
AutoCAD 2000
 90
        0
280
     0
281
     0
  0
CLASS
  1
LAYOUT
  2
AcDbLayout
  3
AutoCAD 2000
 90
        0
280
     0
281
     0
  0
CLASS
  1
DICTIONARYVAR
  2
AcDbDictionaryVar
  3
AutoCAD 2000
 90
        0
280
     0
281
     0
  0
ENDSEC
  0
SECTION
  2
TABLES
  0
TABLE
  2
VPORT
  5
8
330
0
100
AcDbSymbolTable
 70
     4
  0
VPORT
  5
116C
330
8
100
AcDbSymbolTableRecord
100
AcDbViewportTableRecord
  2
*Active
 70
     0
 10
0.0
 20
0.0
 11
1.0
 21
1.0
 12
360.0
 22
694.5
 13
0.0
 23
0.0
 14
1.0
 24
1.0
 15
0.0
 25
0.0
 16
0.0
 26
0.0
 36
1.0
 17
0.0
 27
0.0
 37
0.0
 40
198.3918521646982
 41
2.073363431151241
 42
50.0
 43
0.0
 44
0.0
 50
0.0
 51
0.0
 71
     0
 72
   100
 73
     1
 74
     3
 75
     0
 76
     0
 77
     0
 78
     0
281
     0
 65
     1
110
0.0
120
0.0
130
0.0
111
1.0
121
0.0
131
0.0
112
0.0
122
1.0
132
0.0
 79
     1
146
0.0
  0
ENDTAB
  0
TABLE
  2
LTYPE
  5
5
330
0
100
AcDbSymbolTable
 70
     1
  0
LTYPE
  5
13
330
5
100
AcDbSymbolTableRecord
100
AcDbLinetypeTableRecord
  2
ByBlock
 70
     0
  3

 72
    65
 73
     0
 40
0.0
  0
LTYPE
  5
14
330
5
100
AcDbSymbolTableRecord
100
AcDbLinetypeTableRecord
  2
ByLayer
 70
     0
  3

 72
    65
 73
     0
 40
0.0
  0
LTYPE
  5
15
330
5
100
AcDbSymbolTableRecord
100
AcDbLinetypeTableRecord
  2
Continuous
 70
     0
  3
Solid line
 72
    65
 73
     0
 40
0.0
  0
ENDTAB
  0
TABLE
  2
LAYER
  5
2
330
0
100
AcDbSymbolTable
 70
     1
  0
LAYER
  5
10
330
2
100
AcDbSymbolTableRecord
100
AcDbLayerTableRecord
  2
0
 70
     0
 62
     7
  6
Continuous
370
    -3
390
F
  0
ENDTAB
  0
TABLE
  2
STYLE
  5
3
330
0
100
AcDbSymbolTable
 70
     1
  0
STYLE
  5
11
330
3
100
AcDbSymbolTableRecord
100
AcDbTextStyleTableRecord
  2
Standard
 70
     0
 40
0.0
 41
1.0
 50
0.0
 71
     0
 42
0.2
  3
txt
  4

  0
ENDTAB
  0
TABLE
  2
VIEW
  5
6
330
0
100
AcDbSymbolTable
 70
     0
  0
ENDTAB
  0
TABLE
  2
UCS
  5
7
330
0
100
AcDbSymbolTable
 70
     0
  0
ENDTAB
  0
TABLE
  2
APPID
  5
9
330
0
100
AcDbSymbolTable
 70
     1
  0
APPID
  5
12
330
9
100
AcDbSymbolTableRecord
100
AcDbRegAppTableRecord
  2
ACAD
 70
     0
  0
ENDTAB
  0
TABLE
  2
DIMSTYLE
  5
A
330
0
100
AcDbSymbolTable
 70
     1
100
AcDbDimStyleTable
 71
     0
  0
DIMSTYLE
105
1131
330
A
100
AcDbSymbolTableRecord
100
AcDbDimStyleTableRecord
  2
Standard
 70
     0
340
11
  0
ENDTAB
  0
TABLE
  2
BLOCK_RECORD
  5
1
330
0
100
AcDbSymbolTable
 70
     0
  0
BLOCK_RECORD
  5
1E
330
1
100
AcDbSymbolTableRecord
100
AcDbBlockTableRecord
  2
*Model_Space
340
21
  0
BLOCK_RECORD
  5
1A
330
1
100
AcDbSymbolTableRecord
100
AcDbBlockTableRecord
  2
*Paper_Space
340
1D
  0
ENDTAB
  0
ENDSEC
  0
SECTION
  2
BLOCKS
  0
BLOCK
  5
1F
330
1E
100
AcDbEntity
  8
0
100
AcDbBlockBegin
  2
*Model_Space
 70
     0
 10
0.0
 20
0.0
 30
0.0
  3
*Model_Space
  1

  0
ENDBLK
  5
20
330
1E
100
AcDbEntity
  8
0
100
AcDbBlockEnd
  0
BLOCK
  5
1B
330
1A
100
AcDbEntity
 67
     1
  8
0
100
AcDbBlockBegin
  2
*Paper_Space
 70
     0
 10
0.0
 20
0.0
 30
0.0
  3
*Paper_Space
  1

  0
ENDBLK
  5
1C
330
1A
100
AcDbEntity
 67
     1
  8
0
100
AcDbBlockEnd
  0
ENDSEC
  0
SECTION
  2
ENTITIES
  0
LINE
  5
2E
330
1E
100
AcDbEntity
  8
0
100
AcDbLine
 10
155.0
 20
604.83
 30
0.0
 11
156.08
 21
604.83
 31
0.0
  0
LINE
  5
2F
330
1E
100
AcDbEntity
  8
0
100
AcDbLine
 10
155.0
 20
604.83
 30
0.0
 11
155.0
 21
611.4099999999999
 31
0.0
  0
LINE
  5
30
330
1E
100
AcDbEntity
  8
0
100
AcDbLine
 10
156.08
 20
604.83
 30
0.0
 11
158.96
 21
604.83
 31
0.0
  0
LINE
  5
E3
330
1E
100
AcDbEntity
  8
0
100
AcDbLine
 10
165.5359999999999
 20
604.83
 30
0.0
 11
166.1899999999999
 21
604.83
 31
0.0
  0
LINE
  5
E4
330
1E
100
AcDbEntity
  8
0
100
AcDbLine
 10
166.1899999999999
 20
604.83
 30
0.0
 11
168.148
 21
604.83
 31
0.0
  0
LINE
  5
E6
330
1E
100
AcDbEntity
  8
0
100
AcDbLine
 10
168.148
 20
604.83
 30
0.0
 11
171.2809999999999
 21
604.83
 31
0.0
  0
LINE
  5
1A6
330
1E
100
AcDbEntity
  8
0
100
AcDbLine
 10
171.2809999999999
 20
604.83
 30
0.0
 11
175.2659999999999
 21
604.83
 31
0.0
  0
LINE
  5
1A7
330
1E
100
AcDbEntity
  8
0
100
AcDbLine
 10
175.2659999999999
 20
604.83
 30
0.0
 11
179.9479999999999
 21
604.83
 31
0.0
  0
LINE
  5
1AA
330
1E
100
AcDbEntity
  8
0
100
AcDbLine
 10
189.981
 20
604.83
 30
0.0
 11
194.73
 21
604.83
 31
0.0
  0
LINE
  5
1AB
330
1E
100
AcDbEntity
  8
0
100
AcDbLine
 10
185.002
 20
604.83
 30
0.0
 11
189.981
 21
604.83
 31
0.0
  0
LINE
  5
1AC
330
1E
100
AcDbEntity
  8
0
100
AcDbLine
 10
179.9479999999999
 20
604.83
 30
0.0
 11
185.002
 21
604.83
 31
0.0
  0
LINE
  5
1B0
330
1E
100
AcDbEntity
  8
0
100
AcDbLine
 10
170.12
 20
604.83
 30
0.0
 11
177.3199999999999
 21
604.83
 31
0.0
  0
LINE
  5
1B1
330
1E
100
AcDbEntity
  8
0
100
AcDbLine
 10
177.3199999999999
 20
604.83
 30
0.0
 11
185.0
 21
604.83
 31
0.0
  0
LINE
  5
21A
330
1E
100
AcDbEntity
  8
0
100
AcDbLine
 10
194.73
 20
604.83
 30
0.0
 11
198.799
 21
604.83
 31
0.0
  0
LINE
  5
21D
330
1E
100
AcDbEntity
  8
0
100
AcDbLine
 10
198.799
 20
604.83
 30
0.0
 11
201.8549999999999
 21
604.83
 31
0.0
  0
LINE
  5
21E
330
1E
100
AcDbEntity
  8
0
100
AcDbLine
 10
201.8549999999999
 20
604.83
 30
0.0
 11
203.8549999999999
 21
604.83
 31
0.0
  0
LINE
  5
225
330
1E
100
AcDbEntity
  8
0
100
AcDbLine
 10
203.8549999999999
 20
604.83
 30
0.0
 11
204.464
 21
604.83
 31
0.0
  0
LINE
  5
22F
330
1E
100
AcDbEntity
  8
0
100
AcDbLine
 10
199.8799999999999
 20
604.83
 30
0.0
 11
206.24
 21
604.83
 31
0.0
  0
LINE
  5
230
330
1E
100
AcDbEntity
  8
0
100
AcDbLine
 10
192.68
 20
604.83
 30
0.0
 11
199.8799999999999
 21
604.83
 31
0.0
  0
LINE
  5
231
330
1E
100
AcDbEntity
  8
0
100
AcDbLine
 10
185.0
 20
604.83
 30
0.0
 11
192.68
 21
604.83
 31
0.0
  0
LINE
  5
232
330
1E
100
AcDbEntity
  8
0
100
AcDbLine
 10
158.96
 20
604.83
 30
0.0
 11
163.7599999999999
 21
604.83
 31
0.0
  0
LINE
  5
233
330
1E
100
AcDbEntity
  8
0
100
AcDbLine
 10
163.7599999999999
 20
604.83
 30
0.0
 11
165.5359999999999
 21
604.83
 31
0.0
  0
LINE
  5
234
330
1E
100
AcDbEntity
  8
0
100
AcDbLine
 10
163.7599999999999
 20
604.83
 30
0.0
 11
170.12
 21
604.83
 31
0.0
  0
LINE
  5
2D2
330
1E
100
AcDbEntity
  8
0
100
AcDbLine
 10
215.0
 20
604.83
 30
0.0
 11
215.0
 21
611.4099999999999
 31
0.0
  0
LINE
  5
2D3
330
1E
100
AcDbEntity
  8
0
100
AcDbLine
 10
213.9199999999999
 20
604.83
 30
0.0
 11
215.0
 21
604.83
 31
0.0
  0
LINE
  5
2D4
330
1E
100
AcDbEntity
  8
0
100
AcDbLine
 10
211.0399999999999
 20
604.83
 30
0.0
 11
213.9199999999999
 21
604.83
 31
0.0
  0
LINE
  5
2D5
330
1E
100
AcDbEntity
  8
0
100
AcDbLine
 10
206.24
 20
604.83
 30
0.0
 11
211.0399999999999
 21
604.83
 31
0.0
  0
LINE
  5
2D6
330
1E
100
AcDbEntity
  8
0
100
AcDbLine
 10
204.464
 20
604.83
 30
0.0
 11
206.24
 21
604.83
 31
0.0
  0
LINE
  5
2D8
330
1E
100
AcDbEntity
  8
0
100
AcDbLine
 10
260.0
 20
604.83
 30
0.0
 11
261.26
 21
604.83
 31
0.0
  0
LINE
  5
2D9
330
1E
100
AcDbEntity
  8
0
100
AcDbLine
 10
260.0
 20
604.83
 30
0.0
 11
260.0
 21
611.4099999999999
 31
0.0
  0
LINE
  5
321
330
1E
100
AcDbEntity
  8
0
100
AcDbLine
 10
261.26
 20
604.83
 30
0.0
 11
264.6199999999999
 21
604.83
 31
0.0
  0
LINE
  5
322
330
1E
100
AcDbEntity
  8
0
100
AcDbLine
 10
264.6199999999999
 20
604.83
 30
0.0
 11
270.22
 21
604.83
 31
0.0
  0
LINE
  5
3D4
330
1E
100
AcDbEntity
  8
0
100
AcDbLine
 10
275.7769999999999
 20
604.83
 30
0.0
 11
277.361
 21
604.83
 31
0.0
  0
LINE
  5
3D5
330
1E
100
AcDbEntity
  8
0
100
AcDbLine
 10
277.361
 20
604.83
 30
0.0
 11
280.057
 21
604.83
 31
0.0
  0
LINE
  5
3D6
330
1E
100
AcDbEntity
  8
0
100
AcDbLine
 10
280.057
 20
604.83
 30
0.0
 11
283.8379999999999
 21
604.83
 31
0.0
  0
LINE
  5
3D7
330
1E
100
AcDbEntity
  8
0
100
AcDbLine
 10
283.8379999999999
 20
604.83
 30
0.0
 11
288.3979999999999
 21
604.83
 31
0.0
  0
LINE
  5
3D8
330
1E
100
AcDbEntity
  8
0
100
AcDbLine
 10
275.6099999999999
 20
604.83
 30
0.0
 11
275.7769999999999
 21
604.83
 31
0.0
  0
LINE
  5
3DC
330
1E
100
AcDbEntity
  8
0
100
AcDbLine
 10
270.22
 20
604.83
 30
0.0
 11
277.6399999999999
 21
604.83
 31
0.0
  0
LINE
  5
3DD
330
1E
100
AcDbEntity
  8
0
100
AcDbLine
 10
270.22
 20
604.83
 30
0.0
 11
275.6099999999999
 21
604.83
 31
0.0
  0
LINE
  5
3DE
330
1E
100
AcDbEntity
  8
0
100
AcDbLine
 10
277.6399999999999
 20
604.83
 30
0.0
 11
286.04
 21
604.83
 31
0.0
  0
LINE
  5
462
330
1E
100
AcDbEntity
  8
0
100
AcDbLine
 10
288.3979999999999
 20
604.83
 30
0.0
 11
293.3009999999999
 21
604.83
 31
0.0
  0
LINE
  5
463
330
1E
100
AcDbEntity
  8
0
100
AcDbLine
 10
293.3009999999999
 20
604.83
 30
0.0
 11
298.3899999999999
 21
604.83
 31
0.0
  0
LINE
  5
464
330
1E
100
AcDbEntity
  8
0
100
AcDbLine
 10
298.3899999999999
 20
604.83
 30
0.0
 11
303.228
 21
604.83
 31
0.0
  0
LINE
  5
466
330
1E
100
AcDbEntity
  8
0
100
AcDbLine
 10
303.228
 20
604.83
 30
0.0
 11
307.464
 21
604.83
 31
0.0
  0
LINE
  5
49B
330
1E
100
AcDbEntity
  8
0
100
AcDbLine
 10
307.464
 20
604.83
 30
0.0
 11
310.9399999999999
 21
604.83
 31
0.0
  0
LINE
  5
50E
330
1E
100
AcDbEntity
  8
0
100
AcDbLine
 10
310.9399999999999
 20
604.83
 30
0.0
 11
313.304
 21
604.83
 31
0.0
  0
LINE
  5
510
330
1E
100
AcDbEntity
  8
0
100
AcDbLine
 10
313.304
 20
604.83
 30
0.0
 11
314.3899999999999
 21
604.83
 31
0.0
  0
LINE
  5
515
330
1E
100
AcDbEntity
  8
0
100
AcDbLine
 10
314.3899999999999
 20
604.83
 30
0.0
 11
319.7799999999999
 21
604.83
 31
0.0
  0
LINE
  5
5BC
330
1E
100
AcDbEntity
  8
0
100
AcDbLine
 10
330.0
 20
604.83
 30
0.0
 11
330.0
 21
611.4099999999999
 31
0.0
  0
LINE
  5
5BD
330
1E
100
AcDbEntity
  8
0
100
AcDbLine
 10
328.74
 20
604.83
 30
0.0
 11
330.0
 21
604.83
 31
0.0
  0
LINE
  5
5BE
330
1E
100
AcDbEntity
  8
0
100
AcDbLine
 10
325.38
 20
604.83
 30
0.0
 11
328.74
 21
604.83
 31
0.0
  0
LINE
  5
5BF
330
1E
100
AcDbEntity
  8
0
100
AcDbLine
 10
319.7799999999999
 20
604.83
 30
0.0
 11
325.38
 21
604.83
 31
0.0
  0
LINE
  5
5C0
330
1E
100
AcDbEntity
  8
0
100
AcDbLine
 10
312.36
 20
604.83
 30
0.0
 11
319.7799999999999
 21
604.83
 31
0.0
  0
LINE
  5
5C1
330
1E
100
AcDbEntity
  8
0
100
AcDbLine
 10
303.96
 20
604.83
 30
0.0
 11
312.36
 21
604.83
 31
0.0
  0
LINE
  5
5C2
330
1E
100
AcDbEntity
  8
0
100
AcDbLine
 10
295.0
 20
604.83
 30
0.0
 11
303.96
 21
604.83
 31
0.0
  0
LINE
  5
5C3
330
1E
100
AcDbEntity
  8
0
100
AcDbLine
 10
286.04
 20
604.83
 30
0.0
 11
295.0
 21
604.83
 31
0.0
  0
LINE
  5
5C4
330
1E
100
AcDbEntity
  8
0
100
AcDbLine
 10
375.0
 20
604.83
 30
0.0
 11
376.0799999999999
 21
604.83
 31
0.0
  0
LINE
  5
5C5
330
1E
100
AcDbEntity
  8
0
100
AcDbLine
 10
375.0
 20
604.83
 30
0.0
 11
375.0
 21
611.4099999999999
 31
0.0
  0
LINE
  5
5C8
330
1E
100
AcDbEntity
  8
0
100
AcDbLine
 10
376.0799999999999
 20
604.83
 30
0.0
 11
378.96
 21
604.83
 31
0.0
  0
LINE
  5
5C9
330
1E
100
AcDbEntity
  8
0
100
AcDbLine
 10
378.96
 20
604.83
 30
0.0
 11
383.76
 21
604.83
 31
0.0
  0
LINE
  5
666
330
1E
100
AcDbEntity
  8
0
100
AcDbLine
 10
386.1449999999999
 20
604.83
 30
0.0
 11
388.145
 21
604.83
 31
0.0
  0
LINE
  5
667
330
1E
100
AcDbEntity
  8
0
100
AcDbLine
 10
388.145
 20
604.83
 30
0.0
 11
391.2009999999999
 21
604.83
 31
0.0
  0
LINE
  5
668
330
1E
100
AcDbEntity
  8
0
100
AcDbLine
 10
391.2009999999999
 20
604.83
 30
0.0
 11
395.27
 21
604.83
 31
0.0
  0
LINE
  5
669
330
1E
100
AcDbEntity
  8
0
100
AcDbLine
 10
395.27
 20
604.83
 30
0.0
 11
400.0189999999999
 21
604.83
 31
0.0
  0
LINE
  5
66A
330
1E
100
AcDbEntity
  8
0
100
AcDbLine
 10
385.536
 20
604.83
 30
0.0
 11
386.1449999999999
 21
604.83
 31
0.0
  0
LINE
  5
66E
330
1E
100
AcDbEntity
  8
0
100
AcDbLine
 10
383.76
 20
604.83
 30
0.0
 11
390.12
 21
604.83
 31
0.0
  0
LINE
  5
66F
330
1E
100
AcDbEntity
  8
0
100
AcDbLine
 10
383.76
 20
604.83
 30
0.0
 11
385.536
 21
604.83
 31
0.0
  0
LINE
  5
670
330
1E
100
AcDbEntity
  8
0
100
AcDbLine
 10
156.08
 20
611.4099999999999
 30
0.0
 11
158.96
 21
611.4099999999999
 31
0.0
  0
LINE
  5
671
330
1E
100
AcDbEntity
  8
0
100
AcDbLine
 10
158.96
 20
611.4099999999999
 30
0.0
 11
163.7599999999999
 21
611.4099999999999
 31
0.0
  0
LINE
  5
672
330
1E
100
AcDbEntity
  8
0
100
AcDbLine
 10
163.7599999999999
 20
611.4099999999999
 30
0.0
 11
170.12
 21
611.4099999999999
 31
0.0
  0
LINE
  5
673
330
1E
100
AcDbEntity
  8
0
100
AcDbLine
 10
170.12
 20
611.4099999999999
 30
0.0
 11
177.3199999999999
 21
611.4099999999999
 31
0.0
  0
LINE
  5
674
330
1E
100
AcDbEntity
  8
0
100
AcDbLine
 10
177.3199999999999
 20
611.4099999999999
 30
0.0
 11
185.0
 21
611.4099999999999
 31
0.0
  0
LINE
  5
675
330
1E
100
AcDbEntity
  8
0
100
AcDbLine
 10
213.9199999999999
 20
611.4099999999999
 30
0.0
 11
215.0
 21
611.4099999999999
 31
0.0
  0
LINE
  5
676
330
1E
100
AcDbEntity
  8
0
100
AcDbLine
 10
215.0
 20
611.4099999999999
 30
0.0
 11
215.0
 21
604.83
 31
0.0
  0
LINE
  5
677
330
1E
100
AcDbEntity
  8
0
100
AcDbLine
 10
211.0399999999999
 20
611.4099999999999
 30
0.0
 11
213.9199999999999
 21
611.4099999999999
 31
0.0
  0
LINE
  5
678
330
1E
100
AcDbEntity
  8
0
100
AcDbLine
 10
206.24
 20
611.4099999999999
 30
0.0
 11
211.0399999999999
 21
611.4099999999999
 31
0.0
  0
LINE
  5
679
330
1E
100
AcDbEntity
  8
0
100
AcDbLine
 10
199.8799999999999
 20
611.4099999999999
 30
0.0
 11
206.24
 21
611.4099999999999
 31
0.0
  0
LINE
  5
67A
330
1E
100
AcDbEntity
  8
0
100
AcDbLine
 10
192.68
 20
611.4099999999999
 30
0.0
 11
199.8799999999999
 21
611.4099999999999
 31
0.0
  0
LINE
  5
67B
330
1E
100
AcDbEntity
  8
0
100
AcDbLine
 10
185.0
 20
611.4099999999999
 30
0.0
 11
192.68
 21
611.4099999999999
 31
0.0
  0
LINE
  5
67C
330
1E
100
AcDbEntity
  8
0
100
AcDbLine
 10
155.0
 20
611.4099999999999
 30
0.0
 11
155.0
 21
604.83
 31
0.0
  0
LINE
  5
67D
330
1E
100
AcDbEntity
  8
0
100
AcDbLine
 10
155.0
 20
611.4099999999999
 30
0.0
 11
155.7199999999999
 21
611.83
 31
0.0
  0
LINE
  5
67E
330
1E
100
AcDbEntity
  8
0
100
AcDbLine
 10
155.0
 20
611.4099999999999
 30
0.0
 11
156.08
 21
611.4099999999999
 31
0.0
  0
LINE
  5
67F
330
1E
100
AcDbEntity
  8
0
100
AcDbLine
 10
260.0
 20
611.4099999999999
 30
0.0
 11
260.0
 21
604.83
 31
0.0
  0
LINE
  5
680
330
1E
100
AcDbEntity
  8
0
100
AcDbLine
 10
260.0
 20
611.4099999999999
 30
0.0
 11
261.26
 21
611.4099999999999
 31
0.0
  0
LINE
  5
681
330
1E
100
AcDbEntity
  8
0
100
AcDbLine
 10
260.0
 20
611.4099999999999
 30
0.0
 11
260.8399999999999
 21
611.83
 31
0.0
  0
LINE
  5
682
330
1E
100
AcDbEntity
  8
0
100
AcDbLine
 10
261.26
 20
611.4099999999999
 30
0.0
 11
264.6199999999999
 21
611.4099999999999
 31
0.0
  0
LINE
  5
683
330
1E
100
AcDbEntity
  8
0
100
AcDbLine
 10
264.6199999999999
 20
611.4099999999999
 30
0.0
 11
270.22
 21
611.4099999999999
 31
0.0
  0
LINE
  5
684
330
1E
100
AcDbEntity
  8
0
100
AcDbLine
 10
270.22
 20
611.4099999999999
 30
0.0
 11
277.6399999999999
 21
611.4099999999999
 31
0.0
  0
LINE
  5
685
330
1E
100
AcDbEntity
  8
0
100
AcDbLine
 10
277.6399999999999
 20
611.4099999999999
 30
0.0
 11
286.04
 21
611.4099999999999
 31
0.0
  0
LINE
  5
686
330
1E
100
AcDbEntity
  8
0
100
AcDbLine
 10
330.0
 20
611.4099999999999
 30
0.0
 11
330.0
 21
604.83
 31
0.0
  0
LINE
  5
687
330
1E
100
AcDbEntity
  8
0
100
AcDbLine
 10
328.74
 20
611.4099999999999
 30
0.0
 11
330.0
 21
611.4099999999999
 31
0.0
  0
LINE
  5
688
330
1E
100
AcDbEntity
  8
0
100
AcDbLine
 10
325.38
 20
611.4099999999999
 30
0.0
 11
328.74
 21
611.4099999999999
 31
0.0
  0
LINE
  5
689
330
1E
100
AcDbEntity
  8
0
100
AcDbLine
 10
319.7799999999999
 20
611.4099999999999
 30
0.0
 11
325.38
 21
611.4099999999999
 31
0.0
  0
LINE
  5
68A
330
1E
100
AcDbEntity
  8
0
100
AcDbLine
 10
312.36
 20
611.4099999999999
 30
0.0
 11
319.7799999999999
 21
611.4099999999999
 31
0.0
  0
LINE
  5
68B
330
1E
100
AcDbEntity
  8
0
100
AcDbLine
 10
303.96
 20
611.4099999999999
 30
0.0
 11
312.36
 21
611.4099999999999
 31
0.0
  0
LINE
  5
68C
330
1E
100
AcDbEntity
  8
0
100
AcDbLine
 10
295.0
 20
611.4099999999999
 30
0.0
 11
303.96
 21
611.4099999999999
 31
0.0
  0
LINE
  5
68D
330
1E
100
AcDbEntity
  8
0
100
AcDbLine
 10
286.04
 20
611.4099999999999
 30
0.0
 11
295.0
 21
611.4099999999999
 31
0.0
  0
LINE
  5
68E
330
1E
100
AcDbEntity
  8
0
100
AcDbLine
 10
375.0
 20
611.4099999999999
 30
0.0
 11
375.0
 21
604.83
 31
0.0
  0
LINE
  5
68F
330
1E
100
AcDbEntity
  8
0
100
AcDbLine
 10
375.0
 20
611.4099999999999
 30
0.0
 11
376.0799999999999
 21
611.4099999999999
 31
0.0
  0
LINE
  5
690
330
1E
100
AcDbEntity
  8
0
100
AcDbLine
 10
375.0
 20
611.4099999999999
 30
0.0
 11
375.72
 21
611.83
 31
0.0
  0
LINE
  5
691
330
1E
100
AcDbEntity
  8
0
100
AcDbLine
 10
376.0799999999999
 20
611.4099999999999
 30
0.0
 11
378.96
 21
611.4099999999999
 31
0.0
  0
LINE
  5
692
330
1E
100
AcDbEntity
  8
0
100
AcDbLine
 10
378.96
 20
611.4099999999999
 30
0.0
 11
383.76
 21
611.4099999999999
 31
0.0
  0
LINE
  5
693
330
1E
100
AcDbEntity
  8
0
100
AcDbLine
 10
383.76
 20
611.4099999999999
 30
0.0
 11
390.12
 21
611.4099999999999
 31
0.0
  0
LINE
  5
694
330
1E
100
AcDbEntity
  8
0
100
AcDbLine
 10
155.7199999999999
 20
611.83
 30
0.0
 11
156.8
 21
611.83
 31
0.0
  0
LINE
  5
695
330
1E
100
AcDbEntity
  8
0
100
AcDbLine
 10
156.8
 20
611.83
 30
0.0
 11
159.6799999999999
 21
611.83
 31
0.0
  0
LINE
  5
696
330
1E
100
AcDbEntity
  8
0
100
AcDbLine
 10
159.6799999999999
 20
611.83
 30
0.0
 11
164.36
 21
611.83
 31
0.0
  0
LINE
  5
697
330
1E
100
AcDbEntity
  8
0
100
AcDbLine
 10
164.36
 20
611.83
 30
0.0
 11
185.0
 21
611.83
 31
0.0
  0
LINE
  5
698
330
1E
100
AcDbEntity
  8
0
100
AcDbLine
 10
199.52
 20
611.83
 30
0.0
 11
205.64
 21
611.83
 31
0.0
  0
LINE
  5
699
330
1E
100
AcDbEntity
  8
0
100
AcDbLine
 10
185.0
 20
611.83
 30
0.0
 11
199.52
 21
611.83
 31
0.0
  0
LINE
  5
69A
330
1E
100
AcDbEntity
  8
0
100
AcDbLine
 10
213.2
 20
611.83
 30
0.0
 11
214.28
 21
611.83
 31
0.0
  0
LINE
  5
69B
330
1E
100
AcDbEntity
  8
0
100
AcDbLine
 10
210.32
 20
611.83
 30
0.0
 11
213.2
 21
611.83
 31
0.0
  0
LINE
  5
69C
330
1E
100
AcDbEntity
  8
0
100
AcDbLine
 10
205.64
 20
611.83
 30
0.0
 11
210.32
 21
611.83
 31
0.0
  0
LINE
  5
69D
330
1E
100
AcDbEntity
  8
0
100
AcDbLine
 10
214.28
 20
611.83
 30
0.0
 11
215.0
 21
611.4099999999999
 31
0.0
  0
LINE
  5
69E
330
1E
100
AcDbEntity
  8
0
100
AcDbLine
 10
205.0
 20
611.83
 30
0.0
 11
205.0
 21
656.4099999999999
 31
0.0
  0
LINE
  5
69F
330
1E
100
AcDbEntity
  8
0
100
AcDbLine
 10
165.0
 20
611.83
 30
0.0
 11
165.0
 21
656.4099999999999
 31
0.0
  0
LINE
  5
6A0
330
1E
100
AcDbEntity
  8
0
100
AcDbLine
 10
260.8399999999999
 20
611.83
 30
0.0
 11
262.1
 21
611.83
 31
0.0
  0
LINE
  5
6A1
330
1E
100
AcDbEntity
  8
0
100
AcDbLine
 10
262.1
 20
611.83
 30
0.0
 11
265.4599999999999
 21
611.83
 31
0.0
  0
LINE
  5
6A2
330
1E
100
AcDbEntity
  8
0
100
AcDbLine
 10
271.0
 20
611.83
 30
0.0
 11
271.0
 21
664.4099999999999
 31
0.0
  0
LINE
  5
6A3
330
1E
100
AcDbEntity
  8
0
100
AcDbLine
 10
265.4599999999999
 20
611.83
 30
0.0
 11
270.92
 21
611.83
 31
0.0
  0
LINE
  5
6A4
330
1E
100
AcDbEntity
  8
0
100
AcDbLine
 10
270.92
 20
611.83
 30
0.0
 11
278.06
 21
611.83
 31
0.0
  0
LINE
  5
6A5
330
1E
100
AcDbEntity
  8
0
100
AcDbLine
 10
319.0
 20
611.83
 30
0.0
 11
319.0
 21
664.4099999999999
 31
0.0
  0
LINE
  5
6A6
330
1E
100
AcDbEntity
  8
0
100
AcDbLine
 10
329.16
 20
611.83
 30
0.0
 11
330.0
 21
611.4099999999999
 31
0.0
  0
LINE
  5
6A7
330
1E
100
AcDbEntity
  8
0
100
AcDbLine
 10
327.8999999999999
 20
611.83
 30
0.0
 11
329.16
 21
611.83
 31
0.0
  0
LINE
  5
6A8
330
1E
100
AcDbEntity
  8
0
100
AcDbLine
 10
324.54
 20
611.83
 30
0.0
 11
327.8999999999999
 21
611.83
 31
0.0
  0
LINE
  5
6A9
330
1E
100
AcDbEntity
  8
0
100
AcDbLine
 10
319.0799999999999
 20
611.83
 30
0.0
 11
324.54
 21
611.83
 31
0.0
  0
LINE
  5
6AA
330
1E
100
AcDbEntity
  8
0
100
AcDbLine
 10
311.94
 20
611.83
 30
0.0
 11
319.0799999999999
 21
611.83
 31
0.0
  0
LINE
  5
6AB
330
1E
100
AcDbEntity
  8
0
100
AcDbLine
 10
303.8199999999999
 20
611.83
 30
0.0
 11
311.94
 21
611.83
 31
0.0
  0
LINE
  5
6AC
330
1E
100
AcDbEntity
  8
0
100
AcDbLine
 10
295.0
 20
611.83
 30
0.0
 11
303.8199999999999
 21
611.83
 31
0.0
  0
LINE
  5
6AD
330
1E
100
AcDbEntity
  8
0
100
AcDbLine
 10
278.06
 20
611.83
 30
0.0
 11
286.18
 21
611.83
 31
0.0
  0
LINE
  5
6AE
330
1E
100
AcDbEntity
  8
0
100
AcDbLine
 10
286.18
 20
611.83
 30
0.0
 11
295.0
 21
611.83
 31
0.0
  0
LINE
  5
6AF
330
1E
100
AcDbEntity
  8
0
100
AcDbLine
 10
375.72
 20
611.83
 30
0.0
 11
376.8
 21
611.83
 31
0.0
  0
LINE
  5
6B0
330
1E
100
AcDbEntity
  8
0
100
AcDbLine
 10
376.8
 20
611.83
 30
0.0
 11
379.68
 21
611.83
 31
0.0
  0
LINE
  5
6B2
330
1E
100
AcDbEntity
  8
0
100
AcDbLine
 10
379.68
 20
611.83
 30
0.0
 11
384.36
 21
611.83
 31
0.0
  0
LINE
  5
6B3
330
1E
100
AcDbEntity
  8
0
100
AcDbLine
 10
205.0
 20
655.83
 30
0.0
 11
205.0
 21
677.5465
 31
0.0
  0
LINE
  5
6B9
330
1E
100
AcDbEntity
  8
0
100
AcDbLine
 10
165.0
 20
655.83
 30
0.0
 11
165.0
 21
677.5465
 31
0.0
  0
LINE
  5
6BA
330
1E
100
AcDbEntity
  8
0
100
AcDbLine
 10
165.0
 20
656.4099999999999
 30
0.0
 11
165.0
 21
611.83
 31
0.0
  0
LINE
  5
6BB
330
1E
100
AcDbEntity
  8
0
100
AcDbLine
 10
165.0
 20
656.4099999999999
 30
0.0
 11
165.72
 21
656.4099999999999
 31
0.0
  0
LINE
  5
6BC
330
1E
100
AcDbEntity
  8
0
100
AcDbLine
 10
165.72
 20
656.4099999999999
 30
0.0
 11
167.6399999999999
 21
656.4099999999999
 31
0.0
  0
LINE
  5
6BD
330
1E
100
AcDbEntity
  8
0
100
AcDbLine
 10
167.6399999999999
 20
656.4099999999999
 30
0.0
 11
170.84
 21
656.4099999999999
 31
0.0
  0
LINE
  5
6BE
330
1E
100
AcDbEntity
  8
0
100
AcDbLine
 10
170.84
 20
656.4099999999999
 30
0.0
 11
175.08
 21
656.4099999999999
 31
0.0
  0
LINE
  5
6BF
330
1E
100
AcDbEntity
  8
0
100
AcDbLine
 10
175.08
 20
656.4099999999999
 30
0.0
 11
179.8799999999999
 21
656.4099999999999
 31
0.0
  0
LINE
  5
6C0
330
1E
100
AcDbEntity
  8
0
100
AcDbLine
 10
179.8799999999999
 20
656.4099999999999
 30
0.0
 11
185.0
 21
656.4099999999999
 31
0.0
  0
LINE
  5
6C1
330
1E
100
AcDbEntity
  8
0
100
AcDbLine
 10
204.28
 20
656.4099999999999
 30
0.0
 11
205.0
 21
656.4099999999999
 31
0.0
  0
LINE
  5
6C2
330
1E
100
AcDbEntity
  8
0
100
AcDbLine
 10
202.36
 20
656.4099999999999
 30
0.0
 11
204.28
 21
656.4099999999999
 31
0.0
  0
LINE
  5
6C3
330
1E
100
AcDbEntity
  8
0
100
AcDbLine
 10
199.16
 20
656.4099999999999
 30
0.0
 11
202.36
 21
656.4099999999999
 31
0.0
  0
LINE
  5
6C4
330
1E
100
AcDbEntity
  8
0
100
AcDbLine
 10
194.9199999999999
 20
656.4099999999999
 30
0.0
 11
199.16
 21
656.4099999999999
 31
0.0
  0
LINE
  5
6C5
330
1E
100
AcDbEntity
  8
0
100
AcDbLine
 10
190.12
 20
656.4099999999999
 30
0.0
 11
194.9199999999999
 21
656.4099999999999
 31
0.0
  0
LINE
  5
6C6
330
1E
100
AcDbEntity
  8
0
100
AcDbLine
 10
185.0
 20
656.4099999999999
 30
0.0
 11
190.12
 21
656.4099999999999
 31
0.0
  0
LINE
  5
6C7
330
1E
100
AcDbEntity
  8
0
100
AcDbLine
 10
205.0
 20
656.4099999999999
 30
0.0
 11
205.0
 21
611.83
 31
0.0
  0
LINE
  5
6D9
330
1E
100
AcDbEntity
  8
0
100
AcDbLine
 10
271.0
 20
664.4099999999999
 30
0.0
 11
271.864
 21
664.4099999999999
 31
0.0
  0
LINE
  5
6DA
330
1E
100
AcDbEntity
  8
0
100
AcDbLine
 10
271.0
 20
664.4099999999999
 30
0.0
 11
271.5759999999999
 21
664.83
 31
0.0
  0
LINE
  5
6DB
330
1E
100
AcDbEntity
  8
0
100
AcDbLine
 10
271.0
 20
664.4099999999999
 30
0.0
 11
271.0
 21
611.83
 31
0.0
  0
LINE
  5
6DC
330
1E
100
AcDbEntity
  8
0
100
AcDbLine
 10
271.864
 20
664.4099999999999
 30
0.0
 11
274.168
 21
664.4099999999999
 31
0.0
  0
LINE
  5
6DD
330
1E
100
AcDbEntity
  8
0
100
AcDbLine
 10
274.168
 20
664.4099999999999
 30
0.0
 11
278.0079999999999
 21
664.4099999999999
 31
0.0
  0
LINE
  5
6DE
330
1E
100
AcDbEntity
  8
0
100
AcDbLine
 10
278.0079999999999
 20
664.4099999999999
 30
0.0
 11
283.096
 21
664.4099999999999
 31
0.0
  0
LINE
  5
6DF
330
1E
100
AcDbEntity
  8
0
100
AcDbLine
 10
271.5759999999999
 20
664.83
 30
0.0
 11
272.44
 21
664.83
 31
0.0
  0
LINE
  5
6E0
330
1E
100
AcDbEntity
  8
0
100
AcDbLine
 10
277.4999999999999
 20
664.83
 30
0.0
 11
277.4999999999999
 21
705.978
 31
0.0
  0
LINE
  5
6E1
330
1E
100
AcDbEntity
  8
0
100
AcDbLine
 10
272.44
 20
664.83
 30
0.0
 11
274.744
 21
664.83
 31
0.0
  0
LINE
  5
6E2
330
1E
100
AcDbEntity
  8
0
100
AcDbLine
 10
205.0
 20
677.5465
 30
0.0
 11
205.0
 21
655.83
 31
0.0
  0
LINE
  5
6E7
330
1E
100
AcDbEntity
  8
0
100
AcDbLine
 10
165.0
 20
677.5465
 30
0.0
 11
165.0
 21
655.83
 31
0.0
  0
LINE
  5
6E9
330
1E
100
AcDbEntity
  8
0
100
AcDbLine
 10
165.0
 20
677.5465
 30
0.0
 11
165.1679999999999
 21
677.83
 31
0.0
  0
LINE
  5
6ED
330
1E
100
AcDbEntity
  8
0
100
AcDbLine
 10
277.4999999999999
 20
670.5060999999999
 30
0.0
 11
277.4999999999999
 21
705.973
 31
0.0
  0
LINE
  5
6EE
330
1E
100
AcDbEntity
  8
0
100
AcDbLine
 10
277.4999999999999
 20
670.5060999999999
 30
0.0
 11
277.4999999999999
 21
705.978
 31
0.0
  0
LINE
  5
6EF
330
1E
100
AcDbEntity
  8
0
100
AcDbLine
 10
274.744
 20
664.83
 30
0.0
 11
283.384
 21
664.83
 31
0.0
  0
LINE
  5
6F1
330
1E
100
AcDbEntity
  8
0
100
AcDbLine
 10
283.384
 20
664.83
 30
0.0
 11
288.952
 21
664.83
 31
0.0
  0
LINE
  5
6F2
330
1E
100
AcDbEntity
  8
0
100
AcDbLine
 10
283.096
 20
664.4099999999999
 30
0.0
 11
288.856
 21
664.4099999999999
 31
0.0
  0
LINE
  5
6F3
330
1E
100
AcDbEntity
  8
0
100
AcDbLine
 10
295.0
 20
664.83
 30
0.0
 11
301.048
 21
664.83
 31
0.0
  0
LINE
  5
6F4
330
1E
100
AcDbEntity
  8
0
100
AcDbLine
 10
318.1359999999999
 20
664.4099999999999
 30
0.0
 11
319.0
 21
664.4099999999999
 31
0.0
  0
LINE
  5
6F5
330
1E
100
AcDbEntity
  8
0
100
AcDbLine
 10
319.0
 20
664.4099999999999
 30
0.0
 11
319.0
 21
611.83
 31
0.0
  0
LINE
  5
6F6
330
1E
100
AcDbEntity
  8
0
100
AcDbLine
 10
315.8319999999999
 20
664.4099999999999
 30
0.0
 11
318.1359999999999
 21
664.4099999999999
 31
0.0
  0
LINE
  5
6F7
330
1E
100
AcDbEntity
  8
0
100
AcDbLine
 10
311.992
 20
664.4099999999999
 30
0.0
 11
315.8319999999999
 21
664.4099999999999
 31
0.0
  0
LINE
  5
6F8
330
1E
100
AcDbEntity
  8
0
100
AcDbLine
 10
306.904
 20
664.4099999999999
 30
0.0
 11
311.992
 21
664.4099999999999
 31
0.0
  0
LINE
  5
6FA
330
1E
100
AcDbEntity
  8
0
100
AcDbLine
 10
312.5
 20
664.83
 30
0.0
 11
312.5
 21
705.978
 31
0.0
  0
LINE
  5
6FB
330
1E
100
AcDbEntity
  8
0
100
AcDbLine
 10
317.56
 20
664.83
 30
0.0
 11
318.424
 21
664.83
 31
0.0
  0
LINE
  5
6FC
330
1E
100
AcDbEntity
  8
0
100
AcDbLine
 10
318.424
 20
664.83
 30
0.0
 11
319.0
 21
664.4099999999999
 31
0.0
  0
LINE
  5
6FD
330
1E
100
AcDbEntity
  8
0
100
AcDbLine
 10
315.2559999999999
 20
664.83
 30
0.0
 11
317.56
 21
664.83
 31
0.0
  0
LINE
  5
6FE
330
1E
100
AcDbEntity
  8
0
100
AcDbLine
 10
311.512
 20
664.83
 30
0.0
 11
315.2559999999999
 21
664.83
 31
0.0
  0
LINE
  5
6FF
330
1E
100
AcDbEntity
  8
0
100
AcDbLine
 10
306.6159999999999
 20
664.83
 30
0.0
 11
311.512
 21
664.83
 31
0.0
  0
LINE
  5
700
330
1E
100
AcDbEntity
  8
0
100
AcDbLine
 10
301.048
 20
664.83
 30
0.0
 11
306.6159999999999
 21
664.83
 31
0.0
  0
LINE
  5
701
330
1E
100
AcDbEntity
  8
0
100
AcDbLine
 10
301.144
 20
664.4099999999999
 30
0.0
 11
306.904
 21
664.4099999999999
 31
0.0
  0
LINE
  5
702
330
1E
100
AcDbEntity
  8
0
100
AcDbLine
 10
295.0
 20
664.4099999999999
 30
0.0
 11
301.144
 21
664.4099999999999
 31
0.0
  0
LINE
  5
703
330
1E
100
AcDbEntity
  8
0
100
AcDbLine
 10
312.5
 20
670.5060999999999
 30
0.0
 11
312.5
 21
705.978
 31
0.0
  0
LINE
  5
704
330
1E
100
AcDbEntity
  8
0
100
AcDbLine
 10
288.952
 20
664.83
 30
0.0
 11
295.0
 21
664.83
 31
0.0
  0
LINE
  5
705
330
1E
100
AcDbEntity
  8
0
100
AcDbLine
 10
288.856
 20
664.4099999999999
 30
0.0
 11
295.0
 21
664.4099999999999
 31
0.0
  0
LINE
  5
706
330
1E
100
AcDbEntity
  8
0
100
AcDbLine
 10
165.1679999999999
 20
677.83
 30
0.0
 11
165.4199999999999
 21
677.83
 31
0.0
  0
LINE
  5
707
330
1E
100
AcDbEntity
  8
0
100
AcDbLine
 10
165.4199999999999
 20
677.83
 30
0.0
 11
166.092
 21
677.83
 31
0.0
  0
LINE
  5
708
330
1E
100
AcDbEntity
  8
0
100
AcDbLine
 10
166.092
 20
677.83
 30
0.0
 11
167.184
 21
677.83
 31
0.0
  0
LINE
  5
709
330
1E
100
AcDbEntity
  8
0
100
AcDbLine
 10
167.184
 20
677.83
 30
0.0
 11
168.612
 21
677.83
 31
0.0
  0
LINE
  5
70A
330
1E
100
AcDbEntity
  8
0
100
AcDbLine
 10
168.612
 20
677.83
 30
0.0
 11
170.2359999999999
 21
677.83
 31
0.0
  0
LINE
  5
70B
330
1E
100
AcDbEntity
  8
0
100
AcDbLine
 10
170.2359999999999
 20
677.83
 30
0.0
 11
172.0
 21
677.83
 31
0.0
  0
LINE
  5
70C
330
1E
100
AcDbEntity
  8
0
100
AcDbLine
 10
204.8319999999999
 20
677.83
 30
0.0
 11
205.0
 21
677.5465
 31
0.0
  0
LINE
  5
70D
330
1E
100
AcDbEntity
  8
0
100
AcDbLine
 10
203.9079999999999
 20
677.83
 30
0.0
 11
204.58
 21
677.83
 31
0.0
  0
LINE
  5
70F
330
1E
100
AcDbEntity
  8
0
100
AcDbLine
 10
204.58
 20
677.83
 30
0.0
 11
204.8319999999999
 21
677.83
 31
0.0
  0
LINE
  5
710
330
1E
100
AcDbEntity
  8
0
100
AcDbLine
 10
202.8159999999999
 20
677.83
 30
0.0
 11
203.9079999999999
 21
677.83
 31
0.0
  0
LINE
  5
711
330
1E
100
AcDbEntity
  8
0
100
AcDbLine
 10
201.3879999999999
 20
677.83
 30
0.0
 11
202.8159999999999
 21
677.83
 31
0.0
  0
LINE
  5
712
330
1E
100
AcDbEntity
  8
0
100
AcDbLine
 10
199.764
 20
677.83
 30
0.0
 11
201.3879999999999
 21
677.83
 31
0.0
  0
LINE
  5
713
330
1E
100
AcDbEntity
  8
0
100
AcDbLine
 10
198.0
 20
677.83
 30
0.0
 11
199.764
 21
677.83
 31
0.0
  0
LINE
  5
714
330
1E
100
AcDbEntity
  8
0
100
AcDbLine
 10
172.0
 20
677.83
 30
0.0
 11
198.0
 21
677.83
 31
0.0
  0
LINE
  5
715
330
1E
100
AcDbEntity
  8
0
100
AcDbLine
 10
277.4999999999999
 20
708.036
 30
0.0
 11
277.4999999999999
 21
705.973
 31
0.0
  0
LINE
  5
716
330
1E
100
AcDbEntity
  8
0
100
AcDbLine
 10
277.4999999999999
 20
718.5169999999999
 30
0.0
 11
277.4999999999999
 21
721.673
 31
0.0
  0
LINE
  5
717
330
1E
100
AcDbEntity
  8
0
100
AcDbLine
 10
277.4999999999999
 20
718.5169999999999
 30
0.0
 11
277.4999999999999
 21
714.2919999999999
 31
0.0
  0
LINE
  5
718
330
1E
100
AcDbEntity
  8
0
100
AcDbLine
 10
277.4999999999999
 20
721.673
 30
0.0
 11
277.4999999999999
 21
724.7939999999999
 31
0.0
  0
LINE
  5
719
330
1E
100
AcDbEntity
  8
0
100
AcDbLine
 10
277.4999999999999
 20
721.673
 30
0.0
 11
277.4999999999999
 21
718.5169999999999
 31
0.0
  0
LINE
  5
71A
330
1E
100
AcDbEntity
  8
0
100
AcDbLine
 10
277.4999999999999
 20
724.7939999999999
 30
0.0
 11
277.4999999999999
 21
729.3619999999999
 31
0.0
  0
LINE
  5
71B
330
1E
100
AcDbEntity
  8
0
100
AcDbLine
 10
277.4999999999999
 20
724.7939999999999
 30
0.0
 11
277.4999999999999
 21
721.673
 31
0.0
  0
LINE
  5
71C
330
1E
100
AcDbEntity
  8
0
100
AcDbLine
 10
277.4999999999999
 20
729.3619999999999
 30
0.0
 11
277.4999999999999
 21
733.7339999999999
 31
0.0
  0
LINE
  5
71D
330
1E
100
AcDbEntity
  8
0
100
AcDbLine
 10
277.4999999999999
 20
729.3619999999999
 30
0.0
 11
277.4999999999999
 21
724.7939999999999
 31
0.0
  0
LINE
  5
71E
330
1E
100
AcDbEntity
  8
0
100
AcDbLine
 10
277.4999999999999
 20
733.7339999999999
 30
0.0
 11
277.4999999999999
 21
735.825
 31
0.0
  0
LINE
  5
71F
330
1E
100
AcDbEntity
  8
0
100
AcDbLine
 10
277.4999999999999
 20
733.7339999999999
 30
0.0
 11
277.4999999999999
 21
729.3619999999999
 31
0.0
  0
LINE
  5
720
330
1E
100
AcDbEntity
  8
0
100
AcDbLine
 10
277.4999999999999
 20
711.4889999999999
 30
0.0
 11
277.4999999999999
 21
714.2919999999999
 31
0.0
  0
LINE
  5
721
330
1E
100
AcDbEntity
  8
0
100
AcDbLine
 10
277.4999999999999
 20
711.4889999999999
 30
0.0
 11
277.4999999999999
 21
705.978
 31
0.0
  0
LINE
  5
722
330
1E
100
AcDbEntity
  8
0
100
AcDbLine
 10
277.4999999999999
 20
714.2919999999999
 30
0.0
 11
277.4999999999999
 21
718.5169999999999
 31
0.0
  0
LINE
  5
723
330
1E
100
AcDbEntity
  8
0
100
AcDbLine
 10
277.4999999999999
 20
714.2919999999999
 30
0.0
 11
277.4999999999999
 21
711.4889999999999
 31
0.0
  0
LINE
  5
724
330
1E
100
AcDbEntity
  8
0
100
AcDbLine
 10
277.4999999999999
 20
705.973
 30
0.0
 11
277.4999999999999
 21
708.036
 31
0.0
  0
LINE
  5
725
330
1E
100
AcDbEntity
  8
0
100
AcDbLine
 10
277.4999999999999
 20
705.973
 30
0.0
 11
277.4999999999999
 21
670.5060999999999
 31
0.0
  0
LINE
  5
726
330
1E
100
AcDbEntity
  8
0
100
AcDbLine
 10
277.4999999999999
 20
705.978
 30
0.0
 11
277.4999999999999
 21
664.83
 31
0.0
  0
LINE
  5
727
330
1E
100
AcDbEntity
  8
0
100
AcDbLine
 10
277.4999999999999
 20
705.978
 30
0.0
 11
277.4999999999999
 21
670.5060999999999
 31
0.0
  0
LINE
  5
728
330
1E
100
AcDbEntity
  8
0
100
AcDbLine
 10
277.4999999999999
 20
705.978
 30
0.0
 11
277.4999999999999
 21
711.4889999999999
 31
0.0
  0
LINE
  5
729
330
1E
100
AcDbEntity
  8
0
100
AcDbLine
 10
277.4999999999999
 20
737.842
 30
0.0
 11
277.4999999999999
 21
742.4789999999999
 31
0.0
  0
LINE
  5
72A
330
1E
100
AcDbEntity
  8
0
100
AcDbLine
 10
277.4999999999999
 20
737.842
 30
0.0
 11
277.4999999999999
 21
735.825
 31
0.0
  0
LINE
  5
72D
330
1E
100
AcDbEntity
  8
0
100
AcDbLine
 10
277.4999999999999
 20
735.825
 30
0.0
 11
277.4999999999999
 21
737.842
 31
0.0
  0
LINE
  5
72E
330
1E
100
AcDbEntity
  8
0
100
AcDbLine
 10
277.4999999999999
 20
735.825
 30
0.0
 11
277.4999999999999
 21
733.7339999999999
 31
0.0
  0
LINE
  5
72F
330
1E
100
AcDbEntity
  8
0
100
AcDbLine
 10
277.4999999999999
 20
739.7769999999999
 30
0.0
 11
277.4999999999999
 21
741.623
 31
0.0
  0
LINE
  5
730
330
1E
100
AcDbEntity
  8
0
100
AcDbLine
 10
277.4999999999999
 20
739.7769999999999
 30
0.0
 11
277.4999999999999
 21
742.4789999999999
 31
0.0
  0
LINE
  5
731
330
1E
100
AcDbEntity
  8
0
100
AcDbLine
 10
289.5799999999999
 20
739.816
 30
0.0
 11
290.8079999999999
 21
739.718
 31
0.0
  0
LINE
  5
732
330
1E
100
AcDbEntity
  8
0
100
AcDbLine
 10
290.879
 20
739.713
 30
0.0
 11
292.124
 21
739.6410000000001
 31
0.0
  0
LINE
  5
733
330
1E
100
AcDbEntity
  8
0
100
AcDbLine
 10
290.8079999999999
 20
739.718
 30
0.0
 11
290.879
 21
739.713
 31
0.0
  0
LINE
  5
734
330
1E
100
AcDbEntity
  8
0
100
AcDbLine
 10
292.124
 20
739.6410000000001
 30
0.0
 11
293.3949999999999
 21
739.595
 31
0.0
  0
LINE
  5
735
330
1E
100
AcDbEntity
  8
0
100
AcDbLine
 10
293.3949999999999
 20
739.595
 30
0.0
 11
294.679
 21
739.576
 31
0.0
  0
LINE
  5
736
330
1E
100
AcDbEntity
  8
0
100
AcDbLine
 10
294.679
 20
739.576
 30
0.0
 11
295.0
 21
739.5769999999999
 31
0.0
  0
LINE
  5
739
330
1E
100
AcDbEntity
  8
0
100
AcDbLine
 10
293.875
 20
739.928
 30
0.0
 11
295.0
 21
739.9169999999998
 31
0.0
  0
LINE
  5
73B
330
1E
100
AcDbEntity
  8
0
100
AcDbLine
 10
288.4019999999999
 20
739.94
 30
0.0
 11
289.5799999999999
 21
739.816
 31
0.0
  0
LINE
  5
73C
330
1E
100
AcDbEntity
  8
0
100
AcDbLine
 10
295.0
 20
739.9169999999998
 30
0.0
 11
296.125
 21
739.928
 31
0.0
  0
LINE
  5
73E
330
1E
100
AcDbEntity
  8
0
100
AcDbLine
 10
296.125
 20
739.928
 30
0.0
 11
297.323
 21
739.965
 31
0.0
  0
LINE
  5
73F
330
1E
100
AcDbEntity
  8
0
100
AcDbLine
 10
300.42
 20
739.816
 30
0.0
 11
301.598
 21
739.94
 31
0.0
  0
LINE
  5
740
330
1E
100
AcDbEntity
  8
0
100
AcDbLine
 10
299.192
 20
739.718
 30
0.0
 11
300.42
 21
739.816
 31
0.0
  0
LINE
  5
741
330
1E
100
AcDbEntity
  8
0
100
AcDbLine
 10
299.1209999999999
 20
739.713
 30
0.0
 11
299.192
 21
739.718
 31
0.0
  0
LINE
  5
742
330
1E
100
AcDbEntity
  8
0
100
AcDbLine
 10
297.8759999999999
 20
739.6410000000001
 30
0.0
 11
299.1209999999999
 21
739.713
 31
0.0
  0
LINE
  5
743
330
1E
100
AcDbEntity
  8
0
100
AcDbLine
 10
296.605
 20
739.595
 30
0.0
 11
297.8759999999999
 21
739.6410000000001
 31
0.0
  0
LINE
  5
744
330
1E
100
AcDbEntity
  8
0
100
AcDbLine
 10
295.3209999999999
 20
739.576
 30
0.0
 11
296.605
 21
739.595
 31
0.0
  0
LINE
  5
745
330
1E
100
AcDbEntity
  8
0
100
AcDbLine
 10
295.0
 20
739.5769999999999
 30
0.0
 11
295.3209999999999
 21
739.576
 31
0.0
  0
LINE
  5
746
330
1E
100
AcDbEntity
  8
0
100
AcDbLine
 10
292.677
 20
739.965
 30
0.0
 11
293.875
 21
739.928
 31
0.0
  0
LINE
  5
747
330
1E
100
AcDbEntity
  8
0
100
AcDbLine
 10
293.955
 20
739.9760000000001
 30
0.0
 11
295.0
 21
739.968
 31
0.0
  0
LINE
  5
748
330
1E
100
AcDbEntity
  8
0
100
AcDbLine
 10
295.0
 20
739.968
 30
0.0
 11
296.045
 21
739.9760000000001
 31
0.0
  0
LINE
  5
749
330
1E
100
AcDbEntity
  8
0
100
AcDbLine
 10
292.7359999999999
 20
740.013
 30
0.0
 11
293.955
 21
739.9760000000001
 31
0.0
  0
LINE
  5
74A
330
1E
100
AcDbEntity
  8
0
100
AcDbLine
 10
291.542
 20
740.076
 30
0.0
 11
292.7359999999999
 21
740.013
 31
0.0
  0
LINE
  5
74B
330
1E
100
AcDbEntity
  8
0
100
AcDbLine
 10
291.504
 20
740.029
 30
0.0
 11
292.677
 21
739.965
 31
0.0
  0
LINE
  5
74E
330
1E
100
AcDbEntity
  8
0
100
AcDbLine
 10
296.045
 20
739.9760000000001
 30
0.0
 11
297.264
 21
740.013
 31
0.0
  0
LINE
  5
74F
330
1E
100
AcDbEntity
  8
0
100
AcDbLine
 10
297.264
 20
740.013
 30
0.0
 11
298.4579999999999
 21
740.076
 31
0.0
  0
LINE
  5
750
330
1E
100
AcDbEntity
  8
0
100
AcDbLine
 10
290.3849999999999
 20
740.166
 30
0.0
 11
291.542
 21
740.076
 31
0.0
  0
LINE
  5
751
330
1E
100
AcDbEntity
  8
0
100
AcDbLine
 10
289.2759999999999
 20
740.23
 30
0.0
 11
290.3659999999999
 21
740.1169999999999
 31
0.0
  0
LINE
  5
752
330
1E
100
AcDbEntity
  8
0
100
AcDbLine
 10
290.3659999999999
 20
740.1169999999999
 30
0.0
 11
291.504
 21
740.029
 31
0.0
  0
LINE
  5
753
330
1E
100
AcDbEntity
  8
0
100
AcDbLine
 10
287.2819999999999
 20
740.086
 30
0.0
 11
288.4019999999999
 21
739.94
 31
0.0
  0
LINE
  5
754
330
1E
100
AcDbEntity
  8
0
100
AcDbLine
 10
283.5966
 20
740.878
 30
0.0
 11
284.3818
 21
740.653
 31
0.0
  0
LINE
  5
755
330
1E
100
AcDbEntity
  8
0
100
AcDbLine
 10
284.3818
 20
740.653
 30
0.0
 11
285.2629999999999
 21
740.445
 31
0.0
  0
LINE
  5
756
330
1E
100
AcDbEntity
  8
0
100
AcDbLine
 10
293.3849999999999
 20
740.3469999999999
 30
0.0
 11
294.553
 21
740.322
 31
0.0
  0
LINE
  5
758
330
1E
100
AcDbEntity
  8
0
100
AcDbLine
 10
294.553
 20
740.322
 30
0.0
 11
295.0
 21
740.3229999999999
 31
0.0
  0
LINE
  5
75A
330
1E
100
AcDbEntity
  8
0
100
AcDbLine
 10
289.2759999999999
 20
740.28
 30
0.0
 11
290.3849999999999
 21
740.166
 31
0.0
  0
LINE
  5
75B
330
1E
100
AcDbEntity
  8
0
100
AcDbLine
 10
287.1909999999999
 20
740.59
 30
0.0
 11
288.1959999999999
 21
740.4239999999999
 31
0.0
  0
LINE
  5
75C
330
1E
100
AcDbEntity
  8
0
100
AcDbLine
 10
286.276
 20
740.779
 30
0.0
 11
287.1909999999999
 21
740.59
 31
0.0
  0
LINE
  5
75D
330
1E
100
AcDbEntity
  8
0
100
AcDbLine
 10
285.6059999999999
 20
740.898
 30
0.0
 11
286.399
 21
740.702
 31
0.0
  0
LINE
  5
75E
330
1E
100
AcDbEntity
  8
0
100
AcDbLine
 10
286.399
 20
740.702
 30
0.0
 11
287.2819999999999
 21
740.5239999999999
 31
0.0
  0
LINE
  5
75F
330
1E
100
AcDbEntity
  8
0
100
AcDbLine
 10
288.1959999999999
 20
740.4239999999999
 30
0.0
 11
289.2759999999999
 21
740.28
 31
0.0
  0
LINE
  5
760
330
1E
100
AcDbEntity
  8
0
100
AcDbLine
 10
288.3
 20
740.852
 30
0.0
 11
289.151
 21
740.7119999999999
 31
0.0
  0
LINE
  5
761
330
1E
100
AcDbEntity
  8
0
100
AcDbLine
 10
289.151
 20
740.7119999999999
 30
0.0
 11
290.0659999999999
 21
740.59
 31
0.0
  0
LINE
  5
762
330
1E
100
AcDbEntity
  8
0
100
AcDbLine
 10
290.0659999999999
 20
740.59
 30
0.0
 11
291.127
 21
740.483
 31
0.0
  0
LINE
  5
763
330
1E
100
AcDbEntity
  8
0
100
AcDbLine
 10
291.127
 20
740.483
 30
0.0
 11
292.238
 21
740.401
 31
0.0
  0
LINE
  5
764
330
1E
100
AcDbEntity
  8
0
100
AcDbLine
 10
292.238
 20
740.401
 30
0.0
 11
293.3849999999999
 21
740.3469999999999
 31
0.0
  0
LINE
  5
765
330
1E
100
AcDbEntity
  8
0
100
AcDbLine
 10
287.2819999999999
 20
740.5239999999999
 30
0.0
 11
288.245
 21
740.3660000000001
 31
0.0
  0
LINE
  5
766
330
1E
100
AcDbEntity
  8
0
100
AcDbLine
 10
288.245
 20
740.3660000000001
 30
0.0
 11
289.2759999999999
 21
740.23
 31
0.0
  0
LINE
  5
767
330
1E
100
AcDbEntity
  8
0
100
AcDbLine
 10
285.2629999999999
 20
740.445
 30
0.0
 11
286.233
 21
740.2549999999999
 31
0.0
  0
LINE
  5
768
330
1E
100
AcDbEntity
  8
0
100
AcDbLine
 10
286.233
 20
740.2549999999999
 30
0.0
 11
287.2819999999999
 21
740.086
 31
0.0
  0
LINE
  5
769
330
1E
100
AcDbEntity
  8
0
100
AcDbLine
 10
297.7619999999999
 20
740.401
 30
0.0
 11
298.8729999999999
 21
740.483
 31
0.0
  0
LINE
  5
76A
330
1E
100
AcDbEntity
  8
0
100
AcDbLine
 10
296.615
 20
740.3469999999999
 30
0.0
 11
297.7619999999999
 21
740.401
 31
0.0
  0
LINE
  5
76B
330
1E
100
AcDbEntity
  8
0
100
AcDbLine
 10
295.447
 20
740.322
 30
0.0
 11
296.615
 21
740.3469999999999
 31
0.0
  0
LINE
  5
76C
330
1E
100
AcDbEntity
  8
0
100
AcDbLine
 10
295.0
 20
740.3229999999999
 30
0.0
 11
295.447
 21
740.322
 31
0.0
  0
LINE
  5
76D
330
1E
100
AcDbEntity
  8
0
100
AcDbLine
 10
298.4579999999999
 20
740.076
 30
0.0
 11
299.615
 21
740.166
 31
0.0
  0
LINE
  5
76E
330
1E
100
AcDbEntity
  8
0
100
AcDbLine
 10
298.8729999999999
 20
740.483
 30
0.0
 11
299.934
 21
740.59
 31
0.0
  0
LINE
  5
76F
330
1E
100
AcDbEntity
  8
0
100
AcDbLine
 10
299.934
 20
740.59
 30
0.0
 11
300.849
 21
740.7119999999999
 31
0.0
  0
LINE
  5
770
330
1E
100
AcDbEntity
  8
0
100
AcDbLine
 10
300.7239999999999
 20
740.28
 30
0.0
 11
301.804
 21
740.4239999999999
 31
0.0
  0
LINE
  5
771
330
1E
100
AcDbEntity
  8
0
100
AcDbLine
 10
299.615
 20
740.166
 30
0.0
 11
300.7239999999999
 21
740.28
 31
0.0
  0
LINE
  5
772
330
1E
100
AcDbEntity
  8
0
100
AcDbLine
 10
299.634
 20
740.1169999999999
 30
0.0
 11
300.7239999999999
 21
740.23
 31
0.0
  0
LINE
  5
773
330
1E
100
AcDbEntity
  8
0
100
AcDbLine
 10
298.496
 20
740.029
 30
0.0
 11
299.634
 21
740.1169999999999
 31
0.0
  0
LINE
  5
774
330
1E
100
AcDbEntity
  8
0
100
AcDbLine
 10
297.323
 20
739.965
 30
0.0
 11
298.496
 21
740.029
 31
0.0
  0
LINE
  5
775
330
1E
100
AcDbEntity
  8
0
100
AcDbLine
 10
300.849
 20
740.7119999999999
 30
0.0
 11
301.6999999999999
 21
740.852
 31
0.0
  0
LINE
  5
776
330
1E
100
AcDbEntity
  8
0
100
AcDbLine
 10
301.6999999999999
 20
740.852
 30
0.0
 11
302.478
 21
741.0119999999999
 31
0.0
  0
LINE
  5
777
330
1E
100
AcDbEntity
  8
0
100
AcDbLine
 10
301.804
 20
740.4239999999999
 30
0.0
 11
302.809
 21
740.59
 31
0.0
  0
LINE
  5
778
330
1E
100
AcDbEntity
  8
0
100
AcDbLine
 10
302.718
 20
740.5239999999999
 30
0.0
 11
303.601
 21
740.702
 31
0.0
  0
LINE
  5
779
330
1E
100
AcDbEntity
  8
0
100
AcDbLine
 10
301.7549999999999
 20
740.3660000000001
 30
0.0
 11
302.718
 21
740.5239999999999
 31
0.0
  0
LINE
  5
77A
330
1E
100
AcDbEntity
  8
0
100
AcDbLine
 10
300.7239999999999
 20
740.23
 30
0.0
 11
301.7549999999999
 21
740.3660000000001
 31
0.0
  0
LINE
  5
77B
330
1E
100
AcDbEntity
  8
0
100
AcDbLine
 10
301.598
 20
739.94
 30
0.0
 11
302.718
 21
740.086
 31
0.0
  0
LINE
  5
77C
330
1E
100
AcDbEntity
  8
0
100
AcDbLine
 10
312.5
 20
711.4889999999999
 30
0.0
 11
312.5
 21
705.978
 31
0.0
  0
LINE
  5
77D
330
1E
100
AcDbEntity
  8
0
100
AcDbLine
 10
312.5
 20
711.4889999999999
 30
0.0
 11
312.5
 21
714.2919999999999
 31
0.0
  0
LINE
  5
77E
330
1E
100
AcDbEntity
  8
0
100
AcDbLine
 10
312.5
 20
721.673
 30
0.0
 11
312.5
 21
718.5169999999999
 31
0.0
  0
LINE
  5
77F
330
1E
100
AcDbEntity
  8
0
100
AcDbLine
 10
312.5
 20
721.673
 30
0.0
 11
312.5
 21
724.7939999999999
 31
0.0
  0
LINE
  5
780
330
1E
100
AcDbEntity
  8
0
100
AcDbLine
 10
312.5
 20
724.7939999999999
 30
0.0
 11
312.5
 21
721.673
 31
0.0
  0
LINE
  5
781
330
1E
100
AcDbEntity
  8
0
100
AcDbLine
 10
312.5
 20
724.7939999999999
 30
0.0
 11
312.5
 21
729.3619999999999
 31
0.0
  0
LINE
  5
782
330
1E
100
AcDbEntity
  8
0
100
AcDbLine
 10
312.5
 20
729.3619999999999
 30
0.0
 11
312.5
 21
724.7939999999999
 31
0.0
  0
LINE
  5
783
330
1E
100
AcDbEntity
  8
0
100
AcDbLine
 10
312.5
 20
729.3619999999999
 30
0.0
 11
312.5
 21
733.7339999999999
 31
0.0
  0
LINE
  5
784
330
1E
100
AcDbEntity
  8
0
100
AcDbLine
 10
312.5
 20
733.7339999999999
 30
0.0
 11
312.5
 21
729.3619999999999
 31
0.0
  0
LINE
  5
785
330
1E
100
AcDbEntity
  8
0
100
AcDbLine
 10
312.5
 20
733.7339999999999
 30
0.0
 11
312.5
 21
735.825
 31
0.0
  0
LINE
  5
786
330
1E
100
AcDbEntity
  8
0
100
AcDbLine
 10
312.5
 20
735.825
 30
0.0
 11
312.5
 21
733.7339999999999
 31
0.0
  0
LINE
  5
787
330
1E
100
AcDbEntity
  8
0
100
AcDbLine
 10
312.5
 20
735.825
 30
0.0
 11
312.5
 21
737.842
 31
0.0
  0
LINE
  5
788
330
1E
100
AcDbEntity
  8
0
100
AcDbLine
 10
312.5
 20
714.2919999999999
 30
0.0
 11
312.5
 21
711.4889999999999
 31
0.0
  0
LINE
  5
789
330
1E
100
AcDbEntity
  8
0
100
AcDbLine
 10
312.5
 20
714.2919999999999
 30
0.0
 11
312.5
 21
718.5169999999999
 31
0.0
  0
LINE
  5
78A
330
1E
100
AcDbEntity
  8
0
100
AcDbLine
 10
312.5
 20
718.5169999999999
 30
0.0
 11
312.5
 21
714.2919999999999
 31
0.0
  0
LINE
  5
78B
330
1E
100
AcDbEntity
  8
0
100
AcDbLine
 10
312.5
 20
718.5169999999999
 30
0.0
 11
312.5
 21
721.673
 31
0.0
  0
LINE
  5
78C
330
1E
100
AcDbEntity
  8
0
100
AcDbLine
 10
312.5
 20
705.978
 30
0.0
 11
312.5
 21
664.83
 31
0.0
  0
LINE
  5
78D
330
1E
100
AcDbEntity
  8
0
100
AcDbLine
 10
312.5
 20
705.978
 30
0.0
 11
312.5
 21
670.5060999999999
 31
0.0
  0
LINE
  5
78E
330
1E
100
AcDbEntity
  8
0
100
AcDbLine
 10
312.5
 20
705.978
 30
0.0
 11
312.5
 21
711.4889999999999
 31
0.0
  0
LINE
  5
791
330
1E
100
AcDbEntity
  8
0
100
AcDbLine
 10
312.5
 20
739.7769999999999
 30
0.0
 11
312.5
 21
737.842
 31
0.0
  0
LINE
  5
792
330
1E
100
AcDbEntity
  8
0
100
AcDbLine
 10
312.5
 20
739.7769999999999
 30
0.0
 11
312.5
 21
741.623
 31
0.0
  0
LINE
  5
793
330
1E
100
AcDbEntity
  8
0
100
AcDbLine
 10
312.5
 20
737.842
 30
0.0
 11
312.5
 21
735.825
 31
0.0
  0
LINE
  5
794
330
1E
100
AcDbEntity
  8
0
100
AcDbLine
 10
312.5
 20
737.842
 30
0.0
 11
312.5
 21
739.7769999999999
 31
0.0
  0
LINE
  5
795
330
1E
100
AcDbEntity
  8
0
100
AcDbLine
 10
302.809
 20
740.59
 30
0.0
 11
303.724
 21
740.779
 31
0.0
  0
LINE
  5
796
330
1E
100
AcDbEntity
  8
0
100
AcDbLine
 10
303.724
 20
740.779
 30
0.0
 11
304.5409999999999
 21
740.9889999999998
 31
0.0
  0
LINE
  5
797
330
1E
100
AcDbEntity
  8
0
100
AcDbLine
 10
303.601
 20
740.702
 30
0.0
 11
304.394
 21
740.898
 31
0.0
  0
LINE
  5
798
330
1E
100
AcDbEntity
  8
0
100
AcDbLine
 10
306.403
 20
740.878
 30
0.0
 11
307.085
 21
741.1189999999999
 31
0.0
  0
LINE
  5
799
330
1E
100
AcDbEntity
  8
0
100
AcDbLine
 10
305.6179999999999
 20
740.653
 30
0.0
 11
306.403
 21
740.878
 31
0.0
  0
LINE
  5
79A
330
1E
100
AcDbEntity
  8
0
100
AcDbLine
 10
304.737
 20
740.445
 30
0.0
 11
305.6179999999999
 21
740.653
 31
0.0
  0
LINE
  5
79B
330
1E
100
AcDbEntity
  8
0
100
AcDbLine
 10
303.7669999999999
 20
740.2549999999999
 30
0.0
 11
304.737
 21
740.445
 31
0.0
  0
LINE
  5
79C
330
1E
100
AcDbEntity
  8
0
100
AcDbLine
 10
302.718
 20
740.086
 30
0.0
 11
303.7669999999999
 21
740.2549999999999
 31
0.0
  0
LINE
  5
79D
330
1E
100
AcDbEntity
  8
0
100
AcDbLine
 10
287.522
 20
741.0119999999999
 30
0.0
 11
288.3
 21
740.852
 31
0.0
  0
LINE
  5
79E
330
1E
100
AcDbEntity
  8
0
100
AcDbLine
 10
285.4589999999999
 20
740.9889999999998
 30
0.0
 11
286.276
 21
740.779
 31
0.0
  0
LINE
  5
79F
330
1E
100
AcDbEntity
  8
0
100
AcDbLine
 10
277.4999999999999
 20
741.623
 30
0.0
 11
277.4999999999999
 21
743.3749999999999
 31
0.0
  0
LINE
  5
7A0
330
1E
100
AcDbEntity
  8
0
100
AcDbLine
 10
277.4999999999999
 20
741.623
 30
0.0
 11
277.4999999999999
 21
739.7769999999999
 31
0.0
  0
LINE
  5
7A1
330
1E
100
AcDbEntity
  8
0
100
AcDbLine
 10
277.4999999999999
 20
742.4789999999999
 30
0.0
 11
277.4999999999999
 21
739.7769999999999
 31
0.0
  0
LINE
  5
7A2
330
1E
100
AcDbEntity
  8
0
100
AcDbLine
 10
277.4999999999999
 20
742.4789999999999
 30
0.0
 11
277.4999999999999
 21
737.842
 31
0.0
  0
LINE
  5
7A4
330
1E
100
AcDbEntity
  8
0
100
AcDbLine
 10
281.0636
 20
742.6099999999999
 30
0.0
 11
281.1576999999999
 21
742.327
 31
0.0
  0
LINE
  5
7A5
330
1E
100
AcDbEntity
  8
0
100
AcDbLine
 10
281.1576999999999
 20
742.327
 30
0.0
 11
281.3779
 21
742.044
 31
0.0
  0
LINE
  5
7A7
330
1E
100
AcDbEntity
  8
0
100
AcDbLine
 10
281.3779
 20
742.044
 30
0.0
 11
281.5461
 21
741.908
 31
0.0
  0
LINE
  5
7AF
330
1E
100
AcDbEntity
  8
0
100
AcDbLine
 10
281.5461
 20
741.908
 30
0.0
 11
281.8851
 21
741.635
 31
0.0
  0
LINE
  5
7B0
330
1E
100
AcDbEntity
  8
0
100
AcDbLine
 10
281.8851
 20
741.635
 30
0.0
 11
282.3430999999999
 21
741.3719999999999
 31
0.0
  0
LINE
  5
7B1
330
1E
100
AcDbEntity
  8
0
100
AcDbLine
 10
282.3430999999999
 20
741.3719999999999
 30
0.0
 11
282.9150999999999
 21
741.1189999999999
 31
0.0
  0
LINE
  5
7B2
330
1E
100
AcDbEntity
  8
0
100
AcDbLine
 10
284.1569999999999
 20
741.456
 30
0.0
 11
284.7502999999999
 21
741.215
 31
0.0
  0
LINE
  5
7B3
330
1E
100
AcDbEntity
  8
0
100
AcDbLine
 10
283.3448
 20
741.9719999999999
 30
0.0
 11
283.6861
 21
741.71
 31
0.0
  0
LINE
  5
7B4
330
1E
100
AcDbEntity
  8
0
100
AcDbLine
 10
283.0763999999999
 20
742.63
 30
0.0
 11
283.2071
 21
742.888
 31
0.0
  0
LINE
  5
7B5
330
1E
100
AcDbEntity
  8
0
100
AcDbLine
 10
283.0718
 20
742.629320423238
 30
0.0
 11
283.0718
 21
742.4819999999999
 31
0.0
  0
LINE
  5
7B6
330
1E
100
AcDbEntity
  8
0
100
AcDbLine
 10
283.0718
 20
742.4819999999999
 30
0.0
 11
283.0763999999999
 21
742.336
 31
0.0
  0
LINE
  5
7B7
330
1E
100
AcDbEntity
  8
0
100
AcDbLine
 10
283.0718
 20
742.4819999999999
 30
0.0
 11
283.0718
 21
742.629320423238
 31
0.0
  0
LINE
  5
7B8
330
1E
100
AcDbEntity
  8
0
100
AcDbLine
 10
283.0718
 20
742.4819999999999
 30
0.0
 11
283.0763999999999
 21
742.63
 31
0.0
  0
LINE
  5
7B9
330
1E
100
AcDbEntity
  8
0
100
AcDbLine
 10
283.1329
 20
742.741530221882
 30
0.0
 11
283.1329
 21
742.2419999999999
 31
0.0
  0
LINE
  5
7BA
330
1E
100
AcDbEntity
  8
0
100
AcDbLine
 10
283.1329
 20
742.2419999999999
 30
0.0
 11
284.7937999999999
 21
742.2419999999999
 31
0.0
  0
LINE
  5
7BB
330
1E
100
AcDbEntity
  8
0
100
AcDbLine
 10
283.1329
 20
742.2419999999999
 30
0.0
 11
283.3448
 21
741.9719999999999
 31
0.0
  0
LINE
  5
7BC
330
1E
100
AcDbEntity
  8
0
100
AcDbLine
 10
283.1329
 20
742.2419999999999
 30
0.0
 11
283.1329
 21
742.741530221882
 31
0.0
  0
LINE
  5
7BD
330
1E
100
AcDbEntity
  8
0
100
AcDbLine
 10
283.0763999999999
 20
742.336
 30
0.0
 11
283.2071
 21
742.077
 31
0.0
  0
LINE
  5
7BE
330
1E
100
AcDbEntity
  8
0
100
AcDbLine
 10
283.2071
 20
742.077
 30
0.0
 11
283.4578
 21
741.8219999999999
 31
0.0
  0
LINE
  5
7BF
330
1E
100
AcDbEntity
  8
0
100
AcDbLine
 10
283.6861
 20
741.71
 30
0.0
 11
284.1569999999999
 21
741.456
 31
0.0
  0
LINE
  5
7C0
330
1E
100
AcDbEntity
  8
0
100
AcDbLine
 10
283.4578
 20
741.8219999999999
 30
0.0
 11
283.8286
 21
741.576
 31
0.0
  0
LINE
  5
7C1
330
1E
100
AcDbEntity
  8
0
100
AcDbLine
 10
283.8286
 20
741.576
 30
0.0
 11
284.3124
 21
741.337
 31
0.0
  0
LINE
  5
7C2
330
1E
100
AcDbEntity
  8
0
100
AcDbLine
 10
282.9150999999999
 20
741.1189999999999
 30
0.0
 11
283.5966
 21
740.878
 31
0.0
  0
LINE
  5
7C4
330
1E
100
AcDbEntity
  8
0
100
AcDbLine
 10
281.0
 20
742.95
 30
0.0
 11
281.0
 21
748.0415514238319
 31
0.0
  0
LINE
  5
7C6
330
1E
100
AcDbEntity
  8
0
100
AcDbLine
 10
283.1329
 20
742.823
 30
0.0
 11
284.7937999999999
 21
742.823
 31
0.0
  0
LINE
  5
7C7
330
1E
100
AcDbEntity
  8
0
100
AcDbLine
 10
283.1329
 20
742.823
 30
0.0
 11
283.3448
 21
743.0909999999999
 31
0.0
  0
LINE
  5
7C8
330
1E
100
AcDbEntity
  8
0
100
AcDbLine
 10
283.3448
 20
743.0909999999999
 30
0.0
 11
283.6861
 21
743.355
 31
0.0
  0
LINE
  5
7C9
330
1E
100
AcDbEntity
  8
0
100
AcDbLine
 10
283.2071
 20
742.888
 30
0.0
 11
283.4578
 21
743.1419999999999
 31
0.0
  0
LINE
  5
7CA
330
1E
100
AcDbEntity
  8
0
100
AcDbLine
 10
283.4578
 20
743.1419999999999
 30
0.0
 11
283.8286
 21
743.391
 31
0.0
  0
LINE
  5
7CC
330
1E
100
AcDbEntity
  8
0
100
AcDbLine
 10
281.0
 20
742.809
 30
0.0
 11
281.0
 21
748.0415514238319
 31
0.0
  0
LINE
  5
7CD
330
1E
100
AcDbEntity
  8
0
100
AcDbLine
 10
281.0
 20
742.809
 30
0.0
 11
281.0636
 21
742.6099999999999
 31
0.0
  0
LINE
  5
7CE
330
1E
100
AcDbEntity
  8
0
100
AcDbLine
 10
284.7937999999999
 20
742.823
 30
0.0
 11
284.7937999999999
 21
742.2419999999999
 31
0.0
  0
LINE
  5
7CF
330
1E
100
AcDbEntity
  8
0
100
AcDbLine
 10
284.7937999999999
 20
742.823
 30
0.0
 11
284.9902999999999
 21
743.0499999999999
 31
0.0
  0
LINE
  5
7D0
330
1E
100
AcDbEntity
  8
0
100
AcDbLine
 10
284.7502999999999
 20
741.215
 30
0.0
 11
285.4589999999999
 21
740.9889999999998
 31
0.0
  0
LINE
  5
7D1
330
1E
100
AcDbEntity
  8
0
100
AcDbLine
 10
284.9902999999999
 20
743.0499999999999
 30
0.0
 11
285.295
 21
743.2710000000001
 31
0.0
  0
LINE
  5
7D2
330
1E
100
AcDbEntity
  8
0
100
AcDbLine
 10
286.219
 20
741.3769999999999
 30
0.0
 11
286.8269999999999
 21
741.187
 31
0.0
  0
LINE
  5
7D3
330
1E
100
AcDbEntity
  8
0
100
AcDbLine
 10
285.7059999999999
 20
741.58
 30
0.0
 11
286.219
 21
741.3769999999999
 31
0.0
  0
LINE
  5
7D4
330
1E
100
AcDbEntity
  8
0
100
AcDbLine
 10
285.295
 20
741.793
 30
0.0
 11
285.7059999999999
 21
741.58
 31
0.0
  0
LINE
  5
7D5
330
1E
100
AcDbEntity
  8
0
100
AcDbLine
 10
284.9902999999999
 20
742.0149999999999
 30
0.0
 11
285.295
 21
741.793
 31
0.0
  0
LINE
  5
7D6
330
1E
100
AcDbEntity
  8
0
100
AcDbLine
 10
286.8269999999999
 20
741.187
 30
0.0
 11
287.522
 21
741.0119999999999
 31
0.0
  0
LINE
  5
7D7
330
1E
100
AcDbEntity
  8
0
100
AcDbLine
 10
284.7937999999999
 20
742.2419999999999
 30
0.0
 11
284.7937999999999
 21
742.823
 31
0.0
  0
LINE
  5
7D8
330
1E
100
AcDbEntity
  8
0
100
AcDbLine
 10
284.7937999999999
 20
742.2419999999999
 30
0.0
 11
284.9902999999999
 21
742.0149999999999
 31
0.0
  0
LINE
  5
7D9
330
1E
100
AcDbEntity
  8
0
100
AcDbLine
 10
294.477
 20
743.203
 30
0.0
 11
295.0
 21
743.2039999999999
 31
0.0
  0
LINE
  5
7DA
330
1E
100
AcDbEntity
  8
0
100
AcDbLine
 10
284.3124
 20
741.337
 30
0.0
 11
284.9067999999999
 21
741.111
 31
0.0
  0
LINE
  5
7DB
330
1E
100
AcDbEntity
  8
0
100
AcDbLine
 10
284.9067999999999
 20
741.111
 30
0.0
 11
285.6059999999999
 21
740.898
 31
0.0
  0
LINE
  5
7DC
330
1E
100
AcDbEntity
  8
0
100
AcDbLine
 10
303.173
 20
741.187
 30
0.0
 11
303.781
 21
741.3769999999999
 31
0.0
  0
LINE
  5
7DD
330
1E
100
AcDbEntity
  8
0
100
AcDbLine
 10
303.781
 20
741.3769999999999
 30
0.0
 11
304.294
 21
741.58
 31
0.0
  0
LINE
  5
7DE
330
1E
100
AcDbEntity
  8
0
100
AcDbLine
 10
304.294
 20
741.58
 30
0.0
 11
304.705
 21
741.793
 31
0.0
  0
LINE
  5
7DF
330
1E
100
AcDbEntity
  8
0
100
AcDbLine
 10
304.705
 20
741.793
 30
0.0
 11
305.01
 21
742.0149999999999
 31
0.0
  0
LINE
  5
7E0
330
1E
100
AcDbEntity
  8
0
100
AcDbLine
 10
305.01
 20
743.0499999999999
 30
0.0
 11
305.2059999999999
 21
742.823
 31
0.0
  0
LINE
  5
7E1
330
1E
100
AcDbEntity
  8
0
100
AcDbLine
 10
305.01
 20
742.0149999999999
 30
0.0
 11
305.2059999999999
 21
742.2419999999999
 31
0.0
  0
LINE
  5
7E2
330
1E
100
AcDbEntity
  8
0
100
AcDbLine
 10
302.478
 20
741.0119999999999
 30
0.0
 11
303.173
 21
741.187
 31
0.0
  0
LINE
  5
7E3
330
1E
100
AcDbEntity
  8
0
100
AcDbLine
 10
304.5409999999999
 20
740.9889999999998
 30
0.0
 11
305.25
 21
741.215
 31
0.0
  0
LINE
  5
7E4
330
1E
100
AcDbEntity
  8
0
100
AcDbLine
 10
295.5229999999999
 20
743.203
 30
0.0
 11
296.6709999999999
 21
743.2289999999999
 31
0.0
  0
LINE
  5
7E5
330
1E
100
AcDbEntity
  8
0
100
AcDbLine
 10
285.295
 20
743.2710000000001
 30
0.0
 11
285.7059999999999
 21
743.4849999999999
 31
0.0
  0
LINE
  5
7E6
330
1E
100
AcDbEntity
  8
0
100
AcDbLine
 10
277.4999999999999
 20
743.3749999999999
 30
0.0
 11
277.4999999999999
 21
745.0269999999999
 31
0.0
  0
LINE
  5
7E7
330
1E
100
AcDbEntity
  8
0
100
AcDbLine
 10
277.4999999999999
 20
743.3749999999999
 30
0.0
 11
277.4999999999999
 21
741.623
 31
0.0
  0
LINE
  5
7E8
330
1E
100
AcDbEntity
  8
0
100
AcDbLine
 10
283.6861
 20
743.355
 30
0.0
 11
284.1569999999999
 21
743.608
 31
0.0
  0
LINE
  5
7E9
330
1E
100
AcDbEntity
  8
0
100
AcDbLine
 10
283.8286
 20
743.391
 30
0.0
 11
284.3124
 21
743.6289999999999
 31
0.0
  0
LINE
  5
7EA
330
1E
100
AcDbEntity
  8
0
100
AcDbLine
 10
284.1569999999999
 20
743.608
 30
0.0
 11
284.7502999999999
 21
743.8489999999999
 31
0.0
  0
LINE
  5
7EB
330
1E
100
AcDbEntity
  8
0
100
AcDbLine
 10
286.219
 20
743.6869999999999
 30
0.0
 11
286.8269999999999
 21
743.8769999999999
 31
0.0
  0
LINE
  5
7EC
330
1E
100
AcDbEntity
  8
0
100
AcDbLine
 10
285.7059999999999
 20
743.4849999999999
 30
0.0
 11
286.219
 21
743.6869999999999
 31
0.0
  0
LINE
  5
7ED
330
1E
100
AcDbEntity
  8
0
100
AcDbLine
 10
284.7502999999999
 20
743.8489999999999
 30
0.0
 11
285.4589999999999
 21
744.077
 31
0.0
  0
LINE
  5
7EE
330
1E
100
AcDbEntity
  8
0
100
AcDbLine
 10
284.3124
 20
743.6289999999999
 30
0.0
 11
284.9067999999999
 21
743.855
 31
0.0
  0
LINE
  5
7EF
330
1E
100
AcDbEntity
  8
0
100
AcDbLine
 10
286.8269999999999
 20
743.8769999999999
 30
0.0
 11
287.522
 21
744.0529999999999
 31
0.0
  0
LINE
  5
7F0
330
1E
100
AcDbEntity
  8
0
100
AcDbLine
 10
284.9067999999999
 20
743.855
 30
0.0
 11
285.6059999999999
 21
744.0669999999999
 31
0.0
  0
LINE
  5
7F1
330
1E
100
AcDbEntity
  8
0
100
AcDbLine
 10
288.178
 20
743.7560000000001
 30
0.0
 11
289.0859999999999
 21
743.6010000000001
 31
0.0
  0
LINE
  5
7F2
330
1E
100
AcDbEntity
  8
0
100
AcDbLine
 10
285.4589999999999
 20
744.077
 30
0.0
 11
286.276
 21
744.2849999999999
 31
0.0
  0
LINE
  5
7F3
330
1E
100
AcDbEntity
  8
0
100
AcDbLine
 10
285.6059999999999
 20
744.0669999999999
 30
0.0
 11
286.399
 21
744.263
 31
0.0
  0
LINE
  5
7F4
330
1E
100
AcDbEntity
  8
0
100
AcDbLine
 10
286.276
 20
744.2849999999999
 30
0.0
 11
287.1909999999999
 21
744.473
 31
0.0
  0
LINE
  5
7F5
330
1E
100
AcDbEntity
  8
0
100
AcDbLine
 10
287.1909999999999
 20
744.473
 30
0.0
 11
288.1959999999999
 21
744.6410000000001
 31
0.0
  0
LINE
  5
7F6
330
1E
100
AcDbEntity
  8
0
100
AcDbLine
 10
286.399
 20
744.263
 30
0.0
 11
287.2819999999999
 21
744.441
 31
0.0
  0
LINE
  5
7F7
330
1E
100
AcDbEntity
  8
0
100
AcDbLine
 10
288.3
 20
744.211
 30
0.0
 11
289.151
 21
744.353
 31
0.0
  0
LINE
  5
7F8
330
1E
100
AcDbEntity
  8
0
100
AcDbLine
 10
287.522
 20
744.0529999999999
 30
0.0
 11
288.3
 21
744.211
 31
0.0
  0
LINE
  5
7F9
330
1E
100
AcDbEntity
  8
0
100
AcDbLine
 10
287.2819999999999
 20
744.441
 30
0.0
 11
288.245
 21
744.598
 31
0.0
  0
LINE
  5
7FA
330
1E
100
AcDbEntity
  8
0
100
AcDbLine
 10
288.1959999999999
 20
744.6410000000001
 30
0.0
 11
289.2759999999999
 21
744.784
 31
0.0
  0
LINE
  5
7FB
330
1E
100
AcDbEntity
  8
0
100
AcDbLine
 10
288.245
 20
744.598
 30
0.0
 11
289.2759999999999
 21
744.735
 31
0.0
  0
LINE
  5
7FC
330
1E
100
AcDbEntity
  8
0
100
AcDbLine
 10
287.203195829622
 20
743.9722668575728
 30
0.0
 11
287.358
 21
743.931
 31
0.0
  0
LINE
  5
7FD
330
1E
100
AcDbEntity
  8
0
100
AcDbLine
 10
287.358
 20
743.931
 30
0.0
 11
288.178
 21
743.7560000000001
 31
0.0
  0
LINE
  5
7FE
330
1E
100
AcDbEntity
  8
0
100
AcDbLine
 10
289.151
 20
744.353
 30
0.0
 11
290.0659999999999
 21
744.473
 31
0.0
  0
LINE
  5
7FF
330
1E
100
AcDbEntity
  8
0
100
AcDbLine
 10
290.0659999999999
 20
744.473
 30
0.0
 11
291.127
 21
744.582
 31
0.0
  0
LINE
  5
800
330
1E
100
AcDbEntity
  8
0
100
AcDbLine
 10
289.2759999999999
 20
744.735
 30
0.0
 11
290.3659999999999
 21
744.848
 31
0.0
  0
LINE
  5
801
330
1E
100
AcDbEntity
  8
0
100
AcDbLine
 10
289.0859999999999
 20
743.6010000000001
 30
0.0
 11
290.0659999999999
 21
743.47
 31
0.0
  0
LINE
  5
802
330
1E
100
AcDbEntity
  8
0
100
AcDbLine
 10
290.0659999999999
 20
743.47
 30
0.0
 11
291.109
 21
743.3639999999999
 31
0.0
  0
LINE
  5
803
330
1E
100
AcDbEntity
  8
0
100
AcDbLine
 10
291.127
 20
744.582
 30
0.0
 11
292.238
 21
744.664
 31
0.0
  0
LINE
  5
804
330
1E
100
AcDbEntity
  8
0
100
AcDbLine
 10
292.238
 20
744.664
 30
0.0
 11
293.3849999999999
 21
744.7169999999999
 31
0.0
  0
LINE
  5
805
330
1E
100
AcDbEntity
  8
0
100
AcDbLine
 10
291.109
 20
743.3639999999999
 30
0.0
 11
292.2009999999999
 21
743.2839999999999
 31
0.0
  0
LINE
  5
806
330
1E
100
AcDbEntity
  8
0
100
AcDbLine
 10
292.2009999999999
 20
743.2839999999999
 30
0.0
 11
293.3289999999999
 21
743.2289999999999
 31
0.0
  0
LINE
  5
807
330
1E
100
AcDbEntity
  8
0
100
AcDbLine
 10
293.3849999999999
 20
744.7169999999999
 30
0.0
 11
294.553
 21
744.743
 31
0.0
  0
LINE
  5
809
330
1E
100
AcDbEntity
  8
0
100
AcDbLine
 10
293.3289999999999
 20
743.2289999999999
 30
0.0
 11
294.477
 21
743.203
 31
0.0
  0
LINE
  5
80A
330
1E
100
AcDbEntity
  8
0
100
AcDbLine
 10
289.2759999999999
 20
744.784
 30
0.0
 11
290.3849999999999
 21
744.8989999999999
 31
0.0
  0
LINE
  5
80B
330
1E
100
AcDbEntity
  8
0
100
AcDbLine
 10
290.3849999999999
 20
744.8989999999999
 30
0.0
 11
291.542
 21
744.9889999999999
 31
0.0
  0
LINE
  5
80C
330
1E
100
AcDbEntity
  8
0
100
AcDbLine
 10
290.3659999999999
 20
744.848
 30
0.0
 11
291.504
 21
744.936
 31
0.0
  0
LINE
  5
80D
330
1E
100
AcDbEntity
  8
0
100
AcDbLine
 10
294.553
 20
744.743
 30
0.0
 11
295.0
 21
744.7410000000001
 31
0.0
  0
LINE
  5
80F
330
1E
100
AcDbEntity
  8
0
100
AcDbLine
 10
291.542
 20
744.9889999999999
 30
0.0
 11
292.7359999999999
 21
745.052
 31
0.0
  0
LINE
  5
810
330
1E
100
AcDbEntity
  8
0
100
AcDbLine
 10
291.504
 20
744.936
 30
0.0
 11
292.677
 21
745.0
 31
0.0
  0
LINE
  5
811
330
1E
100
AcDbEntity
  8
0
100
AcDbLine
 10
277.4999999999999
 20
745.0269999999999
 30
0.0
 11
277.4999999999999
 21
748.0119999999999
 31
0.0
  0
LINE
  5
812
330
1E
100
AcDbEntity
  8
0
100
AcDbLine
 10
277.4999999999999
 20
745.0269999999999
 30
0.0
 11
277.4999999999999
 21
743.3749999999999
 31
0.0
  0
LINE
  5
813
330
1E
100
AcDbEntity
  8
0
100
AcDbLine
 10
292.677
 20
745.0
 30
0.0
 11
293.875
 21
745.038
 31
0.0
  0
LINE
  5
814
330
1E
100
AcDbEntity
  8
0
100
AcDbLine
 10
293.875
 20
745.038
 30
0.0
 11
295.0
 21
745.0479999999999
 31
0.0
  0
LINE
  5
818
330
1E
100
AcDbEntity
  8
0
100
AcDbLine
 10
295.447
 20
744.743
 30
0.0
 11
296.615
 21
744.7169999999999
 31
0.0
  0
LINE
  5
819
330
1E
100
AcDbEntity
  8
0
100
AcDbLine
 10
295.0
 20
744.7410000000001
 30
0.0
 11
295.447
 21
744.743
 31
0.0
  0
LINE
  5
81A
330
1E
100
AcDbEntity
  8
0
100
AcDbLine
 10
296.615
 20
744.7169999999999
 30
0.0
 11
297.7619999999999
 21
744.664
 31
0.0
  0
LINE
  5
81B
330
1E
100
AcDbEntity
  8
0
100
AcDbLine
 10
296.125
 20
745.038
 30
0.0
 11
297.323
 21
745.0
 31
0.0
  0
LINE
  5
81C
330
1E
100
AcDbEntity
  8
0
100
AcDbLine
 10
293.955
 20
745.0889999999999
 30
0.0
 11
295.0
 21
745.0969999999999
 31
0.0
  0
LINE
  5
81D
330
1E
100
AcDbEntity
  8
0
100
AcDbLine
 10
292.7359999999999
 20
745.052
 30
0.0
 11
293.955
 21
745.0889999999999
 31
0.0
  0
LINE
  5
81E
330
1E
100
AcDbEntity
  8
0
100
AcDbLine
 10
277.4999999999999
 20
748.0119999999999
 30
0.0
 11
277.4999999999999
 21
745.0269999999999
 31
0.0
  0
LINE
  5
81F
330
1E
100
AcDbEntity
  8
0
100
AcDbLine
 10
277.4999999999999
 20
748.0119999999999
 30
0.0
 11
277.4999999999999
 21
750.546
 31
0.0
  0
LINE
  5
821
330
1E
100
AcDbEntity
  8
0
100
AcDbLine
 10
295.0
 20
746.62
 30
0.0
 11
297.183
 21
746.6289999999998
 31
0.0
  0
LINE
  5
822
330
1E
100
AcDbEntity
  8
0
100
AcDbLine
 10
287.0609999999999
 20
746.832
 30
0.0
 11
288.975
 21
746.7310000000001
 31
0.0
  0
LINE
  5
823
330
1E
100
AcDbEntity
  8
0
100
AcDbLine
 10
285.283
 20
746.975
 30
0.0
 11
287.0609999999999
 21
746.832
 31
0.0
  0
LINE
  5
824
330
1E
100
AcDbEntity
  8
0
100
AcDbLine
 10
283.7089999999999
 20
747.1779999999999
 30
0.0
 11
285.283
 21
746.975
 31
0.0
  0
LINE
  5
825
330
1E
100
AcDbEntity
  8
0
100
AcDbLine
 10
290.932
 20
746.663
 30
0.0
 11
292.817
 21
746.6289999999998
 31
0.0
  0
LINE
  5
826
330
1E
100
AcDbEntity
  8
0
100
AcDbLine
 10
288.975
 20
746.7310000000001
 30
0.0
 11
290.932
 21
746.663
 31
0.0
  0
LINE
  5
827
330
1E
100
AcDbEntity
  8
0
100
AcDbLine
 10
281.6417
 20
747.716
 30
0.0
 11
282.3742999999999
 21
747.4669999999999
 31
0.0
  0
LINE
  5
828
330
1E
100
AcDbEntity
  8
0
100
AcDbLine
 10
282.3742999999999
 20
747.4669999999999
 30
0.0
 11
283.7089999999999
 21
747.1779999999999
 31
0.0
  0
LINE
  5
830
330
1E
100
AcDbEntity
  8
0
100
AcDbLine
 10
292.817
 20
746.6289999999998
 30
0.0
 11
295.0
 21
746.62
 31
0.0
  0
LINE
  5
832
330
1E
100
AcDbEntity
  8
0
100
AcDbLine
 10
277.4999999999999
 20
750.546
 30
0.0
 11
277.4999999999999
 21
748.0119999999999
 31
0.0
  0
LINE
  5
833
330
1E
100
AcDbEntity
  8
0
100
AcDbLine
 10
277.4999999999999
 20
750.546
 30
0.0
 11
277.4999999999999
 21
752.615
 31
0.0
  0
LINE
  5
834
330
1E
100
AcDbEntity
  8
0
100
AcDbLine
 10
277.4999999999999
 20
754.2209999999999
 30
0.0
 11
277.4999999999999
 21
752.615
 31
0.0
  0
LINE
  5
835
330
1E
100
AcDbEntity
  8
0
100
AcDbLine
 10
277.4999999999999
 20
754.2209999999999
 30
0.0
 11
277.4999999999999
 21
755.3799999999999
 31
0.0
  0
LINE
  5
836
330
1E
100
AcDbEntity
  8
0
100
AcDbLine
 10
277.4999999999999
 20
755.3799999999999
 30
0.0
 11
277.4999999999999
 21
755.926
 31
0.0
  0
LINE
  5
837
330
1E
100
AcDbEntity
  8
0
100
AcDbLine
 10
277.4999999999999
 20
755.3799999999999
 30
0.0
 11
277.4999999999999
 21
754.2209999999999
 31
0.0
  0
LINE
  5
838
330
1E
100
AcDbEntity
  8
0
100
AcDbLine
 10
277.4999999999999
 20
755.926
 30
0.0
 11
277.4999999999999
 21
756.308
 31
0.0
  0
LINE
  5
839
330
1E
100
AcDbEntity
  8
0
100
AcDbLine
 10
277.4999999999999
 20
755.926
 30
0.0
 11
277.4999999999999
 21
755.3799999999999
 31
0.0
  0
LINE
  5
83A
330
1E
100
AcDbEntity
  8
0
100
AcDbLine
 10
277.4999999999999
 20
756.308
 30
0.0
 11
277.4999999999999
 21
756.603
 31
0.0
  0
LINE
  5
83B
330
1E
100
AcDbEntity
  8
0
100
AcDbLine
 10
277.4999999999999
 20
756.308
 30
0.0
 11
277.4999999999999
 21
755.926
 31
0.0
  0
LINE
  5
83C
330
1E
100
AcDbEntity
  8
0
100
AcDbLine
 10
277.4999999999999
 20
756.693
 30
0.0
 11
277.4999999999999
 21
756.603
 31
0.0
  0
LINE
  5
83D
330
1E
100
AcDbEntity
  8
0
100
AcDbLine
 10
277.4999999999999
 20
756.603
 30
0.0
 11
277.4999999999999
 21
756.693
 31
0.0
  0
LINE
  5
83E
330
1E
100
AcDbEntity
  8
0
100
AcDbLine
 10
277.4999999999999
 20
756.603
 30
0.0
 11
277.4999999999999
 21
756.308
 31
0.0
  0
LINE
  5
83F
330
1E
100
AcDbEntity
  8
0
100
AcDbLine
 10
277.4999999999999
 20
752.615
 30
0.0
 11
277.4999999999999
 21
754.2209999999999
 31
0.0
  0
LINE
  5
840
330
1E
100
AcDbEntity
  8
0
100
AcDbLine
 10
277.4999999999999
 20
752.615
 30
0.0
 11
277.4999999999999
 21
750.546
 31
0.0
  0
LINE
  5
841
330
1E
100
AcDbEntity
  8
0
100
AcDbLine
 10
277.4999999999999
 20
763.6560000000001
 30
0.0
 11
277.6167
 21
764.048
 31
0.0
  0
LINE
  5
842
330
1E
100
AcDbEntity
  8
0
100
AcDbLine
 10
277.4999999999999
 20
763.6560000000001
 30
0.0
 11
277.4999999999999
 21
756.726
 31
0.0
  0
LINE
  5
845
330
1E
100
AcDbEntity
  8
0
100
AcDbLine
 10
280.9182999999999
 20
748.083
 30
0.0
 11
281.6417
 21
747.716
 31
0.0
  0
LINE
  5
847
330
1E
100
AcDbEntity
  8
0
100
AcDbLine
 10
280.5975
 20
748.313
 30
0.0
 11
280.9182999999999
 21
748.083
 31
0.0
  0
LINE
  5
85E
330
1E
100
AcDbEntity
  8
0
100
AcDbLine
 10
277.560294034465
 20
754.661432587167
 30
0.0
 11
277.6283
 21
753.9760000000001
 31
0.0
  0
LINE
  5
861
330
1E
100
AcDbEntity
  8
0
100
AcDbLine
 10
277.6167
 20
764.048
 30
0.0
 11
277.9398
 21
764.341
 31
0.0
  0
LINE
  5
868
330
1E
100
AcDbEntity
  8
0
100
AcDbLine
 10
286.6929999999999
 20
764.738
 30
0.0
 11
295.0
 21
764.83
 31
0.0
  0
LINE
  5
869
330
1E
100
AcDbEntity
  8
0
100
AcDbLine
 10
278.3854999999999
 20
764.4630000000001
 30
0.0
 11
286.6929999999999
 21
764.738
 31
0.0
  0
LINE
  5
86A
330
1E
100
AcDbEntity
  8
0
100
AcDbLine
 10
277.9398
 20
764.341
 30
0.0
 11
278.3854999999999
 21
764.4630000000001
 31
0.0
  0
LINE
  5
86E
330
1E
100
AcDbEntity
  8
0
100
AcDbLine
 10
295.0
 20
764.83
 30
0.0
 11
303.307
 21
764.738
 31
0.0
  0
LINE
  5
873
330
1E
100
AcDbEntity
  8
0
100
AcDbLine
 10
277.6283
 20
753.9760000000001
 30
0.0
 11
277.6434169863819
 21
753.8991529820309
 31
0.0
  0
LINE
  5
874
330
1E
100
AcDbEntity
  8
0
100
AcDbLine
 10
277.4999999999999
 20
756.726
 30
0.0
 11
277.4999999999999
 21
763.6560000000001
 31
0.0
  0
LINE
  5
875
330
1E
100
AcDbEntity
  8
0
100
AcDbLine
 10
281.0
 20
748.0415514238319
 30
0.0
 11
281.0
 21
742.809
 31
0.0
  0
LINE
  5
876
330
1E
100
AcDbEntity
  8
0
100
AcDbLine
 10
281.0
 20
748.0415514238319
 30
0.0
 11
281.0
 21
742.95
 31
0.0
  0
LINE
  5
879
330
1E
100
AcDbEntity
  8
0
100
AcDbLine
 10
295.0
 20
745.0969999999999
 30
0.0
 11
296.045
 21
745.0889999999999
 31
0.0
  0
LINE
  5
87A
330
1E
100
AcDbEntity
  8
0
100
AcDbLine
 10
296.045
 20
745.0889999999999
 30
0.0
 11
297.264
 21
745.052
 31
0.0
  0
LINE
  5
87B
330
1E
100
AcDbEntity
  8
0
100
AcDbLine
 10
295.0
 20
745.0479999999999
 30
0.0
 11
296.125
 21
745.038
 31
0.0
  0
LINE
  5
87D
330
1E
100
AcDbEntity
  8
0
100
AcDbLine
 10
304.705
 20
743.2710000000001
 30
0.0
 11
305.01
 21
743.0499999999999
 31
0.0
  0
LINE
  5
87E
330
1E
100
AcDbEntity
  8
0
100
AcDbLine
 10
297.7619999999999
 20
744.664
 30
0.0
 11
298.8729999999999
 21
744.582
 31
0.0
  0
LINE
  5
87F
330
1E
100
AcDbEntity
  8
0
100
AcDbLine
 10
298.4579999999999
 20
744.9889999999999
 30
0.0
 11
299.615
 21
744.8989999999999
 31
0.0
  0
LINE
  5
880
330
1E
100
AcDbEntity
  8
0
100
AcDbLine
 10
298.8729999999999
 20
744.582
 30
0.0
 11
299.934
 21
744.473
 31
0.0
  0
LINE
  5
881
330
1E
100
AcDbEntity
  8
0
100
AcDbLine
 10
298.496
 20
744.936
 30
0.0
 11
299.634
 21
744.848
 31
0.0
  0
LINE
  5
883
330
1E
100
AcDbEntity
  8
0
100
AcDbLine
 10
297.183
 20
746.6289999999998
 30
0.0
 11
299.0679999999999
 21
746.663
 31
0.0
  0
LINE
  5
886
330
1E
100
AcDbEntity
  8
0
100
AcDbLine
 10
297.264
 20
745.052
 30
0.0
 11
298.4579999999999
 21
744.9889999999999
 31
0.0
  0
LINE
  5
887
330
1E
100
AcDbEntity
  8
0
100
AcDbLine
 10
297.323
 20
745.0
 30
0.0
 11
298.496
 21
744.936
 31
0.0
  0
LINE
  5
888
330
1E
100
AcDbEntity
  8
0
100
AcDbLine
 10
299.934
 20
744.473
 30
0.0
 11
300.849
 21
744.353
 31
0.0
  0
LINE
  5
889
330
1E
100
AcDbEntity
  8
0
100
AcDbLine
 10
300.7239999999999
 20
744.784
 30
0.0
 11
301.804
 21
744.6410000000001
 31
0.0
  0
LINE
  5
88A
330
1E
100
AcDbEntity
  8
0
100
AcDbLine
 10
299.0679999999999
 20
746.663
 30
0.0
 11
301.0249999999999
 21
746.7310000000001
 31
0.0
  0
LINE
  5
88C
330
1E
100
AcDbEntity
  8
0
100
AcDbLine
 10
299.615
 20
744.8989999999999
 30
0.0
 11
300.7239999999999
 21
744.784
 31
0.0
  0
LINE
  5
88D
330
1E
100
AcDbEntity
  8
0
100
AcDbLine
 10
299.634
 20
744.848
 30
0.0
 11
300.7239999999999
 21
744.735
 31
0.0
  0
LINE
  5
88E
330
1E
100
AcDbEntity
  8
0
100
AcDbLine
 10
300.849
 20
744.353
 30
0.0
 11
301.6999999999999
 21
744.211
 31
0.0
  0
LINE
  5
88F
330
1E
100
AcDbEntity
  8
0
100
AcDbLine
 10
301.6999999999999
 20
744.211
 30
0.0
 11
302.478
 21
744.0529999999999
 31
0.0
  0
LINE
  5
890
330
1E
100
AcDbEntity
  8
0
100
AcDbLine
 10
301.0249999999999
 20
746.7310000000001
 30
0.0
 11
302.939
 21
746.832
 31
0.0
  0
LINE
  5
891
330
1E
100
AcDbEntity
  8
0
100
AcDbLine
 10
301.804
 20
744.6410000000001
 30
0.0
 11
302.809
 21
744.473
 31
0.0
  0
LINE
  5
892
330
1E
100
AcDbEntity
  8
0
100
AcDbLine
 10
301.7549999999999
 20
744.598
 30
0.0
 11
302.718
 21
744.441
 31
0.0
  0
LINE
  5
893
330
1E
100
AcDbEntity
  8
0
100
AcDbLine
 10
300.7239999999999
 20
744.735
 30
0.0
 11
301.7549999999999
 21
744.598
 31
0.0
  0
LINE
  5
894
330
1E
100
AcDbEntity
  8
0
100
AcDbLine
 10
300.9139999999999
 20
743.6010000000001
 30
0.0
 11
301.8219999999999
 21
743.7560000000001
 31
0.0
  0
LINE
  5
895
330
1E
100
AcDbEntity
  8
0
100
AcDbLine
 10
303.173
 20
743.8769999999999
 30
0.0
 11
303.781
 21
743.6869999999999
 31
0.0
  0
LINE
  5
896
330
1E
100
AcDbEntity
  8
0
100
AcDbLine
 10
303.781
 20
743.6869999999999
 30
0.0
 11
304.294
 21
743.4849999999999
 31
0.0
  0
LINE
  5
897
330
1E
100
AcDbEntity
  8
0
100
AcDbLine
 10
304.294
 20
743.4849999999999
 30
0.0
 11
304.705
 21
743.2710000000001
 31
0.0
  0
LINE
  5
898
330
1E
100
AcDbEntity
  8
0
100
AcDbLine
 10
305.093
 20
743.855
 30
0.0
 11
305.688
 21
743.6289999999999
 31
0.0
  0
LINE
  5
899
330
1E
100
AcDbEntity
  8
0
100
AcDbLine
 10
302.478
 20
744.0529999999999
 30
0.0
 11
303.173
 21
743.8769999999999
 31
0.0
  0
LINE
  5
89A
330
1E
100
AcDbEntity
  8
0
100
AcDbLine
 10
303.724
 20
744.2849999999999
 30
0.0
 11
304.5409999999999
 21
744.077
 31
0.0
  0
LINE
  5
89B
330
1E
100
AcDbEntity
  8
0
100
AcDbLine
 10
303.601
 20
744.263
 30
0.0
 11
304.394
 21
744.0669999999999
 31
0.0
  0
LINE
  5
89D
330
1E
100
AcDbEntity
  8
0
100
AcDbLine
 10
302.939
 20
746.832
 30
0.0
 11
304.7169999999999
 21
746.975
 31
0.0
  0
LINE
  5
89E
330
1E
100
AcDbEntity
  8
0
100
AcDbLine
 10
303.307
 20
764.738
 30
0.0
 11
311.615
 21
764.4630000000001
 31
0.0
  0
LINE
  5
89F
330
1E
100
AcDbEntity
  8
0
100
AcDbLine
 10
302.809
 20
744.473
 30
0.0
 11
303.724
 21
744.2849999999999
 31
0.0
  0
LINE
  5
8A0
330
1E
100
AcDbEntity
  8
0
100
AcDbLine
 10
302.718
 20
744.441
 30
0.0
 11
303.601
 21
744.263
 31
0.0
  0
LINE
  5
8A1
330
1E
100
AcDbEntity
  8
0
100
AcDbLine
 10
304.7169999999999
 20
746.975
 30
0.0
 11
306.291
 21
747.1779999999999
 31
0.0
  0
LINE
  5
8A3
330
1E
100
AcDbEntity
  8
0
100
AcDbLine
 10
304.5409999999999
 20
744.077
 30
0.0
 11
305.25
 21
743.8489999999999
 31
0.0
  0
LINE
  5
8A4
330
1E
100
AcDbEntity
  8
0
100
AcDbLine
 10
304.394
 20
744.0669999999999
 30
0.0
 11
305.093
 21
743.855
 31
0.0
  0
LINE
  5
8A5
330
1E
100
AcDbEntity
  8
0
100
AcDbLine
 10
302.6429999999999
 20
743.931
 30
0.0
 11
302.797207618705
 21
743.972164689364
 31
0.0
  0
LINE
  5
8A6
330
1E
100
AcDbEntity
  8
0
100
AcDbLine
 10
301.8219999999999
 20
743.7560000000001
 30
0.0
 11
302.6429999999999
 21
743.931
 31
0.0
  0
LINE
  5
8A7
330
1E
100
AcDbEntity
  8
0
100
AcDbLine
 10
299.934
 20
743.47
 30
0.0
 11
300.9139999999999
 21
743.6010000000001
 31
0.0
  0
LINE
  5
8A8
330
1E
100
AcDbEntity
  8
0
100
AcDbLine
 10
298.8909999999999
 20
743.3639999999999
 30
0.0
 11
299.934
 21
743.47
 31
0.0
  0
LINE
  5
8A9
330
1E
100
AcDbEntity
  8
0
100
AcDbLine
 10
297.799
 20
743.2839999999999
 30
0.0
 11
298.8909999999999
 21
743.3639999999999
 31
0.0
  0
LINE
  5
8AA
330
1E
100
AcDbEntity
  8
0
100
AcDbLine
 10
296.6709999999999
 20
743.2289999999999
 30
0.0
 11
297.799
 21
743.2839999999999
 31
0.0
  0
LINE
  5
8AB
330
1E
100
AcDbEntity
  8
0
100
AcDbLine
 10
295.0
 20
743.2039999999999
 30
0.0
 11
295.5229999999999
 21
743.203
 31
0.0
  0
LINE
  5
8AC
330
1E
100
AcDbEntity
  8
0
100
AcDbLine
 10
305.25
 20
741.215
 30
0.0
 11
305.843
 21
741.456
 31
0.0
  0
LINE
  5
8AD
330
1E
100
AcDbEntity
  8
0
100
AcDbLine
 10
305.843
 20
741.456
 30
0.0
 11
306.314
 21
741.71
 31
0.0
  0
LINE
  5
8AE
330
1E
100
AcDbEntity
  8
0
100
AcDbLine
 10
305.2059999999999
 20
742.823
 30
0.0
 11
305.2059999999999
 21
742.2419999999999
 31
0.0
  0
LINE
  5
8AF
330
1E
100
AcDbEntity
  8
0
100
AcDbLine
 10
305.2059999999999
 20
742.823
 30
0.0
 11
306.867
 21
742.823
 31
0.0
  0
LINE
  5
8B0
330
1E
100
AcDbEntity
  8
0
100
AcDbLine
 10
305.2059999999999
 20
742.2419999999999
 30
0.0
 11
306.867
 21
742.2419999999999
 31
0.0
  0
LINE
  5
8B1
330
1E
100
AcDbEntity
  8
0
100
AcDbLine
 10
305.2059999999999
 20
742.2419999999999
 30
0.0
 11
305.2059999999999
 21
742.823
 31
0.0
  0
LINE
  5
8B2
330
1E
100
AcDbEntity
  8
0
100
AcDbLine
 10
306.314
 20
741.71
 30
0.0
 11
306.6549999999999
 21
741.9719999999999
 31
0.0
  0
LINE
  5
8B3
330
1E
100
AcDbEntity
  8
0
100
AcDbLine
 10
306.793
 20
742.888
 30
0.0
 11
306.924
 21
742.63
 31
0.0
  0
LINE
  5
8B4
330
1E
100
AcDbEntity
  8
0
100
AcDbLine
 10
306.6549999999999
 20
741.9719999999999
 30
0.0
 11
306.867
 21
742.2419999999999
 31
0.0
  0
LINE
  5
8B5
330
1E
100
AcDbEntity
  8
0
100
AcDbLine
 10
306.867
 20
742.2419999999999
 30
0.0
 11
306.867
 21
742.742259541985
 31
0.0
  0
LINE
  5
8B6
330
1E
100
AcDbEntity
  8
0
100
AcDbLine
 10
306.928
 20
742.6294085914089
 30
0.0
 11
306.928
 21
742.4819999999999
 31
0.0
  0
LINE
  5
8B7
330
1E
100
AcDbEntity
  8
0
100
AcDbLine
 10
306.924
 20
742.63
 30
0.0
 11
306.928
 21
742.4819999999999
 31
0.0
  0
LINE
  5
8B8
330
1E
100
AcDbEntity
  8
0
100
AcDbLine
 10
306.867
 20
742.742259541985
 30
0.0
 11
306.867
 21
742.2419999999999
 31
0.0
  0
LINE
  5
8B9
330
1E
100
AcDbEntity
  8
0
100
AcDbLine
 10
306.928
 20
742.4819999999999
 30
0.0
 11
306.928
 21
742.6294085914089
 31
0.0
  0
LINE
  5
8BA
330
1E
100
AcDbEntity
  8
0
100
AcDbLine
 10
306.924
 20
742.336
 30
0.0
 11
306.928
 21
742.4819999999999
 31
0.0
  0
LINE
  5
8BB
330
1E
100
AcDbEntity
  8
0
100
AcDbLine
 10
306.793
 20
742.077
 30
0.0
 11
306.924
 21
742.336
 31
0.0
  0
LINE
  5
8BC
330
1E
100
AcDbEntity
  8
0
100
AcDbLine
 10
306.542
 20
741.8219999999999
 30
0.0
 11
306.793
 21
742.077
 31
0.0
  0
LINE
  5
8BD
330
1E
100
AcDbEntity
  8
0
100
AcDbLine
 10
306.171
 20
741.576
 30
0.0
 11
306.542
 21
741.8219999999999
 31
0.0
  0
LINE
  5
8BE
330
1E
100
AcDbEntity
  8
0
100
AcDbLine
 10
305.688
 20
741.337
 30
0.0
 11
306.171
 21
741.576
 31
0.0
  0
LINE
  5
8C4
330
1E
100
AcDbEntity
  8
0
100
AcDbLine
 10
308.8419999999999
 20
742.327
 30
0.0
 11
308.9359999999999
 21
742.6099999999999
 31
0.0
  0
LINE
  5
8C5
330
1E
100
AcDbEntity
  8
0
100
AcDbLine
 10
308.622
 20
742.044
 30
0.0
 11
308.8419999999999
 21
742.327
 31
0.0
  0
LINE
  5
8C6
330
1E
100
AcDbEntity
  8
0
100
AcDbLine
 10
308.454
 20
741.908
 30
0.0
 11
308.622
 21
742.044
 31
0.0
  0
LINE
  5
8CA
330
1E
100
AcDbEntity
  8
0
100
AcDbLine
 10
308.9359999999999
 20
742.6099999999999
 30
0.0
 11
309.0
 21
742.809
 31
0.0
  0
LINE
  5
8CF
330
1E
100
AcDbEntity
  8
0
100
AcDbLine
 10
308.115
 20
741.635
 30
0.0
 11
308.454
 21
741.908
 31
0.0
  0
LINE
  5
8D0
330
1E
100
AcDbEntity
  8
0
100
AcDbLine
 10
307.6569999999999
 20
741.3719999999999
 30
0.0
 11
308.115
 21
741.635
 31
0.0
  0
LINE
  5
8D1
330
1E
100
AcDbEntity
  8
0
100
AcDbLine
 10
307.085
 20
741.1189999999999
 30
0.0
 11
307.6569999999999
 21
741.3719999999999
 31
0.0
  0
LINE
  5
8D2
330
1E
100
AcDbEntity
  8
0
100
AcDbLine
 10
312.5
 20
741.623
 30
0.0
 11
312.5
 21
739.7769999999999
 31
0.0
  0
LINE
  5
8D3
330
1E
100
AcDbEntity
  8
0
100
AcDbLine
 10
312.5
 20
741.623
 30
0.0
 11
312.5
 21
743.3749999999999
 31
0.0
  0
LINE
  5
8D4
330
1E
100
AcDbEntity
  8
0
100
AcDbLine
 10
309.0
 20
742.809
 30
0.0
 11
309.0
 21
742.95
 31
0.0
  0
LINE
  5
8D5
330
1E
100
AcDbEntity
  8
0
100
AcDbLine
 10
305.25
 20
743.8489999999999
 30
0.0
 11
305.843
 21
743.608
 31
0.0
  0
LINE
  5
8D6
330
1E
100
AcDbEntity
  8
0
100
AcDbLine
 10
306.314
 20
743.355
 30
0.0
 11
306.6549999999999
 21
743.0909999999999
 31
0.0
  0
LINE
  5
8D7
330
1E
100
AcDbEntity
  8
0
100
AcDbLine
 10
306.6549999999999
 20
743.0909999999999
 30
0.0
 11
306.867
 21
742.823
 31
0.0
  0
LINE
  5
8D8
330
1E
100
AcDbEntity
  8
0
100
AcDbLine
 10
306.542
 20
743.1419999999999
 30
0.0
 11
306.793
 21
742.888
 31
0.0
  0
LINE
  5
8DA
330
1E
100
AcDbEntity
  8
0
100
AcDbLine
 10
307.6259999999999
 20
747.4669999999999
 30
0.0
 11
308.3579999999999
 21
747.716
 31
0.0
  0
LINE
  5
8DB
330
1E
100
AcDbEntity
  8
0
100
AcDbLine
 10
306.291
 20
747.1779999999999
 30
0.0
 11
307.6259999999999
 21
747.4669999999999
 31
0.0
  0
LINE
  5
8DE
330
1E
100
AcDbEntity
  8
0
100
AcDbLine
 10
305.843
 20
743.608
 30
0.0
 11
306.314
 21
743.355
 31
0.0
  0
LINE
  5
8DF
330
1E
100
AcDbEntity
  8
0
100
AcDbLine
 10
306.171
 20
743.391
 30
0.0
 11
306.542
 21
743.1419999999999
 31
0.0
  0
LINE
  5
8E0
330
1E
100
AcDbEntity
  8
0
100
AcDbLine
 10
305.688
 20
743.6289999999999
 30
0.0
 11
306.171
 21
743.391
 31
0.0
  0
LINE
  5
8F6
330
1E
100
AcDbEntity
  8
0
100
AcDbLine
 10
312.5
 20
743.3749999999999
 30
0.0
 11
312.5
 21
741.623
 31
0.0
  0
LINE
  5
8F7
330
1E
100
AcDbEntity
  8
0
100
AcDbLine
 10
312.5
 20
743.3749999999999
 30
0.0
 11
312.5
 21
745.0269999999999
 31
0.0
  0
LINE
  5
8F8
330
1E
100
AcDbEntity
  8
0
100
AcDbLine
 10
312.5
 20
750.546
 30
0.0
 11
312.5
 21
752.615
 31
0.0
  0
LINE
  5
8F9
330
1E
100
AcDbEntity
  8
0
100
AcDbLine
 10
312.5
 20
750.546
 30
0.0
 11
312.5
 21
748.0119999999999
 31
0.0
  0
LINE
  5
8FA
330
1E
100
AcDbEntity
  8
0
100
AcDbLine
 10
312.5
 20
748.0119999999999
 30
0.0
 11
312.5
 21
750.546
 31
0.0
  0
LINE
  5
8FB
330
1E
100
AcDbEntity
  8
0
100
AcDbLine
 10
312.5
 20
748.0119999999999
 30
0.0
 11
312.5
 21
745.0269999999999
 31
0.0
  0
LINE
  5
8FC
330
1E
100
AcDbEntity
  8
0
100
AcDbLine
 10
312.5
 20
745.0269999999999
 30
0.0
 11
312.5
 21
748.0119999999999
 31
0.0
  0
LINE
  5
8FD
330
1E
100
AcDbEntity
  8
0
100
AcDbLine
 10
312.5
 20
745.0269999999999
 30
0.0
 11
312.5
 21
743.3749999999999
 31
0.0
  0
LINE
  5
903
330
1E
100
AcDbEntity
  8
0
100
AcDbLine
 10
312.06
 20
764.341
 30
0.0
 11
312.3829999999999
 21
764.048
 31
0.0
  0
LINE
  5
904
330
1E
100
AcDbEntity
  8
0
100
AcDbLine
 10
311.615
 20
764.4630000000001
 30
0.0
 11
312.06
 21
764.341
 31
0.0
  0
LINE
  5
90A
330
1E
100
AcDbEntity
  8
0
100
AcDbLine
 10
312.5
 20
755.3799999999999
 30
0.0
 11
312.5
 21
754.2209999999999
 31
0.0
  0
LINE
  5
90B
330
1E
100
AcDbEntity
  8
0
100
AcDbLine
 10
312.5
 20
755.3799999999999
 30
0.0
 11
312.5
 21
755.926
 31
0.0
  0
LINE
  5
90C
330
1E
100
AcDbEntity
  8
0
100
AcDbLine
 10
312.5
 20
752.615
 30
0.0
 11
312.5
 21
754.2209999999999
 31
0.0
  0
LINE
  5
90D
330
1E
100
AcDbEntity
  8
0
100
AcDbLine
 10
312.5
 20
752.615
 30
0.0
 11
312.5
 21
750.546
 31
0.0
  0
LINE
  5
90E
330
1E
100
AcDbEntity
  8
0
100
AcDbLine
 10
312.5
 20
755.926
 30
0.0
 11
312.5
 21
755.3799999999999
 31
0.0
  0
LINE
  5
90F
330
1E
100
AcDbEntity
  8
0
100
AcDbLine
 10
312.5
 20
755.926
 30
0.0
 11
312.5
 21
756.308
 31
0.0
  0
LINE
  5
910
330
1E
100
AcDbEntity
  8
0
100
AcDbLine
 10
312.5
 20
756.308
 30
0.0
 11
312.5
 21
755.926
 31
0.0
  0
LINE
  5
911
330
1E
100
AcDbEntity
  8
0
100
AcDbLine
 10
312.5
 20
756.308
 30
0.0
 11
312.5
 21
756.603
 31
0.0
  0
LINE
  5
912
330
1E
100
AcDbEntity
  8
0
100
AcDbLine
 10
312.5
 20
756.603
 30
0.0
 11
312.5
 21
756.308
 31
0.0
  0
LINE
  5
913
330
1E
100
AcDbEntity
  8
0
100
AcDbLine
 10
312.5
 20
756.603
 30
0.0
 11
312.5
 21
756.693
 31
0.0
  0
LINE
  5
914
330
1E
100
AcDbEntity
  8
0
100
AcDbLine
 10
312.5
 20
756.726
 30
0.0
 11
312.5
 21
763.6560000000001
 31
0.0
  0
LINE
  5
915
330
1E
100
AcDbEntity
  8
0
100
AcDbLine
 10
312.5
 20
763.6560000000001
 30
0.0
 11
312.5
 21
756.726
 31
0.0
  0
LINE
  5
916
330
1E
100
AcDbEntity
  8
0
100
AcDbLine
 10
312.5
 20
756.693
 30
0.0
 11
312.5
 21
756.603
 31
0.0
  0
LINE
  5
917
330
1E
100
AcDbEntity
  8
0
100
AcDbLine
 10
312.5
 20
754.2209999999999
 30
0.0
 11
312.5
 21
752.615
 31
0.0
  0
LINE
  5
918
330
1E
100
AcDbEntity
  8
0
100
AcDbLine
 10
312.5
 20
754.2209999999999
 30
0.0
 11
312.5
 21
755.3799999999999
 31
0.0
  0
LINE
  5
919
330
1E
100
AcDbEntity
  8
0
100
AcDbLine
 10
312.3829999999999
 20
764.048
 30
0.0
 11
312.5
 21
763.6560000000001
 31
0.0
  0
LINE
  5
91C
330
1E
100
AcDbEntity
  8
0
100
AcDbLine
 10
309.0
 20
748.0414337016569
 30
0.0
 11
309.0
 21
742.95
 31
0.0
  0
LINE
  5
91D
330
1E
100
AcDbEntity
  8
0
100
AcDbLine
 10
309.0
 20
742.95
 30
0.0
 11
309.0
 21
742.809
 31
0.0
  0
LINE
  5
91E
330
1E
100
AcDbEntity
  8
0
100
AcDbLine
 10
309.0
 20
742.95
 30
0.0
 11
309.0
 21
748.0414337016569
 31
0.0
  0
LINE
  5
91F
330
1E
100
AcDbEntity
  8
0
100
AcDbLine
 10
305.093
 20
741.111
 30
0.0
 11
305.688
 21
741.337
 31
0.0
  0
LINE
  5
920
330
1E
100
AcDbEntity
  8
0
100
AcDbLine
 10
304.394
 20
740.898
 30
0.0
 11
305.093
 21
741.111
 31
0.0
  0
LINE
  5
933
330
1E
100
AcDbEntity
  8
0
100
AcDbLine
 10
384.36
 20
611.83
 30
0.0
 11
390.48
 21
611.83
 31
0.0
  0
LINE
  5
939
330
1E
100
AcDbEntity
  8
0
100
AcDbLine
 10
390.48
 20
611.83
 30
0.0
 11
397.44
 21
611.83
 31
0.0
  0
LINE
  5
93A
330
1E
100
AcDbEntity
  8
0
100
AcDbLine
 10
390.12
 20
611.4099999999999
 30
0.0
 11
397.3199999999999
 21
611.4099999999999
 31
0.0
  0
LINE
  5
93B
330
1E
100
AcDbEntity
  8
0
100
AcDbLine
 10
397.3199999999999
 20
611.4099999999999
 30
0.0
 11
405.0
 21
611.4099999999999
 31
0.0
  0
LINE
  5
93C
330
1E
100
AcDbEntity
  8
0
100
AcDbLine
 10
390.12
 20
604.83
 30
0.0
 11
397.3199999999999
 21
604.83
 31
0.0
  0
LINE
  5
956
330
1E
100
AcDbEntity
  8
0
100
AcDbLine
 10
400.0189999999999
 20
604.83
 30
0.0
 11
404.998
 21
604.83
 31
0.0
  0
LINE
  5
957
330
1E
100
AcDbEntity
  8
0
100
AcDbLine
 10
404.998
 20
604.83
 30
0.0
 11
410.0519999999999
 21
604.83
 31
0.0
  0
LINE
  5
95A
330
1E
100
AcDbEntity
  8
0
100
AcDbLine
 10
405.0
 20
611.83
 30
0.0
 11
412.56
 21
611.83
 31
0.0
  0
LINE
  5
95B
330
1E
100
AcDbEntity
  8
0
100
AcDbLine
 10
405.0
 20
611.4099999999999
 30
0.0
 11
412.68
 21
611.4099999999999
 31
0.0
  0
LINE
  5
9A7
330
1E
100
AcDbEntity
  8
0
100
AcDbLine
 10
418.719
 20
604.83
 30
0.0
 11
421.8519999999999
 21
604.83
 31
0.0
  0
LINE
  5
9A8
330
1E
100
AcDbEntity
  8
0
100
AcDbLine
 10
414.734
 20
604.83
 30
0.0
 11
418.719
 21
604.83
 31
0.0
  0
LINE
  5
9A9
330
1E
100
AcDbEntity
  8
0
100
AcDbLine
 10
410.0519999999999
 20
604.83
 30
0.0
 11
414.734
 21
604.83
 31
0.0
  0
LINE
  5
9CD
330
1E
100
AcDbEntity
  8
0
100
AcDbLine
 10
421.8519999999999
 20
604.83
 30
0.0
 11
423.81
 21
604.83
 31
0.0
  0
LINE
  5
A01
330
1E
100
AcDbEntity
  8
0
100
AcDbLine
 10
423.81
 20
604.83
 30
0.0
 11
424.464
 21
604.83
 31
0.0
  0
LINE
  5
A06
330
1E
100
AcDbEntity
  8
0
100
AcDbLine
 10
424.464
 20
604.83
 30
0.0
 11
426.24
 21
604.83
 31
0.0
  0
LINE
  5
B27
330
1E
100
AcDbEntity
  8
0
100
AcDbLine
 10
485.72
 20
604.83
 30
0.0
 11
486.8
 21
604.83
 31
0.0
  0
LINE
  5
B28
330
1E
100
AcDbEntity
  8
0
100
AcDbLine
 10
486.8
 20
604.83
 30
0.0
 11
489.6799999999999
 21
604.83
 31
0.0
  0
LINE
  5
B29
330
1E
100
AcDbEntity
  8
0
100
AcDbLine
 10
489.6799999999999
 20
604.83
 30
0.0
 11
494.3599999999999
 21
604.83
 31
0.0
  0
LINE
  5
B57
330
1E
100
AcDbEntity
  8
0
100
AcDbLine
 10
494.3599999999999
 20
604.83
 30
0.0
 11
500.48
 21
604.83
 31
0.0
  0
LINE
  5
B59
330
1E
100
AcDbEntity
  8
0
100
AcDbLine
 10
500.48
 20
604.83
 30
0.0
 11
507.4399999999999
 21
604.83
 31
0.0
  0
LINE
  5
B7B
330
1E
100
AcDbEntity
  8
0
100
AcDbLine
 10
507.4399999999999
 20
604.83
 30
0.0
 11
515.0
 21
604.83
 31
0.0
  0
LINE
  5
B8B
330
1E
100
AcDbEntity
  8
0
100
AcDbLine
 10
522.5599999999999
 20
604.83
 30
0.0
 11
529.52
 21
604.83
 31
0.0
  0
LINE
  5
B8F
330
1E
100
AcDbEntity
  8
0
100
AcDbLine
 10
515.0
 20
604.83
 30
0.0
 11
524.0
 21
604.83
 31
0.0
  0
LINE
  5
B90
330
1E
100
AcDbEntity
  8
0
100
AcDbLine
 10
515.0
 20
604.83
 30
0.0
 11
522.5599999999999
 21
604.83
 31
0.0
  0
LINE
  5
BBA
330
1E
100
AcDbEntity
  8
0
100
AcDbLine
 10
529.52
 20
604.83
 30
0.0
 11
535.6399999999999
 21
604.83
 31
0.0
  0
LINE
  5
BBB
330
1E
100
AcDbEntity
  8
0
100
AcDbLine
 10
535.6399999999999
 20
604.83
 30
0.0
 11
540.32
 21
604.83
 31
0.0
  0
LINE
  5
BBF
330
1E
100
AcDbEntity
  8
0
100
AcDbLine
 10
524.0
 20
604.83
 30
0.0
 11
532.3999999999999
 21
604.83
 31
0.0
  0
LINE
  5
BC0
330
1E
100
AcDbEntity
  8
0
100
AcDbLine
 10
532.3999999999999
 20
604.83
 30
0.0
 11
539.7
 21
604.83
 31
0.0
  0
LINE
  5
BF7
330
1E
100
AcDbEntity
  8
0
100
AcDbLine
 10
540.32
 20
604.83
 30
0.0
 11
543.2
 21
604.83
 31
0.0
  0
LINE
  5
BFA
330
1E
100
AcDbEntity
  8
0
100
AcDbLine
 10
543.2
 20
604.83
 30
0.0
 11
544.28
 21
604.83
 31
0.0
  0
LINE
  5
C1A
330
1E
100
AcDbEntity
  8
0
100
AcDbLine
 10
544.28
 20
604.83
 30
0.0
 11
545.2999999999999
 21
604.83
 31
0.0
  0
LINE
  5
C1C
330
1E
100
AcDbEntity
  8
0
100
AcDbLine
 10
539.7
 20
604.83
 30
0.0
 11
545.2999999999999
 21
604.83
 31
0.0
  0
LINE
  5
C1D
330
1E
100
AcDbEntity
  8
0
100
AcDbLine
 10
545.2999999999999
 20
604.83
 30
0.0
 11
548.7
 21
604.83
 31
0.0
  0
LINE
  5
C25
330
1E
100
AcDbEntity
  8
0
100
AcDbLine
 10
548.7
 20
604.83
 30
0.0
 11
550.0
 21
604.83
 31
0.0
  0
LINE
  5
C26
330
1E
100
AcDbEntity
  8
0
100
AcDbLine
 10
550.0
 20
604.83
 30
0.0
 11
550.0
 21
613.83
 31
0.0
  0
LINE
  5
C27
330
1E
100
AcDbEntity
  8
0
100
AcDbLine
 10
506.0
 20
604.83
 30
0.0
 11
515.0
 21
604.83
 31
0.0
  0
LINE
  5
C28
330
1E
100
AcDbEntity
  8
0
100
AcDbLine
 10
497.5999999999999
 20
604.83
 30
0.0
 11
506.0
 21
604.83
 31
0.0
  0
LINE
  5
C29
330
1E
100
AcDbEntity
  8
0
100
AcDbLine
 10
490.3
 20
604.83
 30
0.0
 11
497.5999999999999
 21
604.83
 31
0.0
  0
LINE
  5
C2A
330
1E
100
AcDbEntity
  8
0
100
AcDbLine
 10
484.7
 20
604.83
 30
0.0
 11
490.3
 21
604.83
 31
0.0
  0
LINE
  5
C2B
330
1E
100
AcDbEntity
  8
0
100
AcDbLine
 10
484.7
 20
604.83
 30
0.0
 11
485.72
 21
604.83
 31
0.0
  0
LINE
  5
C2C
330
1E
100
AcDbEntity
  8
0
100
AcDbLine
 10
481.3
 20
604.83
 30
0.0
 11
484.7
 21
604.83
 31
0.0
  0
LINE
  5
C2D
330
1E
100
AcDbEntity
  8
0
100
AcDbLine
 10
480.0
 20
604.83
 30
0.0
 11
481.3
 21
604.83
 31
0.0
  0
LINE
  5
C2E
330
1E
100
AcDbEntity
  8
0
100
AcDbLine
 10
480.0
 20
604.83
 30
0.0
 11
480.0
 21
613.83
 31
0.0
  0
LINE
  5
C2F
330
1E
100
AcDbEntity
  8
0
100
AcDbLine
 10
435.0
 20
604.83
 30
0.0
 11
435.0
 21
611.4099999999999
 31
0.0
  0
LINE
  5
C30
330
1E
100
AcDbEntity
  8
0
100
AcDbLine
 10
433.9199999999999
 20
604.83
 30
0.0
 11
435.0
 21
604.83
 31
0.0
  0
LINE
  5
C31
330
1E
100
AcDbEntity
  8
0
100
AcDbLine
 10
431.04
 20
604.83
 30
0.0
 11
433.9199999999999
 21
604.83
 31
0.0
  0
LINE
  5
C32
330
1E
100
AcDbEntity
  8
0
100
AcDbLine
 10
426.24
 20
604.83
 30
0.0
 11
431.04
 21
604.83
 31
0.0
  0
LINE
  5
C33
330
1E
100
AcDbEntity
  8
0
100
AcDbLine
 10
419.88
 20
604.83
 30
0.0
 11
426.24
 21
604.83
 31
0.0
  0
LINE
  5
C34
330
1E
100
AcDbEntity
  8
0
100
AcDbLine
 10
412.56
 20
611.83
 30
0.0
 11
419.5199999999999
 21
611.83
 31
0.0
  0
LINE
  5
C35
330
1E
100
AcDbEntity
  8
0
100
AcDbLine
 10
435.0
 20
611.4099999999999
 30
0.0
 11
435.0
 21
604.83
 31
0.0
  0
LINE
  5
C36
330
1E
100
AcDbEntity
  8
0
100
AcDbLine
 10
433.9199999999999
 20
611.4099999999999
 30
0.0
 11
435.0
 21
611.4099999999999
 31
0.0
  0
LINE
  5
C37
330
1E
100
AcDbEntity
  8
0
100
AcDbLine
 10
431.04
 20
611.4099999999999
 30
0.0
 11
433.9199999999999
 21
611.4099999999999
 31
0.0
  0
LINE
  5
C38
330
1E
100
AcDbEntity
  8
0
100
AcDbLine
 10
426.24
 20
611.4099999999999
 30
0.0
 11
431.04
 21
611.4099999999999
 31
0.0
  0
LINE
  5
C3A
330
1E
100
AcDbEntity
  8
0
100
AcDbLine
 10
434.2799999999999
 20
611.83
 30
0.0
 11
435.0
 21
611.4099999999999
 31
0.0
  0
LINE
  5
C3B
330
1E
100
AcDbEntity
  8
0
100
AcDbLine
 10
433.1999999999999
 20
611.83
 30
0.0
 11
434.2799999999999
 21
611.83
 31
0.0
  0
LINE
  5
C3C
330
1E
100
AcDbEntity
  8
0
100
AcDbLine
 10
430.32
 20
611.83
 30
0.0
 11
433.1999999999999
 21
611.83
 31
0.0
  0
LINE
  5
C3D
330
1E
100
AcDbEntity
  8
0
100
AcDbLine
 10
425.64
 20
611.83
 30
0.0
 11
430.32
 21
611.83
 31
0.0
  0
LINE
  5
C3E
330
1E
100
AcDbEntity
  8
0
100
AcDbLine
 10
419.5199999999999
 20
611.83
 30
0.0
 11
425.64
 21
611.83
 31
0.0
  0
LINE
  5
C3F
330
1E
100
AcDbEntity
  8
0
100
AcDbLine
 10
419.88
 20
611.4099999999999
 30
0.0
 11
426.24
 21
611.4099999999999
 31
0.0
  0
LINE
  5
C40
330
1E
100
AcDbEntity
  8
0
100
AcDbLine
 10
412.68
 20
611.4099999999999
 30
0.0
 11
419.88
 21
611.4099999999999
 31
0.0
  0
LINE
  5
C41
330
1E
100
AcDbEntity
  8
0
100
AcDbLine
 10
412.68
 20
604.83
 30
0.0
 11
419.88
 21
604.83
 31
0.0
  0
LINE
  5
C42
330
1E
100
AcDbEntity
  8
0
100
AcDbLine
 10
405.0
 20
604.83
 30
0.0
 11
412.68
 21
604.83
 31
0.0
  0
LINE
  5
C44
330
1E
100
AcDbEntity
  8
0
100
AcDbLine
 10
480.0
 20
613.83
 30
0.0
 11
481.3
 21
613.83
 31
0.0
  0
LINE
  5
C45
330
1E
100
AcDbEntity
  8
0
100
AcDbLine
 10
480.0
 20
613.83
 30
0.0
 11
481.0
 21
614.83
 31
0.0
  0
LINE
  5
C46
330
1E
100
AcDbEntity
  8
0
100
AcDbLine
 10
480.0
 20
613.83
 30
0.0
 11
480.0
 21
604.83
 31
0.0
  0
LINE
  5
C47
330
1E
100
AcDbEntity
  8
0
100
AcDbLine
 10
484.7
 20
613.83
 30
0.0
 11
490.3
 21
613.83
 31
0.0
  0
LINE
  5
C48
330
1E
100
AcDbEntity
  8
0
100
AcDbLine
 10
481.3
 20
613.83
 30
0.0
 11
484.7
 21
613.83
 31
0.0
  0
LINE
  5
C49
330
1E
100
AcDbEntity
  8
0
100
AcDbLine
 10
497.5999999999999
 20
613.83
 30
0.0
 11
506.0
 21
613.83
 31
0.0
  0
LINE
  5
C4A
330
1E
100
AcDbEntity
  8
0
100
AcDbLine
 10
490.3
 20
613.83
 30
0.0
 11
497.5999999999999
 21
613.83
 31
0.0
  0
LINE
  5
C4B
330
1E
100
AcDbEntity
  8
0
100
AcDbLine
 10
515.0
 20
613.83
 30
0.0
 11
524.0
 21
613.83
 31
0.0
  0
LINE
  5
C4C
330
1E
100
AcDbEntity
  8
0
100
AcDbLine
 10
524.0
 20
613.83
 30
0.0
 11
532.3999999999999
 21
613.83
 31
0.0
  0
LINE
  5
C4D
330
1E
100
AcDbEntity
  8
0
100
AcDbLine
 10
515.0
 20
614.83
 30
0.0
 11
523.7
 21
614.83
 31
0.0
  0
LINE
  5
C4E
330
1E
100
AcDbEntity
  8
0
100
AcDbLine
 10
523.7
 20
614.83
 30
0.0
 11
531.8999999999999
 21
614.83
 31
0.0
  0
LINE
  5
C4F
330
1E
100
AcDbEntity
  8
0
100
AcDbLine
 10
532.3999999999999
 20
613.83
 30
0.0
 11
539.7
 21
613.83
 31
0.0
  0
LINE
  5
C50
330
1E
100
AcDbEntity
  8
0
100
AcDbLine
 10
539.7
 20
613.83
 30
0.0
 11
545.2999999999999
 21
613.83
 31
0.0
  0
LINE
  5
C51
330
1E
100
AcDbEntity
  8
0
100
AcDbLine
 10
531.8999999999999
 20
614.83
 30
0.0
 11
539.0
 21
614.83
 31
0.0
  0
LINE
  5
C52
330
1E
100
AcDbEntity
  8
0
100
AcDbLine
 10
539.0
 20
614.83
 30
0.0
 11
544.3999999999999
 21
614.83
 31
0.0
  0
LINE
  5
C53
330
1E
100
AcDbEntity
  8
0
100
AcDbLine
 10
550.0
 20
613.83
 30
0.0
 11
550.0
 21
604.83
 31
0.0
  0
LINE
  5
C54
330
1E
100
AcDbEntity
  8
0
100
AcDbLine
 10
545.2999999999999
 20
613.83
 30
0.0
 11
548.7
 21
613.83
 31
0.0
  0
LINE
  5
C55
330
1E
100
AcDbEntity
  8
0
100
AcDbLine
 10
549.0
 20
614.83
 30
0.0
 11
550.0
 21
613.83
 31
0.0
  0
LINE
  5
C56
330
1E
100
AcDbEntity
  8
0
100
AcDbLine
 10
548.7
 20
613.83
 30
0.0
 11
550.0
 21
613.83
 31
0.0
  0
LINE
  5
C57
330
1E
100
AcDbEntity
  8
0
100
AcDbLine
 10
544.3999999999999
 20
614.83
 30
0.0
 11
547.7999999999999
 21
614.83
 31
0.0
  0
LINE
  5
C58
330
1E
100
AcDbEntity
  8
0
100
AcDbLine
 10
547.7999999999999
 20
614.83
 30
0.0
 11
549.0
 21
614.83
 31
0.0
  0
LINE
  5
C59
330
1E
100
AcDbEntity
  8
0
100
AcDbLine
 10
506.0
 20
613.83
 30
0.0
 11
515.0
 21
613.83
 31
0.0
  0
LINE
  5
C5A
330
1E
100
AcDbEntity
  8
0
100
AcDbLine
 10
506.3
 20
614.83
 30
0.0
 11
515.0
 21
614.83
 31
0.0
  0
LINE
  5
C5B
330
1E
100
AcDbEntity
  8
0
100
AcDbLine
 10
498.1
 20
614.83
 30
0.0
 11
506.3
 21
614.83
 31
0.0
  0
LINE
  5
C5C
330
1E
100
AcDbEntity
  8
0
100
AcDbLine
 10
491.0
 20
614.83
 30
0.0
 11
498.1
 21
614.83
 31
0.0
  0
LINE
  5
C5D
330
1E
100
AcDbEntity
  8
0
100
AcDbLine
 10
485.6
 20
614.83
 30
0.0
 11
491.0
 21
614.83
 31
0.0
  0
LINE
  5
C5E
330
1E
100
AcDbEntity
  8
0
100
AcDbLine
 10
482.2
 20
614.83
 30
0.0
 11
485.6
 21
614.83
 31
0.0
  0
LINE
  5
C5F
330
1E
100
AcDbEntity
  8
0
100
AcDbLine
 10
481.0
 20
614.83
 30
0.0
 11
482.2
 21
614.83
 31
0.0
  0
LINE
  5
C61
330
1E
100
AcDbEntity
  8
0
100
AcDbLine
 10
503.3999999999999
 20
624.53
 30
0.0
 11
504.6
 21
623.13
 31
0.0
  0
LINE
  5
C62
330
1E
100
AcDbEntity
  8
0
100
AcDbLine
 10
504.6
 20
623.13
 30
0.0
 11
506.5
 21
621.9299999999999
 31
0.0
  0
LINE
  5
C63
330
1E
100
AcDbEntity
  8
0
100
AcDbLine
 10
506.5
 20
621.9299999999999
 30
0.0
 11
509.0
 21
621.03
 31
0.0
  0
LINE
  5
C64
330
1E
100
AcDbEntity
  8
0
100
AcDbLine
 10
509.0
 20
621.03
 30
0.0
 11
511.8999999999999
 21
620.4299999999999
 31
0.0
  0
LINE
  5
C65
330
1E
100
AcDbEntity
  8
0
100
AcDbLine
 10
526.6
 20
624.53
 30
0.0
 11
527.0
 21
626.0299999999999
 31
0.0
  0
LINE
  5
C66
330
1E
100
AcDbEntity
  8
0
100
AcDbLine
 10
525.3999999999999
 20
623.13
 30
0.0
 11
526.6
 21
624.53
 31
0.0
  0
LINE
  5
C67
330
1E
100
AcDbEntity
  8
0
100
AcDbLine
 10
523.5
 20
621.9299999999999
 30
0.0
 11
525.3999999999999
 21
623.13
 31
0.0
  0
LINE
  5
C68
330
1E
100
AcDbEntity
  8
0
100
AcDbLine
 10
521.0
 20
621.03
 30
0.0
 11
523.5
 21
621.9299999999999
 31
0.0
  0
LINE
  5
C69
330
1E
100
AcDbEntity
  8
0
100
AcDbLine
 10
518.1
 20
620.4299999999999
 30
0.0
 11
521.0
 21
621.03
 31
0.0
  0
LINE
  5
C6A
330
1E
100
AcDbEntity
  8
0
100
AcDbLine
 10
515.0
 20
620.23
 30
0.0
 11
518.1
 21
620.4299999999999
 31
0.0
  0
LINE
  5
C6B
330
1E
100
AcDbEntity
  8
0
100
AcDbLine
 10
534.0
 20
625.83
 30
0.0
 11
540.0
 21
619.83
 31
0.0
  0
LINE
  5
C6C
330
1E
100
AcDbEntity
  8
0
100
AcDbLine
 10
540.0
 20
619.83
 30
0.0
 11
542.0
 21
614.83
 31
0.0
  0
LINE
  5
C6D
330
1E
100
AcDbEntity
  8
0
100
AcDbLine
 10
511.8999999999999
 20
620.4299999999999
 30
0.0
 11
515.0
 21
620.23
 31
0.0
  0
LINE
  5
C6E
330
1E
100
AcDbEntity
  8
0
100
AcDbLine
 10
503.0
 20
643.2854999999999
 30
0.0
 11
503.0
 21
715.321
 31
0.0
  0
LINE
  5
C6F
330
1E
100
AcDbEntity
  8
0
100
AcDbLine
 10
503.0
 20
643.2854999999999
 30
0.0
 11
503.384
 21
641.2897
 31
0.0
  0
LINE
  5
C70
330
1E
100
AcDbEntity
  8
0
100
AcDbLine
 10
503.0
 20
641.5162999999999
 30
0.0
 11
503.0
 21
634.707
 31
0.0
  0
LINE
  5
C71
330
1E
100
AcDbEntity
  8
0
100
AcDbLine
 10
503.0
 20
641.5162999999999
 30
0.0
 11
503.1801499836999
 21
642.349189225341
 31
0.0
  0
LINE
  5
C72
330
1E
100
AcDbEntity
  8
0
100
AcDbLine
 10
503.0
 20
634.707
 30
0.0
 11
503.0
 21
626.0299999999999
 31
0.0
  0
LINE
  5
C73
330
1E
100
AcDbEntity
  8
0
100
AcDbLine
 10
503.0
 20
634.707
 30
0.0
 11
503.0
 21
641.5162999999999
 31
0.0
  0
LINE
  5
C74
330
1E
100
AcDbEntity
  8
0
100
AcDbLine
 10
527.0
 20
626.0299999999999
 30
0.0
 11
527.0
 21
634.707
 31
0.0
  0
LINE
  5
C76
330
1E
100
AcDbEntity
  8
0
100
AcDbLine
 10
506.5519999999999
 20
637.8292
 30
0.0
 11
509.048
 21
636.5873999999999
 31
0.0
  0
LINE
  5
C77
330
1E
100
AcDbEntity
  8
0
100
AcDbLine
 10
506.5519999999999
 20
637.8292
 30
0.0
 11
507.2239999999999
 21
637.4854
 31
0.0
  0
LINE
  5
C78
330
1E
100
AcDbEntity
  8
0
100
AcDbLine
 10
509.048
 20
636.5873999999999
 30
0.0
 11
511.928
 21
635.8334
 31
0.0
  0
LINE
  5
C79
330
1E
100
AcDbEntity
  8
0
100
AcDbLine
 10
507.2239999999999
 20
637.4854
 30
0.0
 11
507.323889660313
 21
637.433508535404
 31
0.0
  0
LINE
  5
C7A
330
1E
100
AcDbEntity
  8
0
100
AcDbLine
 10
511.928
 20
635.8334
 30
0.0
 11
515.0
 21
635.4788
 31
0.0
  0
LINE
  5
C7B
330
1E
100
AcDbEntity
  8
0
100
AcDbLine
 10
506.686
 20
636.8102999999999
 30
0.0
 11
509.1289999999999
 21
635.5982
 31
0.0
  0
LINE
  5
C7C
330
1E
100
AcDbEntity
  8
0
100
AcDbLine
 10
509.1289999999999
 20
635.5982
 30
0.0
 11
511.957
 21
634.8544
 31
0.0
  0
LINE
  5
C7D
330
1E
100
AcDbEntity
  8
0
100
AcDbLine
 10
515.0
 20
635.4788
 30
0.0
 11
518.0719999999999
 21
635.8334
 31
0.0
  0
LINE
  5
C7E
330
1E
100
AcDbEntity
  8
0
100
AcDbLine
 10
518.0719999999999
 20
635.8334
 30
0.0
 11
520.952
 21
636.5873999999999
 31
0.0
  0
LINE
  5
C7F
330
1E
100
AcDbEntity
  8
0
100
AcDbLine
 10
522.6761103396869
 20
637.433508535404
 30
0.0
 11
522.7759999999999
 21
637.4854
 31
0.0
  0
LINE
  5
C80
330
1E
100
AcDbEntity
  8
0
100
AcDbLine
 10
522.7759999999999
 20
637.4854
 30
0.0
 11
523.4479999999999
 21
637.8292
 31
0.0
  0
LINE
  5
C81
330
1E
100
AcDbEntity
  8
0
100
AcDbLine
 10
520.952
 20
636.5873999999999
 30
0.0
 11
523.4479999999999
 21
637.8292
 31
0.0
  0
LINE
  5
C82
330
1E
100
AcDbEntity
  8
0
100
AcDbLine
 10
520.8709999999999
 20
635.5982
 30
0.0
 11
523.3139999999999
 21
636.8102999999999
 31
0.0
  0
LINE
  5
C83
330
1E
100
AcDbEntity
  8
0
100
AcDbLine
 10
518.043
 20
634.8544
 30
0.0
 11
520.8709999999999
 21
635.5982
 31
0.0
  0
LINE
  5
C84
330
1E
100
AcDbEntity
  8
0
100
AcDbLine
 10
515.0
 20
634.5788999999999
 30
0.0
 11
518.043
 21
634.8544
 31
0.0
  0
LINE
  5
C85
330
1E
100
AcDbEntity
  8
0
100
AcDbLine
 10
523.4479999999999
 20
637.8292
 30
0.0
 11
525.3680000000001
 21
639.3822
 31
0.0
  0
LINE
  5
C86
330
1E
100
AcDbEntity
  8
0
100
AcDbLine
 10
523.3139999999999
 20
636.8102999999999
 30
0.0
 11
525.2
 21
638.3804999999999
 31
0.0
  0
LINE
  5
C87
330
1E
100
AcDbEntity
  8
0
100
AcDbLine
 10
525.2
 20
638.3804999999999
 30
0.0
 11
526.3569999999999
 21
640.1987
 31
0.0
  0
LINE
  5
C88
330
1E
100
AcDbEntity
  8
0
100
AcDbLine
 10
511.957
 20
634.8544
 30
0.0
 11
515.0
 21
634.5788999999999
 31
0.0
  0
LINE
  5
C89
330
1E
100
AcDbEntity
  8
0
100
AcDbLine
 10
504.6319999999999
 20
639.3822
 30
0.0
 11
506.5519999999999
 21
637.8292
 31
0.0
  0
LINE
  5
C8A
330
1E
100
AcDbEntity
  8
0
100
AcDbLine
 10
525.3680000000001
 20
639.3822
 30
0.0
 11
526.616
 21
641.2897
 31
0.0
  0
LINE
  5
C8B
330
1E
100
AcDbEntity
  8
0
100
AcDbLine
 10
526.3569999999999
 20
640.1987
 30
0.0
 11
526.5863590273589
 21
641.244395388371
 31
0.0
  0
LINE
  5
C8C
330
1E
100
AcDbEntity
  8
0
100
AcDbLine
 10
504.8
 20
638.3804999999999
 30
0.0
 11
506.686
 21
636.8102999999999
 31
0.0
  0
LINE
  5
C8D
330
1E
100
AcDbEntity
  8
0
100
AcDbLine
 10
503.643
 20
640.1987
 30
0.0
 11
504.8
 21
638.3804999999999
 31
0.0
  0
LINE
  5
C8E
330
1E
100
AcDbEntity
  8
0
100
AcDbLine
 10
503.384
 20
641.2897
 30
0.0
 11
504.6319999999999
 21
639.3822
 31
0.0
  0
LINE
  5
C8F
330
1E
100
AcDbEntity
  8
0
100
AcDbLine
 10
526.616
 20
641.2897
 30
0.0
 11
527.0
 21
643.2854999999999
 31
0.0
  0
LINE
  5
C90
330
1E
100
AcDbEntity
  8
0
100
AcDbLine
 10
527.0
 20
641.5162999999999
 30
0.0
 11
527.0
 21
634.707
 31
0.0
  0
LINE
  5
C91
330
1E
100
AcDbEntity
  8
0
100
AcDbLine
 10
527.0
 20
643.2854999999999
 30
0.0
 11
527.0
 21
715.321
 31
0.0
  0
LINE
  5
C92
330
1E
100
AcDbEntity
  8
0
100
AcDbLine
 10
526.8198500162999
 20
642.349189225341
 30
0.0
 11
527.0
 21
641.5162999999999
 31
0.0
  0
LINE
  5
C93
330
1E
100
AcDbEntity
  8
0
100
AcDbLine
 10
526.7567652279129
 20
642.02131260903
 30
0.0
 11
526.7859999999999
 21
642.1545999999999
 31
0.0
  0
LINE
  5
C94
330
1E
100
AcDbEntity
  8
0
100
AcDbLine
 10
503.214
 20
642.1545999999999
 30
0.0
 11
503.2432347720879
 21
642.0213126090289
 31
0.0
  0
LINE
  5
C95
330
1E
100
AcDbEntity
  8
0
100
AcDbLine
 10
503.413640972641
 20
641.244395388371
 30
0.0
 11
503.643
 21
640.1987
 31
0.0
  0
LINE
  5
C96
330
1E
100
AcDbEntity
  8
0
100
AcDbLine
 10
527.0
 20
634.707
 30
0.0
 11
527.0
 21
626.0299999999999
 31
0.0
  0
LINE
  5
C97
330
1E
100
AcDbEntity
  8
0
100
AcDbLine
 10
527.0
 20
634.707
 30
0.0
 11
527.0
 21
641.5162999999999
 31
0.0
  0
LINE
  5
C98
330
1E
100
AcDbEntity
  8
0
100
AcDbLine
 10
527.0
 20
628.390975609756
 30
0.0
 11
534.0
 21
625.83
 31
0.0
  0
LINE
  5
C99
330
1E
100
AcDbEntity
  8
0
100
AcDbLine
 10
503.0
 20
626.0299999999999
 30
0.0
 11
503.3999999999999
 21
624.53
 31
0.0
  0
LINE
  5
C9A
330
1E
100
AcDbEntity
  8
0
100
AcDbLine
 10
503.0
 20
626.0299999999999
 30
0.0
 11
503.0
 21
634.707
 31
0.0
  0
LINE
  5
C9B
330
1E
100
AcDbEntity
  8
0
100
AcDbLine
 10
496.0
 20
625.83
 30
0.0
 11
503.0
 21
628.390975609756
 31
0.0
  0
LINE
  5
C9C
330
1E
100
AcDbEntity
  8
0
100
AcDbLine
 10
490.0
 20
619.83
 30
0.0
 11
496.0
 21
625.83
 31
0.0
  0
LINE
  5
C9D
330
1E
100
AcDbEntity
  8
0
100
AcDbLine
 10
488.0
 20
614.83
 30
0.0
 11
490.0
 21
619.83
 31
0.0
  0
LINE
  5
CB4
330
1E
100
AcDbEntity
  8
0
100
AcDbLine
 10
503.384
 20
712.232
 30
0.0
 11
504.6319999999999
 21
709.3189999999999
 31
0.0
  0
LINE
  5
CB5
330
1E
100
AcDbEntity
  8
0
100
AcDbLine
 10
503.0
 20
715.321
 30
0.0
 11
503.384
 21
718.498
 31
0.0
  0
LINE
  5
CB6
330
1E
100
AcDbEntity
  8
0
100
AcDbLine
 10
503.0
 20
715.321
 30
0.0
 11
503.0
 21
643.2854999999999
 31
0.0
  0
LINE
  5
CB7
330
1E
100
AcDbEntity
  8
0
100
AcDbLine
 10
503.0
 20
715.321
 30
0.0
 11
503.384
 21
712.232
 31
0.0
  0
LINE
  5
CB8
330
1E
100
AcDbEntity
  8
0
100
AcDbLine
 10
504.6319999999999
 20
709.3189999999999
 30
0.0
 11
506.5519999999999
 21
706.7599999999999
 31
0.0
  0
LINE
  5
CB9
330
1E
100
AcDbEntity
  8
0
100
AcDbLine
 10
503.384
 20
718.498
 30
0.0
 11
504.6319999999999
 21
721.41
 31
0.0
  0
LINE
  5
CBA
330
1E
100
AcDbEntity
  8
0
100
AcDbLine
 10
504.6319999999999
 20
721.41
 30
0.0
 11
505.219743916615
 21
722.1936585554871
 31
0.0
  0
LINE
  5
CBB
330
1E
100
AcDbEntity
  8
0
100
AcDbLine
 10
506.5519999999999
 20
706.7599999999999
 30
0.0
 11
509.048
 21
704.8178
 31
0.0
  0
LINE
  5
CBC
330
1E
100
AcDbEntity
  8
0
100
AcDbLine
 10
509.048
 20
704.8178
 30
0.0
 11
511.928
 21
703.5818
 31
0.0
  0
LINE
  5
CBD
330
1E
100
AcDbEntity
  8
0
100
AcDbLine
 10
511.928
 20
703.5818
 30
0.0
 11
515.0
 21
703.1407999999999
 31
0.0
  0
LINE
  5
CBE
330
1E
100
AcDbEntity
  8
0
100
AcDbLine
 10
512.7919999999999
 20
706.936
 30
0.0
 11
515.0
 21
706.583
 31
0.0
  0
LINE
  5
CBF
330
1E
100
AcDbEntity
  8
0
100
AcDbLine
 10
510.6799999999999
 20
707.73
 30
0.0
 11
512.7919999999999
 21
706.936
 31
0.0
  0
LINE
  5
CC0
330
1E
100
AcDbEntity
  8
0
100
AcDbLine
 10
508.856
 20
709.1419999999999
 30
0.0
 11
510.6799999999999
 21
707.73
 31
0.0
  0
LINE
  5
CC1
330
1E
100
AcDbEntity
  8
0
100
AcDbLine
 10
507.5119999999999
 20
710.996
 30
0.0
 11
508.856
 21
709.1419999999999
 31
0.0
  0
LINE
  5
CC2
330
1E
100
AcDbEntity
  8
0
100
AcDbLine
 10
506.648
 20
713.1139999999999
 30
0.0
 11
507.5119999999999
 21
710.996
 31
0.0
  0
LINE
  5
CC3
330
1E
100
AcDbEntity
  8
0
100
AcDbLine
 10
506.36
 20
715.321
 30
0.0
 11
506.648
 21
713.1139999999999
 31
0.0
  0
LINE
  5
CC4
330
1E
100
AcDbEntity
  8
0
100
AcDbLine
 10
506.36
 20
715.321
 30
0.0
 11
506.36
 21
722.0950458821589
 31
0.0
  0
LINE
  5
CC5
330
1E
100
AcDbEntity
  8
0
100
AcDbLine
 10
515.0
 20
703.1407999999999
 30
0.0
 11
518.0719999999999
 21
703.5818
 31
0.0
  0
LINE
  5
CC6
330
1E
100
AcDbEntity
  8
0
100
AcDbLine
 10
515.0
 20
706.583
 30
0.0
 11
517.2080000000001
 21
706.936
 31
0.0
  0
LINE
  5
CC7
330
1E
100
AcDbEntity
  8
0
100
AcDbLine
 10
467.4819999999999
 20
737.2589999999998
 30
0.0
 11
469.599
 21
734.5449999999999
 31
0.0
  0
LINE
  5
CC8
330
1E
100
AcDbEntity
  8
0
100
AcDbLine
 10
478.87
 20
729.623
 30
0.0
 11
478.87
 21
730.519150201904
 31
0.0
  0
LINE
  5
CC9
330
1E
100
AcDbEntity
  8
0
100
AcDbLine
 10
478.87
 20
729.623
 30
0.0
 11
478.87
 21
730.24
 31
0.0
  0
LINE
  5
CCA
330
1E
100
AcDbEntity
  8
0
100
AcDbLine
 10
478.87
 20
729.623
 30
0.0
 11
480.33
 21
729.623
 31
0.0
  0
LINE
  5
CCB
330
1E
100
AcDbEntity
  8
0
100
AcDbLine
 10
480.33
 20
729.623
 30
0.0
 11
480.33
 21
730.24
 31
0.0
  0
LINE
  5
CCC
330
1E
100
AcDbEntity
  8
0
100
AcDbLine
 10
479.357664609054
 20
729.623
 30
0.0
 11
481.788
 21
728.467
 31
0.0
  0
LINE
  5
CCD
330
1E
100
AcDbEntity
  8
0
100
AcDbLine
 10
474.084
 20
733.054
 30
0.0
 11
474.084
 21
733.671
 31
0.0
  0
LINE
  5
CCE
330
1E
100
AcDbEntity
  8
0
100
AcDbLine
 10
474.084
 20
733.054
 30
0.0
 11
475.544
 21
733.054
 31
0.0
  0
LINE
  5
CCF
330
1E
100
AcDbEntity
  8
0
100
AcDbLine
 10
474.084
 20
733.671
 30
0.0
 11
474.084
 21
733.054
 31
0.0
  0
LINE
  5
CD0
330
1E
100
AcDbEntity
  8
0
100
AcDbLine
 10
474.084
 20
733.671
 30
0.0
 11
474.084
 21
734.8599758042529
 31
0.0
  0
LINE
  5
CD1
330
1E
100
AcDbEntity
  8
0
100
AcDbLine
 10
474.084
 20
733.671
 30
0.0
 11
475.544
 21
733.671
 31
0.0
  0
LINE
  5
CD2
330
1E
100
AcDbEntity
  8
0
100
AcDbLine
 10
480.33
 20
730.24
 30
0.0
 11
480.33
 21
731.0409391217571
 31
0.0
  0
LINE
  5
CD3
330
1E
100
AcDbEntity
  8
0
100
AcDbLine
 10
480.33
 20
730.24
 30
0.0
 11
480.33
 21
729.623
 31
0.0
  0
LINE
  5
CD4
330
1E
100
AcDbEntity
  8
0
100
AcDbLine
 10
478.87
 20
730.24
 30
0.0
 11
478.87
 21
729.623
 31
0.0
  0
LINE
  5
CD5
330
1E
100
AcDbEntity
  8
0
100
AcDbLine
 10
478.87
 20
730.24
 30
0.0
 11
478.87
 21
730.6911060606059
 31
0.0
  0
LINE
  5
CD6
330
1E
100
AcDbEntity
  8
0
100
AcDbLine
 10
478.87
 20
730.24
 30
0.0
 11
480.33
 21
730.24
 31
0.0
  0
LINE
  5
CD7
330
1E
100
AcDbEntity
  8
0
100
AcDbLine
 10
475.544
 20
733.671
 30
0.0
 11
475.544
 21
734.8280333287899
 31
0.0
  0
LINE
  5
CD8
330
1E
100
AcDbEntity
  8
0
100
AcDbLine
 10
475.544
 20
733.671
 30
0.0
 11
475.544
 21
733.054
 31
0.0
  0
LINE
  5
CD9
330
1E
100
AcDbEntity
  8
0
100
AcDbLine
 10
478.87
 20
730.519150201904
 30
0.0
 11
478.87
 21
729.623
 31
0.0
  0
LINE
  5
CDA
330
1E
100
AcDbEntity
  8
0
100
AcDbLine
 10
480.33
 20
731.0409391217571
 30
0.0
 11
480.33
 21
730.24
 31
0.0
  0
LINE
  5
CDB
330
1E
100
AcDbEntity
  8
0
100
AcDbLine
 10
478.87
 20
730.6911060606059
 30
0.0
 11
478.87
 21
730.24
 31
0.0
  0
LINE
  5
CDC
330
1E
100
AcDbEntity
  8
0
100
AcDbLine
 10
475.544
 20
733.054
 30
0.0
 11
475.544
 21
733.671
 31
0.0
  0
LINE
  5
CDD
330
1E
100
AcDbEntity
  8
0
100
AcDbLine
 10
477.7009999999999
 20
730.411
 30
0.0
 11
478.87
 21
729.854959872767
 31
0.0
  0
LINE
  5
CDE
330
1E
100
AcDbEntity
  8
0
100
AcDbLine
 10
474.1969999999999
 20
732.6010000000001
 30
0.0
 11
477.7009999999999
 21
730.411
 31
0.0
  0
LINE
  5
CDF
330
1E
100
AcDbEntity
  8
0
100
AcDbLine
 10
475.949
 20
729.855
 30
0.0
 11
480.183
 21
727.789
 31
0.0
  0
LINE
  5
CE0
330
1E
100
AcDbEntity
  8
0
100
AcDbLine
 10
472.299
 20
732.138
 30
0.0
 11
475.949
 21
729.855
 31
0.0
  0
LINE
  5
CE1
330
1E
100
AcDbEntity
  8
0
100
AcDbLine
 10
475.544
 20
734.8280333287899
 30
0.0
 11
475.544
 21
733.671
 31
0.0
  0
LINE
  5
CE2
330
1E
100
AcDbEntity
  8
0
100
AcDbLine
 10
474.084
 20
734.8599758042529
 30
0.0
 11
474.084
 21
733.671
 31
0.0
  0
LINE
  5
CE3
330
1E
100
AcDbEntity
  8
0
100
AcDbLine
 10
470.758
 20
737.716770981508
 30
0.0
 11
470.758
 21
737.1369999999999
 31
0.0
  0
LINE
  5
CE4
330
1E
100
AcDbEntity
  8
0
100
AcDbLine
 10
470.758
 20
737.7539999999998
 30
0.0
 11
470.758
 21
737.1369999999999
 31
0.0
  0
LINE
  5
CE5
330
1E
100
AcDbEntity
  8
0
100
AcDbLine
 10
470.758
 20
737.7539999999998
 30
0.0
 11
472.218
 21
737.7539999999998
 31
0.0
  0
LINE
  5
CE6
330
1E
100
AcDbEntity
  8
0
100
AcDbLine
 10
481.1399999999999
 20
736.7519999999999
 30
0.0
 11
481.1399999999999
 21
737.3689999999998
 31
0.0
  0
LINE
  5
CE7
330
1E
100
AcDbEntity
  8
0
100
AcDbLine
 10
479.68
 20
736.7519999999999
 30
0.0
 11
479.68
 21
737.9151563973949
 31
0.0
  0
LINE
  5
CE8
330
1E
100
AcDbEntity
  8
0
100
AcDbLine
 10
479.68
 20
736.7519999999999
 30
0.0
 11
479.68
 21
737.3689999999998
 31
0.0
  0
LINE
  5
CE9
330
1E
100
AcDbEntity
  8
0
100
AcDbLine
 10
479.68
 20
736.7519999999999
 30
0.0
 11
481.1399999999999
 21
736.7519999999999
 31
0.0
  0
LINE
  5
CEA
330
1E
100
AcDbEntity
  8
0
100
AcDbLine
 10
481.1399999999999
 20
737.3689999999998
 30
0.0
 11
481.1399999999999
 21
737.9476202740139
 31
0.0
  0
LINE
  5
CEB
330
1E
100
AcDbEntity
  8
0
100
AcDbLine
 10
481.1399999999999
 20
737.3689999999998
 30
0.0
 11
481.1399999999999
 21
736.7519999999999
 31
0.0
  0
LINE
  5
CEC
330
1E
100
AcDbEntity
  8
0
100
AcDbLine
 10
481.1399999999999
 20
737.9476202740139
 30
0.0
 11
481.1399999999999
 21
737.3689999999998
 31
0.0
  0
LINE
  5
CED
330
1E
100
AcDbEntity
  8
0
100
AcDbLine
 10
479.68
 20
737.9151563973949
 30
0.0
 11
479.68
 21
737.3689999999998
 31
0.0
  0
LINE
  5
CEE
330
1E
100
AcDbEntity
  8
0
100
AcDbLine
 10
479.68
 20
737.9151563973949
 30
0.0
 11
479.68
 21
736.7519999999999
 31
0.0
  0
LINE
  5
CEF
330
1E
100
AcDbEntity
  8
0
100
AcDbLine
 10
479.68
 20
737.3689999999998
 30
0.0
 11
479.68
 21
736.7519999999999
 31
0.0
  0
LINE
  5
CF0
330
1E
100
AcDbEntity
  8
0
100
AcDbLine
 10
479.68
 20
737.3689999999998
 30
0.0
 11
479.68
 21
737.9151563973949
 31
0.0
  0
LINE
  5
CF1
330
1E
100
AcDbEntity
  8
0
100
AcDbLine
 10
479.68
 20
737.3689999999998
 30
0.0
 11
481.1399999999999
 21
737.3689999999998
 31
0.0
  0
LINE
  5
CF2
330
1E
100
AcDbEntity
  8
0
100
AcDbLine
 10
472.218
 20
737.7539999999998
 30
0.0
 11
472.218
 21
737.1369999999999
 31
0.0
  0
LINE
  5
CF3
330
1E
100
AcDbEntity
  8
0
100
AcDbLine
 10
472.218
 20
737.1369999999999
 30
0.0
 11
472.218
 21
737.7539999999998
 31
0.0
  0
LINE
  5
CF4
330
1E
100
AcDbEntity
  8
0
100
AcDbLine
 10
470.758
 20
737.1369999999999
 30
0.0
 11
470.758
 21
737.716770981508
 31
0.0
  0
LINE
  5
CF5
330
1E
100
AcDbEntity
  8
0
100
AcDbLine
 10
470.758
 20
737.1369999999999
 30
0.0
 11
470.758
 21
737.7539999999998
 31
0.0
  0
LINE
  5
CF6
330
1E
100
AcDbEntity
  8
0
100
AcDbLine
 10
470.758
 20
737.1369999999999
 30
0.0
 11
472.218
 21
737.1369999999999
 31
0.0
  0
LINE
  5
CF7
330
1E
100
AcDbEntity
  8
0
100
AcDbLine
 10
471.569
 20
734.9149999999999
 30
0.0
 11
474.1969999999999
 21
732.6010000000001
 31
0.0
  0
LINE
  5
CF8
330
1E
100
AcDbEntity
  8
0
100
AcDbLine
 10
469.599
 20
737.691
 30
0.0
 11
471.569
 21
734.9149999999999
 31
0.0
  0
LINE
  5
CF9
330
1E
100
AcDbEntity
  8
0
100
AcDbLine
 10
469.599
 20
734.5449999999999
 30
0.0
 11
472.299
 21
732.138
 31
0.0
  0
LINE
  5
CFA
330
1E
100
AcDbEntity
  8
0
100
AcDbLine
 10
468.869
 20
735.3279999999999
 30
0.0
 11
469.22836941343
 21
735.020149462424
 31
0.0
  0
LINE
  5
CFB
330
1E
100
AcDbEntity
  8
0
100
AcDbLine
 10
468.869
 20
735.3279999999999
 30
0.0
 11
469.599
 21
734.5449999999999
 31
0.0
  0
LINE
  5
CFC
330
1E
100
AcDbEntity
  8
0
100
AcDbLine
 10
469.38
 20
742.2232683903599
 30
0.0
 11
469.38
 21
741.2889999999999
 31
0.0
  0
LINE
  5
CFD
330
1E
100
AcDbEntity
  8
0
100
AcDbLine
 10
469.38
 20
742.5967567624529
 30
0.0
 11
469.38
 21
741.906
 31
0.0
  0
LINE
  5
CFE
330
1E
100
AcDbEntity
  8
0
100
AcDbLine
 10
469.38
 20
741.906
 30
0.0
 11
469.38
 21
741.2889999999999
 31
0.0
  0
LINE
  5
CFF
330
1E
100
AcDbEntity
  8
0
100
AcDbLine
 10
469.38
 20
741.906
 30
0.0
 11
469.38
 21
742.5967567624529
 31
0.0
  0
LINE
  5
D00
330
1E
100
AcDbEntity
  8
0
100
AcDbLine
 10
469.38
 20
741.906
 30
0.0
 11
470.839
 21
741.906
 31
0.0
  0
LINE
  5
D01
330
1E
100
AcDbEntity
  8
0
100
AcDbLine
 10
470.839
 20
741.906
 30
0.0
 11
470.839
 21
742.690449307946
 31
0.0
  0
LINE
  5
D02
330
1E
100
AcDbEntity
  8
0
100
AcDbLine
 10
470.839
 20
741.906
 30
0.0
 11
470.839
 21
741.2889999999999
 31
0.0
  0
LINE
  5
D03
330
1E
100
AcDbEntity
  8
0
100
AcDbLine
 10
479.5989999999999
 20
740.836
 30
0.0
 11
479.5989999999999
 21
741.453
 31
0.0
  0
LINE
  5
D04
330
1E
100
AcDbEntity
  8
0
100
AcDbLine
 10
478.139
 20
741.835390106721
 30
0.0
 11
478.139
 21
741.453
 31
0.0
  0
LINE
  5
D05
330
1E
100
AcDbEntity
  8
0
100
AcDbLine
 10
478.139
 20
741.835390106721
 30
0.0
 11
478.139
 21
740.836
 31
0.0
  0
LINE
  5
D06
330
1E
100
AcDbEntity
  8
0
100
AcDbLine
 10
479.5989999999999
 20
741.453
 30
0.0
 11
479.5989999999999
 21
741.7400079319299
 31
0.0
  0
LINE
  5
D07
330
1E
100
AcDbEntity
  8
0
100
AcDbLine
 10
479.5989999999999
 20
741.453
 30
0.0
 11
479.5989999999999
 21
740.836
 31
0.0
  0
LINE
  5
D08
330
1E
100
AcDbEntity
  8
0
100
AcDbLine
 10
479.5989999999999
 20
741.7400079319299
 30
0.0
 11
479.5989999999999
 21
741.453
 31
0.0
  0
LINE
  5
D09
330
1E
100
AcDbEntity
  8
0
100
AcDbLine
 10
478.139
 20
741.453
 30
0.0
 11
478.139
 21
740.836
 31
0.0
  0
LINE
  5
D0A
330
1E
100
AcDbEntity
  8
0
100
AcDbLine
 10
478.139
 20
741.453
 30
0.0
 11
478.139
 21
741.835390106721
 31
0.0
  0
LINE
  5
D0B
330
1E
100
AcDbEntity
  8
0
100
AcDbLine
 10
478.139
 20
741.453
 30
0.0
 11
479.5989999999999
 21
741.453
 31
0.0
  0
LINE
  5
D0C
330
1E
100
AcDbEntity
  8
0
100
AcDbLine
 10
478.139
 20
740.836
 30
0.0
 11
478.139
 21
741.835390106721
 31
0.0
  0
LINE
  5
D0D
330
1E
100
AcDbEntity
  8
0
100
AcDbLine
 10
478.139
 20
740.836
 30
0.0
 11
478.139
 21
741.453
 31
0.0
  0
LINE
  5
D0E
330
1E
100
AcDbEntity
  8
0
100
AcDbLine
 10
478.139
 20
740.836
 30
0.0
 11
479.5989999999999
 21
740.836
 31
0.0
  0
LINE
  5
D0F
330
1E
100
AcDbEntity
  8
0
100
AcDbLine
 10
470.839
 20
741.2889999999999
 30
0.0
 11
470.839
 21
741.906
 31
0.0
  0
LINE
  5
D10
330
1E
100
AcDbEntity
  8
0
100
AcDbLine
 10
470.839
 20
742.690449307946
 30
0.0
 11
470.839
 21
741.906
 31
0.0
  0
LINE
  5
D11
330
1E
100
AcDbEntity
  8
0
100
AcDbLine
 10
469.38
 20
741.2889999999999
 30
0.0
 11
469.38
 21
742.2232683903599
 31
0.0
  0
LINE
  5
D12
330
1E
100
AcDbEntity
  8
0
100
AcDbLine
 10
469.38
 20
741.2889999999999
 30
0.0
 11
469.38
 21
741.906
 31
0.0
  0
LINE
  5
D13
330
1E
100
AcDbEntity
  8
0
100
AcDbLine
 10
469.38
 20
741.2889999999999
 30
0.0
 11
470.839
 21
741.2889999999999
 31
0.0
  0
LINE
  5
D14
330
1E
100
AcDbEntity
  8
0
100
AcDbLine
 10
468.358
 20
739.881
 30
0.0
 11
469.599
 21
737.691
 31
0.0
  0
LINE
  5
D15
330
1E
100
AcDbEntity
  8
0
100
AcDbLine
 10
467.92
 20
742.503
 30
0.0
 11
468.358
 21
739.881
 31
0.0
  0
LINE
  5
D16
330
1E
100
AcDbEntity
  8
0
100
AcDbLine
 10
467.92
 20
742.503
 30
0.0
 11
468.358
 21
745.1249999999999
 31
0.0
  0
LINE
  5
D17
330
1E
100
AcDbEntity
  8
0
100
AcDbLine
 10
466.241
 20
739.8189999999999
 30
0.0
 11
467.4819999999999
 21
737.2589999999998
 31
0.0
  0
LINE
  5
D18
330
1E
100
AcDbEntity
  8
0
100
AcDbLine
 10
465.73
 20
742.503
 30
0.0
 11
466.241
 21
739.8189999999999
 31
0.0
  0
LINE
  5
D19
330
1E
100
AcDbEntity
  8
0
100
AcDbLine
 10
465.73
 20
742.503
 30
0.0
 11
466.241
 21
745.187
 31
0.0
  0
LINE
  5
D1A
330
1E
100
AcDbEntity
  8
0
100
AcDbLine
 10
466.8249999999999
 20
737.95
 30
0.0
 11
468.869
 21
735.3279999999999
 31
0.0
  0
LINE
  5
D1B
330
1E
100
AcDbEntity
  8
0
100
AcDbLine
 10
465.5109999999999
 20
740.6950000000001
 30
0.0
 11
466.8249999999999
 21
737.95
 31
0.0
  0
LINE
  5
D1C
330
1E
100
AcDbEntity
  8
0
100
AcDbLine
 10
465.0
 20
743.4099999999999
 30
0.0
 11
465.5109999999999
 21
740.6950000000001
 31
0.0
  0
LINE
  5
D1D
330
1E
100
AcDbEntity
  8
0
100
AcDbLine
 10
465.0
 20
743.4099999999999
 30
0.0
 11
465.0
 21
762.442
 31
0.0
  0
LINE
  5
D1E
330
1E
100
AcDbEntity
  8
0
100
AcDbLine
 10
465.0
 20
743.4099999999999
 30
0.0
 11
465.5109999999999
 21
746.1239999999999
 31
0.0
  0
LINE
  5
D1F
330
1E
100
AcDbEntity
  8
0
100
AcDbLine
 10
484.1409999999999
 20
732.909739088531
 30
0.0
 11
484.1409999999999
 21
732.6699999999999
 31
0.0
  0
LINE
  5
D20
330
1E
100
AcDbEntity
  8
0
100
AcDbLine
 10
484.1409999999999
 20
734.2464991697109
 30
0.0
 11
484.1409999999999
 21
733.2869999999999
 31
0.0
  0
LINE
  5
D21
330
1E
100
AcDbEntity
  8
0
100
AcDbLine
 10
484.1409999999999
 20
733.2869999999999
 30
0.0
 11
484.1409999999999
 21
732.6699999999999
 31
0.0
  0
LINE
  5
D22
330
1E
100
AcDbEntity
  8
0
100
AcDbLine
 10
484.1409999999999
 20
733.2869999999999
 30
0.0
 11
484.1409999999999
 21
734.2464991697109
 31
0.0
  0
LINE
  5
D23
330
1E
100
AcDbEntity
  8
0
100
AcDbLine
 10
484.1409999999999
 20
733.2869999999999
 30
0.0
 11
485.601
 21
733.2869999999999
 31
0.0
  0
LINE
  5
D24
330
1E
100
AcDbEntity
  8
0
100
AcDbLine
 10
484.1409999999999
 20
732.6699999999999
 30
0.0
 11
484.1409999999999
 21
732.909739088531
 31
0.0
  0
LINE
  5
D25
330
1E
100
AcDbEntity
  8
0
100
AcDbLine
 10
484.1409999999999
 20
732.6699999999999
 30
0.0
 11
484.1409999999999
 21
733.2869999999999
 31
0.0
  0
LINE
  5
D26
330
1E
100
AcDbEntity
  8
0
100
AcDbLine
 10
484.1409999999999
 20
732.6699999999999
 30
0.0
 11
485.601
 21
732.6699999999999
 31
0.0
  0
LINE
  5
D27
330
1E
100
AcDbEntity
  8
0
100
AcDbLine
 10
481.788
 20
728.467
 30
0.0
 11
485.278
 21
727.156447706023
 31
0.0
  0
LINE
  5
D28
330
1E
100
AcDbEntity
  8
0
100
AcDbLine
 10
480.183
 20
727.789
 30
0.0
 11
485.073
 21
725.9989999999999
 31
0.0
  0
LINE
  5
D29
330
1E
100
AcDbEntity
  8
0
100
AcDbLine
 10
491.558
 20
725.262143766885
 30
0.0
 11
491.558
 21
725.0539999999999
 31
0.0
  0
LINE
  5
D2A
330
1E
100
AcDbEntity
  8
0
100
AcDbLine
 10
491.558
 20
725.0539999999999
 30
0.0
 11
492.8219999999999
 21
724.7460000000001
 31
0.0
  0
LINE
  5
D2B
330
1E
100
AcDbEntity
  8
0
100
AcDbLine
 10
491.558
 20
725.0539999999999
 30
0.0
 11
491.558
 21
725.262143766885
 31
0.0
  0
LINE
  5
D2C
330
1E
100
AcDbEntity
  8
0
100
AcDbLine
 10
491.558
 20
725.0539999999999
 30
0.0
 11
492.288
 21
725.5880000000001
 31
0.0
  0
LINE
  5
D2D
330
1E
100
AcDbEntity
  8
0
100
AcDbLine
 10
485.278
 20
727.156447706023
 30
0.0
 11
485.278
 21
726.7749999999999
 31
0.0
  0
LINE
  5
D2E
330
1E
100
AcDbEntity
  8
0
100
AcDbLine
 10
485.278
 20
729.010927499423
 30
0.0
 11
485.278
 21
727.3919999999999
 31
0.0
  0
LINE
  5
D2F
330
1E
100
AcDbEntity
  8
0
100
AcDbLine
 10
485.278
 20
727.3919999999999
 30
0.0
 11
485.278
 21
726.7749999999999
 31
0.0
  0
LINE
  5
D30
330
1E
100
AcDbEntity
  8
0
100
AcDbLine
 10
485.278
 20
727.3919999999999
 30
0.0
 11
485.278
 21
729.010927499423
 31
0.0
  0
LINE
  5
D31
330
1E
100
AcDbEntity
  8
0
100
AcDbLine
 10
485.278
 20
727.3919999999999
 30
0.0
 11
486.738
 21
727.3919999999999
 31
0.0
  0
LINE
  5
D32
330
1E
100
AcDbEntity
  8
0
100
AcDbLine
 10
485.278
 20
726.7749999999999
 30
0.0
 11
485.278
 21
727.156447706023
 31
0.0
  0
LINE
  5
D33
330
1E
100
AcDbEntity
  8
0
100
AcDbLine
 10
485.278
 20
726.7749999999999
 30
0.0
 11
485.278
 21
727.3919999999999
 31
0.0
  0
LINE
  5
D34
330
1E
100
AcDbEntity
  8
0
100
AcDbLine
 10
485.278
 20
726.7749999999999
 30
0.0
 11
486.738
 21
726.7749999999999
 31
0.0
  0
LINE
  5
D35
330
1E
100
AcDbEntity
  8
0
100
AcDbLine
 10
485.601
 20
733.2869999999999
 30
0.0
 11
485.601
 21
734.4880949850549
 31
0.0
  0
LINE
  5
D36
330
1E
100
AcDbEntity
  8
0
100
AcDbLine
 10
485.601
 20
733.2869999999999
 30
0.0
 11
485.601
 21
732.6699999999999
 31
0.0
  0
LINE
  5
D37
330
1E
100
AcDbEntity
  8
0
100
AcDbLine
 10
485.601
 20
732.6699999999999
 30
0.0
 11
485.601
 21
733.2869999999999
 31
0.0
  0
LINE
  5
D38
330
1E
100
AcDbEntity
  8
0
100
AcDbLine
 10
485.601
 20
734.4880949850549
 30
0.0
 11
485.601
 21
733.2869999999999
 31
0.0
  0
LINE
  5
D39
330
1E
100
AcDbEntity
  8
0
100
AcDbLine
 10
486.738
 20
727.3919999999999
 30
0.0
 11
486.738
 21
726.7749999999999
 31
0.0
  0
LINE
  5
D3A
330
1E
100
AcDbEntity
  8
0
100
AcDbLine
 10
486.738
 20
726.7749999999999
 30
0.0
 11
486.738
 21
727.3919999999999
 31
0.0
  0
LINE
  5
D3B
330
1E
100
AcDbEntity
  8
0
100
AcDbLine
 10
489.495
 20
731.0097347919439
 30
0.0
 11
489.495
 21
730.4730000000001
 31
0.0
  0
LINE
  5
D3C
330
1E
100
AcDbEntity
  8
0
100
AcDbLine
 10
489.495
 20
731.0097347919439
 30
0.0
 11
489.495
 21
729.8560000000001
 31
0.0
  0
LINE
  5
D3D
330
1E
100
AcDbEntity
  8
0
100
AcDbLine
 10
489.495
 20
730.4730000000001
 30
0.0
 11
489.495
 21
729.8560000000001
 31
0.0
  0
LINE
  5
D3E
330
1E
100
AcDbEntity
  8
0
100
AcDbLine
 10
489.495
 20
730.4730000000001
 30
0.0
 11
489.495
 21
731.0097347919439
 31
0.0
  0
LINE
  5
D3F
330
1E
100
AcDbEntity
  8
0
100
AcDbLine
 10
489.495
 20
730.4730000000001
 30
0.0
 11
490.955
 21
730.4730000000001
 31
0.0
  0
LINE
  5
D40
330
1E
100
AcDbEntity
  8
0
100
AcDbLine
 10
489.495
 20
729.8560000000001
 30
0.0
 11
489.495
 21
731.0097347919439
 31
0.0
  0
LINE
  5
D41
330
1E
100
AcDbEntity
  8
0
100
AcDbLine
 10
489.495
 20
729.8560000000001
 30
0.0
 11
489.495
 21
730.4730000000001
 31
0.0
  0
LINE
  5
D42
330
1E
100
AcDbEntity
  8
0
100
AcDbLine
 10
489.495
 20
729.8560000000001
 30
0.0
 11
490.955
 21
729.8560000000001
 31
0.0
  0
LINE
  5
D43
330
1E
100
AcDbEntity
  8
0
100
AcDbLine
 10
490.955
 20
730.4730000000001
 30
0.0
 11
490.955
 21
731.4914258255799
 31
0.0
  0
LINE
  5
D44
330
1E
100
AcDbEntity
  8
0
100
AcDbLine
 10
490.955
 20
730.4730000000001
 30
0.0
 11
490.955
 21
729.8560000000001
 31
0.0
  0
LINE
  5
D45
330
1E
100
AcDbEntity
  8
0
100
AcDbLine
 10
490.955
 20
729.8560000000001
 30
0.0
 11
490.955
 21
730.4730000000001
 31
0.0
  0
LINE
  5
D46
330
1E
100
AcDbEntity
  8
0
100
AcDbLine
 10
490.955
 20
731.4914258255799
 30
0.0
 11
490.955
 21
730.4730000000001
 31
0.0
  0
LINE
  5
D47
330
1E
100
AcDbEntity
  8
0
100
AcDbLine
 10
490.5479999999999
 20
736.6080000000001
 30
0.0
 11
490.5479999999999
 21
737.2239999999999
 31
0.0
  0
LINE
  5
D48
330
1E
100
AcDbEntity
  8
0
100
AcDbLine
 10
489.088
 20
736.829874371859
 30
0.0
 11
489.088
 21
736.6080000000001
 31
0.0
  0
LINE
  5
D49
330
1E
100
AcDbEntity
  8
0
100
AcDbLine
 10
489.088
 20
738.179889414548
 30
0.0
 11
489.088
 21
737.2239999999999
 31
0.0
  0
LINE
  5
D4A
330
1E
100
AcDbEntity
  8
0
100
AcDbLine
 10
490.5479999999999
 20
737.2239999999999
 30
0.0
 11
490.5479999999999
 21
738.225577370392
 31
0.0
  0
LINE
  5
D4B
330
1E
100
AcDbEntity
  8
0
100
AcDbLine
 10
490.5479999999999
 20
737.2239999999999
 30
0.0
 11
490.5479999999999
 21
736.6080000000001
 31
0.0
  0
LINE
  5
D4C
330
1E
100
AcDbEntity
  8
0
100
AcDbLine
 10
490.5479999999999
 20
738.225577370392
 30
0.0
 11
490.5479999999999
 21
737.2239999999999
 31
0.0
  0
LINE
  5
D4D
330
1E
100
AcDbEntity
  8
0
100
AcDbLine
 10
489.088
 20
737.2239999999999
 30
0.0
 11
489.088
 21
736.6080000000001
 31
0.0
  0
LINE
  5
D4E
330
1E
100
AcDbEntity
  8
0
100
AcDbLine
 10
489.088
 20
737.2239999999999
 30
0.0
 11
489.088
 21
738.179889414548
 31
0.0
  0
LINE
  5
D4F
330
1E
100
AcDbEntity
  8
0
100
AcDbLine
 10
489.088
 20
737.2239999999999
 30
0.0
 11
490.5479999999999
 21
737.2239999999999
 31
0.0
  0
LINE
  5
D50
330
1E
100
AcDbEntity
  8
0
100
AcDbLine
 10
489.088
 20
736.6080000000001
 30
0.0
 11
489.088
 21
736.829874371859
 31
0.0
  0
LINE
  5
D51
330
1E
100
AcDbEntity
  8
0
100
AcDbLine
 10
489.088
 20
736.6080000000001
 30
0.0
 11
489.088
 21
737.2239999999999
 31
0.0
  0
LINE
  5
D52
330
1E
100
AcDbEntity
  8
0
100
AcDbLine
 10
489.088
 20
736.6080000000001
 30
0.0
 11
490.5479999999999
 21
736.6080000000001
 31
0.0
  0
LINE
  5
D53
330
1E
100
AcDbEntity
  8
0
100
AcDbLine
 10
488.358
 20
740.3819999999999
 30
0.0
 11
488.358
 21
740.9989999999999
 31
0.0
  0
LINE
  5
D54
330
1E
100
AcDbEntity
  8
0
100
AcDbLine
 10
486.898
 20
741.195826272833
 30
0.0
 11
486.898
 21
740.3819999999999
 31
0.0
  0
LINE
  5
D55
330
1E
100
AcDbEntity
  8
0
100
AcDbLine
 10
486.898
 20
741.5480945394478
 30
0.0
 11
486.898
 21
740.9989999999999
 31
0.0
  0
LINE
  5
D56
330
1E
100
AcDbEntity
  8
0
100
AcDbLine
 10
488.358
 20
740.9989999999999
 30
0.0
 11
488.358
 21
741.5341215507189
 31
0.0
  0
LINE
  5
D57
330
1E
100
AcDbEntity
  8
0
100
AcDbLine
 10
488.358
 20
740.9989999999999
 30
0.0
 11
488.358
 21
740.3819999999999
 31
0.0
  0
LINE
  5
D58
330
1E
100
AcDbEntity
  8
0
100
AcDbLine
 10
488.358
 20
741.5341215507189
 30
0.0
 11
488.358
 21
740.9989999999999
 31
0.0
  0
LINE
  5
D59
330
1E
100
AcDbEntity
  8
0
100
AcDbLine
 10
486.898
 20
740.9989999999999
 30
0.0
 11
486.898
 21
740.3819999999999
 31
0.0
  0
LINE
  5
D5A
330
1E
100
AcDbEntity
  8
0
100
AcDbLine
 10
486.898
 20
740.9989999999999
 30
0.0
 11
486.898
 21
741.5480945394478
 31
0.0
  0
LINE
  5
D5B
330
1E
100
AcDbEntity
  8
0
100
AcDbLine
 10
486.898
 20
740.9989999999999
 30
0.0
 11
488.358
 21
740.9989999999999
 31
0.0
  0
LINE
  5
D5C
330
1E
100
AcDbEntity
  8
0
100
AcDbLine
 10
486.898
 20
740.3819999999999
 30
0.0
 11
486.898
 21
741.195826272833
 31
0.0
  0
LINE
  5
D5D
330
1E
100
AcDbEntity
  8
0
100
AcDbLine
 10
486.898
 20
740.3819999999999
 30
0.0
 11
486.898
 21
740.9989999999999
 31
0.0
  0
LINE
  5
D5E
330
1E
100
AcDbEntity
  8
0
100
AcDbLine
 10
486.898
 20
740.3819999999999
 30
0.0
 11
488.358
 21
740.3819999999999
 31
0.0
  0
LINE
  5
D5F
330
1E
100
AcDbEntity
  8
0
100
AcDbLine
 10
486.293795020266
 20
726.7749999999999
 30
0.0
 11
486.3869999999999
 21
726.74
 31
0.0
  0
LINE
  5
D60
330
1E
100
AcDbEntity
  8
0
100
AcDbLine
 10
486.3869999999999
 20
726.74
 30
0.0
 11
491.558
 21
725.262143766885
 31
0.0
  0
LINE
  5
D61
330
1E
100
AcDbEntity
  8
0
100
AcDbLine
 10
485.073
 20
725.9989999999999
 30
0.0
 11
490.4749999999999
 21
724.457
 31
0.0
  0
LINE
  5
D62
330
1E
100
AcDbEntity
  8
0
100
AcDbLine
 10
490.4749999999999
 20
724.457
 30
0.0
 11
496.168
 21
723.316
 31
0.0
  0
LINE
  5
D63
330
1E
100
AcDbEntity
  8
0
100
AcDbLine
 10
492.8219999999999
 20
724.7460000000001
 30
0.0
 11
493.5519999999999
 21
725.2799999999999
 31
0.0
  0
LINE
  5
D64
330
1E
100
AcDbEntity
  8
0
100
AcDbLine
 10
493.5519999999999
 20
725.2799999999999
 30
0.0
 11
493.5519999999999
 21
725.8838390493941
 31
0.0
  0
LINE
  5
D65
330
1E
100
AcDbEntity
  8
0
100
AcDbLine
 10
492.288
 20
725.5880000000001
 30
0.0
 11
493.5519999999999
 21
725.2799999999999
 31
0.0
  0
LINE
  5
D66
330
1E
100
AcDbEntity
  8
0
100
AcDbLine
 10
492.288
 20
725.5880000000001
 30
0.0
 11
492.288
 21
725.697399300495
 31
0.0
  0
LINE
  5
D67
330
1E
100
AcDbEntity
  8
0
100
AcDbLine
 10
493.5519999999999
 20
725.8838390493941
 30
0.0
 11
493.5519999999999
 21
725.2799999999999
 31
0.0
  0
LINE
  5
D68
330
1E
100
AcDbEntity
  8
0
100
AcDbLine
 10
492.288
 20
725.697399300495
 30
0.0
 11
492.288
 21
725.5880000000001
 31
0.0
  0
LINE
  5
D69
330
1E
100
AcDbEntity
  8
0
100
AcDbLine
 10
494.3599999999999
 20
732.7999999999999
 30
0.0
 11
494.3599999999999
 21
733.4169999999999
 31
0.0
  0
LINE
  5
D6A
330
1E
100
AcDbEntity
  8
0
100
AcDbLine
 10
494.3599999999999
 20
732.7999999999999
 30
0.0
 11
495.8199999999999
 21
732.7999999999999
 31
0.0
  0
LINE
  5
D6B
330
1E
100
AcDbEntity
  8
0
100
AcDbLine
 10
494.3599999999999
 20
734.299758098224
 30
0.0
 11
494.3599999999999
 21
733.4169999999999
 31
0.0
  0
LINE
  5
D6C
330
1E
100
AcDbEntity
  8
0
100
AcDbLine
 10
494.3599999999999
 20
733.4169999999999
 30
0.0
 11
494.3599999999999
 21
732.7999999999999
 31
0.0
  0
LINE
  5
D6D
330
1E
100
AcDbEntity
  8
0
100
AcDbLine
 10
494.3599999999999
 20
733.4169999999999
 30
0.0
 11
494.3599999999999
 21
734.299758098224
 31
0.0
  0
LINE
  5
D6E
330
1E
100
AcDbEntity
  8
0
100
AcDbLine
 10
494.3599999999999
 20
733.4169999999999
 30
0.0
 11
495.8199999999999
 21
733.4169999999999
 31
0.0
  0
LINE
  5
D6F
330
1E
100
AcDbEntity
  8
0
100
AcDbLine
 10
495.657
 20
740.5081783909829
 30
0.0
 11
495.657
 21
739.9289999999999
 31
0.0
  0
LINE
  5
D70
330
1E
100
AcDbEntity
  8
0
100
AcDbLine
 10
495.657
 20
741.464266177614
 30
0.0
 11
495.657
 21
740.545
 31
0.0
  0
LINE
  5
D71
330
1E
100
AcDbEntity
  8
0
100
AcDbLine
 10
495.657
 20
740.545
 30
0.0
 11
495.657
 21
739.9289999999999
 31
0.0
  0
LINE
  5
D72
330
1E
100
AcDbEntity
  8
0
100
AcDbLine
 10
495.657
 20
740.545
 30
0.0
 11
495.657
 21
741.464266177614
 31
0.0
  0
LINE
  5
D73
330
1E
100
AcDbEntity
  8
0
100
AcDbLine
 10
495.657
 20
740.545
 30
0.0
 11
497.1169999999999
 21
740.545
 31
0.0
  0
LINE
  5
D74
330
1E
100
AcDbEntity
  8
0
100
AcDbLine
 10
495.8199999999999
 20
733.4169999999999
 30
0.0
 11
495.8199999999999
 21
734.6229312086379
 31
0.0
  0
LINE
  5
D75
330
1E
100
AcDbEntity
  8
0
100
AcDbLine
 10
495.8199999999999
 20
733.4169999999999
 30
0.0
 11
495.8199999999999
 21
732.7999999999999
 31
0.0
  0
LINE
  5
D76
330
1E
100
AcDbEntity
  8
0
100
AcDbLine
 10
495.8199999999999
 20
732.7999999999999
 30
0.0
 11
495.8199999999999
 21
733.4169999999999
 31
0.0
  0
LINE
  5
D77
330
1E
100
AcDbEntity
  8
0
100
AcDbLine
 10
495.8199999999999
 20
734.6229312086379
 30
0.0
 11
495.8199999999999
 21
733.4169999999999
 31
0.0
  0
LINE
  5
D78
330
1E
100
AcDbEntity
  8
0
100
AcDbLine
 10
495.9369999999999
 20
728.8832788110259
 30
0.0
 11
495.9369999999999
 21
727.807
 31
0.0
  0
LINE
  5
D79
330
1E
100
AcDbEntity
  8
0
100
AcDbLine
 10
495.9369999999999
 20
727.807
 30
0.0
 11
497.2019999999999
 21
727.498
 31
0.0
  0
LINE
  5
D7A
330
1E
100
AcDbEntity
  8
0
100
AcDbLine
 10
495.9369999999999
 20
727.807
 30
0.0
 11
495.9369999999999
 21
728.8832788110259
 31
0.0
  0
LINE
  5
D7B
330
1E
100
AcDbEntity
  8
0
100
AcDbLine
 10
495.9369999999999
 20
727.807
 30
0.0
 11
496.6669999999999
 21
728.3409999999999
 31
0.0
  0
LINE
  5
D7C
330
1E
100
AcDbEntity
  8
0
100
AcDbLine
 10
495.657
 20
739.9289999999999
 30
0.0
 11
495.657
 21
740.5081783909829
 31
0.0
  0
LINE
  5
D7D
330
1E
100
AcDbEntity
  8
0
100
AcDbLine
 10
495.657
 20
739.9289999999999
 30
0.0
 11
495.657
 21
740.545
 31
0.0
  0
LINE
  5
D7E
330
1E
100
AcDbEntity
  8
0
100
AcDbLine
 10
495.657
 20
739.9289999999999
 30
0.0
 11
497.1169999999999
 21
739.9289999999999
 31
0.0
  0
LINE
  5
D7F
330
1E
100
AcDbEntity
  8
0
100
AcDbLine
 10
493.099193548387
 20
724.9487689792309
 30
0.0
 11
497.044
 21
724.1489999999998
 31
0.0
  0
LINE
  5
D80
330
1E
100
AcDbEntity
  8
0
100
AcDbLine
 10
499.489
 20
723.308
 30
0.0
 11
500.753
 21
723.616
 31
0.0
  0
LINE
  5
D81
330
1E
100
AcDbEntity
  8
0
100
AcDbLine
 10
498.7589999999999
 20
723.8419999999999
 30
0.0
 11
500.023
 21
724.151
 31
0.0
  0
LINE
  5
D82
330
1E
100
AcDbEntity
  8
0
100
AcDbLine
 10
498.7589999999999
 20
723.8419999999999
 30
0.0
 11
499.489
 21
723.308
 31
0.0
  0
LINE
  5
D83
330
1E
100
AcDbEntity
  8
0
100
AcDbLine
 10
498.7589999999999
 20
723.8419999999999
 30
0.0
 11
498.7589999999999
 21
724.8604262956669
 31
0.0
  0
LINE
  5
D84
330
1E
100
AcDbEntity
  8
0
100
AcDbLine
 10
500.753
 20
723.616
 30
0.0
 11
500.753
 21
723.6786701172169
 31
0.0
  0
LINE
  5
D85
330
1E
100
AcDbEntity
  8
0
100
AcDbLine
 10
497.9309999999999
 20
728.033
 30
0.0
 11
497.9309999999999
 21
729.138132614398
 31
0.0
  0
LINE
  5
D86
330
1E
100
AcDbEntity
  8
0
100
AcDbLine
 10
497.2019999999999
 20
727.498
 30
0.0
 11
497.9309999999999
 21
728.033
 31
0.0
  0
LINE
  5
D87
330
1E
100
AcDbEntity
  8
0
100
AcDbLine
 10
496.6669999999999
 20
728.3409999999999
 30
0.0
 11
497.9309999999999
 21
728.033
 31
0.0
  0
LINE
  5
D88
330
1E
100
AcDbEntity
  8
0
100
AcDbLine
 10
496.6669999999999
 20
728.3409999999999
 30
0.0
 11
496.6669999999999
 21
729.0471105944869
 31
0.0
  0
LINE
  5
D89
330
1E
100
AcDbEntity
  8
0
100
AcDbLine
 10
497.9309999999999
 20
729.138132614398
 30
0.0
 11
497.9309999999999
 21
728.033
 31
0.0
  0
LINE
  5
D8A
330
1E
100
AcDbEntity
  8
0
100
AcDbLine
 10
496.6669999999999
 20
729.0471105944869
 30
0.0
 11
496.6669999999999
 21
728.3409999999999
 31
0.0
  0
LINE
  5
D8B
330
1E
100
AcDbEntity
  8
0
100
AcDbLine
 10
498.8199999999999
 20
736.504537420083
 30
0.0
 11
498.8199999999999
 21
735.914
 31
0.0
  0
LINE
  5
D8C
330
1E
100
AcDbEntity
  8
0
100
AcDbLine
 10
497.1169999999999
 20
740.545
 30
0.0
 11
497.1169999999999
 21
741.450293188885
 31
0.0
  0
LINE
  5
D8D
330
1E
100
AcDbEntity
  8
0
100
AcDbLine
 10
497.1169999999999
 20
740.545
 30
0.0
 11
497.1169999999999
 21
739.9289999999999
 31
0.0
  0
LINE
  5
D8E
330
1E
100
AcDbEntity
  8
0
100
AcDbLine
 10
497.1169999999999
 20
739.9289999999999
 30
0.0
 11
497.1169999999999
 21
740.545
 31
0.0
  0
LINE
  5
D8F
330
1E
100
AcDbEntity
  8
0
100
AcDbLine
 10
497.1169999999999
 20
741.450293188885
 30
0.0
 11
497.1169999999999
 21
740.545
 31
0.0
  0
LINE
  5
D90
330
1E
100
AcDbEntity
  8
0
100
AcDbLine
 10
498.8199999999999
 20
737.544081740108
 30
0.0
 11
498.8199999999999
 21
736.531
 31
0.0
  0
LINE
  5
D91
330
1E
100
AcDbEntity
  8
0
100
AcDbLine
 10
498.8199999999999
 20
736.531
 30
0.0
 11
498.8199999999999
 21
735.914
 31
0.0
  0
LINE
  5
D92
330
1E
100
AcDbEntity
  8
0
100
AcDbLine
 10
498.8199999999999
 20
736.531
 30
0.0
 11
498.8199999999999
 21
737.544081740108
 31
0.0
  0
LINE
  5
D93
330
1E
100
AcDbEntity
  8
0
100
AcDbLine
 10
498.8199999999999
 20
736.531
 30
0.0
 11
500.2799999999999
 21
736.531
 31
0.0
  0
LINE
  5
D94
330
1E
100
AcDbEntity
  8
0
100
AcDbLine
 10
498.8199999999999
 20
735.914
 30
0.0
 11
498.8199999999999
 21
736.504537420083
 31
0.0
  0
LINE
  5
D95
330
1E
100
AcDbEntity
  8
0
100
AcDbLine
 10
498.8199999999999
 20
735.914
 30
0.0
 11
498.8199999999999
 21
736.531
 31
0.0
  0
LINE
  5
D96
330
1E
100
AcDbEntity
  8
0
100
AcDbLine
 10
498.8199999999999
 20
735.914
 30
0.0
 11
500.2799999999999
 21
735.914
 31
0.0
  0
LINE
  5
D97
330
1E
100
AcDbEntity
  8
0
100
AcDbLine
 10
498.7589999999999
 20
724.8604262956669
 30
0.0
 11
498.7589999999999
 21
723.8419999999999
 31
0.0
  0
LINE
  5
D98
330
1E
100
AcDbEntity
  8
0
100
AcDbLine
 10
500.2799999999999
 20
736.531
 30
0.0
 11
500.2799999999999
 21
737.3057905344199
 31
0.0
  0
LINE
  5
D99
330
1E
100
AcDbEntity
  8
0
100
AcDbLine
 10
500.2799999999999
 20
736.531
 30
0.0
 11
500.2799999999999
 21
735.914
 31
0.0
  0
LINE
  5
D9A
330
1E
100
AcDbEntity
  8
0
100
AcDbLine
 10
500.3169999999999
 20
730.6533325178589
 30
0.0
 11
500.3169999999999
 21
730.5589999999999
 31
0.0
  0
LINE
  5
D9B
330
1E
100
AcDbEntity
  8
0
100
AcDbLine
 10
500.3169999999999
 20
730.5589999999999
 30
0.0
 11
501.581
 21
730.25
 31
0.0
  0
LINE
  5
D9C
330
1E
100
AcDbEntity
  8
0
100
AcDbLine
 10
500.3169999999999
 20
730.5589999999999
 30
0.0
 11
500.3169999999999
 21
730.6533325178589
 31
0.0
  0
LINE
  5
D9D
330
1E
100
AcDbEntity
  8
0
100
AcDbLine
 10
500.3169999999999
 20
730.5589999999999
 30
0.0
 11
501.0469999999999
 21
731.0939999999999
 31
0.0
  0
LINE
  5
D9E
330
1E
100
AcDbEntity
  8
0
100
AcDbLine
 10
500.2799999999999
 20
735.914
 30
0.0
 11
500.2799999999999
 21
736.531
 31
0.0
  0
LINE
  5
D9F
330
1E
100
AcDbEntity
  8
0
100
AcDbLine
 10
500.2799999999999
 20
737.3057905344199
 30
0.0
 11
500.2799999999999
 21
736.531
 31
0.0
  0
LINE
  5
DA0
330
1E
100
AcDbEntity
  8
0
100
AcDbLine
 10
500.023
 20
725.384766142736
 30
0.0
 11
500.023
 21
724.151
 31
0.0
  0
LINE
  5
DA1
330
1E
100
AcDbEntity
  8
0
100
AcDbLine
 10
500.023
 20
724.151
 30
0.0
 11
500.753
 21
723.616
 31
0.0
  0
LINE
  5
DA2
330
1E
100
AcDbEntity
  8
0
100
AcDbLine
 10
500.023
 20
724.151
 30
0.0
 11
500.023
 21
725.384766142736
 31
0.0
  0
LINE
  5
DA3
330
1E
100
AcDbEntity
  8
0
100
AcDbLine
 10
497.044
 20
724.1489999999998
 30
0.0
 11
498.7589999999999
 21
723.9315247374029
 31
0.0
  0
LINE
  5
DA4
330
1E
100
AcDbEntity
  8
0
100
AcDbLine
 10
502.3109999999999
 20
730.786
 30
0.0
 11
502.3109999999999
 21
731.5298539133411
 31
0.0
  0
LINE
  5
DA5
330
1E
100
AcDbEntity
  8
0
100
AcDbLine
 10
501.581
 20
730.25
 30
0.0
 11
502.3109999999999
 21
730.786
 31
0.0
  0
LINE
  5
DA6
330
1E
100
AcDbEntity
  8
0
100
AcDbLine
 10
501.0469999999999
 20
731.0939999999999
 30
0.0
 11
502.3109999999999
 21
730.786
 31
0.0
  0
LINE
  5
DA7
330
1E
100
AcDbEntity
  8
0
100
AcDbLine
 10
502.3109999999999
 20
731.5298539133411
 30
0.0
 11
502.3109999999999
 21
730.786
 31
0.0
  0
LINE
  5
DA8
330
1E
100
AcDbEntity
  8
0
100
AcDbLine
 10
503.892
 20
726.989727272727
 30
0.0
 11
503.892
 21
726.6989999999999
 31
0.0
  0
LINE
  5
DA9
330
1E
100
AcDbEntity
  8
0
100
AcDbLine
 10
503.892
 20
726.6989999999999
 30
0.0
 11
505.1569999999999
 21
727.008
 31
0.0
  0
LINE
  5
DAA
330
1E
100
AcDbEntity
  8
0
100
AcDbLine
 10
503.892
 20
726.6989999999999
 30
0.0
 11
504.6219999999999
 21
726.1649999999999
 31
0.0
  0
LINE
  5
DAB
330
1E
100
AcDbEntity
  8
0
100
AcDbLine
 10
503.892
 20
726.6989999999999
 30
0.0
 11
503.892
 21
726.989727272727
 31
0.0
  0
LINE
  5
DAC
330
1E
100
AcDbEntity
  8
0
100
AcDbLine
 10
500.753
 20
723.6786701172169
 30
0.0
 11
503.613
 21
723.316
 31
0.0
  0
LINE
  5
DAD
330
1E
100
AcDbEntity
  8
0
100
AcDbLine
 10
500.753
 20
723.6786701172169
 30
0.0
 11
500.753
 21
723.616
 31
0.0
  0
LINE
  5
DAE
330
1E
100
AcDbEntity
  8
0
100
AcDbLine
 10
503.613
 20
723.316
 30
0.0
 11
507.84493401558
 21
722.887336029678
 31
0.0
  0
LINE
  5
DAF
330
1E
100
AcDbEntity
  8
0
100
AcDbLine
 10
496.168
 20
723.316
 30
0.0
 11
502.591
 21
722.421
 31
0.0
  0
LINE
  5
DB0
330
1E
100
AcDbEntity
  8
0
100
AcDbLine
 10
502.591
 20
722.421
 30
0.0
 11
508.65
 21
721.8969999999999
 31
0.0
  0
LINE
  5
DB1
330
1E
100
AcDbEntity
  8
0
100
AcDbLine
 10
481.1399999999999
 20
744.918
 30
0.0
 11
481.1399999999999
 21
745.535
 31
0.0
  0
LINE
  5
DB2
330
1E
100
AcDbEntity
  8
0
100
AcDbLine
 10
479.68
 20
744.918
 30
0.0
 11
479.68
 21
745.535
 31
0.0
  0
LINE
  5
DB3
330
1E
100
AcDbEntity
  8
0
100
AcDbLine
 10
479.68
 20
744.918
 30
0.0
 11
479.68
 21
745.7232631578951
 31
0.0
  0
LINE
  5
DB4
330
1E
100
AcDbEntity
  8
0
100
AcDbLine
 10
479.68
 20
744.918
 30
0.0
 11
481.1399999999999
 21
744.918
 31
0.0
  0
LINE
  5
DB5
330
1E
100
AcDbEntity
  8
0
100
AcDbLine
 10
470.758
 20
746.057
 30
0.0
 11
470.758
 21
747.1319999999999
 31
0.0
  0
LINE
  5
DB6
330
1E
100
AcDbEntity
  8
0
100
AcDbLine
 10
470.758
 20
746.057
 30
0.0
 11
470.758
 21
745.44
 31
0.0
  0
LINE
  5
DB7
330
1E
100
AcDbEntity
  8
0
100
AcDbLine
 10
470.758
 20
746.057
 30
0.0
 11
472.218
 21
746.057
 31
0.0
  0
LINE
  5
DB8
330
1E
100
AcDbEntity
  8
0
100
AcDbLine
 10
481.1399999999999
 20
745.535
 30
0.0
 11
481.1399999999999
 21
744.918
 31
0.0
  0
LINE
  5
DB9
330
1E
100
AcDbEntity
  8
0
100
AcDbLine
 10
479.68
 20
745.535
 30
0.0
 11
479.68
 21
745.7232631578951
 31
0.0
  0
LINE
  5
DBA
330
1E
100
AcDbEntity
  8
0
100
AcDbLine
 10
479.68
 20
745.535
 30
0.0
 11
479.68
 21
744.918
 31
0.0
  0
LINE
  5
DBB
330
1E
100
AcDbEntity
  8
0
100
AcDbLine
 10
479.68
 20
745.535
 30
0.0
 11
481.1399999999999
 21
745.535
 31
0.0
  0
LINE
  5
DBC
330
1E
100
AcDbEntity
  8
0
100
AcDbLine
 10
479.68
 20
745.7232631578951
 30
0.0
 11
479.68
 21
744.918
 31
0.0
  0
LINE
  5
DBD
330
1E
100
AcDbEntity
  8
0
100
AcDbLine
 10
479.68
 20
745.7232631578951
 30
0.0
 11
479.68
 21
745.535
 31
0.0
  0
LINE
  5
DBE
330
1E
100
AcDbEntity
  8
0
100
AcDbLine
 10
472.218
 20
745.44
 30
0.0
 11
472.218
 21
746.057
 31
0.0
  0
LINE
  5
DBF
330
1E
100
AcDbEntity
  8
0
100
AcDbLine
 10
472.218
 20
746.057
 30
0.0
 11
472.218
 21
745.44
 31
0.0
  0
LINE
  5
DC0
330
1E
100
AcDbEntity
  8
0
100
AcDbLine
 10
472.218
 20
746.057
 30
0.0
 11
472.218
 21
746.9014736842098
 31
0.0
  0
LINE
  5
DC1
330
1E
100
AcDbEntity
  8
0
100
AcDbLine
 10
470.758
 20
745.44
 30
0.0
 11
470.758
 21
746.057
 31
0.0
  0
LINE
  5
DC2
330
1E
100
AcDbEntity
  8
0
100
AcDbLine
 10
470.758
 20
745.44
 30
0.0
 11
470.758
 21
747.1319999999999
 31
0.0
  0
LINE
  5
DC3
330
1E
100
AcDbEntity
  8
0
100
AcDbLine
 10
470.758
 20
745.44
 30
0.0
 11
472.218
 21
745.44
 31
0.0
  0
LINE
  5
DC4
330
1E
100
AcDbEntity
  8
0
100
AcDbLine
 10
468.358
 20
745.1249999999999
 30
0.0
 11
469.599
 21
747.315
 31
0.0
  0
LINE
  5
DC5
330
1E
100
AcDbEntity
  8
0
100
AcDbLine
 10
466.241
 20
745.187
 30
0.0
 11
467.4819999999999
 21
747.7469999999999
 31
0.0
  0
LINE
  5
DC6
330
1E
100
AcDbEntity
  8
0
100
AcDbLine
 10
465.5109999999999
 20
746.1239999999999
 30
0.0
 11
466.8249999999999
 21
748.8689999999999
 31
0.0
  0
LINE
  5
DC7
330
1E
100
AcDbEntity
  8
0
100
AcDbLine
 10
490.5479999999999
 20
744.156
 30
0.0
 11
490.5479999999999
 21
744.7729999999999
 31
0.0
  0
LINE
  5
DC8
330
1E
100
AcDbEntity
  8
0
100
AcDbLine
 10
489.088
 20
744.7729999999999
 30
0.0
 11
489.088
 21
745.908077492727
 31
0.0
  0
LINE
  5
DC9
330
1E
100
AcDbEntity
  8
0
100
AcDbLine
 10
489.088
 20
744.7729999999999
 30
0.0
 11
489.088
 21
744.156
 31
0.0
  0
LINE
  5
DCA
330
1E
100
AcDbEntity
  8
0
100
AcDbLine
 10
489.088
 20
744.7729999999999
 30
0.0
 11
490.5479999999999
 21
744.7729999999999
 31
0.0
  0
LINE
  5
DCB
330
1E
100
AcDbEntity
  8
0
100
AcDbLine
 10
490.5479999999999
 20
744.7729999999999
 30
0.0
 11
490.5479999999999
 21
744.156
 31
0.0
  0
LINE
  5
DCC
330
1E
100
AcDbEntity
  8
0
100
AcDbLine
 10
490.5479999999999
 20
744.7729999999999
 30
0.0
 11
490.5479999999999
 21
745.5831782597201
 31
0.0
  0
LINE
  5
DCD
330
1E
100
AcDbEntity
  8
0
100
AcDbLine
 10
489.088
 20
744.46594145476
 30
0.0
 11
489.088
 21
744.156
 31
0.0
  0
LINE
  5
DCE
330
1E
100
AcDbEntity
  8
0
100
AcDbLine
 10
489.088
 20
744.156
 30
0.0
 11
489.088
 21
744.7729999999999
 31
0.0
  0
LINE
  5
DCF
330
1E
100
AcDbEntity
  8
0
100
AcDbLine
 10
489.088
 20
744.156
 30
0.0
 11
489.088
 21
744.46594145476
 31
0.0
  0
LINE
  5
DD0
330
1E
100
AcDbEntity
  8
0
100
AcDbLine
 10
489.088
 20
744.156
 30
0.0
 11
490.5479999999999
 21
744.156
 31
0.0
  0
LINE
  5
DD1
330
1E
100
AcDbEntity
  8
0
100
AcDbLine
 10
498.8199999999999
 20
744.5599999999999
 30
0.0
 11
498.8199999999999
 21
745.463880406168
 31
0.0
  0
LINE
  5
DD2
330
1E
100
AcDbEntity
  8
0
100
AcDbLine
 10
498.8199999999999
 20
744.5599999999999
 30
0.0
 11
498.8199999999999
 21
743.9429999999999
 31
0.0
  0
LINE
  5
DD3
330
1E
100
AcDbEntity
  8
0
100
AcDbLine
 10
498.8199999999999
 20
744.5599999999999
 30
0.0
 11
500.2799999999999
 21
744.5599999999999
 31
0.0
  0
LINE
  5
DD4
330
1E
100
AcDbEntity
  8
0
100
AcDbLine
 10
489.088
 20
745.908077492727
 30
0.0
 11
489.088
 21
744.7729999999999
 31
0.0
  0
LINE
  5
DD5
330
1E
100
AcDbEntity
  8
0
100
AcDbLine
 10
490.5479999999999
 20
745.5831782597201
 30
0.0
 11
490.5479999999999
 21
744.7729999999999
 31
0.0
  0
LINE
  5
DD6
330
1E
100
AcDbEntity
  8
0
100
AcDbLine
 10
498.8199999999999
 20
745.463880406168
 30
0.0
 11
498.8199999999999
 21
744.5599999999999
 31
0.0
  0
LINE
  5
DD7
330
1E
100
AcDbEntity
  8
0
100
AcDbLine
 10
498.8199999999999
 20
744.8788519021741
 30
0.0
 11
498.8199999999999
 21
743.9429999999999
 31
0.0
  0
LINE
  5
DD8
330
1E
100
AcDbEntity
  8
0
100
AcDbLine
 10
500.2799999999999
 20
743.9429999999999
 30
0.0
 11
500.2799999999999
 21
744.5599999999999
 31
0.0
  0
LINE
  5
DD9
330
1E
100
AcDbEntity
  8
0
100
AcDbLine
 10
500.2799999999999
 20
745.09999817332
 30
0.0
 11
500.2799999999999
 21
744.5599999999999
 31
0.0
  0
LINE
  5
DDA
330
1E
100
AcDbEntity
  8
0
100
AcDbLine
 10
500.2799999999999
 20
744.5599999999999
 30
0.0
 11
500.2799999999999
 21
743.9429999999999
 31
0.0
  0
LINE
  5
DDB
330
1E
100
AcDbEntity
  8
0
100
AcDbLine
 10
500.2799999999999
 20
744.5599999999999
 30
0.0
 11
500.2799999999999
 21
745.09999817332
 31
0.0
  0
LINE
  5
DDC
330
1E
100
AcDbEntity
  8
0
100
AcDbLine
 10
498.8199999999999
 20
743.9429999999999
 30
0.0
 11
498.8199999999999
 21
744.5599999999999
 31
0.0
  0
LINE
  5
DDD
330
1E
100
AcDbEntity
  8
0
100
AcDbLine
 10
498.8199999999999
 20
743.9429999999999
 30
0.0
 11
498.8199999999999
 21
744.8788519021741
 31
0.0
  0
LINE
  5
DDE
330
1E
100
AcDbEntity
  8
0
100
AcDbLine
 10
498.8199999999999
 20
743.9429999999999
 30
0.0
 11
500.2799999999999
 21
743.9429999999999
 31
0.0
  0
LINE
  5
DDF
330
1E
100
AcDbEntity
  8
0
100
AcDbLine
 10
504.4159999999999
 20
740.691
 30
0.0
 11
504.4159999999999
 21
739.4760000000001
 31
0.0
  0
LINE
  5
DE0
330
1E
100
AcDbEntity
  8
0
100
AcDbLine
 10
504.4159999999999
 20
741.2852394678489
 30
0.0
 11
504.4159999999999
 21
740.092
 31
0.0
  0
LINE
  5
DE1
330
1E
100
AcDbEntity
  8
0
100
AcDbLine
 10
504.4159999999999
 20
740.092
 30
0.0
 11
504.4159999999999
 21
739.4760000000001
 31
0.0
  0
LINE
  5
DE2
330
1E
100
AcDbEntity
  8
0
100
AcDbLine
 10
504.4159999999999
 20
740.092
 30
0.0
 11
504.4159999999999
 21
741.2852394678489
 31
0.0
  0
LINE
  5
DE3
330
1E
100
AcDbEntity
  8
0
100
AcDbLine
 10
504.4159999999999
 20
740.092
 30
0.0
 11
505.8759999999999
 21
740.092
 31
0.0
  0
LINE
  5
DE4
330
1E
100
AcDbEntity
  8
0
100
AcDbLine
 10
504.4159999999999
 20
739.4760000000001
 30
0.0
 11
504.4159999999999
 21
740.691
 31
0.0
  0
LINE
  5
DE5
330
1E
100
AcDbEntity
  8
0
100
AcDbLine
 10
504.4159999999999
 20
739.4760000000001
 30
0.0
 11
504.4159999999999
 21
740.092
 31
0.0
  0
LINE
  5
DE6
330
1E
100
AcDbEntity
  8
0
100
AcDbLine
 10
504.4159999999999
 20
739.4760000000001
 30
0.0
 11
505.8759999999999
 21
739.4760000000001
 31
0.0
  0
LINE
  5
DE7
330
1E
100
AcDbEntity
  8
0
100
AcDbLine
 10
504.6959999999999
 20
734.430404715553
 30
0.0
 11
504.6959999999999
 21
733.312
 31
0.0
  0
LINE
  5
DE8
330
1E
100
AcDbEntity
  8
0
100
AcDbLine
 10
504.6959999999999
 20
733.312
 30
0.0
 11
505.961
 21
733.003
 31
0.0
  0
LINE
  5
DE9
330
1E
100
AcDbEntity
  8
0
100
AcDbLine
 10
504.6959999999999
 20
733.312
 30
0.0
 11
504.6959999999999
 21
734.430404715553
 31
0.0
  0
LINE
  5
DEA
330
1E
100
AcDbEntity
  8
0
100
AcDbLine
 10
504.6959999999999
 20
733.312
 30
0.0
 11
505.426
 21
733.846
 31
0.0
  0
LINE
  5
DEB
330
1E
100
AcDbEntity
  8
0
100
AcDbLine
 10
505.1569999999999
 20
727.5144819456239
 30
0.0
 11
505.1569999999999
 21
727.008
 31
0.0
  0
LINE
  5
DEC
330
1E
100
AcDbEntity
  8
0
100
AcDbLine
 10
505.426
 20
733.846
 30
0.0
 11
506.691
 21
733.5369999999999
 31
0.0
  0
LINE
  5
DED
330
1E
100
AcDbEntity
  8
0
100
AcDbLine
 10
505.426
 20
733.846
 30
0.0
 11
505.426
 21
734.720372990122
 31
0.0
  0
LINE
  5
DEE
330
1E
100
AcDbEntity
  8
0
100
AcDbLine
 10
505.8759999999999
 20
740.092
 30
0.0
 11
505.8759999999999
 21
741.2032676591699
 31
0.0
  0
LINE
  5
DEF
330
1E
100
AcDbEntity
  8
0
100
AcDbLine
 10
505.8759999999999
 20
740.092
 30
0.0
 11
505.8759999999999
 21
739.4760000000001
 31
0.0
  0
LINE
  5
DF0
330
1E
100
AcDbEntity
  8
0
100
AcDbLine
 10
505.8759999999999
 20
739.4760000000001
 30
0.0
 11
505.8759999999999
 21
740.092
 31
0.0
  0
LINE
  5
DF1
330
1E
100
AcDbEntity
  8
0
100
AcDbLine
 10
505.8759999999999
 20
741.2032676591699
 30
0.0
 11
505.8759999999999
 21
740.092
 31
0.0
  0
LINE
  5
DF2
330
1E
100
AcDbEntity
  8
0
100
AcDbLine
 10
505.426
 20
734.720372990122
 30
0.0
 11
505.426
 21
733.846
 31
0.0
  0
LINE
  5
DF3
330
1E
100
AcDbEntity
  8
0
100
AcDbLine
 10
505.426
 20
746.6289999999998
 30
0.0
 11
506.691
 21
746.937
 31
0.0
  0
LINE
  5
DF4
330
1E
100
AcDbEntity
  8
0
100
AcDbLine
 10
505.1569999999999
 20
727.008
 30
0.0
 11
505.8869999999999
 21
726.4730000000001
 31
0.0
  0
LINE
  5
DF5
330
1E
100
AcDbEntity
  8
0
100
AcDbLine
 10
505.1569999999999
 20
727.008
 30
0.0
 11
505.1569999999999
 21
727.5144819456239
 31
0.0
  0
LINE
  5
DF6
330
1E
100
AcDbEntity
  8
0
100
AcDbLine
 10
505.8869999999999
 20
726.4730000000001
 30
0.0
 11
505.8869999999999
 21
727.101207586933
 31
0.0
  0
LINE
  5
DF7
330
1E
100
AcDbEntity
  8
0
100
AcDbLine
 10
506.691
 20
733.5369999999999
 30
0.0
 11
506.691
 21
733.8856323000509
 31
0.0
  0
LINE
  5
DF8
330
1E
100
AcDbEntity
  8
0
100
AcDbLine
 10
505.961
 20
733.003
 30
0.0
 11
506.691
 21
733.5369999999999
 31
0.0
  0
LINE
  5
DF9
330
1E
100
AcDbEntity
  8
0
100
AcDbLine
 10
506.691
 20
733.8856323000509
 30
0.0
 11
506.691
 21
733.5369999999999
 31
0.0
  0
LINE
  5
DFA
330
1E
100
AcDbEntity
  8
0
100
AcDbLine
 10
505.8869999999999
 20
727.101207586933
 30
0.0
 11
505.8869999999999
 21
726.4730000000001
 31
0.0
  0
LINE
  5
DFB
330
1E
100
AcDbEntity
  8
0
100
AcDbLine
 10
504.6219999999999
 20
726.1649999999999
 30
0.0
 11
505.8869999999999
 21
726.4730000000001
 31
0.0
  0
LINE
  5
DFC
330
1E
100
AcDbEntity
  8
0
100
AcDbLine
 10
508.42
 20
730.1401246174029
 30
0.0
 11
508.42
 21
729.7260000000001
 31
0.0
  0
LINE
  5
DFD
330
1E
100
AcDbEntity
  8
0
100
AcDbLine
 10
508.42
 20
729.7260000000001
 30
0.0
 11
509.684
 21
730.034
 31
0.0
  0
LINE
  5
DFE
330
1E
100
AcDbEntity
  8
0
100
AcDbLine
 10
508.42
 20
729.7260000000001
 30
0.0
 11
509.1499999999999
 21
729.191
 31
0.0
  0
LINE
  5
DFF
330
1E
100
AcDbEntity
  8
0
100
AcDbLine
 10
508.42
 20
729.7260000000001
 30
0.0
 11
508.42
 21
730.1401246174029
 31
0.0
  0
LINE
  5
E00
330
1E
100
AcDbEntity
  8
0
100
AcDbLine
 10
507.799
 20
722.9210000000001
 30
0.0
 11
509.063
 21
723.2289999999998
 31
0.0
  0
LINE
  5
E01
330
1E
100
AcDbEntity
  8
0
100
AcDbLine
 10
507.799
 20
722.9210000000001
 30
0.0
 11
508.5289999999999
 21
722.3860000000001
 31
0.0
  0
LINE
  5
E02
330
1E
100
AcDbEntity
  8
0
100
AcDbLine
 10
509.063
 20
723.484045861887
 30
0.0
 11
509.063
 21
723.2289999999998
 31
0.0
  0
LINE
  5
E03
330
1E
100
AcDbEntity
  8
0
100
AcDbLine
 10
509.063
 20
723.2289999999998
 30
0.0
 11
509.7929999999999
 21
722.695
 31
0.0
  0
LINE
  5
E04
330
1E
100
AcDbEntity
  8
0
100
AcDbLine
 10
509.063
 20
723.2289999999998
 30
0.0
 11
509.063
 21
723.484045861887
 31
0.0
  0
LINE
  5
E05
330
1E
100
AcDbEntity
  8
0
100
AcDbLine
 10
509.7929999999999
 20
722.695
 30
0.0
 11
509.7929999999999
 21
723.5575522243711
 31
0.0
  0
LINE
  5
E06
330
1E
100
AcDbEntity
  8
0
100
AcDbLine
 10
509.0759999999999
 20
737.407800827194
 30
0.0
 11
509.0759999999999
 21
736.065
 31
0.0
  0
LINE
  5
E07
330
1E
100
AcDbEntity
  8
0
100
AcDbLine
 10
509.0759999999999
 20
736.065
 30
0.0
 11
510.3399999999999
 21
735.7560000000001
 31
0.0
  0
LINE
  5
E08
330
1E
100
AcDbEntity
  8
0
100
AcDbLine
 10
509.0759999999999
 20
736.065
 30
0.0
 11
509.0759999999999
 21
737.407800827194
 31
0.0
  0
LINE
  5
E09
330
1E
100
AcDbEntity
  8
0
100
AcDbLine
 10
509.0759999999999
 20
736.065
 30
0.0
 11
509.806
 21
736.5989999999999
 31
0.0
  0
LINE
  5
E0A
330
1E
100
AcDbEntity
  8
0
100
AcDbLine
 10
509.684
 20
730.034
 30
0.0
 11
510.414
 21
729.4989999999999
 31
0.0
  0
LINE
  5
E0B
330
1E
100
AcDbEntity
  8
0
100
AcDbLine
 10
509.1499999999999
 20
729.191
 30
0.0
 11
510.414
 21
729.4989999999999
 31
0.0
  0
LINE
  5
E0C
330
1E
100
AcDbEntity
  8
0
100
AcDbLine
 10
509.7929999999999
 20
723.5575522243711
 30
0.0
 11
509.7929999999999
 21
722.695
 31
0.0
  0
LINE
  5
E0D
330
1E
100
AcDbEntity
  8
0
100
AcDbLine
 10
508.5289999999999
 20
722.3860000000001
 30
0.0
 11
509.7929999999999
 21
722.695
 31
0.0
  0
LINE
  5
E0E
330
1E
100
AcDbEntity
  8
0
100
AcDbLine
 10
509.0759999999999
 20
743.9741991728059
 30
0.0
 11
509.0759999999999
 21
743.5039999999998
 31
0.0
  0
LINE
  5
E0F
330
1E
100
AcDbEntity
  8
0
100
AcDbLine
 10
509.0759999999999
 20
743.5039999999998
 30
0.0
 11
510.3399999999999
 21
743.812
 31
0.0
  0
LINE
  5
E10
330
1E
100
AcDbEntity
  8
0
100
AcDbLine
 10
509.0759999999999
 20
743.5039999999998
 30
0.0
 11
509.806
 21
742.9689999999999
 31
0.0
  0
LINE
  5
E11
330
1E
100
AcDbEntity
  8
0
100
AcDbLine
 10
509.0759999999999
 20
743.5039999999998
 30
0.0
 11
509.0759999999999
 21
743.9741991728059
 31
0.0
  0
LINE
  5
E12
330
1E
100
AcDbEntity
  8
0
100
AcDbLine
 10
506.36
 20
722.0950458821589
 30
0.0
 11
506.36
 21
715.321
 31
0.0
  0
LINE
  5
E13
330
1E
100
AcDbEntity
  8
0
100
AcDbLine
 10
509.806
 20
736.5989999999999
 30
0.0
 11
511.07
 21
736.2899999999999
 31
0.0
  0
LINE
  5
E14
330
1E
100
AcDbEntity
  8
0
100
AcDbLine
 10
509.806
 20
736.5989999999999
 30
0.0
 11
509.806
 21
737.812381413985
 31
0.0
  0
LINE
  5
E15
330
1E
100
AcDbEntity
  8
0
100
AcDbLine
 10
511.07
 20
736.2899999999999
 30
0.0
 11
511.07
 21
737.78837007874
 31
0.0
  0
LINE
  5
E16
330
1E
100
AcDbEntity
  8
0
100
AcDbLine
 10
510.3399999999999
 20
735.7560000000001
 30
0.0
 11
511.07
 21
736.2899999999999
 31
0.0
  0
LINE
  5
E17
330
1E
100
AcDbEntity
  8
0
100
AcDbLine
 10
511.07
 20
737.78837007874
 30
0.0
 11
511.07
 21
736.2899999999999
 31
0.0
  0
LINE
  5
E18
330
1E
100
AcDbEntity
  8
0
100
AcDbLine
 10
509.806
 20
737.812381413985
 30
0.0
 11
509.806
 21
736.5989999999999
 31
0.0
  0
LINE
  5
E19
330
1E
100
AcDbEntity
  8
0
100
AcDbLine
 10
512.334
 20
726.1469999999999
 30
0.0
 11
513.599
 21
726.455
 31
0.0
  0
LINE
  5
E1A
330
1E
100
AcDbEntity
  8
0
100
AcDbLine
 10
512.334
 20
726.1469999999999
 30
0.0
 11
513.0639999999999
 21
725.612
 31
0.0
  0
LINE
  5
E1B
330
1E
100
AcDbEntity
  8
0
100
AcDbLine
 10
513.599
 20
726.455
 30
0.0
 11
514.329
 21
725.921
 31
0.0
  0
LINE
  5
E1C
330
1E
100
AcDbEntity
  8
0
100
AcDbLine
 10
513.599
 20
726.455
 30
0.0
 11
513.599
 21
727.611093800789
 31
0.0
  0
LINE
  5
E1D
330
1E
100
AcDbEntity
  8
0
100
AcDbLine
 10
514.329
 20
725.921
 30
0.0
 11
514.329
 21
727.0450957446809
 31
0.0
  0
LINE
  5
E1E
330
1E
100
AcDbEntity
  8
0
100
AcDbLine
 10
513.5019999999999
 20
732.6889999999999
 30
0.0
 11
514.766
 21
732.9969999999999
 31
0.0
  0
LINE
  5
E1F
330
1E
100
AcDbEntity
  8
0
100
AcDbLine
 10
513.5019999999999
 20
732.6889999999999
 30
0.0
 11
514.2319999999999
 21
732.1539999999999
 31
0.0
  0
LINE
  5
E20
330
1E
100
AcDbEntity
  8
0
100
AcDbLine
 10
514.766
 20
732.9969999999999
 30
0.0
 11
515.4959999999999
 21
732.462
 31
0.0
  0
LINE
  5
E21
330
1E
100
AcDbEntity
  8
0
100
AcDbLine
 10
514.2319999999999
 20
732.1539999999999
 30
0.0
 11
515.4959999999999
 21
732.462
 31
0.0
  0
LINE
  5
E22
330
1E
100
AcDbEntity
  8
0
100
AcDbLine
 10
513.599
 20
727.611093800789
 30
0.0
 11
513.599
 21
726.455
 31
0.0
  0
LINE
  5
E23
330
1E
100
AcDbEntity
  8
0
100
AcDbLine
 10
514.329
 20
727.0450957446809
 30
0.0
 11
514.329
 21
725.921
 31
0.0
  0
LINE
  5
E24
330
1E
100
AcDbEntity
  8
0
100
AcDbLine
 10
513.0639999999999
 20
725.612
 30
0.0
 11
514.329
 21
725.921
 31
0.0
  0
LINE
  5
E25
330
1E
100
AcDbEntity
  8
0
100
AcDbLine
 10
511.35
 20
740.691
 30
0.0
 11
511.35
 21
739.785
 31
0.0
  0
LINE
  5
E26
330
1E
100
AcDbEntity
  8
0
100
AcDbLine
 10
511.35
 20
740.691
 30
0.0
 11
511.4819999999999
 21
741.086
 31
0.0
  0
LINE
  5
E27
330
1E
100
AcDbEntity
  8
0
100
AcDbLine
 10
511.4819999999999
 20
740.179
 30
0.0
 11
511.8319999999999
 21
740.5499999999999
 31
0.0
  0
LINE
  5
E28
330
1E
100
AcDbEntity
  8
0
100
AcDbLine
 10
511.4819999999999
 20
741.086
 30
0.0
 11
511.8319999999999
 21
741.456
 31
0.0
  0
LINE
  5
E29
330
1E
100
AcDbEntity
  8
0
100
AcDbLine
 10
511.8319999999999
 20
740.5499999999999
 30
0.0
 11
512.4159999999999
 21
740.876
 31
0.0
  0
LINE
  5
E2A
330
1E
100
AcDbEntity
  8
0
100
AcDbLine
 10
511.35
 20
739.785
 30
0.0
 11
511.4819999999999
 21
739.3889999999998
 31
0.0
  0
LINE
  5
E2B
330
1E
100
AcDbEntity
  8
0
100
AcDbLine
 10
511.35
 20
739.785
 30
0.0
 11
511.4819999999999
 21
740.179
 31
0.0
  0
LINE
  5
E2C
330
1E
100
AcDbEntity
  8
0
100
AcDbLine
 10
511.35
 20
739.785
 30
0.0
 11
511.35
 21
740.691
 31
0.0
  0
LINE
  5
E2D
330
1E
100
AcDbEntity
  8
0
100
AcDbLine
 10
511.4819999999999
 20
739.3889999999998
 30
0.0
 11
511.8319999999999
 21
739.0189999999998
 31
0.0
  0
LINE
  5
E2E
330
1E
100
AcDbEntity
  8
0
100
AcDbLine
 10
512.4159999999999
 20
740.876
 30
0.0
 11
513.19
 21
741.123
 31
0.0
  0
LINE
  5
E2F
330
1E
100
AcDbEntity
  8
0
100
AcDbLine
 10
513.19
 20
741.123
 30
0.0
 11
514.066
 21
741.271
 31
0.0
  0
LINE
  5
E30
330
1E
100
AcDbEntity
  8
0
100
AcDbLine
 10
511.8319999999999
 20
739.0189999999998
 30
0.0
 11
512.4159999999999
 21
738.6929999999999
 31
0.0
  0
LINE
  5
E31
330
1E
100
AcDbEntity
  8
0
100
AcDbLine
 10
512.4159999999999
 20
738.6929999999999
 30
0.0
 11
513.19
 21
738.446
 31
0.0
  0
LINE
  5
E32
330
1E
100
AcDbEntity
  8
0
100
AcDbLine
 10
514.066
 20
741.271
 30
0.0
 11
515.0
 21
741.326
 31
0.0
  0
LINE
  5
E33
330
1E
100
AcDbEntity
  8
0
100
AcDbLine
 10
513.19
 20
738.446
 30
0.0
 11
514.066
 21
738.297
 31
0.0
  0
LINE
  5
E34
330
1E
100
AcDbEntity
  8
0
100
AcDbLine
 10
514.066
 20
738.297
 30
0.0
 11
515.0
 21
738.2419999999999
 31
0.0
  0
LINE
  5
E35
330
1E
100
AcDbEntity
  8
0
100
AcDbLine
 10
515.0
 20
738.2419999999999
 30
0.0
 11
515.9339999999999
 21
738.297
 31
0.0
  0
LINE
  5
E36
330
1E
100
AcDbEntity
  8
0
100
AcDbLine
 10
511.8319999999999
 20
741.456
 30
0.0
 11
512.4159999999999
 21
741.783
 31
0.0
  0
LINE
  5
E37
330
1E
100
AcDbEntity
  8
0
100
AcDbLine
 10
512.4159999999999
 20
741.783
 30
0.0
 11
513.19
 21
742.03
 31
0.0
  0
LINE
  5
E38
330
1E
100
AcDbEntity
  8
0
100
AcDbLine
 10
513.19
 20
742.03
 30
0.0
 11
514.066
 21
742.178
 31
0.0
  0
LINE
  5
E39
330
1E
100
AcDbEntity
  8
0
100
AcDbLine
 10
510.3399999999999
 20
745.4224577795949
 30
0.0
 11
510.3399999999999
 21
743.812
 31
0.0
  0
LINE
  5
E3A
330
1E
100
AcDbEntity
  8
0
100
AcDbLine
 10
509.806
 20
742.9689999999999
 30
0.0
 11
511.07
 21
743.278
 31
0.0
  0
LINE
  5
E3B
330
1E
100
AcDbEntity
  8
0
100
AcDbLine
 10
511.07
 20
743.278
 30
0.0
 11
511.07
 21
744.6812637497449
 31
0.0
  0
LINE
  5
E3C
330
1E
100
AcDbEntity
  8
0
100
AcDbLine
 10
511.07
 20
744.6812637497449
 30
0.0
 11
511.07
 21
743.278
 31
0.0
  0
LINE
  5
E3D
330
1E
100
AcDbEntity
  8
0
100
AcDbLine
 10
510.3399999999999
 20
743.812
 30
0.0
 11
510.3399999999999
 21
745.4224577795949
 31
0.0
  0
LINE
  5
E3E
330
1E
100
AcDbEntity
  8
0
100
AcDbLine
 10
510.3399999999999
 20
743.812
 30
0.0
 11
511.07
 21
743.278
 31
0.0
  0
LINE
  5
E3F
330
1E
100
AcDbEntity
  8
0
100
AcDbLine
 10
514.066
 20
742.178
 30
0.0
 11
515.0
 21
742.233
 31
0.0
  0
LINE
  5
E40
330
1E
100
AcDbEntity
  8
0
100
AcDbLine
 10
515.0
 20
742.233
 30
0.0
 11
515.9339999999999
 21
742.178
 31
0.0
  0
LINE
  5
E41
330
1E
100
AcDbEntity
  8
0
100
AcDbLine
 10
515.0
 20
741.326
 30
0.0
 11
515.9339999999999
 21
741.271
 31
0.0
  0
LINE
  5
E42
330
1E
100
AcDbEntity
  8
0
100
AcDbLine
 10
509.7929999999999
 20
722.7612699871049
 30
0.0
 11
515.0
 21
722.6060000000001
 31
0.0
  0
LINE
  5
E43
330
1E
100
AcDbEntity
  8
0
100
AcDbLine
 10
508.65
 20
721.8969999999999
 30
0.0
 11
515.0
 21
721.681
 31
0.0
  0
LINE
  5
E44
330
1E
100
AcDbEntity
  8
0
100
AcDbLine
 10
472.218
 20
746.9014736842098
 30
0.0
 11
472.218
 21
746.057
 31
0.0
  0
LINE
  5
E45
330
1E
100
AcDbEntity
  8
0
100
AcDbLine
 10
470.758
 20
747.1319999999999
 30
0.0
 11
470.758
 21
745.44
 31
0.0
  0
LINE
  5
E46
330
1E
100
AcDbEntity
  8
0
100
AcDbLine
 10
470.758
 20
747.1319999999999
 30
0.0
 11
470.758
 21
746.057
 31
0.0
  0
LINE
  5
E47
330
1E
100
AcDbEntity
  8
0
100
AcDbLine
 10
474.084
 20
749.836077494547
 30
0.0
 11
474.084
 21
749.523
 31
0.0
  0
LINE
  5
E48
330
1E
100
AcDbEntity
  8
0
100
AcDbLine
 10
475.544
 20
749.523
 30
0.0
 11
475.544
 21
750.14
 31
0.0
  0
LINE
  5
E49
330
1E
100
AcDbEntity
  8
0
100
AcDbLine
 10
474.084
 20
749.523
 30
0.0
 11
474.084
 21
750.14
 31
0.0
  0
LINE
  5
E4A
330
1E
100
AcDbEntity
  8
0
100
AcDbLine
 10
474.084
 20
749.523
 30
0.0
 11
474.084
 21
749.836077494547
 31
0.0
  0
LINE
  5
E4B
330
1E
100
AcDbEntity
  8
0
100
AcDbLine
 10
474.084
 20
749.523
 30
0.0
 11
475.544
 21
749.523
 31
0.0
  0
LINE
  5
E4C
330
1E
100
AcDbEntity
  8
0
100
AcDbLine
 10
474.084
 20
750.14
 30
0.0
 11
474.084
 21
749.523
 31
0.0
  0
LINE
  5
E4D
330
1E
100
AcDbEntity
  8
0
100
AcDbLine
 10
474.084
 20
750.14
 30
0.0
 11
475.544
 21
750.14
 31
0.0
  0
LINE
  5
E4E
330
1E
100
AcDbEntity
  8
0
100
AcDbLine
 10
475.544
 20
750.14
 30
0.0
 11
475.544
 21
749.523
 31
0.0
  0
LINE
  5
E4F
330
1E
100
AcDbEntity
  8
0
100
AcDbLine
 10
471.569
 20
750.0919999999999
 30
0.0
 11
474.1969999999999
 21
752.4049999999999
 31
0.0
  0
LINE
  5
E50
330
1E
100
AcDbEntity
  8
0
100
AcDbLine
 10
469.599
 20
747.315
 30
0.0
 11
471.569
 21
750.0919999999999
 31
0.0
  0
LINE
  5
E51
330
1E
100
AcDbEntity
  8
0
100
AcDbLine
 10
469.599
 20
750.462
 30
0.0
 11
472.299
 21
752.868
 31
0.0
  0
LINE
  5
E52
330
1E
100
AcDbEntity
  8
0
100
AcDbLine
 10
467.4819999999999
 20
747.7469999999999
 30
0.0
 11
469.599
 21
750.462
 31
0.0
  0
LINE
  5
E53
330
1E
100
AcDbEntity
  8
0
100
AcDbLine
 10
474.1969999999999
 20
752.4049999999999
 30
0.0
 11
477.7009999999999
 21
754.595
 31
0.0
  0
LINE
  5
E54
330
1E
100
AcDbEntity
  8
0
100
AcDbLine
 10
475.949
 20
755.151
 30
0.0
 11
480.183
 21
757.2169999999999
 31
0.0
  0
LINE
  5
E55
330
1E
100
AcDbEntity
  8
0
100
AcDbLine
 10
472.299
 20
752.868
 30
0.0
 11
475.949
 21
755.151
 31
0.0
  0
LINE
  5
E56
330
1E
100
AcDbEntity
  8
0
100
AcDbLine
 10
475.365
 20
756.2419999999999
 30
0.0
 11
479.6719999999999
 21
758.34
 31
0.0
  0
LINE
  5
E57
330
1E
100
AcDbEntity
  8
0
100
AcDbLine
 10
471.715
 20
753.929
 30
0.0
 11
475.365
 21
756.2419999999999
 31
0.0
  0
LINE
  5
E58
330
1E
100
AcDbEntity
  8
0
100
AcDbLine
 10
468.869
 20
751.492
 30
0.0
 11
471.715
 21
753.929
 31
0.0
  0
LINE
  5
E59
330
1E
100
AcDbEntity
  8
0
100
AcDbLine
 10
466.8249999999999
 20
748.8689999999999
 30
0.0
 11
468.869
 21
751.492
 31
0.0
  0
LINE
  5
E5A
330
1E
100
AcDbEntity
  8
0
100
AcDbLine
 10
465.0
 20
762.442
 30
0.0
 11
465.5109999999999
 21
765.1569999999999
 31
0.0
  0
LINE
  5
E5B
330
1E
100
AcDbEntity
  8
0
100
AcDbLine
 10
465.0
 20
762.442
 30
0.0
 11
465.0
 21
743.4099999999999
 31
0.0
  0
LINE
  5
E5C
330
1E
100
AcDbEntity
  8
0
100
AcDbLine
 10
478.87
 20
753.571
 30
0.0
 11
478.87
 21
754.3340233631379
 31
0.0
  0
LINE
  5
E5D
330
1E
100
AcDbEntity
  8
0
100
AcDbLine
 10
478.87
 20
753.571
 30
0.0
 11
478.87
 21
752.9539999999999
 31
0.0
  0
LINE
  5
E5E
330
1E
100
AcDbEntity
  8
0
100
AcDbLine
 10
478.87
 20
753.571
 30
0.0
 11
480.33
 21
753.571
 31
0.0
  0
LINE
  5
E5F
330
1E
100
AcDbEntity
  8
0
100
AcDbLine
 10
478.87
 20
754.3340233631379
 30
0.0
 11
478.87
 21
753.571
 31
0.0
  0
LINE
  5
E60
330
1E
100
AcDbEntity
  8
0
100
AcDbLine
 10
478.87
 20
754.1227121212119
 30
0.0
 11
478.87
 21
752.9539999999999
 31
0.0
  0
LINE
  5
E61
330
1E
100
AcDbEntity
  8
0
100
AcDbLine
 10
485.601
 20
749.0
 30
0.0
 11
485.601
 21
749.6169999999999
 31
0.0
  0
LINE
  5
E62
330
1E
100
AcDbEntity
  8
0
100
AcDbLine
 10
484.1409999999999
 20
750.855828032493
 30
0.0
 11
484.1409999999999
 21
749.6169999999999
 31
0.0
  0
LINE
  5
E63
330
1E
100
AcDbEntity
  8
0
100
AcDbLine
 10
484.1409999999999
 20
749.6169999999999
 30
0.0
 11
484.1409999999999
 21
750.855828032493
 31
0.0
  0
LINE
  5
E64
330
1E
100
AcDbEntity
  8
0
100
AcDbLine
 10
484.1409999999999
 20
749.6169999999999
 30
0.0
 11
484.1409999999999
 21
749.0
 31
0.0
  0
LINE
  5
E65
330
1E
100
AcDbEntity
  8
0
100
AcDbLine
 10
484.1409999999999
 20
749.6169999999999
 30
0.0
 11
485.601
 21
749.6169999999999
 31
0.0
  0
LINE
  5
E66
330
1E
100
AcDbEntity
  8
0
100
AcDbLine
 10
485.601
 20
750.6283751893159
 30
0.0
 11
485.601
 21
749.6169999999999
 31
0.0
  0
LINE
  5
E67
330
1E
100
AcDbEntity
  8
0
100
AcDbLine
 10
485.601
 20
749.6169999999999
 30
0.0
 11
485.601
 21
749.0
 31
0.0
  0
LINE
  5
E68
330
1E
100
AcDbEntity
  8
0
100
AcDbLine
 10
485.601
 20
749.6169999999999
 30
0.0
 11
485.601
 21
750.6283751893159
 31
0.0
  0
LINE
  5
E69
330
1E
100
AcDbEntity
  8
0
100
AcDbLine
 10
484.1409999999999
 20
749.2626167386251
 30
0.0
 11
484.1409999999999
 21
749.0
 31
0.0
  0
LINE
  5
E6A
330
1E
100
AcDbEntity
  8
0
100
AcDbLine
 10
484.1409999999999
 20
749.0
 30
0.0
 11
484.1409999999999
 21
749.6169999999999
 31
0.0
  0
LINE
  5
E6B
330
1E
100
AcDbEntity
  8
0
100
AcDbLine
 10
484.1409999999999
 20
749.0
 30
0.0
 11
484.1409999999999
 21
749.2626167386251
 31
0.0
  0
LINE
  5
E6C
330
1E
100
AcDbEntity
  8
0
100
AcDbLine
 10
484.1409999999999
 20
749.0
 30
0.0
 11
485.601
 21
749.0
 31
0.0
  0
LINE
  5
E6D
330
1E
100
AcDbEntity
  8
0
100
AcDbLine
 10
506.691
 20
746.937
 30
0.0
 11
506.691
 21
748.0260094194209
 31
0.0
  0
LINE
  5
E6E
330
1E
100
AcDbEntity
  8
0
100
AcDbLine
 10
513.5019999999999
 20
747.786
 30
0.0
 11
514.766
 21
747.4769999999999
 31
0.0
  0
LINE
  5
E6F
330
1E
100
AcDbEntity
  8
0
100
AcDbLine
 10
513.5019999999999
 20
747.786
 30
0.0
 11
514.2319999999999
 21
748.321
 31
0.0
  0
LINE
  5
E70
330
1E
100
AcDbEntity
  8
0
100
AcDbLine
 10
514.766
 20
747.4769999999999
 30
0.0
 11
515.4959999999999
 21
748.0119999999999
 31
0.0
  0
LINE
  5
E71
330
1E
100
AcDbEntity
  8
0
100
AcDbLine
 10
505.961
 20
747.4709999999999
 30
0.0
 11
505.961
 21
748.5319710566878
 31
0.0
  0
LINE
  5
E72
330
1E
100
AcDbEntity
  8
0
100
AcDbLine
 10
505.961
 20
747.4709999999999
 30
0.0
 11
506.691
 21
746.937
 31
0.0
  0
LINE
  5
E73
330
1E
100
AcDbEntity
  8
0
100
AcDbLine
 10
504.6959999999999
 20
747.4667598961709
 30
0.0
 11
504.6959999999999
 21
747.163
 31
0.0
  0
LINE
  5
E74
330
1E
100
AcDbEntity
  8
0
100
AcDbLine
 10
504.6959999999999
 20
747.163
 30
0.0
 11
505.961
 21
747.4709999999999
 31
0.0
  0
LINE
  5
E75
330
1E
100
AcDbEntity
  8
0
100
AcDbLine
 10
504.6959999999999
 20
747.163
 30
0.0
 11
505.426
 21
746.6289999999998
 31
0.0
  0
LINE
  5
E76
330
1E
100
AcDbEntity
  8
0
100
AcDbLine
 10
504.6959999999999
 20
747.163
 30
0.0
 11
504.6959999999999
 21
747.4667598961709
 31
0.0
  0
LINE
  5
E77
330
1E
100
AcDbEntity
  8
0
100
AcDbLine
 10
495.8199999999999
 20
747.9639999999999
 30
0.0
 11
495.8199999999999
 21
748.581
 31
0.0
  0
LINE
  5
E78
330
1E
100
AcDbEntity
  8
0
100
AcDbLine
 10
494.3599999999999
 20
748.581
 30
0.0
 11
494.3599999999999
 21
747.9639999999999
 31
0.0
  0
LINE
  5
E79
330
1E
100
AcDbEntity
  8
0
100
AcDbLine
 10
494.3599999999999
 20
748.581
 30
0.0
 11
495.8199999999999
 21
748.581
 31
0.0
  0
LINE
  5
E7A
330
1E
100
AcDbEntity
  8
0
100
AcDbLine
 10
505.961
 20
748.5319710566878
 30
0.0
 11
505.961
 21
747.4709999999999
 31
0.0
  0
LINE
  5
E7B
330
1E
100
AcDbEntity
  8
0
100
AcDbLine
 10
514.2319999999999
 20
748.321
 30
0.0
 11
515.4959999999999
 21
748.0119999999999
 31
0.0
  0
LINE
  5
E7C
330
1E
100
AcDbEntity
  8
0
100
AcDbLine
 10
506.691
 20
748.0260094194209
 30
0.0
 11
506.691
 21
746.937
 31
0.0
  0
LINE
  5
E7D
330
1E
100
AcDbEntity
  8
0
100
AcDbLine
 10
502.3109999999999
 20
750.5959999999999
 30
0.0
 11
502.3109999999999
 21
751.061779243021
 31
0.0
  0
LINE
  5
E7E
330
1E
100
AcDbEntity
  8
0
100
AcDbLine
 10
502.3109999999999
 20
751.061779243021
 30
0.0
 11
502.3109999999999
 21
750.5959999999999
 31
0.0
  0
LINE
  5
E7F
330
1E
100
AcDbEntity
  8
0
100
AcDbLine
 10
501.0469999999999
 20
750.288
 30
0.0
 11
502.3109999999999
 21
750.5959999999999
 31
0.0
  0
LINE
  5
E80
330
1E
100
AcDbEntity
  8
0
100
AcDbLine
 10
508.42
 20
751.6560000000001
 30
0.0
 11
509.684
 21
751.3480000000001
 31
0.0
  0
LINE
  5
E81
330
1E
100
AcDbEntity
  8
0
100
AcDbLine
 10
508.42
 20
751.6560000000001
 30
0.0
 11
509.1499999999999
 21
752.19
 31
0.0
  0
LINE
  5
E82
330
1E
100
AcDbEntity
  8
0
100
AcDbLine
 10
508.42
 20
751.6560000000001
 30
0.0
 11
508.42
 21
752.535950881796
 31
0.0
  0
LINE
  5
E83
330
1E
100
AcDbEntity
  8
0
100
AcDbLine
 10
509.684
 20
751.3480000000001
 30
0.0
 11
510.414
 21
751.8819999999999
 31
0.0
  0
LINE
  5
E84
330
1E
100
AcDbEntity
  8
0
100
AcDbLine
 10
501.581
 20
751.5677408802879
 30
0.0
 11
501.581
 21
751.13
 31
0.0
  0
LINE
  5
E85
330
1E
100
AcDbEntity
  8
0
100
AcDbLine
 10
501.581
 20
751.13
 30
0.0
 11
501.581
 21
751.5677408802879
 31
0.0
  0
LINE
  5
E86
330
1E
100
AcDbEntity
  8
0
100
AcDbLine
 10
501.581
 20
751.13
 30
0.0
 11
502.3109999999999
 21
750.5959999999999
 31
0.0
  0
LINE
  5
E87
330
1E
100
AcDbEntity
  8
0
100
AcDbLine
 10
500.3169999999999
 20
750.822
 30
0.0
 11
501.581
 21
751.13
 31
0.0
  0
LINE
  5
E88
330
1E
100
AcDbEntity
  8
0
100
AcDbLine
 10
500.3169999999999
 20
750.822
 30
0.0
 11
501.0469999999999
 21
750.288
 31
0.0
  0
LINE
  5
E89
330
1E
100
AcDbEntity
  8
0
100
AcDbLine
 10
500.3169999999999
 20
750.822
 30
0.0
 11
500.3169999999999
 21
752.205878950974
 31
0.0
  0
LINE
  5
E8A
330
1E
100
AcDbEntity
  8
0
100
AcDbLine
 10
495.8199999999999
 20
749.4346931154378
 30
0.0
 11
495.8199999999999
 21
748.581
 31
0.0
  0
LINE
  5
E8B
330
1E
100
AcDbEntity
  8
0
100
AcDbLine
 10
495.8199999999999
 20
748.581
 30
0.0
 11
495.8199999999999
 21
747.9639999999999
 31
0.0
  0
LINE
  5
E8C
330
1E
100
AcDbEntity
  8
0
100
AcDbLine
 10
495.8199999999999
 20
748.581
 30
0.0
 11
495.8199999999999
 21
749.4346931154378
 31
0.0
  0
LINE
  5
E8D
330
1E
100
AcDbEntity
  8
0
100
AcDbLine
 10
494.3599999999999
 20
748.3009595959599
 30
0.0
 11
494.3599999999999
 21
747.9639999999999
 31
0.0
  0
LINE
  5
E8E
330
1E
100
AcDbEntity
  8
0
100
AcDbLine
 10
494.3599999999999
 20
747.9639999999999
 30
0.0
 11
494.3599999999999
 21
748.581
 31
0.0
  0
LINE
  5
E8F
330
1E
100
AcDbEntity
  8
0
100
AcDbLine
 10
494.3599999999999
 20
747.9639999999999
 30
0.0
 11
494.3599999999999
 21
748.3009595959599
 31
0.0
  0
LINE
  5
E90
330
1E
100
AcDbEntity
  8
0
100
AcDbLine
 10
494.3599999999999
 20
747.9639999999999
 30
0.0
 11
495.8199999999999
 21
747.9639999999999
 31
0.0
  0
LINE
  5
E91
330
1E
100
AcDbEntity
  8
0
100
AcDbLine
 10
490.955
 20
751.8139999999999
 30
0.0
 11
490.955
 21
752.431
 31
0.0
  0
LINE
  5
E92
330
1E
100
AcDbEntity
  8
0
100
AcDbLine
 10
489.495
 20
752.431
 30
0.0
 11
489.495
 21
752.5677005418671
 31
0.0
  0
LINE
  5
E93
330
1E
100
AcDbEntity
  8
0
100
AcDbLine
 10
489.495
 20
752.431
 30
0.0
 11
489.495
 21
751.8139999999999
 31
0.0
  0
LINE
  5
E94
330
1E
100
AcDbEntity
  8
0
100
AcDbLine
 10
489.495
 20
752.431
 30
0.0
 11
490.955
 21
752.431
 31
0.0
  0
LINE
  5
E95
330
1E
100
AcDbEntity
  8
0
100
AcDbLine
 10
509.1499999999999
 20
752.19
 30
0.0
 11
510.414
 21
751.8819999999999
 31
0.0
  0
LINE
  5
E96
330
1E
100
AcDbEntity
  8
0
100
AcDbLine
 10
500.3169999999999
 20
752.205878950974
 30
0.0
 11
500.3169999999999
 21
750.822
 31
0.0
  0
LINE
  5
E97
330
1E
100
AcDbEntity
  8
0
100
AcDbLine
 10
508.42
 20
752.535950881796
 30
0.0
 11
508.42
 21
751.6560000000001
 31
0.0
  0
LINE
  5
E98
330
1E
100
AcDbEntity
  8
0
100
AcDbLine
 10
490.955
 20
752.431
 30
0.0
 11
490.955
 21
751.8139999999999
 31
0.0
  0
LINE
  5
E99
330
1E
100
AcDbEntity
  8
0
100
AcDbLine
 10
490.955
 20
752.431
 30
0.0
 11
490.955
 21
753.8318670053099
 31
0.0
  0
LINE
  5
E9A
330
1E
100
AcDbEntity
  8
0
100
AcDbLine
 10
489.495
 20
752.5677005418671
 30
0.0
 11
489.495
 21
751.8139999999999
 31
0.0
  0
LINE
  5
E9B
330
1E
100
AcDbEntity
  8
0
100
AcDbLine
 10
489.495
 20
752.5677005418671
 30
0.0
 11
489.495
 21
752.431
 31
0.0
  0
LINE
  5
E9C
330
1E
100
AcDbEntity
  8
0
100
AcDbLine
 10
489.495
 20
751.8139999999999
 30
0.0
 11
489.495
 21
752.431
 31
0.0
  0
LINE
  5
E9D
330
1E
100
AcDbEntity
  8
0
100
AcDbLine
 10
489.495
 20
751.8139999999999
 30
0.0
 11
489.495
 21
752.5677005418671
 31
0.0
  0
LINE
  5
E9E
330
1E
100
AcDbEntity
  8
0
100
AcDbLine
 10
489.495
 20
751.8139999999999
 30
0.0
 11
490.955
 21
751.8139999999999
 31
0.0
  0
LINE
  5
E9F
330
1E
100
AcDbEntity
  8
0
100
AcDbLine
 10
480.33
 20
752.9539999999999
 30
0.0
 11
480.33
 21
753.571
 31
0.0
  0
LINE
  5
EA0
330
1E
100
AcDbEntity
  8
0
100
AcDbLine
 10
496.6669999999999
 20
753.946
 30
0.0
 11
497.9309999999999
 21
754.2539999999998
 31
0.0
  0
LINE
  5
EA1
330
1E
100
AcDbEntity
  8
0
100
AcDbLine
 10
495.9369999999999
 20
754.481
 30
0.0
 11
497.2019999999999
 21
754.7889999999999
 31
0.0
  0
LINE
  5
EA2
330
1E
100
AcDbEntity
  8
0
100
AcDbLine
 10
495.9369999999999
 20
754.481
 30
0.0
 11
496.6669999999999
 21
753.946
 31
0.0
  0
LINE
  5
EA3
330
1E
100
AcDbEntity
  8
0
100
AcDbLine
 10
495.9369999999999
 20
754.481
 30
0.0
 11
495.9369999999999
 21
754.6859393889071
 31
0.0
  0
LINE
  5
EA4
330
1E
100
AcDbEntity
  8
0
100
AcDbLine
 10
490.955
 20
753.8318670053099
 30
0.0
 11
490.955
 21
752.431
 31
0.0
  0
LINE
  5
EA5
330
1E
100
AcDbEntity
  8
0
100
AcDbLine
 10
480.33
 20
754.008081626767
 30
0.0
 11
480.33
 21
753.571
 31
0.0
  0
LINE
  5
EA6
330
1E
100
AcDbEntity
  8
0
100
AcDbLine
 10
480.33
 20
753.571
 30
0.0
 11
480.33
 21
752.9539999999999
 31
0.0
  0
LINE
  5
EA7
330
1E
100
AcDbEntity
  8
0
100
AcDbLine
 10
480.33
 20
753.571
 30
0.0
 11
480.33
 21
754.008081626767
 31
0.0
  0
LINE
  5
EA8
330
1E
100
AcDbEntity
  8
0
100
AcDbLine
 10
478.87
 20
752.9539999999999
 30
0.0
 11
478.87
 21
753.571
 31
0.0
  0
LINE
  5
EA9
330
1E
100
AcDbEntity
  8
0
100
AcDbLine
 10
478.87
 20
752.9539999999999
 30
0.0
 11
478.87
 21
754.1227121212119
 31
0.0
  0
LINE
  5
EAA
330
1E
100
AcDbEntity
  8
0
100
AcDbLine
 10
478.87
 20
752.9539999999999
 30
0.0
 11
480.33
 21
752.9539999999999
 31
0.0
  0
LINE
  5
EAB
330
1E
100
AcDbEntity
  8
0
100
AcDbLine
 10
481.788
 20
756.5389999999999
 30
0.0
 11
486.3869999999999
 21
758.266
 31
0.0
  0
LINE
  5
EAC
330
1E
100
AcDbEntity
  8
0
100
AcDbLine
 10
480.183
 20
757.2169999999999
 30
0.0
 11
485.073
 21
759.0069999999999
 31
0.0
  0
LINE
  5
EAD
330
1E
100
AcDbEntity
  8
0
100
AcDbLine
 10
479.6719999999999
 20
758.34
 30
0.0
 11
484.635
 21
760.1599999999999
 31
0.0
  0
LINE
  5
EAE
330
1E
100
AcDbEntity
  8
0
100
AcDbLine
 10
485.278
 20
757.8495522939769
 30
0.0
 11
485.278
 21
756.418
 31
0.0
  0
LINE
  5
EAF
330
1E
100
AcDbEntity
  8
0
100
AcDbLine
 10
485.278
 20
756.418
 30
0.0
 11
485.278
 21
757.8495522939769
 31
0.0
  0
LINE
  5
EB0
330
1E
100
AcDbEntity
  8
0
100
AcDbLine
 10
485.278
 20
756.418
 30
0.0
 11
485.278
 21
755.801
 31
0.0
  0
LINE
  5
EB1
330
1E
100
AcDbEntity
  8
0
100
AcDbLine
 10
485.278
 20
756.418
 30
0.0
 11
486.738
 21
756.418
 31
0.0
  0
LINE
  5
EB2
330
1E
100
AcDbEntity
  8
0
100
AcDbLine
 10
485.278
 20
755.801
 30
0.0
 11
485.278
 21
756.418
 31
0.0
  0
LINE
  5
EB3
330
1E
100
AcDbEntity
  8
0
100
AcDbLine
 10
485.278
 20
755.801
 30
0.0
 11
486.738
 21
755.801
 31
0.0
  0
LINE
  5
EB4
330
1E
100
AcDbEntity
  8
0
100
AcDbLine
 10
486.738
 20
755.801
 30
0.0
 11
486.738
 21
756.418
 31
0.0
  0
LINE
  5
EB5
330
1E
100
AcDbEntity
  8
0
100
AcDbLine
 10
486.738
 20
758.0333380986419
 30
0.0
 11
486.738
 21
756.418
 31
0.0
  0
LINE
  5
EB6
330
1E
100
AcDbEntity
  8
0
100
AcDbLine
 10
486.738
 20
756.418
 30
0.0
 11
486.738
 21
755.801
 31
0.0
  0
LINE
  5
EB7
330
1E
100
AcDbEntity
  8
0
100
AcDbLine
 10
486.738
 20
756.418
 30
0.0
 11
486.738
 21
758.0333380986419
 31
0.0
  0
LINE
  5
EB8
330
1E
100
AcDbEntity
  8
0
100
AcDbLine
 10
493.5519999999999
 20
757.9139999999999
 30
0.0
 11
493.5519999999999
 21
758.7871023299158
 31
0.0
  0
LINE
  5
EB9
330
1E
100
AcDbEntity
  8
0
100
AcDbLine
 10
492.288
 20
757.605
 30
0.0
 11
493.5519999999999
 21
757.9139999999999
 31
0.0
  0
LINE
  5
EBA
330
1E
100
AcDbEntity
  8
0
100
AcDbLine
 10
491.558
 20
758.1389999999998
 30
0.0
 11
492.8219999999999
 21
758.448
 31
0.0
  0
LINE
  5
EBB
330
1E
100
AcDbEntity
  8
0
100
AcDbLine
 10
491.558
 20
758.1389999999998
 30
0.0
 11
492.288
 21
757.605
 31
0.0
  0
LINE
  5
EBC
330
1E
100
AcDbEntity
  8
0
100
AcDbLine
 10
491.558
 20
758.1389999999998
 30
0.0
 11
491.558
 21
759.7438562331149
 31
0.0
  0
LINE
  5
EBD
330
1E
100
AcDbEntity
  8
0
100
AcDbLine
 10
492.8219999999999
 20
759.140468592731
 30
0.0
 11
492.8219999999999
 21
758.448
 31
0.0
  0
LINE
  5
EBE
330
1E
100
AcDbEntity
  8
0
100
AcDbLine
 10
493.5519999999999
 20
758.7871023299158
 30
0.0
 11
493.5519999999999
 21
757.9139999999999
 31
0.0
  0
LINE
  5
EBF
330
1E
100
AcDbEntity
  8
0
100
AcDbLine
 10
492.8219999999999
 20
758.448
 30
0.0
 11
492.8219999999999
 21
759.140468592731
 31
0.0
  0
LINE
  5
EC0
330
1E
100
AcDbEntity
  8
0
100
AcDbLine
 10
492.8219999999999
 20
758.448
 30
0.0
 11
493.5519999999999
 21
757.9139999999999
 31
0.0
  0
LINE
  5
EC1
330
1E
100
AcDbEntity
  8
0
100
AcDbLine
 10
491.558
 20
759.7438562331149
 30
0.0
 11
491.558
 21
758.1389999999998
 31
0.0
  0
LINE
  5
EC2
330
1E
100
AcDbEntity
  8
0
100
AcDbLine
 10
486.3869999999999
 20
758.266
 30
0.0
 11
491.569
 21
759.7469999999999
 31
0.0
  0
LINE
  5
EC3
330
1E
100
AcDbEntity
  8
0
100
AcDbLine
 10
491.569
 20
759.7469999999999
 30
0.0
 11
497.044
 21
760.858
 31
0.0
  0
LINE
  5
EC4
330
1E
100
AcDbEntity
  8
0
100
AcDbLine
 10
485.073
 20
759.0069999999999
 30
0.0
 11
490.4749999999999
 21
760.5489999999999
 31
0.0
  0
LINE
  5
EC5
330
1E
100
AcDbEntity
  8
0
100
AcDbLine
 10
490.4749999999999
 20
760.5489999999999
 30
0.0
 11
496.168
 21
761.6900000000001
 31
0.0
  0
LINE
  5
EC6
330
1E
100
AcDbEntity
  8
0
100
AcDbLine
 10
484.635
 20
760.1599999999999
 30
0.0
 11
490.109
 21
761.702
 31
0.0
  0
LINE
  5
EC7
330
1E
100
AcDbEntity
  8
0
100
AcDbLine
 10
490.109
 20
761.702
 30
0.0
 11
495.8759999999999
 21
762.9049999999999
 31
0.0
  0
LINE
  5
EC8
330
1E
100
AcDbEntity
  8
0
100
AcDbLine
 10
495.9369999999999
 20
754.6859393889071
 30
0.0
 11
495.9369999999999
 21
754.481
 31
0.0
  0
LINE
  5
EC9
330
1E
100
AcDbEntity
  8
0
100
AcDbLine
 10
498.7589999999999
 20
759.816359706882
 30
0.0
 11
498.7589999999999
 21
759.3510000000001
 31
0.0
  0
LINE
  5
ECA
330
1E
100
AcDbEntity
  8
0
100
AcDbLine
 10
498.7589999999999
 20
759.3510000000001
 30
0.0
 11
500.023
 21
759.043
 31
0.0
  0
LINE
  5
ECB
330
1E
100
AcDbEntity
  8
0
100
AcDbLine
 10
498.7589999999999
 20
759.3510000000001
 30
0.0
 11
499.489
 21
759.8860000000001
 31
0.0
  0
LINE
  5
ECC
330
1E
100
AcDbEntity
  8
0
100
AcDbLine
 10
498.7589999999999
 20
759.3510000000001
 30
0.0
 11
498.7589999999999
 21
759.816359706882
 31
0.0
  0
LINE
  5
ECD
330
1E
100
AcDbEntity
  8
0
100
AcDbLine
 10
500.023
 20
759.043
 30
0.0
 11
500.753
 21
759.5769999999999
 31
0.0
  0
LINE
  5
ECE
330
1E
100
AcDbEntity
  8
0
100
AcDbLine
 10
499.489
 20
761.16767270513
 30
0.0
 11
499.489
 21
759.8860000000001
 31
0.0
  0
LINE
  5
ECF
330
1E
100
AcDbEntity
  8
0
100
AcDbLine
 10
499.489
 20
759.8860000000001
 30
0.0
 11
500.753
 21
759.5769999999999
 31
0.0
  0
LINE
  5
ED0
330
1E
100
AcDbEntity
  8
0
100
AcDbLine
 10
499.489
 20
759.8860000000001
 30
0.0
 11
499.489
 21
761.16767270513
 31
0.0
  0
LINE
  5
ED1
330
1E
100
AcDbEntity
  8
0
100
AcDbLine
 10
497.2019999999999
 20
754.7889999999999
 30
0.0
 11
497.9309999999999
 21
754.2539999999998
 31
0.0
  0
LINE
  5
ED2
330
1E
100
AcDbEntity
  8
0
100
AcDbLine
 10
497.044
 20
760.858
 30
0.0
 11
503.613
 21
761.6900000000001
 31
0.0
  0
LINE
  5
ED3
330
1E
100
AcDbEntity
  8
0
100
AcDbLine
 10
496.168
 20
761.6900000000001
 30
0.0
 11
502.591
 21
762.585
 31
0.0
  0
LINE
  5
ED4
330
1E
100
AcDbEntity
  8
0
100
AcDbLine
 10
503.892
 20
755.5880000000001
 30
0.0
 11
505.1569999999999
 21
755.2799999999999
 31
0.0
  0
LINE
  5
ED5
330
1E
100
AcDbEntity
  8
0
100
AcDbLine
 10
503.892
 20
755.5880000000001
 30
0.0
 11
504.6219999999999
 21
756.1219999999999
 31
0.0
  0
LINE
  5
ED6
330
1E
100
AcDbEntity
  8
0
100
AcDbLine
 10
503.892
 20
755.5880000000001
 30
0.0
 11
503.892
 21
756.6987272727271
 31
0.0
  0
LINE
  5
ED7
330
1E
100
AcDbEntity
  8
0
100
AcDbLine
 10
505.8869999999999
 20
755.8139999999999
 30
0.0
 11
505.8869999999999
 21
756.4574836670179
 31
0.0
  0
LINE
  5
ED8
330
1E
100
AcDbEntity
  8
0
100
AcDbLine
 10
505.1569999999999
 20
755.2799999999999
 30
0.0
 11
505.8869999999999
 21
755.8139999999999
 31
0.0
  0
LINE
  5
ED9
330
1E
100
AcDbEntity
  8
0
100
AcDbLine
 10
504.6219999999999
 20
756.1219999999999
 30
0.0
 11
505.8869999999999
 21
755.8139999999999
 31
0.0
  0
LINE
  5
EDA
330
1E
100
AcDbEntity
  8
0
100
AcDbLine
 10
504.6219999999999
 20
756.1219999999999
 30
0.0
 11
504.6219999999999
 21
756.2553468564149
 31
0.0
  0
LINE
  5
EDB
330
1E
100
AcDbEntity
  8
0
100
AcDbLine
 10
504.6219999999999
 20
756.2553468564149
 30
0.0
 11
504.6219999999999
 21
756.1219999999999
 31
0.0
  0
LINE
  5
EDC
330
1E
100
AcDbEntity
  8
0
100
AcDbLine
 10
505.8869999999999
 20
756.4574836670179
 30
0.0
 11
505.8869999999999
 21
755.8139999999999
 31
0.0
  0
LINE
  5
EDD
330
1E
100
AcDbEntity
  8
0
100
AcDbLine
 10
512.334
 20
756.1410000000001
 30
0.0
 11
513.599
 21
755.833
 31
0.0
  0
LINE
  5
EDE
330
1E
100
AcDbEntity
  8
0
100
AcDbLine
 10
512.334
 20
756.1410000000001
 30
0.0
 11
513.0639999999999
 21
756.6749999999999
 31
0.0
  0
LINE
  5
EDF
330
1E
100
AcDbEntity
  8
0
100
AcDbLine
 10
513.599
 20
755.833
 30
0.0
 11
514.329
 21
756.367
 31
0.0
  0
LINE
  5
EE0
330
1E
100
AcDbEntity
  8
0
100
AcDbLine
 10
503.892
 20
756.6987272727271
 30
0.0
 11
503.892
 21
755.5880000000001
 31
0.0
  0
LINE
  5
EE1
330
1E
100
AcDbEntity
  8
0
100
AcDbLine
 10
507.799
 20
760.273
 30
0.0
 11
509.063
 21
759.9639999999999
 31
0.0
  0
LINE
  5
EE2
330
1E
100
AcDbEntity
  8
0
100
AcDbLine
 10
507.799
 20
760.273
 30
0.0
 11
508.5289999999999
 21
760.807
 31
0.0
  0
LINE
  5
EE3
330
1E
100
AcDbEntity
  8
0
100
AcDbLine
 10
509.7929999999999
 20
760.498
 30
0.0
 11
509.7929999999999
 21
761.157093649259
 31
0.0
  0
LINE
  5
EE4
330
1E
100
AcDbEntity
  8
0
100
AcDbLine
 10
509.063
 20
759.9639999999999
 30
0.0
 11
509.7929999999999
 21
760.498
 31
0.0
  0
LINE
  5
EE5
330
1E
100
AcDbEntity
  8
0
100
AcDbLine
 10
508.5289999999999
 20
762.187954852402
 30
0.0
 11
508.5289999999999
 21
760.807
 31
0.0
  0
LINE
  5
EE6
330
1E
100
AcDbEntity
  8
0
100
AcDbLine
 10
509.7929999999999
 20
761.157093649259
 30
0.0
 11
509.7929999999999
 21
760.498
 31
0.0
  0
LINE
  5
EE7
330
1E
100
AcDbEntity
  8
0
100
AcDbLine
 10
508.5289999999999
 20
760.807
 30
0.0
 11
509.7929999999999
 21
760.498
 31
0.0
  0
LINE
  5
EE8
330
1E
100
AcDbEntity
  8
0
100
AcDbLine
 10
508.5289999999999
 20
760.807
 30
0.0
 11
508.5289999999999
 21
762.187954852402
 31
0.0
  0
LINE
  5
EE9
330
1E
100
AcDbEntity
  8
0
100
AcDbLine
 10
513.0639999999999
 20
757.6862695035459
 30
0.0
 11
513.0639999999999
 21
756.6749999999999
 31
0.0
  0
LINE
  5
EEA
330
1E
100
AcDbEntity
  8
0
100
AcDbLine
 10
513.0639999999999
 20
756.6749999999999
 30
0.0
 11
514.329
 21
756.367
 31
0.0
  0
LINE
  5
EEB
330
1E
100
AcDbEntity
  8
0
100
AcDbLine
 10
513.0639999999999
 20
756.6749999999999
 30
0.0
 11
513.0639999999999
 21
757.6862695035459
 31
0.0
  0
LINE
  5
EEC
330
1E
100
AcDbEntity
  8
0
100
AcDbLine
 10
503.613
 20
761.6900000000001
 30
0.0
 11
508.7959999999999
 21
762.215
 31
0.0
  0
LINE
  5
EED
330
1E
100
AcDbEntity
  8
0
100
AcDbLine
 10
508.7959999999999
 20
762.215
 30
0.0
 11
515.0
 21
762.3999999999999
 31
0.0
  0
LINE
  5
EEE
330
1E
100
AcDbEntity
  8
0
100
AcDbLine
 10
502.591
 20
762.585
 30
0.0
 11
508.65
 21
763.1089999999999
 31
0.0
  0
LINE
  5
EEF
330
1E
100
AcDbEntity
  8
0
100
AcDbLine
 10
508.65
 20
763.1089999999999
 30
0.0
 11
515.0
 21
763.3259999999999
 31
0.0
  0
LINE
  5
EF0
330
1E
100
AcDbEntity
  8
0
100
AcDbLine
 10
495.8759999999999
 20
762.9049999999999
 30
0.0
 11
502.08
 21
763.7689999999999
 31
0.0
  0
LINE
  5
EF1
330
1E
100
AcDbEntity
  8
0
100
AcDbLine
 10
477.7009999999999
 20
754.595
 30
0.0
 11
481.788
 21
756.5389999999999
 31
0.0
  0
LINE
  5
EF2
330
1E
100
AcDbEntity
  8
0
100
AcDbLine
 10
515.0
 20
722.6060000000001
 30
0.0
 11
517.500933000211
 21
722.680576499845
 31
0.0
  0
LINE
  5
EF3
330
1E
100
AcDbEntity
  8
0
100
AcDbLine
 10
515.0
 20
721.681
 30
0.0
 11
521.35
 21
721.8969999999999
 31
0.0
  0
LINE
  5
EF4
330
1E
100
AcDbEntity
  8
0
100
AcDbLine
 10
515.0
 20
762.3999999999999
 30
0.0
 11
521.204
 21
762.215
 31
0.0
  0
LINE
  5
EF5
330
1E
100
AcDbEntity
  8
0
100
AcDbLine
 10
468.869
 20
770.5239999999998
 30
0.0
 11
469.599
 21
771.307
 31
0.0
  0
LINE
  5
EF6
330
1E
100
AcDbEntity
  8
0
100
AcDbLine
 10
468.869
 20
770.5239999999998
 30
0.0
 11
471.715
 21
772.961
 31
0.0
  0
LINE
  5
EF7
330
1E
100
AcDbEntity
  8
0
100
AcDbLine
 10
466.8249999999999
 20
767.9019999999999
 30
0.0
 11
468.869
 21
770.5239999999998
 31
0.0
  0
LINE
  5
EF8
330
1E
100
AcDbEntity
  8
0
100
AcDbLine
 10
465.5109999999999
 20
765.1569999999999
 30
0.0
 11
466.8249999999999
 21
767.9019999999999
 31
0.0
  0
LINE
  5
EF9
330
1E
100
AcDbEntity
  8
0
100
AcDbLine
 10
502.08
 20
763.7689999999999
 30
0.0
 11
508.577
 21
764.3239999999999
 31
0.0
  0
LINE
  5
EFA
330
1E
100
AcDbEntity
  8
0
100
AcDbLine
 10
508.577
 20
764.3239999999999
 30
0.0
 11
515.0
 21
764.541
 31
0.0
  0
LINE
  5
EFB
330
1E
100
AcDbEntity
  8
0
100
AcDbLine
 10
471.715
 20
772.961
 30
0.0
 11
475.365
 21
775.2749999999999
 31
0.0
  0
LINE
  5
EFC
330
1E
100
AcDbEntity
  8
0
100
AcDbLine
 10
475.365
 20
775.2749999999999
 30
0.0
 11
479.6719999999999
 21
777.3719999999999
 31
0.0
  0
LINE
  5
EFD
330
1E
100
AcDbEntity
  8
0
100
AcDbLine
 10
479.6719999999999
 20
777.3719999999999
 30
0.0
 11
484.635
 21
779.1929999999999
 31
0.0
  0
LINE
  5
EFE
330
1E
100
AcDbEntity
  8
0
100
AcDbLine
 10
484.635
 20
779.1929999999999
 30
0.0
 11
490.109
 21
780.735
 31
0.0
  0
LINE
  5
EFF
330
1E
100
AcDbEntity
  8
0
100
AcDbLine
 10
480.183
 20
778.063
 30
0.0
 11
485.073
 21
779.8519999999999
 31
0.0
  0
LINE
  5
F00
330
1E
100
AcDbEntity
  8
0
100
AcDbLine
 10
490.109
 20
780.735
 30
0.0
 11
495.8759999999999
 21
781.9379999999999
 31
0.0
  0
LINE
  5
F01
330
1E
100
AcDbEntity
  8
0
100
AcDbLine
 10
485.073
 20
779.8519999999999
 30
0.0
 11
490.4749999999999
 21
781.395
 31
0.0
  0
LINE
  5
F02
330
1E
100
AcDbEntity
  8
0
100
AcDbLine
 10
495.8759999999999
 20
781.9379999999999
 30
0.0
 11
502.08
 21
782.802
 31
0.0
  0
LINE
  5
F03
330
1E
100
AcDbEntity
  8
0
100
AcDbLine
 10
490.4749999999999
 20
781.395
 30
0.0
 11
496.168
 21
782.536
 31
0.0
  0
LINE
  5
F04
330
1E
100
AcDbEntity
  8
0
100
AcDbLine
 10
502.08
 20
782.802
 30
0.0
 11
508.577
 21
783.3569999999999
 31
0.0
  0
LINE
  5
F05
330
1E
100
AcDbEntity
  8
0
100
AcDbLine
 10
496.168
 20
782.536
 30
0.0
 11
502.591
 21
783.4299999999999
 31
0.0
  0
LINE
  5
F06
330
1E
100
AcDbEntity
  8
0
100
AcDbLine
 10
508.577
 20
783.3569999999999
 30
0.0
 11
515.0
 21
783.5729999999999
 31
0.0
  0
LINE
  5
F07
330
1E
100
AcDbEntity
  8
0
100
AcDbLine
 10
502.591
 20
783.4299999999999
 30
0.0
 11
508.65
 21
783.955
 31
0.0
  0
LINE
  5
F08
330
1E
100
AcDbEntity
  8
0
100
AcDbLine
 10
475.949
 20
775.9960000000001
 30
0.0
 11
480.183
 21
778.063
 31
0.0
  0
LINE
  5
F09
330
1E
100
AcDbEntity
  8
0
100
AcDbLine
 10
472.299
 20
773.7130000000001
 30
0.0
 11
475.949
 21
775.9960000000001
 31
0.0
  0
LINE
  5
F0A
330
1E
100
AcDbEntity
  8
0
100
AcDbLine
 10
469.599
 20
771.307
 30
0.0
 11
472.299
 21
773.7130000000001
 31
0.0
  0
LINE
  5
F0B
330
1E
100
AcDbEntity
  8
0
100
AcDbLine
 10
469.302940276171
 20
770.9274505949589
 30
0.0
 11
469.599
 21
771.307
 31
0.0
  0
LINE
  5
F0C
330
1E
100
AcDbEntity
  8
0
100
AcDbLine
 10
515.0
 20
763.3259999999999
 30
0.0
 11
521.35
 21
763.1089999999999
 31
0.0
  0
LINE
  5
F0D
330
1E
100
AcDbEntity
  8
0
100
AcDbLine
 10
515.0
 20
764.541
 30
0.0
 11
521.4229999999999
 21
764.3239999999999
 31
0.0
  0
LINE
  5
F0E
330
1E
100
AcDbEntity
  8
0
100
AcDbLine
 10
508.65
 20
783.955
 30
0.0
 11
515.0
 21
784.1699999999999
 31
0.0
  0
LINE
  5
F0F
330
1E
100
AcDbEntity
  8
0
100
AcDbLine
 10
515.0
 20
783.5729999999999
 30
0.0
 11
521.4229999999999
 21
783.3569999999999
 31
0.0
  0
LINE
  5
F10
330
1E
100
AcDbEntity
  8
0
100
AcDbLine
 10
518.0719999999999
 20
703.5818
 30
0.0
 11
520.952
 21
704.8178
 31
0.0
  0
LINE
  5
F11
330
1E
100
AcDbEntity
  8
0
100
AcDbLine
 10
520.952
 20
704.8178
 30
0.0
 11
523.4479999999999
 21
706.7599999999999
 31
0.0
  0
LINE
  5
F12
330
1E
100
AcDbEntity
  8
0
100
AcDbLine
 10
517.2080000000001
 20
706.936
 30
0.0
 11
519.32
 21
707.73
 31
0.0
  0
LINE
  5
F13
330
1E
100
AcDbEntity
  8
0
100
AcDbLine
 10
519.216
 20
722.6589999999999
 30
0.0
 11
519.216
 21
722.731718891038
 31
0.0
  0
LINE
  5
F14
330
1E
100
AcDbEntity
  8
0
100
AcDbLine
 10
517.952
 20
722.35
 30
0.0
 11
519.216
 21
722.6589999999999
 31
0.0
  0
LINE
  5
F15
330
1E
100
AcDbEntity
  8
0
100
AcDbLine
 10
519.32
 20
707.73
 30
0.0
 11
521.144
 21
709.1419999999999
 31
0.0
  0
LINE
  5
F16
330
1E
100
AcDbEntity
  8
0
100
AcDbLine
 10
521.144
 20
709.1419999999999
 30
0.0
 11
522.488
 21
710.996
 31
0.0
  0
LINE
  5
F17
330
1E
100
AcDbEntity
  8
0
100
AcDbLine
 10
517.222
 20
722.885
 30
0.0
 11
518.4859999999999
 21
723.193
 31
0.0
  0
LINE
  5
F18
330
1E
100
AcDbEntity
  8
0
100
AcDbLine
 10
517.222
 20
722.885
 30
0.0
 11
517.952
 21
722.35
 31
0.0
  0
LINE
  5
F19
330
1E
100
AcDbEntity
  8
0
100
AcDbLine
 10
518.4859999999999
 20
723.193
 30
0.0
 11
519.216
 21
722.6589999999999
 31
0.0
  0
LINE
  5
F1A
330
1E
100
AcDbEntity
  8
0
100
AcDbLine
 10
516.8099999999999
 20
738.446
 30
0.0
 11
517.584
 21
738.6929999999999
 31
0.0
  0
LINE
  5
F1B
330
1E
100
AcDbEntity
  8
0
100
AcDbLine
 10
515.9339999999999
 20
738.297
 30
0.0
 11
516.8099999999999
 21
738.446
 31
0.0
  0
LINE
  5
F1C
330
1E
100
AcDbEntity
  8
0
100
AcDbLine
 10
518.168
 20
739.0189999999998
 30
0.0
 11
518.518
 21
739.3889999999998
 31
0.0
  0
LINE
  5
F1D
330
1E
100
AcDbEntity
  8
0
100
AcDbLine
 10
517.584
 20
738.6929999999999
 30
0.0
 11
518.168
 21
739.0189999999998
 31
0.0
  0
LINE
  5
F1E
330
1E
100
AcDbEntity
  8
0
100
AcDbLine
 10
518.86
 20
729.699
 30
0.0
 11
520.124
 21
730.008
 31
0.0
  0
LINE
  5
F1F
330
1E
100
AcDbEntity
  8
0
100
AcDbLine
 10
518.86
 20
729.699
 30
0.0
 11
519.59
 21
729.1649999999999
 31
0.0
  0
LINE
  5
F20
330
1E
100
AcDbEntity
  8
0
100
AcDbLine
 10
519.59
 20
729.1649999999999
 30
0.0
 11
520.854
 21
729.4739999999999
 31
0.0
  0
LINE
  5
F21
330
1E
100
AcDbEntity
  8
0
100
AcDbLine
 10
518.9299999999999
 20
737.78837007874
 30
0.0
 11
518.9299999999999
 21
736.2899999999999
 31
0.0
  0
LINE
  5
F22
330
1E
100
AcDbEntity
  8
0
100
AcDbLine
 10
518.9299999999999
 20
736.2899999999999
 30
0.0
 11
520.1939999999999
 21
736.5989999999999
 31
0.0
  0
LINE
  5
F23
330
1E
100
AcDbEntity
  8
0
100
AcDbLine
 10
518.9299999999999
 20
736.2899999999999
 30
0.0
 11
519.66
 21
735.7560000000001
 31
0.0
  0
LINE
  5
F24
330
1E
100
AcDbEntity
  8
0
100
AcDbLine
 10
518.9299999999999
 20
736.2899999999999
 30
0.0
 11
518.9299999999999
 21
737.78837007874
 31
0.0
  0
LINE
  5
F25
330
1E
100
AcDbEntity
  8
0
100
AcDbLine
 10
520.124
 20
730.008
 30
0.0
 11
520.854
 21
729.4739999999999
 31
0.0
  0
LINE
  5
F26
330
1E
100
AcDbEntity
  8
0
100
AcDbLine
 10
520.1939999999999
 20
737.812381413985
 30
0.0
 11
520.1939999999999
 21
736.5989999999999
 31
0.0
  0
LINE
  5
F27
330
1E
100
AcDbEntity
  8
0
100
AcDbLine
 10
520.1939999999999
 20
736.5989999999999
 30
0.0
 11
520.924
 21
736.065
 31
0.0
  0
LINE
  5
F28
330
1E
100
AcDbEntity
  8
0
100
AcDbLine
 10
520.1939999999999
 20
736.5989999999999
 30
0.0
 11
520.1939999999999
 21
737.812381413985
 31
0.0
  0
LINE
  5
F29
330
1E
100
AcDbEntity
  8
0
100
AcDbLine
 10
519.66
 20
735.7560000000001
 30
0.0
 11
520.924
 21
736.065
 31
0.0
  0
LINE
  5
F2A
330
1E
100
AcDbEntity
  8
0
100
AcDbLine
 10
518.6499999999999
 20
739.785
 30
0.0
 11
518.6499999999999
 21
740.691
 31
0.0
  0
LINE
  5
F2B
330
1E
100
AcDbEntity
  8
0
100
AcDbLine
 10
518.518
 20
739.3889999999998
 30
0.0
 11
518.6499999999999
 21
739.785
 31
0.0
  0
LINE
  5
F2C
330
1E
100
AcDbEntity
  8
0
100
AcDbLine
 10
518.6499999999999
 20
740.691
 30
0.0
 11
518.6499999999999
 21
739.785
 31
0.0
  0
LINE
  5
F2D
330
1E
100
AcDbEntity
  8
0
100
AcDbLine
 10
518.518
 20
740.179
 30
0.0
 11
518.6499999999999
 21
739.785
 31
0.0
  0
LINE
  5
F2E
330
1E
100
AcDbEntity
  8
0
100
AcDbLine
 10
518.168
 20
740.5499999999999
 30
0.0
 11
518.518
 21
740.179
 31
0.0
  0
LINE
  5
F2F
330
1E
100
AcDbEntity
  8
0
100
AcDbLine
 10
518.518
 20
741.086
 30
0.0
 11
518.6499999999999
 21
740.691
 31
0.0
  0
LINE
  5
F30
330
1E
100
AcDbEntity
  8
0
100
AcDbLine
 10
517.584
 20
740.876
 30
0.0
 11
518.168
 21
740.5499999999999
 31
0.0
  0
LINE
  5
F31
330
1E
100
AcDbEntity
  8
0
100
AcDbLine
 10
516.8099999999999
 20
741.123
 30
0.0
 11
517.584
 21
740.876
 31
0.0
  0
LINE
  5
F32
330
1E
100
AcDbEntity
  8
0
100
AcDbLine
 10
518.168
 20
741.456
 30
0.0
 11
518.518
 21
741.086
 31
0.0
  0
LINE
  5
F33
330
1E
100
AcDbEntity
  8
0
100
AcDbLine
 10
517.584
 20
741.783
 30
0.0
 11
518.168
 21
741.456
 31
0.0
  0
LINE
  5
F34
330
1E
100
AcDbEntity
  8
0
100
AcDbLine
 10
517.222
 20
760.3089999999999
 30
0.0
 11
518.4859999999999
 21
760.0
 31
0.0
  0
LINE
  5
F35
330
1E
100
AcDbEntity
  8
0
100
AcDbLine
 10
517.222
 20
760.3089999999999
 30
0.0
 11
517.952
 21
760.8430000000001
 31
0.0
  0
LINE
  5
F36
330
1E
100
AcDbEntity
  8
0
100
AcDbLine
 10
518.86
 20
751.682
 30
0.0
 11
520.124
 21
751.373
 31
0.0
  0
LINE
  5
F37
330
1E
100
AcDbEntity
  8
0
100
AcDbLine
 10
518.86
 20
751.682
 30
0.0
 11
519.59
 21
752.216
 31
0.0
  0
LINE
  5
F38
330
1E
100
AcDbEntity
  8
0
100
AcDbLine
 10
518.4859999999999
 20
760.0
 30
0.0
 11
519.216
 21
760.5349999999999
 31
0.0
  0
LINE
  5
F39
330
1E
100
AcDbEntity
  8
0
100
AcDbLine
 10
517.952
 20
762.311972920696
 30
0.0
 11
517.952
 21
760.8430000000001
 31
0.0
  0
LINE
  5
F3A
330
1E
100
AcDbEntity
  8
0
100
AcDbLine
 10
517.952
 20
760.8430000000001
 30
0.0
 11
519.216
 21
760.5349999999999
 31
0.0
  0
LINE
  5
F3B
330
1E
100
AcDbEntity
  8
0
100
AcDbLine
 10
517.952
 20
760.8430000000001
 30
0.0
 11
517.952
 21
762.311972920696
 31
0.0
  0
LINE
  5
F3C
330
1E
100
AcDbEntity
  8
0
100
AcDbLine
 10
519.59
 20
752.216
 30
0.0
 11
520.854
 21
751.9069999999999
 31
0.0
  0
LINE
  5
F3D
330
1E
100
AcDbEntity
  8
0
100
AcDbLine
 10
519.66
 20
745.4224577795949
 30
0.0
 11
519.66
 21
743.812
 31
0.0
  0
LINE
  5
F3E
330
1E
100
AcDbEntity
  8
0
100
AcDbLine
 10
518.9299999999999
 20
744.6812637497439
 30
0.0
 11
518.9299999999999
 21
743.278
 31
0.0
  0
LINE
  5
F3F
330
1E
100
AcDbEntity
  8
0
100
AcDbLine
 10
518.9299999999999
 20
743.278
 30
0.0
 11
520.1939999999999
 21
742.9689999999999
 31
0.0
  0
LINE
  5
F40
330
1E
100
AcDbEntity
  8
0
100
AcDbLine
 10
518.9299999999999
 20
743.278
 30
0.0
 11
519.66
 21
743.812
 31
0.0
  0
LINE
  5
F41
330
1E
100
AcDbEntity
  8
0
100
AcDbLine
 10
518.9299999999999
 20
743.278
 30
0.0
 11
518.9299999999999
 21
744.6812637497439
 31
0.0
  0
LINE
  5
F42
330
1E
100
AcDbEntity
  8
0
100
AcDbLine
 10
520.124
 20
751.373
 30
0.0
 11
520.854
 21
751.9069999999999
 31
0.0
  0
LINE
  5
F43
330
1E
100
AcDbEntity
  8
0
100
AcDbLine
 10
520.1939999999999
 20
742.9689999999999
 30
0.0
 11
520.924
 21
743.5039999999998
 31
0.0
  0
LINE
  5
F44
330
1E
100
AcDbEntity
  8
0
100
AcDbLine
 10
519.66
 20
743.812
 30
0.0
 11
520.924
 21
743.5039999999998
 31
0.0
  0
LINE
  5
F45
330
1E
100
AcDbEntity
  8
0
100
AcDbLine
 10
519.66
 20
743.812
 30
0.0
 11
519.66
 21
745.4224577795949
 31
0.0
  0
LINE
  5
F46
330
1E
100
AcDbEntity
  8
0
100
AcDbLine
 10
516.8099999999999
 20
742.03
 30
0.0
 11
517.584
 21
741.783
 31
0.0
  0
LINE
  5
F47
330
1E
100
AcDbEntity
  8
0
100
AcDbLine
 10
515.9339999999999
 20
742.178
 30
0.0
 11
516.8099999999999
 21
742.03
 31
0.0
  0
LINE
  5
F48
330
1E
100
AcDbEntity
  8
0
100
AcDbLine
 10
515.9339999999999
 20
741.271
 30
0.0
 11
516.8099999999999
 21
741.123
 31
0.0
  0
LINE
  5
F49
330
1E
100
AcDbEntity
  8
0
100
AcDbLine
 10
520.924
 20
736.065
 30
0.0
 11
520.924
 21
737.407800827194
 31
0.0
  0
LINE
  5
F4A
330
1E
100
AcDbEntity
  8
0
100
AcDbLine
 10
520.924
 20
743.5039999999998
 30
0.0
 11
520.924
 21
743.9741991728059
 31
0.0
  0
LINE
  5
F4B
330
1E
100
AcDbEntity
  8
0
100
AcDbLine
 10
520.924
 20
743.9741991728059
 30
0.0
 11
520.924
 21
743.5039999999998
 31
0.0
  0
LINE
  5
F4C
330
1E
100
AcDbEntity
  8
0
100
AcDbLine
 10
520.924
 20
737.407800827194
 30
0.0
 11
520.924
 21
736.065
 31
0.0
  0
LINE
  5
F4D
330
1E
100
AcDbEntity
  8
0
100
AcDbLine
 10
521.204
 20
722.791
 30
0.0
 11
526.3869999999999
 21
723.316
 31
0.0
  0
LINE
  5
F4E
330
1E
100
AcDbEntity
  8
0
100
AcDbLine
 10
519.216
 20
722.731718891038
 30
0.0
 11
521.204
 21
722.791
 31
0.0
  0
LINE
  5
F4F
330
1E
100
AcDbEntity
  8
0
100
AcDbLine
 10
519.216
 20
722.731718891038
 30
0.0
 11
519.216
 21
722.6589999999999
 31
0.0
  0
LINE
  5
F50
330
1E
100
AcDbEntity
  8
0
100
AcDbLine
 10
521.35
 20
721.8969999999999
 30
0.0
 11
527.409
 21
722.421
 31
0.0
  0
LINE
  5
F51
330
1E
100
AcDbEntity
  8
0
100
AcDbLine
 10
521.204
 20
762.215
 30
0.0
 11
526.3869999999999
 21
761.6900000000001
 31
0.0
  0
LINE
  5
F52
330
1E
100
AcDbEntity
  8
0
100
AcDbLine
 10
521.35
 20
763.1089999999999
 30
0.0
 11
527.409
 21
762.585
 31
0.0
  0
LINE
  5
F53
330
1E
100
AcDbEntity
  8
0
100
AcDbLine
 10
522.488
 20
710.996
 30
0.0
 11
523.3519999999999
 21
713.1139999999999
 31
0.0
  0
LINE
  5
F54
330
1E
100
AcDbEntity
  8
0
100
AcDbLine
 10
523.4479999999999
 20
706.7599999999999
 30
0.0
 11
525.3680000000001
 21
709.3189999999999
 31
0.0
  0
LINE
  5
F55
330
1E
100
AcDbEntity
  8
0
100
AcDbLine
 10
525.3680000000001
 20
709.3189999999999
 30
0.0
 11
526.616
 21
712.232
 31
0.0
  0
LINE
  5
F56
330
1E
100
AcDbEntity
  8
0
100
AcDbLine
 10
525.3680000000001
 20
721.41
 30
0.0
 11
526.616
 21
718.498
 31
0.0
  0
LINE
  5
F57
330
1E
100
AcDbEntity
  8
0
100
AcDbLine
 10
523.6399999999999
 20
715.321
 30
0.0
 11
523.6399999999999
 21
722.0950458821589
 31
0.0
  0
LINE
  5
F58
330
1E
100
AcDbEntity
  8
0
100
AcDbLine
 10
523.3519999999999
 20
713.1139999999999
 30
0.0
 11
523.6399999999999
 21
715.321
 31
0.0
  0
LINE
  5
F59
330
1E
100
AcDbEntity
  8
0
100
AcDbLine
 10
522.932
 20
726.5549999999999
 30
0.0
 11
524.196
 21
726.8639999999999
 31
0.0
  0
LINE
  5
F5A
330
1E
100
AcDbEntity
  8
0
100
AcDbLine
 10
522.932
 20
726.5549999999999
 30
0.0
 11
523.6609999999999
 21
726.021
 31
0.0
  0
LINE
  5
F5B
330
1E
100
AcDbEntity
  8
0
100
AcDbLine
 10
524.196
 20
727.782874256584
 30
0.0
 11
524.196
 21
726.8639999999999
 31
0.0
  0
LINE
  5
F5C
330
1E
100
AcDbEntity
  8
0
100
AcDbLine
 10
524.196
 20
726.8639999999999
 30
0.0
 11
524.9259999999999
 21
726.3289999999999
 31
0.0
  0
LINE
  5
F5D
330
1E
100
AcDbEntity
  8
0
100
AcDbLine
 10
524.196
 20
726.8639999999999
 30
0.0
 11
524.196
 21
727.782874256584
 31
0.0
  0
LINE
  5
F5E
330
1E
100
AcDbEntity
  8
0
100
AcDbLine
 10
523.6609999999999
 20
726.021
 30
0.0
 11
524.9259999999999
 21
726.3289999999999
 31
0.0
  0
LINE
  5
F5F
330
1E
100
AcDbEntity
  8
0
100
AcDbLine
 10
523.3089999999999
 20
733.8856323000509
 30
0.0
 11
523.3089999999999
 21
733.5369999999999
 31
0.0
  0
LINE
  5
F60
330
1E
100
AcDbEntity
  8
0
100
AcDbLine
 10
523.3089999999999
 20
733.5369999999999
 30
0.0
 11
524.574
 21
733.846
 31
0.0
  0
LINE
  5
F61
330
1E
100
AcDbEntity
  8
0
100
AcDbLine
 10
523.3089999999999
 20
733.5369999999999
 30
0.0
 11
524.0389999999999
 21
733.003
 31
0.0
  0
LINE
  5
F62
330
1E
100
AcDbEntity
  8
0
100
AcDbLine
 10
523.3089999999999
 20
733.5369999999999
 30
0.0
 11
523.3089999999999
 21
733.8856323000509
 31
0.0
  0
LINE
  5
F63
330
1E
100
AcDbEntity
  8
0
100
AcDbLine
 10
524.124
 20
740.691
 30
0.0
 11
524.124
 21
739.4760000000001
 31
0.0
  0
LINE
  5
F64
330
1E
100
AcDbEntity
  8
0
100
AcDbLine
 10
524.124
 20
739.4760000000001
 30
0.0
 11
524.124
 21
740.092
 31
0.0
  0
LINE
  5
F65
330
1E
100
AcDbEntity
  8
0
100
AcDbLine
 10
524.124
 20
739.4760000000001
 30
0.0
 11
525.584
 21
739.4760000000001
 31
0.0
  0
LINE
  5
F66
330
1E
100
AcDbEntity
  8
0
100
AcDbLine
 10
524.124
 20
739.4760000000001
 30
0.0
 11
524.124
 21
740.691
 31
0.0
  0
LINE
  5
F67
330
1E
100
AcDbEntity
  8
0
100
AcDbLine
 10
524.124
 20
741.2032676591699
 30
0.0
 11
524.124
 21
740.092
 31
0.0
  0
LINE
  5
F68
330
1E
100
AcDbEntity
  8
0
100
AcDbLine
 10
524.124
 20
740.092
 30
0.0
 11
525.584
 21
740.092
 31
0.0
  0
LINE
  5
F69
330
1E
100
AcDbEntity
  8
0
100
AcDbLine
 10
524.124
 20
740.092
 30
0.0
 11
524.124
 21
741.2032676591699
 31
0.0
  0
LINE
  5
F6A
330
1E
100
AcDbEntity
  8
0
100
AcDbLine
 10
524.124
 20
740.092
 30
0.0
 11
524.124
 21
739.4760000000001
 31
0.0
  0
LINE
  5
F6B
330
1E
100
AcDbEntity
  8
0
100
AcDbLine
 10
524.574
 20
734.720372990122
 30
0.0
 11
524.574
 21
733.846
 31
0.0
  0
LINE
  5
F6C
330
1E
100
AcDbEntity
  8
0
100
AcDbLine
 10
524.574
 20
733.846
 30
0.0
 11
525.3039999999999
 21
733.312
 31
0.0
  0
LINE
  5
F6D
330
1E
100
AcDbEntity
  8
0
100
AcDbLine
 10
524.574
 20
733.846
 30
0.0
 11
524.574
 21
734.720372990122
 31
0.0
  0
LINE
  5
F6E
330
1E
100
AcDbEntity
  8
0
100
AcDbLine
 10
524.0389999999999
 20
733.003
 30
0.0
 11
525.3039999999999
 21
733.312
 31
0.0
  0
LINE
  5
F6F
330
1E
100
AcDbEntity
  8
0
100
AcDbLine
 10
524.9259999999999
 20
726.3289999999999
 30
0.0
 11
524.9259999999999
 21
727.4800514018691
 31
0.0
  0
LINE
  5
F70
330
1E
100
AcDbEntity
  8
0
100
AcDbLine
 10
524.9259999999999
 20
727.4800514018691
 30
0.0
 11
524.9259999999999
 21
726.3289999999999
 31
0.0
  0
LINE
  5
F71
330
1E
100
AcDbEntity
  8
0
100
AcDbLine
 10
525.3039999999999
 20
733.312
 30
0.0
 11
525.3039999999999
 21
734.430404715553
 31
0.0
  0
LINE
  5
F72
330
1E
100
AcDbEntity
  8
0
100
AcDbLine
 10
525.584
 20
739.4760000000001
 30
0.0
 11
525.584
 21
740.092
 31
0.0
  0
LINE
  5
F73
330
1E
100
AcDbEntity
  8
0
100
AcDbLine
 10
525.584
 20
741.2852394678489
 30
0.0
 11
525.584
 21
740.092
 31
0.0
  0
LINE
  5
F74
330
1E
100
AcDbEntity
  8
0
100
AcDbLine
 10
525.584
 20
740.092
 30
0.0
 11
525.584
 21
739.4760000000001
 31
0.0
  0
LINE
  5
F75
330
1E
100
AcDbEntity
  8
0
100
AcDbLine
 10
525.584
 20
740.092
 30
0.0
 11
525.584
 21
741.2852394678489
 31
0.0
  0
LINE
  5
F76
330
1E
100
AcDbEntity
  8
0
100
AcDbLine
 10
525.3039999999999
 20
734.430404715553
 30
0.0
 11
525.3039999999999
 21
733.312
 31
0.0
  0
LINE
  5
F77
330
1E
100
AcDbEntity
  8
0
100
AcDbLine
 10
524.7802560833849
 20
722.1936585554871
 30
0.0
 11
525.3680000000001
 21
721.41
 31
0.0
  0
LINE
  5
F78
330
1E
100
AcDbEntity
  8
0
100
AcDbLine
 10
523.6399999999999
 20
722.0950458821589
 30
0.0
 11
523.6399999999999
 21
715.321
 31
0.0
  0
LINE
  5
F79
330
1E
100
AcDbEntity
  8
0
100
AcDbLine
 10
526.3869999999999
 20
723.316
 30
0.0
 11
527.5816118353979
 21
723.467486019012
 31
0.0
  0
LINE
  5
F7A
330
1E
100
AcDbEntity
  8
0
100
AcDbLine
 10
522.932
 20
755.7319999999999
 30
0.0
 11
524.196
 21
755.423
 31
0.0
  0
LINE
  5
F7B
330
1E
100
AcDbEntity
  8
0
100
AcDbLine
 10
522.932
 20
755.7319999999999
 30
0.0
 11
523.6609999999999
 21
756.2660000000001
 31
0.0
  0
LINE
  5
F7C
330
1E
100
AcDbEntity
  8
0
100
AcDbLine
 10
523.6609999999999
 20
756.2660000000001
 30
0.0
 11
524.9259999999999
 21
755.9580000000001
 31
0.0
  0
LINE
  5
F7D
330
1E
100
AcDbEntity
  8
0
100
AcDbLine
 10
524.0389999999999
 20
748.5319710566878
 30
0.0
 11
524.0389999999999
 21
747.4709999999999
 31
0.0
  0
LINE
  5
F7E
330
1E
100
AcDbEntity
  8
0
100
AcDbLine
 10
523.3089999999999
 20
748.0260094194209
 30
0.0
 11
523.3089999999999
 21
746.937
 31
0.0
  0
LINE
  5
F7F
330
1E
100
AcDbEntity
  8
0
100
AcDbLine
 10
523.3089999999999
 20
746.937
 30
0.0
 11
524.574
 21
746.6289999999998
 31
0.0
  0
LINE
  5
F80
330
1E
100
AcDbEntity
  8
0
100
AcDbLine
 10
523.3089999999999
 20
746.937
 30
0.0
 11
524.0389999999999
 21
747.4709999999999
 31
0.0
  0
LINE
  5
F81
330
1E
100
AcDbEntity
  8
0
100
AcDbLine
 10
523.3089999999999
 20
746.937
 30
0.0
 11
523.3089999999999
 21
748.0260094194209
 31
0.0
  0
LINE
  5
F82
330
1E
100
AcDbEntity
  8
0
100
AcDbLine
 10
525.3039999999999
 20
747.163
 30
0.0
 11
525.3039999999999
 21
747.4667598961709
 31
0.0
  0
LINE
  5
F83
330
1E
100
AcDbEntity
  8
0
100
AcDbLine
 10
524.574
 20
746.6289999999998
 30
0.0
 11
525.3039999999999
 21
747.163
 31
0.0
  0
LINE
  5
F84
330
1E
100
AcDbEntity
  8
0
100
AcDbLine
 10
524.196
 20
755.423
 30
0.0
 11
524.9259999999999
 21
755.9580000000001
 31
0.0
  0
LINE
  5
F85
330
1E
100
AcDbEntity
  8
0
100
AcDbLine
 10
525.3039999999999
 20
747.4667598961709
 30
0.0
 11
525.3039999999999
 21
747.163
 31
0.0
  0
LINE
  5
F86
330
1E
100
AcDbEntity
  8
0
100
AcDbLine
 10
524.0389999999999
 20
747.4709999999999
 30
0.0
 11
525.3039999999999
 21
747.163
 31
0.0
  0
LINE
  5
F87
330
1E
100
AcDbEntity
  8
0
100
AcDbLine
 10
524.0389999999999
 20
747.4709999999999
 30
0.0
 11
524.0389999999999
 21
748.5319710566878
 31
0.0
  0
LINE
  5
F88
330
1E
100
AcDbEntity
  8
0
100
AcDbLine
 10
526.616
 20
712.232
 30
0.0
 11
527.0
 21
715.321
 31
0.0
  0
LINE
  5
F89
330
1E
100
AcDbEntity
  8
0
100
AcDbLine
 10
527.0
 20
715.321
 30
0.0
 11
527.0
 21
643.2854999999999
 31
0.0
  0
LINE
  5
F8A
330
1E
100
AcDbEntity
  8
0
100
AcDbLine
 10
526.616
 20
718.498
 30
0.0
 11
527.0
 21
715.321
 31
0.0
  0
LINE
  5
F8B
330
1E
100
AcDbEntity
  8
0
100
AcDbLine
 10
527.2509999999999
 20
759.485
 30
0.0
 11
528.5159999999999
 21
759.176
 31
0.0
  0
LINE
  5
F8C
330
1E
100
AcDbEntity
  8
0
100
AcDbLine
 10
527.2509999999999
 20
759.485
 30
0.0
 11
527.9819999999999
 21
760.0189999999998
 31
0.0
  0
LINE
  5
F8D
330
1E
100
AcDbEntity
  8
0
100
AcDbLine
 10
527.2509999999999
 20
723.7089999999999
 30
0.0
 11
528.5159999999999
 21
724.0169999999999
 31
0.0
  0
LINE
  5
F8E
330
1E
100
AcDbEntity
  8
0
100
AcDbLine
 10
527.2509999999999
 20
723.7089999999999
 30
0.0
 11
527.9819999999999
 21
723.1749999999999
 31
0.0
  0
LINE
  5
F8F
330
1E
100
AcDbEntity
  8
0
100
AcDbLine
 10
527.409
 20
722.421
 30
0.0
 11
533.832
 21
723.316
 31
0.0
  0
LINE
  5
F90
330
1E
100
AcDbEntity
  8
0
100
AcDbLine
 10
526.3869999999999
 20
761.6900000000001
 30
0.0
 11
532.9559999999999
 21
760.858
 31
0.0
  0
LINE
  5
F91
330
1E
100
AcDbEntity
  8
0
100
AcDbLine
 10
527.409
 20
762.585
 30
0.0
 11
533.832
 21
761.6900000000001
 31
0.0
  0
LINE
  5
F92
330
1E
100
AcDbEntity
  8
0
100
AcDbLine
 10
521.4229999999999
 20
764.3239999999999
 30
0.0
 11
527.9199999999999
 21
763.7689999999999
 31
0.0
  0
LINE
  5
F93
330
1E
100
AcDbEntity
  8
0
100
AcDbLine
 10
521.4229999999999
 20
783.3569999999999
 30
0.0
 11
527.9199999999999
 21
782.802
 31
0.0
  0
LINE
  5
F94
330
1E
100
AcDbEntity
  8
0
100
AcDbLine
 10
527.6889999999999
 20
751.061779243021
 30
0.0
 11
527.6889999999999
 21
750.5959999999999
 31
0.0
  0
LINE
  5
F95
330
1E
100
AcDbEntity
  8
0
100
AcDbLine
 10
527.6889999999999
 20
750.5959999999999
 30
0.0
 11
528.953
 21
750.288
 31
0.0
  0
LINE
  5
F96
330
1E
100
AcDbEntity
  8
0
100
AcDbLine
 10
527.6889999999999
 20
750.5959999999999
 30
0.0
 11
528.4189999999999
 21
751.13
 31
0.0
  0
LINE
  5
F97
330
1E
100
AcDbEntity
  8
0
100
AcDbLine
 10
527.6889999999999
 20
750.5959999999999
 30
0.0
 11
527.6889999999999
 21
751.061779243021
 31
0.0
  0
LINE
  5
F98
330
1E
100
AcDbEntity
  8
0
100
AcDbLine
 10
527.6889999999999
 20
731.5298539133411
 30
0.0
 11
527.6889999999999
 21
730.786
 31
0.0
  0
LINE
  5
F99
330
1E
100
AcDbEntity
  8
0
100
AcDbLine
 10
527.6889999999999
 20
730.786
 30
0.0
 11
528.953
 21
731.0939999999999
 31
0.0
  0
LINE
  5
F9A
330
1E
100
AcDbEntity
  8
0
100
AcDbLine
 10
527.6889999999999
 20
730.786
 30
0.0
 11
528.4189999999999
 21
730.25
 31
0.0
  0
LINE
  5
F9B
330
1E
100
AcDbEntity
  8
0
100
AcDbLine
 10
527.6889999999999
 20
730.786
 30
0.0
 11
527.6889999999999
 21
731.5298539133411
 31
0.0
  0
LINE
  5
F9C
330
1E
100
AcDbEntity
  8
0
100
AcDbLine
 10
528.5159999999999
 20
724.0169999999999
 30
0.0
 11
529.246
 21
723.483
 31
0.0
  0
LINE
  5
F9D
330
1E
100
AcDbEntity
  8
0
100
AcDbLine
 10
529.246
 20
723.483
 30
0.0
 11
529.246
 21
723.678543309484
 31
0.0
  0
LINE
  5
F9E
330
1E
100
AcDbEntity
  8
0
100
AcDbLine
 10
527.9819999999999
 20
723.1749999999999
 30
0.0
 11
529.246
 21
723.483
 31
0.0
  0
LINE
  5
F9F
330
1E
100
AcDbEntity
  8
0
100
AcDbLine
 10
528.953
 20
731.0939999999999
 30
0.0
 11
529.6829999999999
 21
730.5589999999999
 31
0.0
  0
LINE
  5
FA0
330
1E
100
AcDbEntity
  8
0
100
AcDbLine
 10
528.4189999999999
 20
730.25
 30
0.0
 11
529.6829999999999
 21
730.5589999999999
 31
0.0
  0
LINE
  5
FA1
330
1E
100
AcDbEntity
  8
0
100
AcDbLine
 10
529.6829999999999
 20
730.5589999999999
 30
0.0
 11
529.6829999999999
 21
730.6533325178589
 31
0.0
  0
LINE
  5
FA2
330
1E
100
AcDbEntity
  8
0
100
AcDbLine
 10
529.72
 20
736.726286735078
 30
0.0
 11
529.72
 21
735.914
 31
0.0
  0
LINE
  5
FA3
330
1E
100
AcDbEntity
  8
0
100
AcDbLine
 10
529.72
 20
735.914
 30
0.0
 11
529.72
 21
736.531
 31
0.0
  0
LINE
  5
FA4
330
1E
100
AcDbEntity
  8
0
100
AcDbLine
 10
529.72
 20
735.914
 30
0.0
 11
531.1799999999999
 21
735.914
 31
0.0
  0
LINE
  5
FA5
330
1E
100
AcDbEntity
  8
0
100
AcDbLine
 10
529.72
 20
735.914
 30
0.0
 11
529.72
 21
736.726286735078
 31
0.0
  0
LINE
  5
FA6
330
1E
100
AcDbEntity
  8
0
100
AcDbLine
 10
529.72
 20
737.3057905344199
 30
0.0
 11
529.72
 21
736.531
 31
0.0
  0
LINE
  5
FA7
330
1E
100
AcDbEntity
  8
0
100
AcDbLine
 10
531.1799999999999
 20
735.914
 30
0.0
 11
531.1799999999999
 21
736.531
 31
0.0
  0
LINE
  5
FA8
330
1E
100
AcDbEntity
  8
0
100
AcDbLine
 10
529.72
 20
736.531
 30
0.0
 11
531.1799999999999
 21
736.531
 31
0.0
  0
LINE
  5
FA9
330
1E
100
AcDbEntity
  8
0
100
AcDbLine
 10
529.72
 20
736.531
 30
0.0
 11
529.72
 21
737.3057905344199
 31
0.0
  0
LINE
  5
FAA
330
1E
100
AcDbEntity
  8
0
100
AcDbLine
 10
529.72
 20
736.531
 30
0.0
 11
529.72
 21
735.914
 31
0.0
  0
LINE
  5
FAB
330
1E
100
AcDbEntity
  8
0
100
AcDbLine
 10
531.1799999999999
 20
737.544081740108
 30
0.0
 11
531.1799999999999
 21
736.531
 31
0.0
  0
LINE
  5
FAC
330
1E
100
AcDbEntity
  8
0
100
AcDbLine
 10
531.1799999999999
 20
736.531
 30
0.0
 11
531.1799999999999
 21
735.914
 31
0.0
  0
LINE
  5
FAD
330
1E
100
AcDbEntity
  8
0
100
AcDbLine
 10
531.1799999999999
 20
736.531
 30
0.0
 11
531.1799999999999
 21
737.544081740108
 31
0.0
  0
LINE
  5
FAE
330
1E
100
AcDbEntity
  8
0
100
AcDbLine
 10
529.6829999999999
 20
730.6533325178589
 30
0.0
 11
529.6829999999999
 21
730.5589999999999
 31
0.0
  0
LINE
  5
FAF
330
1E
100
AcDbEntity
  8
0
100
AcDbLine
 10
529.246
 20
723.678543309484
 30
0.0
 11
532.9559999999999
 21
724.1489999999998
 31
0.0
  0
LINE
  5
FB0
330
1E
100
AcDbEntity
  8
0
100
AcDbLine
 10
529.246
 20
723.678543309484
 30
0.0
 11
529.246
 21
723.483
 31
0.0
  0
LINE
  5
FB1
330
1E
100
AcDbEntity
  8
0
100
AcDbLine
 10
527.9819999999999
 20
760.0189999999998
 30
0.0
 11
529.246
 21
759.711
 31
0.0
  0
LINE
  5
FB2
330
1E
100
AcDbEntity
  8
0
100
AcDbLine
 10
527.9819999999999
 20
760.0189999999998
 30
0.0
 11
527.9819999999999
 21
761.4879844725219
 31
0.0
  0
LINE
  5
FB3
330
1E
100
AcDbEntity
  8
0
100
AcDbLine
 10
528.4189999999999
 20
751.5677408802879
 30
0.0
 11
528.4189999999999
 21
751.13
 31
0.0
  0
LINE
  5
FB4
330
1E
100
AcDbEntity
  8
0
100
AcDbLine
 10
529.72
 20
744.5599999999999
 30
0.0
 11
529.72
 21
743.9429999999999
 31
0.0
  0
LINE
  5
FB5
330
1E
100
AcDbEntity
  8
0
100
AcDbLine
 10
529.72
 20
744.5599999999999
 30
0.0
 11
531.1799999999999
 21
744.5599999999999
 31
0.0
  0
LINE
  5
FB6
330
1E
100
AcDbEntity
  8
0
100
AcDbLine
 10
529.72
 20
744.5599999999999
 30
0.0
 11
529.72
 21
745.09999817332
 31
0.0
  0
LINE
  5
FB7
330
1E
100
AcDbEntity
  8
0
100
AcDbLine
 10
529.72
 20
744.4470674818839
 30
0.0
 11
529.72
 21
743.9429999999999
 31
0.0
  0
LINE
  5
FB8
330
1E
100
AcDbEntity
  8
0
100
AcDbLine
 10
529.72
 20
743.9429999999999
 30
0.0
 11
531.1799999999999
 21
743.9429999999999
 31
0.0
  0
LINE
  5
FB9
330
1E
100
AcDbEntity
  8
0
100
AcDbLine
 10
529.72
 20
743.9429999999999
 30
0.0
 11
529.72
 21
744.4470674818839
 31
0.0
  0
LINE
  5
FBA
330
1E
100
AcDbEntity
  8
0
100
AcDbLine
 10
529.72
 20
743.9429999999999
 30
0.0
 11
529.72
 21
744.5599999999999
 31
0.0
  0
LINE
  5
FBB
330
1E
100
AcDbEntity
  8
0
100
AcDbLine
 10
529.72
 20
745.09999817332
 30
0.0
 11
529.72
 21
744.5599999999999
 31
0.0
  0
LINE
  5
FBC
330
1E
100
AcDbEntity
  8
0
100
AcDbLine
 10
531.1799999999999
 20
745.463880406168
 30
0.0
 11
531.1799999999999
 21
744.5599999999999
 31
0.0
  0
LINE
  5
FBD
330
1E
100
AcDbEntity
  8
0
100
AcDbLine
 10
531.1799999999999
 20
744.5599999999999
 30
0.0
 11
531.1799999999999
 21
745.463880406168
 31
0.0
  0
LINE
  5
FBE
330
1E
100
AcDbEntity
  8
0
100
AcDbLine
 10
531.1799999999999
 20
744.5599999999999
 30
0.0
 11
531.1799999999999
 21
743.9429999999999
 31
0.0
  0
LINE
  5
FBF
330
1E
100
AcDbEntity
  8
0
100
AcDbLine
 10
531.1799999999999
 20
743.9429999999999
 30
0.0
 11
531.1799999999999
 21
744.5599999999999
 31
0.0
  0
LINE
  5
FC0
330
1E
100
AcDbEntity
  8
0
100
AcDbLine
 10
529.6829999999999
 20
750.822
 30
0.0
 11
529.6829999999999
 21
752.205878950974
 31
0.0
  0
LINE
  5
FC1
330
1E
100
AcDbEntity
  8
0
100
AcDbLine
 10
528.953
 20
750.288
 30
0.0
 11
529.6829999999999
 21
750.822
 31
0.0
  0
LINE
  5
FC2
330
1E
100
AcDbEntity
  8
0
100
AcDbLine
 10
529.246
 20
759.711
 30
0.0
 11
529.246
 21
761.3278919165781
 31
0.0
  0
LINE
  5
FC3
330
1E
100
AcDbEntity
  8
0
100
AcDbLine
 10
528.5159999999999
 20
759.176
 30
0.0
 11
529.246
 21
759.711
 31
0.0
  0
LINE
  5
FC4
330
1E
100
AcDbEntity
  8
0
100
AcDbLine
 10
529.6829999999999
 20
752.205878950974
 30
0.0
 11
529.6829999999999
 21
750.822
 31
0.0
  0
LINE
  5
FC5
330
1E
100
AcDbEntity
  8
0
100
AcDbLine
 10
528.4189999999999
 20
751.13
 30
0.0
 11
529.6829999999999
 21
750.822
 31
0.0
  0
LINE
  5
FC6
330
1E
100
AcDbEntity
  8
0
100
AcDbLine
 10
528.4189999999999
 20
751.13
 30
0.0
 11
528.4189999999999
 21
751.5677408802879
 31
0.0
  0
LINE
  5
FC7
330
1E
100
AcDbEntity
  8
0
100
AcDbLine
 10
532.0689999999999
 20
754.2539999999998
 30
0.0
 11
533.3330000000001
 21
753.946
 31
0.0
  0
LINE
  5
FC8
330
1E
100
AcDbEntity
  8
0
100
AcDbLine
 10
532.0689999999999
 20
754.2539999999998
 30
0.0
 11
532.798
 21
754.7889999999999
 31
0.0
  0
LINE
  5
FC9
330
1E
100
AcDbEntity
  8
0
100
AcDbLine
 10
532.0689999999999
 20
729.138132614398
 30
0.0
 11
532.0689999999999
 21
728.033
 31
0.0
  0
LINE
  5
FCA
330
1E
100
AcDbEntity
  8
0
100
AcDbLine
 10
532.883
 20
739.9289999999999
 30
0.0
 11
532.883
 21
740.545
 31
0.0
  0
LINE
  5
FCB
330
1E
100
AcDbEntity
  8
0
100
AcDbLine
 10
532.883
 20
739.9289999999999
 30
0.0
 11
534.343
 21
739.9289999999999
 31
0.0
  0
LINE
  5
FCC
330
1E
100
AcDbEntity
  8
0
100
AcDbLine
 10
532.883
 20
739.9289999999999
 30
0.0
 11
532.883
 21
740.9174778354049
 31
0.0
  0
LINE
  5
FCD
330
1E
100
AcDbEntity
  8
0
100
AcDbLine
 10
532.798
 20
754.7889999999999
 30
0.0
 11
534.0629999999999
 21
754.481
 31
0.0
  0
LINE
  5
FCE
330
1E
100
AcDbEntity
  8
0
100
AcDbLine
 10
532.883
 20
740.9174778354049
 30
0.0
 11
532.883
 21
739.9289999999999
 31
0.0
  0
LINE
  5
FCF
330
1E
100
AcDbEntity
  8
0
100
AcDbLine
 10
532.883
 20
741.450293188885
 30
0.0
 11
532.883
 21
740.545
 31
0.0
  0
LINE
  5
FD0
330
1E
100
AcDbEntity
  8
0
100
AcDbLine
 10
532.883
 20
740.545
 30
0.0
 11
534.343
 21
740.545
 31
0.0
  0
LINE
  5
FD1
330
1E
100
AcDbEntity
  8
0
100
AcDbLine
 10
532.883
 20
740.545
 30
0.0
 11
532.883
 21
741.450293188885
 31
0.0
  0
LINE
  5
FD2
330
1E
100
AcDbEntity
  8
0
100
AcDbLine
 10
532.883
 20
740.545
 30
0.0
 11
532.883
 21
739.9289999999999
 31
0.0
  0
LINE
  5
FD3
330
1E
100
AcDbEntity
  8
0
100
AcDbLine
 10
532.0689999999999
 20
728.033
 30
0.0
 11
533.3330000000001
 21
728.3409999999999
 31
0.0
  0
LINE
  5
FD4
330
1E
100
AcDbEntity
  8
0
100
AcDbLine
 10
532.0689999999999
 20
728.033
 30
0.0
 11
532.798
 21
727.498
 31
0.0
  0
LINE
  5
FD5
330
1E
100
AcDbEntity
  8
0
100
AcDbLine
 10
532.0689999999999
 20
728.033
 30
0.0
 11
532.0689999999999
 21
729.138132614398
 31
0.0
  0
LINE
  5
FD6
330
1E
100
AcDbEntity
  8
0
100
AcDbLine
 10
532.798
 20
727.498
 30
0.0
 11
534.0629999999999
 21
727.807
 31
0.0
  0
LINE
  5
FD7
330
1E
100
AcDbEntity
  8
0
100
AcDbLine
 10
533.3330000000001
 20
753.946
 30
0.0
 11
534.0629999999999
 21
754.481
 31
0.0
  0
LINE
  5
FD8
330
1E
100
AcDbEntity
  8
0
100
AcDbLine
 10
533.3330000000001
 20
729.0471105944869
 30
0.0
 11
533.3330000000001
 21
728.3409999999999
 31
0.0
  0
LINE
  5
FD9
330
1E
100
AcDbEntity
  8
0
100
AcDbLine
 10
533.3330000000001
 20
728.3409999999999
 30
0.0
 11
534.0629999999999
 21
727.807
 31
0.0
  0
LINE
  5
FDA
330
1E
100
AcDbEntity
  8
0
100
AcDbLine
 10
533.3330000000001
 20
728.3409999999999
 30
0.0
 11
533.3330000000001
 21
729.0471105944869
 31
0.0
  0
LINE
  5
FDB
330
1E
100
AcDbEntity
  8
0
100
AcDbLine
 10
532.9559999999999
 20
724.1489999999998
 30
0.0
 11
536.900806451613
 21
724.9487689792309
 31
0.0
  0
LINE
  5
FDC
330
1E
100
AcDbEntity
  8
0
100
AcDbLine
 10
533.832
 20
723.316
 30
0.0
 11
539.5249999999999
 21
724.457
 31
0.0
  0
LINE
  5
FDD
330
1E
100
AcDbEntity
  8
0
100
AcDbLine
 10
527.9819999999999
 20
761.4879844725219
 30
0.0
 11
527.9819999999999
 21
760.0189999999998
 31
0.0
  0
LINE
  5
FDE
330
1E
100
AcDbEntity
  8
0
100
AcDbLine
 10
529.246
 20
761.3278919165781
 30
0.0
 11
529.246
 21
759.711
 31
0.0
  0
LINE
  5
FDF
330
1E
100
AcDbEntity
  8
0
100
AcDbLine
 10
532.9559999999999
 20
760.858
 30
0.0
 11
538.431
 21
759.7469999999999
 31
0.0
  0
LINE
  5
FE0
330
1E
100
AcDbEntity
  8
0
100
AcDbLine
 10
534.0629999999999
 20
727.807
 30
0.0
 11
534.0629999999999
 21
728.8832788110259
 31
0.0
  0
LINE
  5
FE1
330
1E
100
AcDbEntity
  8
0
100
AcDbLine
 10
534.1799999999999
 20
733.222645410292
 30
0.0
 11
534.1799999999999
 21
732.7999999999999
 31
0.0
  0
LINE
  5
FE2
330
1E
100
AcDbEntity
  8
0
100
AcDbLine
 10
534.1799999999999
 20
732.7999999999999
 30
0.0
 11
534.1799999999999
 21
733.4169999999999
 31
0.0
  0
LINE
  5
FE3
330
1E
100
AcDbEntity
  8
0
100
AcDbLine
 10
534.1799999999999
 20
732.7999999999999
 30
0.0
 11
535.6399999999999
 21
732.7999999999999
 31
0.0
  0
LINE
  5
FE4
330
1E
100
AcDbEntity
  8
0
100
AcDbLine
 10
534.1799999999999
 20
732.7999999999999
 30
0.0
 11
534.1799999999999
 21
733.222645410292
 31
0.0
  0
LINE
  5
FE5
330
1E
100
AcDbEntity
  8
0
100
AcDbLine
 10
534.1799999999999
 20
734.6229312086379
 30
0.0
 11
534.1799999999999
 21
733.4169999999999
 31
0.0
  0
LINE
  5
FE6
330
1E
100
AcDbEntity
  8
0
100
AcDbLine
 10
534.1799999999999
 20
733.4169999999999
 30
0.0
 11
535.6399999999999
 21
733.4169999999999
 31
0.0
  0
LINE
  5
FE7
330
1E
100
AcDbEntity
  8
0
100
AcDbLine
 10
534.1799999999999
 20
733.4169999999999
 30
0.0
 11
534.1799999999999
 21
734.6229312086379
 31
0.0
  0
LINE
  5
FE8
330
1E
100
AcDbEntity
  8
0
100
AcDbLine
 10
534.1799999999999
 20
733.4169999999999
 30
0.0
 11
534.1799999999999
 21
732.7999999999999
 31
0.0
  0
LINE
  5
FE9
330
1E
100
AcDbEntity
  8
0
100
AcDbLine
 10
534.0629999999999
 20
728.8832788110259
 30
0.0
 11
534.0629999999999
 21
727.807
 31
0.0
  0
LINE
  5
FEA
330
1E
100
AcDbEntity
  8
0
100
AcDbLine
 10
536.4479999999999
 20
725.2799999999999
 30
0.0
 11
537.7119999999999
 21
725.5880000000001
 31
0.0
  0
LINE
  5
FEB
330
1E
100
AcDbEntity
  8
0
100
AcDbLine
 10
536.4479999999999
 20
725.2799999999999
 30
0.0
 11
537.178
 21
724.7460000000001
 31
0.0
  0
LINE
  5
FEC
330
1E
100
AcDbEntity
  8
0
100
AcDbLine
 10
536.4479999999999
 20
725.2799999999999
 30
0.0
 11
536.4479999999999
 21
725.8838390493941
 31
0.0
  0
LINE
  5
FED
330
1E
100
AcDbEntity
  8
0
100
AcDbLine
 10
535.6399999999999
 20
732.7999999999999
 30
0.0
 11
535.6399999999999
 21
733.4169999999999
 31
0.0
  0
LINE
  5
FEE
330
1E
100
AcDbEntity
  8
0
100
AcDbLine
 10
535.6399999999999
 20
734.299758098224
 30
0.0
 11
535.6399999999999
 21
733.4169999999999
 31
0.0
  0
LINE
  5
FEF
330
1E
100
AcDbEntity
  8
0
100
AcDbLine
 10
535.6399999999999
 20
733.4169999999999
 30
0.0
 11
535.6399999999999
 21
732.7999999999999
 31
0.0
  0
LINE
  5
FF0
330
1E
100
AcDbEntity
  8
0
100
AcDbLine
 10
535.6399999999999
 20
733.4169999999999
 30
0.0
 11
535.6399999999999
 21
734.299758098224
 31
0.0
  0
LINE
  5
FF1
330
1E
100
AcDbEntity
  8
0
100
AcDbLine
 10
534.343
 20
739.9289999999999
 30
0.0
 11
534.343
 21
740.545
 31
0.0
  0
LINE
  5
FF2
330
1E
100
AcDbEntity
  8
0
100
AcDbLine
 10
534.343
 20
741.464266177614
 30
0.0
 11
534.343
 21
740.545
 31
0.0
  0
LINE
  5
FF3
330
1E
100
AcDbEntity
  8
0
100
AcDbLine
 10
534.343
 20
740.545
 30
0.0
 11
534.343
 21
739.9289999999999
 31
0.0
  0
LINE
  5
FF4
330
1E
100
AcDbEntity
  8
0
100
AcDbLine
 10
534.343
 20
740.545
 30
0.0
 11
534.343
 21
741.464266177614
 31
0.0
  0
LINE
  5
FF5
330
1E
100
AcDbEntity
  8
0
100
AcDbLine
 10
536.4479999999999
 20
725.8838390493941
 30
0.0
 11
536.4479999999999
 21
725.2799999999999
 31
0.0
  0
LINE
  5
FF6
330
1E
100
AcDbEntity
  8
0
100
AcDbLine
 10
537.7119999999999
 20
725.697399300495
 30
0.0
 11
537.7119999999999
 21
725.5880000000001
 31
0.0
  0
LINE
  5
FF7
330
1E
100
AcDbEntity
  8
0
100
AcDbLine
 10
537.7119999999999
 20
725.5880000000001
 30
0.0
 11
538.442
 21
725.0539999999999
 31
0.0
  0
LINE
  5
FF8
330
1E
100
AcDbEntity
  8
0
100
AcDbLine
 10
537.7119999999999
 20
725.5880000000001
 30
0.0
 11
537.7119999999999
 21
725.697399300495
 31
0.0
  0
LINE
  5
FF9
330
1E
100
AcDbEntity
  8
0
100
AcDbLine
 10
537.178
 20
724.7460000000001
 30
0.0
 11
538.442
 21
725.0539999999999
 31
0.0
  0
LINE
  5
FFA
330
1E
100
AcDbEntity
  8
0
100
AcDbLine
 10
534.0629999999999
 20
754.481
 30
0.0
 11
534.0629999999999
 21
754.6859393889071
 31
0.0
  0
LINE
  5
FFB
330
1E
100
AcDbEntity
  8
0
100
AcDbLine
 10
534.1799999999999
 20
747.9639999999999
 30
0.0
 11
535.6399999999999
 21
747.9639999999999
 31
0.0
  0
LINE
  5
FFC
330
1E
100
AcDbEntity
  8
0
100
AcDbLine
 10
534.1799999999999
 20
747.9639999999999
 30
0.0
 11
534.1799999999999
 21
748.581
 31
0.0
  0
LINE
  5
FFD
330
1E
100
AcDbEntity
  8
0
100
AcDbLine
 10
534.1799999999999
 20
749.4346931154378
 30
0.0
 11
534.1799999999999
 21
748.581
 31
0.0
  0
LINE
  5
FFE
330
1E
100
AcDbEntity
  8
0
100
AcDbLine
 10
535.6399999999999
 20
748.581
 30
0.0
 11
535.6399999999999
 21
747.9639999999999
 31
0.0
  0
LINE
  5
FFF
330
1E
100
AcDbEntity
  8
0
100
AcDbLine
 10
534.1799999999999
 20
748.581
 30
0.0
 11
534.1799999999999
 21
747.9639999999999
 31
0.0
  0
LINE
  5
1000
330
1E
100
AcDbEntity
  8
0
100
AcDbLine
 10
534.1799999999999
 20
748.581
 30
0.0
 11
535.6399999999999
 21
748.581
 31
0.0
  0
LINE
  5
1001
330
1E
100
AcDbEntity
  8
0
100
AcDbLine
 10
534.1799999999999
 20
748.581
 30
0.0
 11
534.1799999999999
 21
749.4346931154378
 31
0.0
  0
LINE
  5
1002
330
1E
100
AcDbEntity
  8
0
100
AcDbLine
 10
535.6399999999999
 20
747.9639999999999
 30
0.0
 11
535.6399999999999
 21
748.581
 31
0.0
  0
LINE
  5
1003
330
1E
100
AcDbEntity
  8
0
100
AcDbLine
 10
534.0629999999999
 20
754.6859393889071
 30
0.0
 11
534.0629999999999
 21
754.481
 31
0.0
  0
LINE
  5
1004
330
1E
100
AcDbEntity
  8
0
100
AcDbLine
 10
537.178
 20
759.140468592731
 30
0.0
 11
537.178
 21
758.448
 31
0.0
  0
LINE
  5
1005
330
1E
100
AcDbEntity
  8
0
100
AcDbLine
 10
536.4479999999999
 20
758.7871023299158
 30
0.0
 11
536.4479999999999
 21
757.9139999999999
 31
0.0
  0
LINE
  5
1006
330
1E
100
AcDbEntity
  8
0
100
AcDbLine
 10
536.4479999999999
 20
757.9139999999999
 30
0.0
 11
537.7119999999999
 21
757.605
 31
0.0
  0
LINE
  5
1007
330
1E
100
AcDbEntity
  8
0
100
AcDbLine
 10
536.4479999999999
 20
757.9139999999999
 30
0.0
 11
537.178
 21
758.448
 31
0.0
  0
LINE
  5
1008
330
1E
100
AcDbEntity
  8
0
100
AcDbLine
 10
536.4479999999999
 20
757.9139999999999
 30
0.0
 11
536.4479999999999
 21
758.7871023299158
 31
0.0
  0
LINE
  5
1009
330
1E
100
AcDbEntity
  8
0
100
AcDbLine
 10
537.7119999999999
 20
757.605
 30
0.0
 11
538.442
 21
758.1389999999998
 31
0.0
  0
LINE
  5
100A
330
1E
100
AcDbEntity
  8
0
100
AcDbLine
 10
537.178
 20
758.448
 30
0.0
 11
538.442
 21
758.1389999999998
 31
0.0
  0
LINE
  5
100B
330
1E
100
AcDbEntity
  8
0
100
AcDbLine
 10
537.178
 20
758.448
 30
0.0
 11
537.178
 21
759.140468592731
 31
0.0
  0
LINE
  5
100C
330
1E
100
AcDbEntity
  8
0
100
AcDbLine
 10
538.442
 20
758.1389999999998
 30
0.0
 11
538.442
 21
759.7438562331149
 31
0.0
  0
LINE
  5
100D
330
1E
100
AcDbEntity
  8
0
100
AcDbLine
 10
538.442
 20
759.7438562331149
 30
0.0
 11
538.442
 21
758.1389999999998
 31
0.0
  0
LINE
  5
100E
330
1E
100
AcDbEntity
  8
0
100
AcDbLine
 10
538.442
 20
725.0539999999999
 30
0.0
 11
538.442
 21
725.262143766885
 31
0.0
  0
LINE
  5
100F
330
1E
100
AcDbEntity
  8
0
100
AcDbLine
 10
539.0449999999999
 20
729.8560000000001
 30
0.0
 11
539.0449999999999
 21
730.4730000000001
 31
0.0
  0
LINE
  5
1010
330
1E
100
AcDbEntity
  8
0
100
AcDbLine
 10
539.0449999999999
 20
729.8560000000001
 30
0.0
 11
540.505
 21
729.8560000000001
 31
0.0
  0
LINE
  5
1011
330
1E
100
AcDbEntity
  8
0
100
AcDbLine
 10
539.0449999999999
 20
731.4914258255799
 30
0.0
 11
539.0449999999999
 21
730.4730000000001
 31
0.0
  0
LINE
  5
1012
330
1E
100
AcDbEntity
  8
0
100
AcDbLine
 10
539.4519999999999
 20
737.01475879397
 30
0.0
 11
539.4519999999999
 21
736.6080000000001
 31
0.0
  0
LINE
  5
1013
330
1E
100
AcDbEntity
  8
0
100
AcDbLine
 10
539.4519999999999
 20
736.6080000000001
 30
0.0
 11
539.4519999999999
 21
737.2239999999999
 31
0.0
  0
LINE
  5
1014
330
1E
100
AcDbEntity
  8
0
100
AcDbLine
 10
539.4519999999999
 20
736.6080000000001
 30
0.0
 11
540.9119999999999
 21
736.6080000000001
 31
0.0
  0
LINE
  5
1015
330
1E
100
AcDbEntity
  8
0
100
AcDbLine
 10
539.4519999999999
 20
736.6080000000001
 30
0.0
 11
539.4519999999999
 21
737.01475879397
 31
0.0
  0
LINE
  5
1016
330
1E
100
AcDbEntity
  8
0
100
AcDbLine
 10
539.4519999999999
 20
738.225577370392
 30
0.0
 11
539.4519999999999
 21
737.2239999999999
 31
0.0
  0
LINE
  5
1017
330
1E
100
AcDbEntity
  8
0
100
AcDbLine
 10
539.4519999999999
 20
737.2239999999999
 30
0.0
 11
540.9119999999999
 21
737.2239999999999
 31
0.0
  0
LINE
  5
1018
330
1E
100
AcDbEntity
  8
0
100
AcDbLine
 10
539.4519999999999
 20
737.2239999999999
 30
0.0
 11
539.4519999999999
 21
738.225577370392
 31
0.0
  0
LINE
  5
1019
330
1E
100
AcDbEntity
  8
0
100
AcDbLine
 10
539.4519999999999
 20
737.2239999999999
 30
0.0
 11
539.4519999999999
 21
736.6080000000001
 31
0.0
  0
LINE
  5
101A
330
1E
100
AcDbEntity
  8
0
100
AcDbLine
 10
539.0449999999999
 20
730.4730000000001
 30
0.0
 11
540.505
 21
730.4730000000001
 31
0.0
  0
LINE
  5
101B
330
1E
100
AcDbEntity
  8
0
100
AcDbLine
 10
539.0449999999999
 20
730.4730000000001
 30
0.0
 11
539.0449999999999
 21
731.4914258255799
 31
0.0
  0
LINE
  5
101C
330
1E
100
AcDbEntity
  8
0
100
AcDbLine
 10
539.0449999999999
 20
730.4730000000001
 30
0.0
 11
539.0449999999999
 21
729.8560000000001
 31
0.0
  0
LINE
  5
101D
330
1E
100
AcDbEntity
  8
0
100
AcDbLine
 10
539.0449999999999
 20
753.8318670053099
 30
0.0
 11
539.0449999999999
 21
752.431
 31
0.0
  0
LINE
  5
101E
330
1E
100
AcDbEntity
  8
0
100
AcDbLine
 10
539.0449999999999
 20
752.431
 30
0.0
 11
539.0449999999999
 21
751.8139999999999
 31
0.0
  0
LINE
  5
101F
330
1E
100
AcDbEntity
  8
0
100
AcDbLine
 10
539.0449999999999
 20
752.431
 30
0.0
 11
540.505
 21
752.431
 31
0.0
  0
LINE
  5
1020
330
1E
100
AcDbEntity
  8
0
100
AcDbLine
 10
539.0449999999999
 20
752.431
 30
0.0
 11
539.0449999999999
 21
753.8318670053099
 31
0.0
  0
LINE
  5
1021
330
1E
100
AcDbEntity
  8
0
100
AcDbLine
 10
539.0449999999999
 20
751.8139999999999
 30
0.0
 11
540.505
 21
751.8139999999999
 31
0.0
  0
LINE
  5
1022
330
1E
100
AcDbEntity
  8
0
100
AcDbLine
 10
539.0449999999999
 20
751.8139999999999
 30
0.0
 11
539.0449999999999
 21
752.431
 31
0.0
  0
LINE
  5
1023
330
1E
100
AcDbEntity
  8
0
100
AcDbLine
 10
539.4519999999999
 20
745.5831782597201
 30
0.0
 11
539.4519999999999
 21
744.7729999999999
 31
0.0
  0
LINE
  5
1024
330
1E
100
AcDbEntity
  8
0
100
AcDbLine
 10
539.4519999999999
 20
744.7729999999999
 30
0.0
 11
539.4519999999999
 21
744.156
 31
0.0
  0
LINE
  5
1025
330
1E
100
AcDbEntity
  8
0
100
AcDbLine
 10
539.4519999999999
 20
744.7729999999999
 30
0.0
 11
540.9119999999999
 21
744.7729999999999
 31
0.0
  0
LINE
  5
1026
330
1E
100
AcDbEntity
  8
0
100
AcDbLine
 10
539.4519999999999
 20
744.7729999999999
 30
0.0
 11
539.4519999999999
 21
745.5831782597201
 31
0.0
  0
LINE
  5
1027
330
1E
100
AcDbEntity
  8
0
100
AcDbLine
 10
539.4519999999999
 20
744.289737039227
 30
0.0
 11
539.4519999999999
 21
744.156
 31
0.0
  0
LINE
  5
1028
330
1E
100
AcDbEntity
  8
0
100
AcDbLine
 10
539.4519999999999
 20
744.156
 30
0.0
 11
540.9119999999999
 21
744.156
 31
0.0
  0
LINE
  5
1029
330
1E
100
AcDbEntity
  8
0
100
AcDbLine
 10
539.4519999999999
 20
744.156
 30
0.0
 11
539.4519999999999
 21
744.289737039227
 31
0.0
  0
LINE
  5
102A
330
1E
100
AcDbEntity
  8
0
100
AcDbLine
 10
539.4519999999999
 20
744.156
 30
0.0
 11
539.4519999999999
 21
744.7729999999999
 31
0.0
  0
LINE
  5
102B
330
1E
100
AcDbEntity
  8
0
100
AcDbLine
 10
538.442
 20
725.262143766885
 30
0.0
 11
543.613
 21
726.74
 31
0.0
  0
LINE
  5
102C
330
1E
100
AcDbEntity
  8
0
100
AcDbLine
 10
538.442
 20
725.262143766885
 30
0.0
 11
538.442
 21
725.0539999999999
 31
0.0
  0
LINE
  5
102D
330
1E
100
AcDbEntity
  8
0
100
AcDbLine
 10
539.5249999999999
 20
724.457
 30
0.0
 11
544.927
 21
725.9989999999999
 31
0.0
  0
LINE
  5
102E
330
1E
100
AcDbEntity
  8
0
100
AcDbLine
 10
538.431
 20
759.7469999999999
 30
0.0
 11
543.613
 21
758.266
 31
0.0
  0
LINE
  5
102F
330
1E
100
AcDbEntity
  8
0
100
AcDbLine
 10
539.5249999999999
 20
760.5489999999999
 30
0.0
 11
544.927
 21
759.0069999999999
 31
0.0
  0
LINE
  5
1030
330
1E
100
AcDbEntity
  8
0
100
AcDbLine
 10
533.832
 20
761.6900000000001
 30
0.0
 11
539.5249999999999
 21
760.5489999999999
 31
0.0
  0
LINE
  5
1031
330
1E
100
AcDbEntity
  8
0
100
AcDbLine
 10
534.1239999999999
 20
762.9049999999999
 30
0.0
 11
539.8909999999999
 21
761.702
 31
0.0
  0
LINE
  5
1032
330
1E
100
AcDbEntity
  8
0
100
AcDbLine
 10
527.9199999999999
 20
763.7689999999999
 30
0.0
 11
534.1239999999999
 21
762.9049999999999
 31
0.0
  0
LINE
  5
1033
330
1E
100
AcDbEntity
  8
0
100
AcDbLine
 10
534.1239999999999
 20
781.9379999999999
 30
0.0
 11
539.8909999999999
 21
780.735
 31
0.0
  0
LINE
  5
1034
330
1E
100
AcDbEntity
  8
0
100
AcDbLine
 10
540.505
 20
729.8560000000001
 30
0.0
 11
540.505
 21
730.4730000000001
 31
0.0
  0
LINE
  5
1035
330
1E
100
AcDbEntity
  8
0
100
AcDbLine
 10
540.9119999999999
 20
736.6080000000001
 30
0.0
 11
540.9119999999999
 21
737.2239999999999
 31
0.0
  0
LINE
  5
1036
330
1E
100
AcDbEntity
  8
0
100
AcDbLine
 10
540.9119999999999
 20
738.179889414548
 30
0.0
 11
540.9119999999999
 21
737.2239999999999
 31
0.0
  0
LINE
  5
1037
330
1E
100
AcDbEntity
  8
0
100
AcDbLine
 10
540.9119999999999
 20
737.2239999999999
 30
0.0
 11
540.9119999999999
 21
736.6080000000001
 31
0.0
  0
LINE
  5
1038
330
1E
100
AcDbEntity
  8
0
100
AcDbLine
 10
540.9119999999999
 20
737.2239999999999
 30
0.0
 11
540.9119999999999
 21
738.179889414548
 31
0.0
  0
LINE
  5
1039
330
1E
100
AcDbEntity
  8
0
100
AcDbLine
 10
540.505
 20
731.0097347919439
 30
0.0
 11
540.505
 21
730.4730000000001
 31
0.0
  0
LINE
  5
103A
330
1E
100
AcDbEntity
  8
0
100
AcDbLine
 10
540.505
 20
730.4730000000001
 30
0.0
 11
540.505
 21
729.8560000000001
 31
0.0
  0
LINE
  5
103B
330
1E
100
AcDbEntity
  8
0
100
AcDbLine
 10
540.505
 20
730.4730000000001
 30
0.0
 11
540.505
 21
731.0097347919439
 31
0.0
  0
LINE
  5
103C
330
1E
100
AcDbEntity
  8
0
100
AcDbLine
 10
541.6419999999999
 20
740.3819999999999
 30
0.0
 11
541.6419999999999
 21
740.9989999999999
 31
0.0
  0
LINE
  5
103D
330
1E
100
AcDbEntity
  8
0
100
AcDbLine
 10
541.6419999999999
 20
740.3819999999999
 30
0.0
 11
543.102
 21
740.3819999999999
 31
0.0
  0
LINE
  5
103E
330
1E
100
AcDbEntity
  8
0
100
AcDbLine
 10
541.6419999999999
 20
740.3819999999999
 30
0.0
 11
541.6419999999999
 21
741.081205207929
 31
0.0
  0
LINE
  5
103F
330
1E
100
AcDbEntity
  8
0
100
AcDbLine
 10
540.505
 20
752.5677005418671
 30
0.0
 11
540.505
 21
752.431
 31
0.0
  0
LINE
  5
1040
330
1E
100
AcDbEntity
  8
0
100
AcDbLine
 10
540.505
 20
752.431
 30
0.0
 11
540.505
 21
752.5677005418671
 31
0.0
  0
LINE
  5
1041
330
1E
100
AcDbEntity
  8
0
100
AcDbLine
 10
540.505
 20
752.431
 30
0.0
 11
540.505
 21
751.8139999999999
 31
0.0
  0
LINE
  5
1042
330
1E
100
AcDbEntity
  8
0
100
AcDbLine
 10
540.505
 20
751.8139999999999
 30
0.0
 11
540.505
 21
752.431
 31
0.0
  0
LINE
  5
1043
330
1E
100
AcDbEntity
  8
0
100
AcDbLine
 10
540.9119999999999
 20
745.908077492727
 30
0.0
 11
540.9119999999999
 21
744.7729999999999
 31
0.0
  0
LINE
  5
1044
330
1E
100
AcDbEntity
  8
0
100
AcDbLine
 10
540.9119999999999
 20
744.7729999999999
 30
0.0
 11
540.9119999999999
 21
745.908077492727
 31
0.0
  0
LINE
  5
1045
330
1E
100
AcDbEntity
  8
0
100
AcDbLine
 10
540.9119999999999
 20
744.7729999999999
 30
0.0
 11
540.9119999999999
 21
744.156
 31
0.0
  0
LINE
  5
1046
330
1E
100
AcDbEntity
  8
0
100
AcDbLine
 10
540.9119999999999
 20
744.156
 30
0.0
 11
540.9119999999999
 21
744.7729999999999
 31
0.0
  0
LINE
  5
1047
330
1E
100
AcDbEntity
  8
0
100
AcDbLine
 10
541.6419999999999
 20
741.081205207929
 30
0.0
 11
541.6419999999999
 21
740.3819999999999
 31
0.0
  0
LINE
  5
1048
330
1E
100
AcDbEntity
  8
0
100
AcDbLine
 10
541.6419999999999
 20
741.5341215507189
 30
0.0
 11
541.6419999999999
 21
740.9989999999999
 31
0.0
  0
LINE
  5
1049
330
1E
100
AcDbEntity
  8
0
100
AcDbLine
 10
541.6419999999999
 20
740.9989999999999
 30
0.0
 11
543.102
 21
740.9989999999999
 31
0.0
  0
LINE
  5
104A
330
1E
100
AcDbEntity
  8
0
100
AcDbLine
 10
541.6419999999999
 20
740.9989999999999
 30
0.0
 11
541.6419999999999
 21
741.5341215507189
 31
0.0
  0
LINE
  5
104B
330
1E
100
AcDbEntity
  8
0
100
AcDbLine
 10
541.6419999999999
 20
740.9989999999999
 30
0.0
 11
541.6419999999999
 21
740.3819999999999
 31
0.0
  0
LINE
  5
104C
330
1E
100
AcDbEntity
  8
0
100
AcDbLine
 10
543.102
 20
740.3819999999999
 30
0.0
 11
543.102
 21
740.9989999999999
 31
0.0
  0
LINE
  5
104D
330
1E
100
AcDbEntity
  8
0
100
AcDbLine
 10
543.102
 20
741.5480945394478
 30
0.0
 11
543.102
 21
740.9989999999999
 31
0.0
  0
LINE
  5
104E
330
1E
100
AcDbEntity
  8
0
100
AcDbLine
 10
543.2619999999999
 20
726.8968920657609
 30
0.0
 11
543.2619999999999
 21
726.7749999999999
 31
0.0
  0
LINE
  5
104F
330
1E
100
AcDbEntity
  8
0
100
AcDbLine
 10
543.2619999999999
 20
726.7749999999999
 30
0.0
 11
543.2619999999999
 21
727.3919999999999
 31
0.0
  0
LINE
  5
1050
330
1E
100
AcDbEntity
  8
0
100
AcDbLine
 10
543.2619999999999
 20
726.7749999999999
 30
0.0
 11
544.7219999999999
 21
726.7749999999999
 31
0.0
  0
LINE
  5
1051
330
1E
100
AcDbEntity
  8
0
100
AcDbLine
 10
543.2619999999999
 20
726.7749999999999
 30
0.0
 11
543.2619999999999
 21
726.8968920657609
 31
0.0
  0
LINE
  5
1052
330
1E
100
AcDbEntity
  8
0
100
AcDbLine
 10
543.2619999999999
 20
727.3919999999999
 30
0.0
 11
544.7219999999999
 21
727.3919999999999
 31
0.0
  0
LINE
  5
1053
330
1E
100
AcDbEntity
  8
0
100
AcDbLine
 10
543.2619999999999
 20
727.3919999999999
 30
0.0
 11
543.2619999999999
 21
726.7749999999999
 31
0.0
  0
LINE
  5
1054
330
1E
100
AcDbEntity
  8
0
100
AcDbLine
 10
543.2619999999999
 20
756.418
 30
0.0
 11
543.2619999999999
 21
755.801
 31
0.0
  0
LINE
  5
1055
330
1E
100
AcDbEntity
  8
0
100
AcDbLine
 10
543.2619999999999
 20
756.418
 30
0.0
 11
544.7219999999999
 21
756.418
 31
0.0
  0
LINE
  5
1056
330
1E
100
AcDbEntity
  8
0
100
AcDbLine
 10
543.2619999999999
 20
756.418
 30
0.0
 11
543.2619999999999
 21
758.0333380986419
 31
0.0
  0
LINE
  5
1057
330
1E
100
AcDbEntity
  8
0
100
AcDbLine
 10
543.2619999999999
 20
755.801
 30
0.0
 11
544.7219999999999
 21
755.801
 31
0.0
  0
LINE
  5
1058
330
1E
100
AcDbEntity
  8
0
100
AcDbLine
 10
543.2619999999999
 20
755.801
 30
0.0
 11
543.2619999999999
 21
756.418
 31
0.0
  0
LINE
  5
1059
330
1E
100
AcDbEntity
  8
0
100
AcDbLine
 10
543.102
 20
740.9989999999999
 30
0.0
 11
543.102
 21
740.3819999999999
 31
0.0
  0
LINE
  5
105A
330
1E
100
AcDbEntity
  8
0
100
AcDbLine
 10
543.102
 20
740.9989999999999
 30
0.0
 11
543.102
 21
741.5480945394478
 31
0.0
  0
LINE
  5
105B
330
1E
100
AcDbEntity
  8
0
100
AcDbLine
 10
543.2619999999999
 20
758.0333380986419
 30
0.0
 11
543.2619999999999
 21
756.418
 31
0.0
  0
LINE
  5
105C
330
1E
100
AcDbEntity
  8
0
100
AcDbLine
 10
543.613
 20
726.74
 30
0.0
 11
543.7062049797339
 21
726.7749999999999
 31
0.0
  0
LINE
  5
105D
330
1E
100
AcDbEntity
  8
0
100
AcDbLine
 10
544.7219999999999
 20
726.7749999999999
 30
0.0
 11
544.7219999999999
 21
727.3919999999999
 31
0.0
  0
LINE
  5
105E
330
1E
100
AcDbEntity
  8
0
100
AcDbLine
 10
544.399
 20
732.9550688420759
 30
0.0
 11
544.399
 21
732.6699999999999
 31
0.0
  0
LINE
  5
105F
330
1E
100
AcDbEntity
  8
0
100
AcDbLine
 10
544.399
 20
732.6699999999999
 30
0.0
 11
544.399
 21
733.2869999999999
 31
0.0
  0
LINE
  5
1060
330
1E
100
AcDbEntity
  8
0
100
AcDbLine
 10
544.399
 20
732.6699999999999
 30
0.0
 11
545.859
 21
732.6699999999999
 31
0.0
  0
LINE
  5
1061
330
1E
100
AcDbEntity
  8
0
100
AcDbLine
 10
544.399
 20
732.6699999999999
 30
0.0
 11
544.399
 21
732.9550688420759
 31
0.0
  0
LINE
  5
1062
330
1E
100
AcDbEntity
  8
0
100
AcDbLine
 10
544.399
 20
734.4880949850549
 30
0.0
 11
544.399
 21
733.2869999999999
 31
0.0
  0
LINE
  5
1063
330
1E
100
AcDbEntity
  8
0
100
AcDbLine
 10
544.399
 20
733.2869999999999
 30
0.0
 11
545.859
 21
733.2869999999999
 31
0.0
  0
LINE
  5
1064
330
1E
100
AcDbEntity
  8
0
100
AcDbLine
 10
544.399
 20
733.2869999999999
 30
0.0
 11
544.399
 21
734.4880949850549
 31
0.0
  0
LINE
  5
1065
330
1E
100
AcDbEntity
  8
0
100
AcDbLine
 10
544.399
 20
733.2869999999999
 30
0.0
 11
544.399
 21
732.6699999999999
 31
0.0
  0
LINE
  5
1066
330
1E
100
AcDbEntity
  8
0
100
AcDbLine
 10
544.7219999999999
 20
729.010927499423
 30
0.0
 11
544.7219999999999
 21
727.3919999999999
 31
0.0
  0
LINE
  5
1067
330
1E
100
AcDbEntity
  8
0
100
AcDbLine
 10
544.7219999999999
 20
727.3919999999999
 30
0.0
 11
544.7219999999999
 21
726.7749999999999
 31
0.0
  0
LINE
  5
1068
330
1E
100
AcDbEntity
  8
0
100
AcDbLine
 10
544.7219999999999
 20
727.3919999999999
 30
0.0
 11
544.7219999999999
 21
729.010927499423
 31
0.0
  0
LINE
  5
1069
330
1E
100
AcDbEntity
  8
0
100
AcDbLine
 10
544.7219999999999
 20
727.156447706023
 30
0.0
 11
548.212
 21
728.467
 31
0.0
  0
LINE
  5
106A
330
1E
100
AcDbEntity
  8
0
100
AcDbLine
 10
544.927
 20
725.9989999999999
 30
0.0
 11
549.8179999999999
 21
727.789
 31
0.0
  0
LINE
  5
106B
330
1E
100
AcDbEntity
  8
0
100
AcDbLine
 10
544.399
 20
750.6283751893159
 30
0.0
 11
544.399
 21
749.6169999999999
 31
0.0
  0
LINE
  5
106C
330
1E
100
AcDbEntity
  8
0
100
AcDbLine
 10
544.399
 20
749.6169999999999
 30
0.0
 11
544.399
 21
749.0
 31
0.0
  0
LINE
  5
106D
330
1E
100
AcDbEntity
  8
0
100
AcDbLine
 10
544.399
 20
749.6169999999999
 30
0.0
 11
545.859
 21
749.6169999999999
 31
0.0
  0
LINE
  5
106E
330
1E
100
AcDbEntity
  8
0
100
AcDbLine
 10
544.399
 20
749.6169999999999
 30
0.0
 11
544.399
 21
750.6283751893159
 31
0.0
  0
LINE
  5
106F
330
1E
100
AcDbEntity
  8
0
100
AcDbLine
 10
544.7219999999999
 20
757.8495522939769
 30
0.0
 11
544.7219999999999
 21
756.418
 31
0.0
  0
LINE
  5
1070
330
1E
100
AcDbEntity
  8
0
100
AcDbLine
 10
544.7219999999999
 20
756.418
 30
0.0
 11
544.7219999999999
 21
757.8495522939769
 31
0.0
  0
LINE
  5
1071
330
1E
100
AcDbEntity
  8
0
100
AcDbLine
 10
544.7219999999999
 20
756.418
 30
0.0
 11
544.7219999999999
 21
755.801
 31
0.0
  0
LINE
  5
1072
330
1E
100
AcDbEntity
  8
0
100
AcDbLine
 10
544.7219999999999
 20
755.801
 30
0.0
 11
544.7219999999999
 21
756.418
 31
0.0
  0
LINE
  5
1073
330
1E
100
AcDbEntity
  8
0
100
AcDbLine
 10
544.399
 20
749.0
 30
0.0
 11
545.859
 21
749.0
 31
0.0
  0
LINE
  5
1074
330
1E
100
AcDbEntity
  8
0
100
AcDbLine
 10
544.399
 20
749.0
 30
0.0
 11
544.399
 21
749.6169999999999
 31
0.0
  0
LINE
  5
1075
330
1E
100
AcDbEntity
  8
0
100
AcDbLine
 10
543.613
 20
758.266
 30
0.0
 11
548.212
 21
756.5389999999999
 31
0.0
  0
LINE
  5
1076
330
1E
100
AcDbEntity
  8
0
100
AcDbLine
 10
544.927
 20
759.0069999999999
 30
0.0
 11
549.8179999999999
 21
757.2169999999999
 31
0.0
  0
LINE
  5
1077
330
1E
100
AcDbEntity
  8
0
100
AcDbLine
 10
545.365
 20
760.1599999999999
 30
0.0
 11
550.329
 21
758.34
 31
0.0
  0
LINE
  5
1078
330
1E
100
AcDbEntity
  8
0
100
AcDbLine
 10
539.8909999999999
 20
761.702
 30
0.0
 11
545.365
 21
760.1599999999999
 31
0.0
  0
LINE
  5
1079
330
1E
100
AcDbEntity
  8
0
100
AcDbLine
 10
551.13
 20
729.623
 30
0.0
 11
551.13
 21
730.24
 31
0.0
  0
LINE
  5
107A
330
1E
100
AcDbEntity
  8
0
100
AcDbLine
 10
549.6699999999999
 20
729.623
 30
0.0
 11
549.6699999999999
 21
730.24
 31
0.0
  0
LINE
  5
107B
330
1E
100
AcDbEntity
  8
0
100
AcDbLine
 10
549.6699999999999
 20
729.623
 30
0.0
 11
551.13
 21
729.623
 31
0.0
  0
LINE
  5
107C
330
1E
100
AcDbEntity
  8
0
100
AcDbLine
 10
549.6699999999999
 20
729.623
 30
0.0
 11
549.6699999999999
 21
730.6542223103551
 31
0.0
  0
LINE
  5
107D
330
1E
100
AcDbEntity
  8
0
100
AcDbLine
 10
548.212
 20
728.467
 30
0.0
 11
550.6423353909459
 21
729.623
 31
0.0
  0
LINE
  5
107E
330
1E
100
AcDbEntity
  8
0
100
AcDbLine
 10
549.6699999999999
 20
730.6542223103551
 30
0.0
 11
549.6699999999999
 21
729.623
 31
0.0
  0
LINE
  5
107F
330
1E
100
AcDbEntity
  8
0
100
AcDbLine
 10
549.6699999999999
 20
730.24
 30
0.0
 11
551.13
 21
730.24
 31
0.0
  0
LINE
  5
1080
330
1E
100
AcDbEntity
  8
0
100
AcDbLine
 10
549.6699999999999
 20
730.24
 30
0.0
 11
549.6699999999999
 21
731.0409391217571
 31
0.0
  0
LINE
  5
1081
330
1E
100
AcDbEntity
  8
0
100
AcDbLine
 10
549.6699999999999
 20
730.24
 30
0.0
 11
549.6699999999999
 21
729.623
 31
0.0
  0
LINE
  5
1082
330
1E
100
AcDbEntity
  8
0
100
AcDbLine
 10
549.6699999999999
 20
731.0409391217571
 30
0.0
 11
549.6699999999999
 21
730.24
 31
0.0
  0
LINE
  5
1083
330
1E
100
AcDbEntity
  8
0
100
AcDbLine
 10
551.13
 20
730.6911060606059
 30
0.0
 11
551.13
 21
730.24
 31
0.0
  0
LINE
  5
1084
330
1E
100
AcDbEntity
  8
0
100
AcDbLine
 10
551.13
 20
730.24
 30
0.0
 11
551.13
 21
729.623
 31
0.0
  0
LINE
  5
1085
330
1E
100
AcDbEntity
  8
0
100
AcDbLine
 10
551.13
 20
730.24
 30
0.0
 11
551.13
 21
730.6911060606059
 31
0.0
  0
LINE
  5
1086
330
1E
100
AcDbEntity
  8
0
100
AcDbLine
 10
551.13
 20
729.854959872767
 30
0.0
 11
552.299
 21
730.411
 31
0.0
  0
LINE
  5
1087
330
1E
100
AcDbEntity
  8
0
100
AcDbLine
 10
552.299
 20
730.411
 30
0.0
 11
555.803
 21
732.6010000000001
 31
0.0
  0
LINE
  5
1088
330
1E
100
AcDbEntity
  8
0
100
AcDbLine
 10
549.8179999999999
 20
727.789
 30
0.0
 11
554.0509999999999
 21
729.855
 31
0.0
  0
LINE
  5
1089
330
1E
100
AcDbEntity
  8
0
100
AcDbLine
 10
554.0509999999999
 20
729.855
 30
0.0
 11
557.701
 21
732.138
 31
0.0
  0
LINE
  5
108A
330
1E
100
AcDbEntity
  8
0
100
AcDbLine
 10
545.859
 20
732.6699999999999
 30
0.0
 11
545.859
 21
733.2869999999999
 31
0.0
  0
LINE
  5
108B
330
1E
100
AcDbEntity
  8
0
100
AcDbLine
 10
545.859
 20
734.2464991697109
 30
0.0
 11
545.859
 21
733.2869999999999
 31
0.0
  0
LINE
  5
108C
330
1E
100
AcDbEntity
  8
0
100
AcDbLine
 10
545.859
 20
733.2869999999999
 30
0.0
 11
545.859
 21
732.6699999999999
 31
0.0
  0
LINE
  5
108D
330
1E
100
AcDbEntity
  8
0
100
AcDbLine
 10
545.859
 20
733.2869999999999
 30
0.0
 11
545.859
 21
734.2464991697109
 31
0.0
  0
LINE
  5
108E
330
1E
100
AcDbEntity
  8
0
100
AcDbLine
 10
554.456
 20
733.054
 30
0.0
 11
554.456
 21
733.671
 31
0.0
  0
LINE
  5
108F
330
1E
100
AcDbEntity
  8
0
100
AcDbLine
 10
554.456
 20
733.054
 30
0.0
 11
555.9159999999999
 21
733.054
 31
0.0
  0
LINE
  5
1090
330
1E
100
AcDbEntity
  8
0
100
AcDbLine
 10
554.456
 20
734.8280333287899
 30
0.0
 11
554.456
 21
733.671
 31
0.0
  0
LINE
  5
1091
330
1E
100
AcDbEntity
  8
0
100
AcDbLine
 10
555.9159999999999
 20
733.054
 30
0.0
 11
555.9159999999999
 21
733.671
 31
0.0
  0
LINE
  5
1092
330
1E
100
AcDbEntity
  8
0
100
AcDbLine
 10
554.456
 20
733.671
 30
0.0
 11
555.9159999999999
 21
733.671
 31
0.0
  0
LINE
  5
1093
330
1E
100
AcDbEntity
  8
0
100
AcDbLine
 10
554.456
 20
733.671
 30
0.0
 11
554.456
 21
734.8280333287899
 31
0.0
  0
LINE
  5
1094
330
1E
100
AcDbEntity
  8
0
100
AcDbLine
 10
554.456
 20
733.671
 30
0.0
 11
554.456
 21
733.054
 31
0.0
  0
LINE
  5
1095
330
1E
100
AcDbEntity
  8
0
100
AcDbLine
 10
555.9159999999999
 20
734.8599758042529
 30
0.0
 11
555.9159999999999
 21
733.671
 31
0.0
  0
LINE
  5
1096
330
1E
100
AcDbEntity
  8
0
100
AcDbLine
 10
555.9159999999999
 20
733.671
 30
0.0
 11
555.9159999999999
 21
733.054
 31
0.0
  0
LINE
  5
1097
330
1E
100
AcDbEntity
  8
0
100
AcDbLine
 10
555.9159999999999
 20
733.671
 30
0.0
 11
555.9159999999999
 21
734.8599758042529
 31
0.0
  0
LINE
  5
1098
330
1E
100
AcDbEntity
  8
0
100
AcDbLine
 10
555.803
 20
732.6010000000001
 30
0.0
 11
558.431
 21
734.9149999999999
 31
0.0
  0
LINE
  5
1099
330
1E
100
AcDbEntity
  8
0
100
AcDbLine
 10
558.431
 20
734.9149999999999
 30
0.0
 11
560.4009999999999
 21
737.691
 31
0.0
  0
LINE
  5
109A
330
1E
100
AcDbEntity
  8
0
100
AcDbLine
 10
557.701
 20
732.138
 30
0.0
 11
560.4009999999999
 21
734.5449999999999
 31
0.0
  0
LINE
  5
109B
330
1E
100
AcDbEntity
  8
0
100
AcDbLine
 10
560.4009999999999
 20
734.5449999999999
 30
0.0
 11
561.1309999999999
 21
735.3279999999999
 31
0.0
  0
LINE
  5
109C
330
1E
100
AcDbEntity
  8
0
100
AcDbLine
 10
560.4009999999999
 20
734.5449999999999
 30
0.0
 11
562.518
 21
737.2589999999998
 31
0.0
  0
LINE
  5
109D
330
1E
100
AcDbEntity
  8
0
100
AcDbLine
 10
548.8599999999999
 20
736.7519999999999
 30
0.0
 11
548.8599999999999
 21
737.3689999999998
 31
0.0
  0
LINE
  5
109E
330
1E
100
AcDbEntity
  8
0
100
AcDbLine
 10
548.8599999999999
 20
736.7519999999999
 30
0.0
 11
550.32
 21
736.7519999999999
 31
0.0
  0
LINE
  5
109F
330
1E
100
AcDbEntity
  8
0
100
AcDbLine
 10
548.8599999999999
 20
736.7519999999999
 30
0.0
 11
548.8599999999999
 21
737.9476202740139
 31
0.0
  0
LINE
  5
10A0
330
1E
100
AcDbEntity
  8
0
100
AcDbLine
 10
550.32
 20
736.7519999999999
 30
0.0
 11
550.32
 21
737.3689999999998
 31
0.0
  0
LINE
  5
10A1
330
1E
100
AcDbEntity
  8
0
100
AcDbLine
 10
548.8599999999999
 20
737.3689999999998
 30
0.0
 11
550.32
 21
737.3689999999998
 31
0.0
  0
LINE
  5
10A2
330
1E
100
AcDbEntity
  8
0
100
AcDbLine
 10
548.8599999999999
 20
737.3689999999998
 30
0.0
 11
548.8599999999999
 21
737.9476202740139
 31
0.0
  0
LINE
  5
10A3
330
1E
100
AcDbEntity
  8
0
100
AcDbLine
 10
548.8599999999999
 20
737.3689999999998
 30
0.0
 11
548.8599999999999
 21
736.7519999999999
 31
0.0
  0
LINE
  5
10A4
330
1E
100
AcDbEntity
  8
0
100
AcDbLine
 10
548.8599999999999
 20
737.9476202740139
 30
0.0
 11
548.8599999999999
 21
737.3689999999998
 31
0.0
  0
LINE
  5
10A5
330
1E
100
AcDbEntity
  8
0
100
AcDbLine
 10
548.8599999999999
 20
737.9476202740139
 30
0.0
 11
548.8599999999999
 21
736.7519999999999
 31
0.0
  0
LINE
  5
10A6
330
1E
100
AcDbEntity
  8
0
100
AcDbLine
 10
550.32
 20
737.9151563973949
 30
0.0
 11
550.32
 21
737.3689999999998
 31
0.0
  0
LINE
  5
10A7
330
1E
100
AcDbEntity
  8
0
100
AcDbLine
 10
550.32
 20
737.3689999999998
 30
0.0
 11
550.32
 21
736.7519999999999
 31
0.0
  0
LINE
  5
10A8
330
1E
100
AcDbEntity
  8
0
100
AcDbLine
 10
550.32
 20
737.3689999999998
 30
0.0
 11
550.32
 21
737.9151563973949
 31
0.0
  0
LINE
  5
10A9
330
1E
100
AcDbEntity
  8
0
100
AcDbLine
 10
550.4019999999999
 20
740.836
 30
0.0
 11
550.4019999999999
 21
741.453
 31
0.0
  0
LINE
  5
10AA
330
1E
100
AcDbEntity
  8
0
100
AcDbLine
 10
550.4019999999999
 20
740.836
 30
0.0
 11
551.8609999999999
 21
740.836
 31
0.0
  0
LINE
  5
10AB
330
1E
100
AcDbEntity
  8
0
100
AcDbLine
 10
550.4019999999999
 20
740.836
 30
0.0
 11
550.4019999999999
 21
741.7400732621859
 31
0.0
  0
LINE
  5
10AC
330
1E
100
AcDbEntity
  8
0
100
AcDbLine
 10
557.7819999999999
 20
737.749234858127
 30
0.0
 11
557.7819999999999
 21
737.1369999999999
 31
0.0
  0
LINE
  5
10AD
330
1E
100
AcDbEntity
  8
0
100
AcDbLine
 10
557.7819999999999
 20
737.1369999999999
 30
0.0
 11
557.7819999999999
 21
737.7539999999998
 31
0.0
  0
LINE
  5
10AE
330
1E
100
AcDbEntity
  8
0
100
AcDbLine
 10
557.7819999999999
 20
737.1369999999999
 30
0.0
 11
559.241
 21
737.1369999999999
 31
0.0
  0
LINE
  5
10AF
330
1E
100
AcDbEntity
  8
0
100
AcDbLine
 10
557.7819999999999
 20
737.1369999999999
 30
0.0
 11
557.7819999999999
 21
737.749234858127
 31
0.0
  0
LINE
  5
10B0
330
1E
100
AcDbEntity
  8
0
100
AcDbLine
 10
557.7819999999999
 20
737.7539999999998
 30
0.0
 11
559.241
 21
737.7539999999998
 31
0.0
  0
LINE
  5
10B1
330
1E
100
AcDbEntity
  8
0
100
AcDbLine
 10
557.7819999999999
 20
737.7539999999998
 30
0.0
 11
557.7819999999999
 21
737.1369999999999
 31
0.0
  0
LINE
  5
10B2
330
1E
100
AcDbEntity
  8
0
100
AcDbLine
 10
551.8609999999999
 20
740.836
 30
0.0
 11
551.8609999999999
 21
741.453
 31
0.0
  0
LINE
  5
10B3
330
1E
100
AcDbEntity
  8
0
100
AcDbLine
 10
550.4019999999999
 20
741.453
 30
0.0
 11
551.8609999999999
 21
741.453
 31
0.0
  0
LINE
  5
10B4
330
1E
100
AcDbEntity
  8
0
100
AcDbLine
 10
550.4019999999999
 20
741.453
 30
0.0
 11
550.4019999999999
 21
741.7400732621859
 31
0.0
  0
LINE
  5
10B5
330
1E
100
AcDbEntity
  8
0
100
AcDbLine
 10
550.4019999999999
 20
741.453
 30
0.0
 11
550.4019999999999
 21
740.836
 31
0.0
  0
LINE
  5
10B6
330
1E
100
AcDbEntity
  8
0
100
AcDbLine
 10
550.4019999999999
 20
741.7400732621859
 30
0.0
 11
550.4019999999999
 21
741.453
 31
0.0
  0
LINE
  5
10B7
330
1E
100
AcDbEntity
  8
0
100
AcDbLine
 10
550.4019999999999
 20
741.7400732621859
 30
0.0
 11
550.4019999999999
 21
740.836
 31
0.0
  0
LINE
  5
10B8
330
1E
100
AcDbEntity
  8
0
100
AcDbLine
 10
551.8609999999999
 20
741.835390106721
 30
0.0
 11
551.8609999999999
 21
741.453
 31
0.0
  0
LINE
  5
10B9
330
1E
100
AcDbEntity
  8
0
100
AcDbLine
 10
551.8609999999999
 20
741.453
 30
0.0
 11
551.8609999999999
 21
740.836
 31
0.0
  0
LINE
  5
10BA
330
1E
100
AcDbEntity
  8
0
100
AcDbLine
 10
551.8609999999999
 20
741.453
 30
0.0
 11
551.8609999999999
 21
741.835390106721
 31
0.0
  0
LINE
  5
10BB
330
1E
100
AcDbEntity
  8
0
100
AcDbLine
 10
559.241
 20
737.1369999999999
 30
0.0
 11
559.241
 21
737.7539999999998
 31
0.0
  0
LINE
  5
10BC
330
1E
100
AcDbEntity
  8
0
100
AcDbLine
 10
559.241
 20
737.7539999999998
 30
0.0
 11
559.241
 21
737.1369999999999
 31
0.0
  0
LINE
  5
10BD
330
1E
100
AcDbEntity
  8
0
100
AcDbLine
 10
559.1609999999999
 20
741.2889999999999
 30
0.0
 11
559.1609999999999
 21
741.906
 31
0.0
  0
LINE
  5
10BE
330
1E
100
AcDbEntity
  8
0
100
AcDbLine
 10
559.1609999999999
 20
741.2889999999999
 30
0.0
 11
560.62
 21
741.2889999999999
 31
0.0
  0
LINE
  5
10BF
330
1E
100
AcDbEntity
  8
0
100
AcDbLine
 10
559.1609999999999
 20
741.2889999999999
 30
0.0
 11
559.1609999999999
 21
741.9437283777138
 31
0.0
  0
LINE
  5
10C0
330
1E
100
AcDbEntity
  8
0
100
AcDbLine
 10
548.8599999999999
 20
744.918
 30
0.0
 11
550.32
 21
744.918
 31
0.0
  0
LINE
  5
10C1
330
1E
100
AcDbEntity
  8
0
100
AcDbLine
 10
548.8599999999999
 20
744.918
 30
0.0
 11
548.8599999999999
 21
745.4927368421049
 31
0.0
  0
LINE
  5
10C2
330
1E
100
AcDbEntity
  8
0
100
AcDbLine
 10
548.8599999999999
 20
744.918
 30
0.0
 11
548.8599999999999
 21
745.535
 31
0.0
  0
LINE
  5
10C3
330
1E
100
AcDbEntity
  8
0
100
AcDbLine
 10
550.32
 20
745.7232631578951
 30
0.0
 11
550.32
 21
745.535
 31
0.0
  0
LINE
  5
10C4
330
1E
100
AcDbEntity
  8
0
100
AcDbLine
 10
548.8599999999999
 20
745.535
 30
0.0
 11
548.8599999999999
 21
744.918
 31
0.0
  0
LINE
  5
10C5
330
1E
100
AcDbEntity
  8
0
100
AcDbLine
 10
548.8599999999999
 20
745.535
 30
0.0
 11
550.32
 21
745.535
 31
0.0
  0
LINE
  5
10C6
330
1E
100
AcDbEntity
  8
0
100
AcDbLine
 10
548.8599999999999
 20
745.4927368421049
 30
0.0
 11
548.8599999999999
 21
744.918
 31
0.0
  0
LINE
  5
10C7
330
1E
100
AcDbEntity
  8
0
100
AcDbLine
 10
550.32
 20
745.535
 30
0.0
 11
550.32
 21
745.7232631578951
 31
0.0
  0
LINE
  5
10C8
330
1E
100
AcDbEntity
  8
0
100
AcDbLine
 10
550.32
 20
745.535
 30
0.0
 11
550.32
 21
744.918
 31
0.0
  0
LINE
  5
10C9
330
1E
100
AcDbEntity
  8
0
100
AcDbLine
 10
550.32
 20
744.918
 30
0.0
 11
550.32
 21
745.535
 31
0.0
  0
LINE
  5
10CA
330
1E
100
AcDbEntity
  8
0
100
AcDbLine
 10
557.7819999999999
 20
746.057
 30
0.0
 11
557.7819999999999
 21
745.44
 31
0.0
  0
LINE
  5
10CB
330
1E
100
AcDbEntity
  8
0
100
AcDbLine
 10
557.7819999999999
 20
746.057
 30
0.0
 11
559.241
 21
746.057
 31
0.0
  0
LINE
  5
10CC
330
1E
100
AcDbEntity
  8
0
100
AcDbLine
 10
557.7819999999999
 20
746.057
 30
0.0
 11
557.7819999999999
 21
746.9014736842098
 31
0.0
  0
LINE
  5
10CD
330
1E
100
AcDbEntity
  8
0
100
AcDbLine
 10
557.7819999999999
 20
746.9014736842098
 30
0.0
 11
557.7819999999999
 21
745.44
 31
0.0
  0
LINE
  5
10CE
330
1E
100
AcDbEntity
  8
0
100
AcDbLine
 10
557.7819999999999
 20
746.9014736842098
 30
0.0
 11
557.7819999999999
 21
746.057
 31
0.0
  0
LINE
  5
10CF
330
1E
100
AcDbEntity
  8
0
100
AcDbLine
 10
557.7819999999999
 20
745.44
 30
0.0
 11
559.241
 21
745.44
 31
0.0
  0
LINE
  5
10D0
330
1E
100
AcDbEntity
  8
0
100
AcDbLine
 10
557.7819999999999
 20
745.44
 30
0.0
 11
557.7819999999999
 21
746.9014736842098
 31
0.0
  0
LINE
  5
10D1
330
1E
100
AcDbEntity
  8
0
100
AcDbLine
 10
557.7819999999999
 20
745.44
 30
0.0
 11
557.7819999999999
 21
746.057
 31
0.0
  0
LINE
  5
10D2
330
1E
100
AcDbEntity
  8
0
100
AcDbLine
 10
559.1609999999999
 20
741.9437283777138
 30
0.0
 11
559.1609999999999
 21
741.2889999999999
 31
0.0
  0
LINE
  5
10D3
330
1E
100
AcDbEntity
  8
0
100
AcDbLine
 10
559.241
 20
747.1318421052631
 30
0.0
 11
559.241
 21
746.057
 31
0.0
  0
LINE
  5
10D4
330
1E
100
AcDbEntity
  8
0
100
AcDbLine
 10
559.241
 20
746.057
 30
0.0
 11
559.241
 21
747.1318421052631
 31
0.0
  0
LINE
  5
10D5
330
1E
100
AcDbEntity
  8
0
100
AcDbLine
 10
559.241
 20
746.057
 30
0.0
 11
559.241
 21
745.44
 31
0.0
  0
LINE
  5
10D6
330
1E
100
AcDbEntity
  8
0
100
AcDbLine
 10
559.241
 20
745.44
 30
0.0
 11
559.241
 21
746.057
 31
0.0
  0
LINE
  5
10D7
330
1E
100
AcDbEntity
  8
0
100
AcDbLine
 10
559.1609999999999
 20
742.690449307946
 30
0.0
 11
559.1609999999999
 21
741.906
 31
0.0
  0
LINE
  5
10D8
330
1E
100
AcDbEntity
  8
0
100
AcDbLine
 10
559.1609999999999
 20
741.906
 30
0.0
 11
560.62
 21
741.906
 31
0.0
  0
LINE
  5
10D9
330
1E
100
AcDbEntity
  8
0
100
AcDbLine
 10
559.1609999999999
 20
741.906
 30
0.0
 11
559.1609999999999
 21
742.690449307946
 31
0.0
  0
LINE
  5
10DA
330
1E
100
AcDbEntity
  8
0
100
AcDbLine
 10
559.1609999999999
 20
741.906
 30
0.0
 11
559.1609999999999
 21
741.2889999999999
 31
0.0
  0
LINE
  5
10DB
330
1E
100
AcDbEntity
  8
0
100
AcDbLine
 10
560.62
 20
741.2889999999999
 30
0.0
 11
560.62
 21
741.906
 31
0.0
  0
LINE
  5
10DC
330
1E
100
AcDbEntity
  8
0
100
AcDbLine
 10
560.62
 20
742.5967567624529
 30
0.0
 11
560.62
 21
741.906
 31
0.0
  0
LINE
  5
10DD
330
1E
100
AcDbEntity
  8
0
100
AcDbLine
 10
560.62
 20
741.906
 30
0.0
 11
560.62
 21
741.2889999999999
 31
0.0
  0
LINE
  5
10DE
330
1E
100
AcDbEntity
  8
0
100
AcDbLine
 10
560.62
 20
741.906
 30
0.0
 11
560.62
 21
742.5967567624529
 31
0.0
  0
LINE
  5
10DF
330
1E
100
AcDbEntity
  8
0
100
AcDbLine
 10
560.4009999999999
 20
737.691
 30
0.0
 11
561.6419999999999
 21
739.881
 31
0.0
  0
LINE
  5
10E0
330
1E
100
AcDbEntity
  8
0
100
AcDbLine
 10
560.77163058657
 20
735.0201494624229
 30
0.0
 11
561.1309999999999
 21
735.3279999999999
 31
0.0
  0
LINE
  5
10E1
330
1E
100
AcDbEntity
  8
0
100
AcDbLine
 10
561.6419999999999
 20
739.881
 30
0.0
 11
562.08
 21
742.503
 31
0.0
  0
LINE
  5
10E2
330
1E
100
AcDbEntity
  8
0
100
AcDbLine
 10
561.1309999999999
 20
735.3279999999999
 30
0.0
 11
563.1749999999999
 21
737.95
 31
0.0
  0
LINE
  5
10E3
330
1E
100
AcDbEntity
  8
0
100
AcDbLine
 10
560.4009999999999
 20
747.315
 30
0.0
 11
561.6419999999999
 21
745.1249999999999
 31
0.0
  0
LINE
  5
10E4
330
1E
100
AcDbEntity
  8
0
100
AcDbLine
 10
562.518
 20
737.2589999999998
 30
0.0
 11
563.759
 21
739.8189999999999
 31
0.0
  0
LINE
  5
10E5
330
1E
100
AcDbEntity
  8
0
100
AcDbLine
 10
563.759
 20
739.8189999999999
 30
0.0
 11
564.2699999999999
 21
742.503
 31
0.0
  0
LINE
  5
10E6
330
1E
100
AcDbEntity
  8
0
100
AcDbLine
 10
563.1749999999999
 20
737.95
 30
0.0
 11
564.489
 21
740.6950000000001
 31
0.0
  0
LINE
  5
10E7
330
1E
100
AcDbEntity
  8
0
100
AcDbLine
 10
561.6419999999999
 20
745.1249999999999
 30
0.0
 11
562.08
 21
742.503
 31
0.0
  0
LINE
  5
10E8
330
1E
100
AcDbEntity
  8
0
100
AcDbLine
 10
562.518
 20
747.7469999999999
 30
0.0
 11
563.759
 21
745.187
 31
0.0
  0
LINE
  5
10E9
330
1E
100
AcDbEntity
  8
0
100
AcDbLine
 10
564.489
 20
740.6950000000001
 30
0.0
 11
565.0
 21
743.4099999999999
 31
0.0
  0
LINE
  5
10EA
330
1E
100
AcDbEntity
  8
0
100
AcDbLine
 10
563.759
 20
745.187
 30
0.0
 11
564.2699999999999
 21
742.503
 31
0.0
  0
LINE
  5
10EB
330
1E
100
AcDbEntity
  8
0
100
AcDbLine
 10
545.859
 20
749.0
 30
0.0
 11
545.859
 21
749.6169999999999
 31
0.0
  0
LINE
  5
10EC
330
1E
100
AcDbEntity
  8
0
100
AcDbLine
 10
545.859
 20
749.6169999999999
 30
0.0
 11
545.859
 21
750.855828032493
 31
0.0
  0
LINE
  5
10ED
330
1E
100
AcDbEntity
  8
0
100
AcDbLine
 10
545.859
 20
749.6169999999999
 30
0.0
 11
545.859
 21
749.0
 31
0.0
  0
LINE
  5
10EE
330
1E
100
AcDbEntity
  8
0
100
AcDbLine
 10
545.859
 20
750.855828032493
 30
0.0
 11
545.859
 21
749.6169999999999
 31
0.0
  0
LINE
  5
10EF
330
1E
100
AcDbEntity
  8
0
100
AcDbLine
 10
554.456
 20
750.14
 30
0.0
 11
554.456
 21
749.523
 31
0.0
  0
LINE
  5
10F0
330
1E
100
AcDbEntity
  8
0
100
AcDbLine
 10
554.456
 20
750.14
 30
0.0
 11
555.9159999999999
 21
750.14
 31
0.0
  0
LINE
  5
10F1
330
1E
100
AcDbEntity
  8
0
100
AcDbLine
 10
555.9159999999999
 20
750.14
 30
0.0
 11
555.9159999999999
 21
749.523
 31
0.0
  0
LINE
  5
10F2
330
1E
100
AcDbEntity
  8
0
100
AcDbLine
 10
554.456
 20
749.6875101553979
 30
0.0
 11
554.456
 21
749.523
 31
0.0
  0
LINE
  5
10F3
330
1E
100
AcDbEntity
  8
0
100
AcDbLine
 10
554.456
 20
749.523
 30
0.0
 11
555.9159999999999
 21
749.523
 31
0.0
  0
LINE
  5
10F4
330
1E
100
AcDbEntity
  8
0
100
AcDbLine
 10
554.456
 20
749.523
 30
0.0
 11
554.456
 21
749.6875101553979
 31
0.0
  0
LINE
  5
10F5
330
1E
100
AcDbEntity
  8
0
100
AcDbLine
 10
554.456
 20
749.523
 30
0.0
 11
554.456
 21
750.14
 31
0.0
  0
LINE
  5
10F6
330
1E
100
AcDbEntity
  8
0
100
AcDbLine
 10
555.9159999999999
 20
749.523
 30
0.0
 11
555.9159999999999
 21
750.14
 31
0.0
  0
LINE
  5
10F7
330
1E
100
AcDbEntity
  8
0
100
AcDbLine
 10
555.803
 20
752.4049999999999
 30
0.0
 11
558.431
 21
750.0919999999999
 31
0.0
  0
LINE
  5
10F8
330
1E
100
AcDbEntity
  8
0
100
AcDbLine
 10
558.431
 20
750.0919999999999
 30
0.0
 11
560.4009999999999
 21
747.315
 31
0.0
  0
LINE
  5
10F9
330
1E
100
AcDbEntity
  8
0
100
AcDbLine
 10
549.6699999999999
 20
753.571
 30
0.0
 11
549.6699999999999
 21
752.9539999999999
 31
0.0
  0
LINE
  5
10FA
330
1E
100
AcDbEntity
  8
0
100
AcDbLine
 10
549.6699999999999
 20
753.571
 30
0.0
 11
551.13
 21
753.571
 31
0.0
  0
LINE
  5
10FB
330
1E
100
AcDbEntity
  8
0
100
AcDbLine
 10
549.6699999999999
 20
753.571
 30
0.0
 11
549.6699999999999
 21
754.008081626767
 31
0.0
  0
LINE
  5
10FC
330
1E
100
AcDbEntity
  8
0
100
AcDbLine
 10
549.6699999999999
 20
753.5328572854289
 30
0.0
 11
549.6699999999999
 21
752.9539999999999
 31
0.0
  0
LINE
  5
10FD
330
1E
100
AcDbEntity
  8
0
100
AcDbLine
 10
549.6699999999999
 20
752.9539999999999
 30
0.0
 11
551.13
 21
752.9539999999999
 31
0.0
  0
LINE
  5
10FE
330
1E
100
AcDbEntity
  8
0
100
AcDbLine
 10
549.6699999999999
 20
752.9539999999999
 30
0.0
 11
549.6699999999999
 21
753.5328572854289
 31
0.0
  0
LINE
  5
10FF
330
1E
100
AcDbEntity
  8
0
100
AcDbLine
 10
549.6699999999999
 20
752.9539999999999
 30
0.0
 11
549.6699999999999
 21
753.571
 31
0.0
  0
LINE
  5
1100
330
1E
100
AcDbEntity
  8
0
100
AcDbLine
 10
551.13
 20
753.571
 30
0.0
 11
551.13
 21
754.3340233631379
 31
0.0
  0
LINE
  5
1101
330
1E
100
AcDbEntity
  8
0
100
AcDbLine
 10
551.13
 20
753.571
 30
0.0
 11
551.13
 21
752.9539999999999
 31
0.0
  0
LINE
  5
1102
330
1E
100
AcDbEntity
  8
0
100
AcDbLine
 10
551.13
 20
752.9539999999999
 30
0.0
 11
551.13
 21
753.571
 31
0.0
  0
LINE
  5
1103
330
1E
100
AcDbEntity
  8
0
100
AcDbLine
 10
557.701
 20
752.868
 30
0.0
 11
560.4009999999999
 21
750.462
 31
0.0
  0
LINE
  5
1104
330
1E
100
AcDbEntity
  8
0
100
AcDbLine
 10
560.4009999999999
 20
750.462
 30
0.0
 11
562.518
 21
747.7469999999999
 31
0.0
  0
LINE
  5
1105
330
1E
100
AcDbEntity
  8
0
100
AcDbLine
 10
551.13
 20
754.3340233631379
 30
0.0
 11
551.13
 21
753.571
 31
0.0
  0
LINE
  5
1106
330
1E
100
AcDbEntity
  8
0
100
AcDbLine
 10
549.6699999999999
 20
754.008081626767
 30
0.0
 11
549.6699999999999
 21
753.571
 31
0.0
  0
LINE
  5
1107
330
1E
100
AcDbEntity
  8
0
100
AcDbLine
 10
548.212
 20
756.5389999999999
 30
0.0
 11
552.299
 21
754.595
 31
0.0
  0
LINE
  5
1108
330
1E
100
AcDbEntity
  8
0
100
AcDbLine
 10
552.299
 20
754.595
 30
0.0
 11
555.803
 21
752.4049999999999
 31
0.0
  0
LINE
  5
1109
330
1E
100
AcDbEntity
  8
0
100
AcDbLine
 10
549.8179999999999
 20
757.2169999999999
 30
0.0
 11
554.0509999999999
 21
755.151
 31
0.0
  0
LINE
  5
110A
330
1E
100
AcDbEntity
  8
0
100
AcDbLine
 10
554.0509999999999
 20
755.151
 30
0.0
 11
557.701
 21
752.868
 31
0.0
  0
LINE
  5
110B
330
1E
100
AcDbEntity
  8
0
100
AcDbLine
 10
550.329
 20
758.34
 30
0.0
 11
554.635
 21
756.2419999999999
 31
0.0
  0
LINE
  5
110C
330
1E
100
AcDbEntity
  8
0
100
AcDbLine
 10
554.635
 20
756.2419999999999
 30
0.0
 11
558.2849999999999
 21
753.929
 31
0.0
  0
LINE
  5
110D
330
1E
100
AcDbEntity
  8
0
100
AcDbLine
 10
558.2849999999999
 20
753.929
 30
0.0
 11
561.1309999999999
 21
751.492
 31
0.0
  0
LINE
  5
110E
330
1E
100
AcDbEntity
  8
0
100
AcDbLine
 10
561.1309999999999
 20
751.492
 30
0.0
 11
563.1749999999999
 21
748.8689999999999
 31
0.0
  0
LINE
  5
110F
330
1E
100
AcDbEntity
  8
0
100
AcDbLine
 10
563.1749999999999
 20
748.8689999999999
 30
0.0
 11
564.489
 21
746.1239999999999
 31
0.0
  0
LINE
  5
1110
330
1E
100
AcDbEntity
  8
0
100
AcDbLine
 10
564.489
 20
746.1239999999999
 30
0.0
 11
565.0
 21
743.4099999999999
 31
0.0
  0
LINE
  5
1111
330
1E
100
AcDbEntity
  8
0
100
AcDbLine
 10
561.1309999999999
 20
770.5239999999998
 30
0.0
 11
563.1749999999999
 21
767.9019999999999
 31
0.0
  0
LINE
  5
1112
330
1E
100
AcDbEntity
  8
0
100
AcDbLine
 10
563.1749999999999
 20
767.9019999999999
 30
0.0
 11
564.489
 21
765.1569999999999
 31
0.0
  0
LINE
  5
1113
330
1E
100
AcDbEntity
  8
0
100
AcDbLine
 10
565.0
 20
762.442
 30
0.0
 11
565.0
 21
743.4099999999999
 31
0.0
  0
LINE
  5
1114
330
1E
100
AcDbEntity
  8
0
100
AcDbLine
 10
565.0
 20
743.4099999999999
 30
0.0
 11
565.0
 21
762.442
 31
0.0
  0
LINE
  5
1115
330
1E
100
AcDbEntity
  8
0
100
AcDbLine
 10
564.489
 20
765.1569999999999
 30
0.0
 11
565.0
 21
762.442
 31
0.0
  0
LINE
  5
1116
330
1E
100
AcDbEntity
  8
0
100
AcDbLine
 10
554.635
 20
775.2749999999999
 30
0.0
 11
558.2849999999999
 21
772.961
 31
0.0
  0
LINE
  5
1117
330
1E
100
AcDbEntity
  8
0
100
AcDbLine
 10
550.329
 20
777.3719999999999
 30
0.0
 11
554.635
 21
775.2749999999999
 31
0.0
  0
LINE
  5
1118
330
1E
100
AcDbEntity
  8
0
100
AcDbLine
 10
549.8179999999999
 20
778.063
 30
0.0
 11
554.0509999999999
 21
775.9960000000001
 31
0.0
  0
LINE
  5
1119
330
1E
100
AcDbEntity
  8
0
100
AcDbLine
 10
554.0509999999999
 20
775.9960000000001
 30
0.0
 11
557.701
 21
773.7130000000001
 31
0.0
  0
LINE
  5
111A
330
1E
100
AcDbEntity
  8
0
100
AcDbLine
 10
558.2849999999999
 20
772.961
 30
0.0
 11
561.1309999999999
 21
770.5239999999998
 31
0.0
  0
LINE
  5
111B
330
1E
100
AcDbEntity
  8
0
100
AcDbLine
 10
557.701
 20
773.7130000000001
 30
0.0
 11
560.4009999999999
 21
771.307
 31
0.0
  0
LINE
  5
111C
330
1E
100
AcDbEntity
  8
0
100
AcDbLine
 10
560.4009999999999
 20
771.307
 30
0.0
 11
560.6970597238279
 21
770.9274505949601
 31
0.0
  0
LINE
  5
111D
330
1E
100
AcDbEntity
  8
0
100
AcDbLine
 10
560.4009999999999
 20
771.307
 30
0.0
 11
561.1309999999999
 21
770.5239999999998
 31
0.0
  0
LINE
  5
111E
330
1E
100
AcDbEntity
  8
0
100
AcDbLine
 10
545.365
 20
779.1929999999999
 30
0.0
 11
550.329
 21
777.3719999999999
 31
0.0
  0
LINE
  5
111F
330
1E
100
AcDbEntity
  8
0
100
AcDbLine
 10
539.8909999999999
 20
780.735
 30
0.0
 11
545.365
 21
779.1929999999999
 31
0.0
  0
LINE
  5
1120
330
1E
100
AcDbEntity
  8
0
100
AcDbLine
 10
544.927
 20
779.8519999999999
 30
0.0
 11
549.8179999999999
 21
778.063
 31
0.0
  0
LINE
  5
1121
330
1E
100
AcDbEntity
  8
0
100
AcDbLine
 10
539.5249999999999
 20
781.395
 30
0.0
 11
544.927
 21
779.8519999999999
 31
0.0
  0
LINE
  5
1122
330
1E
100
AcDbEntity
  8
0
100
AcDbLine
 10
527.9199999999999
 20
782.802
 30
0.0
 11
534.1239999999999
 21
781.9379999999999
 31
0.0
  0
LINE
  5
1123
330
1E
100
AcDbEntity
  8
0
100
AcDbLine
 10
533.832
 20
782.536
 30
0.0
 11
539.5249999999999
 21
781.395
 31
0.0
  0
LINE
  5
1124
330
1E
100
AcDbEntity
  8
0
100
AcDbLine
 10
527.409
 20
783.4299999999999
 30
0.0
 11
533.832
 21
782.536
 31
0.0
  0
LINE
  5
1125
330
1E
100
AcDbEntity
  8
0
100
AcDbLine
 10
521.35
 20
783.955
 30
0.0
 11
527.409
 21
783.4299999999999
 31
0.0
  0
LINE
  5
1126
330
1E
100
AcDbEntity
  8
0
100
AcDbLine
 10
515.0
 20
784.1699999999999
 30
0.0
 11
521.35
 21
783.955
 31
0.0
  0
LINE
  5
112F
330
1E
100
AcDbEntity
  8
0
100
AcDbLine
 10
397.44
 20
611.83
 30
0.0
 11
405.0
 21
611.83
 31
0.0
  0
LINE
  5
1130
330
1E
100
AcDbEntity
  8
0
100
AcDbLine
 10
397.3199999999999
 20
604.83
 30
0.0
 11
405.0
 21
604.83
 31
0.0
  0
LINE
  5
1135
330
1E
100
AcDbEntity
  8
0
100
AcDbLine
 10
280.5975
 20
748.313
 30
0.0
 11
279.9901186695537
 21
748.8681839130692
 31
0.0
  0
LINE
  5
1136
330
1E
100
AcDbEntity
  8
0
100
AcDbLine
 10
279.9901186695537
 20
748.8681839130692
 30
0.0
 11
279.1701976233239
 21
749.7968840388682
 31
0.0
  0
LINE
  5
1137
330
1E
100
AcDbEntity
  8
0
100
AcDbLine
 10
279.1701976233239
 20
749.7968840388682
 30
0.0
 11
278.5470573232328
 21
750.8239201473413
 31
0.0
  0
LINE
  5
1138
330
1E
100
AcDbEntity
  8
0
100
AcDbLine
 10
278.5470573232328
 20
750.8239201473413
 30
0.0
 11
278.0769708323355
 21
751.9711395720366
 31
0.0
  0
LINE
  5
1139
330
1E
100
AcDbEntity
  8
0
100
AcDbLine
 10
278.0769708323355
 20
751.9711395720366
 30
0.0
 11
277.7599343386773
 21
753.2276195654492
 31
0.0
  0
LINE
  5
113A
330
1E
100
AcDbEntity
  8
0
100
AcDbLine
 10
277.7599343386773
 20
753.2276195654492
 30
0.0
 11
277.6434169863819
 21
753.8991529820309
 31
0.0
  0
LINE
  5
113B
330
1E
100
AcDbEntity
  8
0
100
AcDbLine
 10
312.2400656613226
 20
753.2276195654492
 30
0.0
 11
312.356583013618
 21
753.8991529820309
 31
0.0
  0
LINE
  5
113C
330
1E
100
AcDbEntity
  8
0
100
AcDbLine
 10
312.3716999999999
 20
753.9760000000001
 30
0.0
 11
312.356583013618
 21
753.8991529820309
 31
0.0
  0
LINE
  5
113D
330
1E
100
AcDbEntity
  8
0
100
AcDbLine
 10
312.439705965535
 20
754.661432587167
 30
0.0
 11
312.3716999999999
 21
753.9760000000001
 31
0.0
  0
LINE
  5
113E
330
1E
100
AcDbEntity
  8
0
100
AcDbLine
 10
311.9230291676645
 20
751.9711395720366
 30
0.0
 11
312.2400656613226
 21
753.2276195654492
 31
0.0
  0
LINE
  5
113F
330
1E
100
AcDbEntity
  8
0
100
AcDbLine
 10
311.4529426767671
 20
750.8239201473413
 30
0.0
 11
311.9230291676645
 21
751.9711395720366
 31
0.0
  0
LINE
  5
1140
330
1E
100
AcDbEntity
  8
0
100
AcDbLine
 10
310.829802376676
 20
749.7968840388682
 30
0.0
 11
311.4529426767671
 21
750.8239201473413
 31
0.0
  0
LINE
  5
1141
330
1E
100
AcDbEntity
  8
0
100
AcDbLine
 10
309.0817
 20
748.083
 30
0.0
 11
308.3582999999999
 21
747.716
 31
0.0
  0
LINE
  5
1142
330
1E
100
AcDbEntity
  8
0
100
AcDbLine
 10
310.0098813304462
 20
748.8681839130692
 30
0.0
 11
310.829802376676
 21
749.7968840388682
 31
0.0
  0
LINE
  5
1143
330
1E
100
AcDbEntity
  8
0
100
AcDbLine
 10
309.4024999999999
 20
748.313
 30
0.0
 11
310.0098813304462
 21
748.8681839130692
 31
0.0
  0
LINE
  5
1144
330
1E
100
AcDbEntity
  8
0
100
AcDbLine
 10
309.4024999999999
 20
748.313
 30
0.0
 11
309.0817
 21
748.083
 31
0.0
  0
LINE
  5
1145
330
1E
100
AcDbEntity
  8
0
100
AcDbLine
 10
385.0
 20
656.4099999999999
 30
0.0
 11
385.0
 21
611.83
 31
0.0
  0
LINE
  5
1146
330
1E
100
AcDbEntity
  8
0
100
AcDbLine
 10
425.0
 20
656.4099999999999
 30
0.0
 11
425.0
 21
611.83
 31
0.0
  0
LINE
  5
1147
330
1E
100
AcDbEntity
  8
0
100
AcDbLine
 10
425.0
 20
611.83
 30
0.0
 11
425.0
 21
656.4099999999999
 31
0.0
  0
LINE
  5
1148
330
1E
100
AcDbEntity
  8
0
100
AcDbLine
 10
385.0
 20
611.83
 30
0.0
 11
385.0
 21
656.4099999999999
 31
0.0
  0
LINE
  5
1149
330
1E
100
AcDbEntity
  8
0
100
AcDbLine
 10
418.0
 20
677.83
 30
0.0
 11
392.0
 21
677.83
 31
0.0
  0
LINE
  5
114A
330
1E
100
AcDbEntity
  8
0
100
AcDbLine
 10
405.0
 20
656.4099999999999
 30
0.0
 11
399.88
 21
656.4099999999999
 31
0.0
  0
LINE
  5
114B
330
1E
100
AcDbEntity
  8
0
100
AcDbLine
 10
425.0
 20
677.5465
 30
0.0
 11
425.0
 21
655.83
 31
0.0
  0
LINE
  5
114C
330
1E
100
AcDbEntity
  8
0
100
AcDbLine
 10
425.0
 20
655.83
 30
0.0
 11
425.0
 21
677.5465
 31
0.0
  0
LINE
  5
114D
330
1E
100
AcDbEntity
  8
0
100
AcDbLine
 10
419.1599999999999
 20
656.4099999999999
 30
0.0
 11
414.9199999999999
 21
656.4099999999999
 31
0.0
  0
LINE
  5
114E
330
1E
100
AcDbEntity
  8
0
100
AcDbLine
 10
425.0
 20
656.4099999999999
 30
0.0
 11
424.2799999999999
 21
656.4099999999999
 31
0.0
  0
LINE
  5
114F
330
1E
100
AcDbEntity
  8
0
100
AcDbLine
 10
422.36
 20
656.4099999999999
 30
0.0
 11
419.1599999999999
 21
656.4099999999999
 31
0.0
  0
LINE
  5
1150
330
1E
100
AcDbEntity
  8
0
100
AcDbLine
 10
424.2799999999999
 20
656.4099999999999
 30
0.0
 11
422.36
 21
656.4099999999999
 31
0.0
  0
LINE
  5
1151
330
1E
100
AcDbEntity
  8
0
100
AcDbLine
 10
414.9199999999999
 20
656.4099999999999
 30
0.0
 11
410.12
 21
656.4099999999999
 31
0.0
  0
LINE
  5
1152
330
1E
100
AcDbEntity
  8
0
100
AcDbLine
 10
410.12
 20
656.4099999999999
 30
0.0
 11
405.0
 21
656.4099999999999
 31
0.0
  0
LINE
  5
1153
330
1E
100
AcDbEntity
  8
0
100
AcDbLine
 10
424.58
 20
677.83
 30
0.0
 11
423.908
 21
677.83
 31
0.0
  0
LINE
  5
1154
330
1E
100
AcDbEntity
  8
0
100
AcDbLine
 10
424.8319999999999
 20
677.83
 30
0.0
 11
424.58
 21
677.83
 31
0.0
  0
LINE
  5
1155
330
1E
100
AcDbEntity
  8
0
100
AcDbLine
 10
425.0
 20
677.5465
 30
0.0
 11
424.8319999999999
 21
677.83
 31
0.0
  0
LINE
  5
1156
330
1E
100
AcDbEntity
  8
0
100
AcDbLine
 10
419.7639999999999
 20
677.83
 30
0.0
 11
418.0
 21
677.83
 31
0.0
  0
LINE
  5
1157
330
1E
100
AcDbEntity
  8
0
100
AcDbLine
 10
421.388
 20
677.83
 30
0.0
 11
419.7639999999999
 21
677.83
 31
0.0
  0
LINE
  5
1158
330
1E
100
AcDbEntity
  8
0
100
AcDbLine
 10
422.8159999999999
 20
677.83
 30
0.0
 11
421.388
 21
677.83
 31
0.0
  0
LINE
  5
1159
330
1E
100
AcDbEntity
  8
0
100
AcDbLine
 10
423.908
 20
677.83
 30
0.0
 11
422.8159999999999
 21
677.83
 31
0.0
  0
LINE
  5
115A
330
1E
100
AcDbEntity
  8
0
100
AcDbLine
 10
385.0
 20
677.5465
 30
0.0
 11
385.0
 21
655.83
 31
0.0
  0
LINE
  5
115B
330
1E
100
AcDbEntity
  8
0
100
AcDbLine
 10
385.0
 20
655.83
 30
0.0
 11
385.0
 21
677.5465
 31
0.0
  0
LINE
  5
115C
330
1E
100
AcDbEntity
  8
0
100
AcDbLine
 10
390.84
 20
656.4099999999999
 30
0.0
 11
387.6399999999999
 21
656.4099999999999
 31
0.0
  0
LINE
  5
115D
330
1E
100
AcDbEntity
  8
0
100
AcDbLine
 10
399.88
 20
656.4099999999999
 30
0.0
 11
395.08
 21
656.4099999999999
 31
0.0
  0
LINE
  5
115E
330
1E
100
AcDbEntity
  8
0
100
AcDbLine
 10
395.08
 20
656.4099999999999
 30
0.0
 11
390.84
 21
656.4099999999999
 31
0.0
  0
LINE
  5
115F
330
1E
100
AcDbEntity
  8
0
100
AcDbLine
 10
387.6399999999999
 20
656.4099999999999
 30
0.0
 11
385.72
 21
656.4099999999999
 31
0.0
  0
LINE
  5
1160
330
1E
100
AcDbEntity
  8
0
100
AcDbLine
 10
385.72
 20
656.4099999999999
 30
0.0
 11
385.0
 21
656.4099999999999
 31
0.0
  0
LINE
  5
1161
330
1E
100
AcDbEntity
  8
0
100
AcDbLine
 10
392.0
 20
677.83
 30
0.0
 11
390.2359999999999
 21
677.83
 31
0.0
  0
LINE
  5
1162
330
1E
100
AcDbEntity
  8
0
100
AcDbLine
 10
390.2359999999999
 20
677.83
 30
0.0
 11
388.6119999999999
 21
677.83
 31
0.0
  0
LINE
  5
1163
330
1E
100
AcDbEntity
  8
0
100
AcDbLine
 10
388.6119999999999
 20
677.83
 30
0.0
 11
387.184
 21
677.83
 31
0.0
  0
LINE
  5
1164
330
1E
100
AcDbEntity
  8
0
100
AcDbLine
 10
387.184
 20
677.83
 30
0.0
 11
386.092
 21
677.83
 31
0.0
  0
LINE
  5
1165
330
1E
100
AcDbEntity
  8
0
100
AcDbLine
 10
385.4199999999999
 20
677.83
 30
0.0
 11
385.1679999999999
 21
677.83
 31
0.0
  0
LINE
  5
1166
330
1E
100
AcDbEntity
  8
0
100
AcDbLine
 10
386.092
 20
677.83
 30
0.0
 11
385.4199999999999
 21
677.83
 31
0.0
  0
LINE
  5
1167
330
1E
100
AcDbEntity
  8
0
100
AcDbLine
 10
385.1679999999999
 20
677.83
 30
0.0
 11
385.0
 21
677.5465
 31
0.0
  0
ENDSEC
  0
SECTION
  2
OBJECTS
  0
DICTIONARY
  5
C
330
0
100
AcDbDictionary
281
     1
  3
ACAD_GROUP
350
D
  3
ACAD_LAYOUT
350
19
  3
ACAD_MLINESTYLE
350
16
  3
ACAD_PLOTSETTINGS
350
18
  3
ACAD_PLOTSTYLENAME
350
E
  3
AcDbVariableDictionary
350
1169
  0
DICTIONARY
  5
D
102
{ACAD_REACTORS
330
C
102
}
330
C
100
AcDbDictionary
281
     1
  0
DICTIONARY
  5
19
102
{ACAD_REACTORS
330
C
102
}
330
C
100
AcDbDictionary
281
     1
  3
Layout1
350
1D
  3
Model
350
21
  0
DICTIONARY
  5
16
102
{ACAD_REACTORS
330
C
102
}
330
C
100
AcDbDictionary
281
     1
  3
Standard
350
17
  0
DICTIONARY
  5
18
102
{ACAD_REACTORS
330
C
102
}
330
C
100
AcDbDictionary
281
     1
  0
ACDBDICTIONARYWDFLT
  5
E
102
{ACAD_REACTORS
330
C
102
}
330
C
100
AcDbDictionary
281
     1
  3
Normal
350
F
100
AcDbDictionaryWithDefault
340
F
  0
DICTIONARY
  5
1169
102
{ACAD_REACTORS
330
C
102
}
330
C
100
AcDbDictionary
281
     1
  3
DIMASSOC
350
116A
  0
LAYOUT
  5
1D
102
{ACAD_REACTORS
330
19
102
}
330
19
100
AcDbPlotSettings
  1

  2
C:\Programme\AutoCAD LT 2002 Deu\plotters\DWF ePlot (optimized for plotting).pc3
  4

  6

 40
0.0
 41
0.0
 42
0.0
 43
0.0
 44
0.0
 45
0.0
 46
0.0
 47
0.0
 48
0.0
 49
0.0
140
0.0
141
0.0
142
1.0
143
1.0
 70
   688
 72
     0
 73
     0
 74
     5
  7

 75
    16
147
1.0
148
0.0
149
0.0
100
AcDbLayout
  1
Layout1
 70
     1
 71
     1
 10
0.0
 20
0.0
 11
12.0
 21
9.0
 12
0.0
 22
0.0
 32
0.0
 14
1.000000000000000E+20
 24
1.000000000000000E+20
 34
1.000000000000000E+20
 15
-1.000000000000000E+20
 25
-1.000000000000000E+20
 35
-1.000000000000000E+20
146
0.0
 13
0.0
 23
0.0
 33
0.0
 16
1.0
 26
0.0
 36
0.0
 17
0.0
 27
1.0
 37
0.0
 76
     0
330
1A
  0
LAYOUT
  5
21
102
{ACAD_REACTORS
330
19
102
}
330
19
100
AcDbPlotSettings
  1

  2
C:\Programme\AutoCAD LT 2002 Deu\plotters\DWF ePlot (optimized for plotting).pc3
  4

  6

 40
0.0
 41
0.0
 42
0.0
 43
0.0
 44
0.0
 45
0.0
 46
0.0
 47
0.0
 48
0.0
 49
0.0
140
0.0
141
0.0
142
1.0
143
1.0
 70
  1712
 72
     0
 73
     0
 74
     0
  7

 75
     0
147
1.0
148
0.0
149
0.0
100
AcDbLayout
  1
Model
 70
     1
 71
     0
 10
0.0
 20
0.0
 11
12.0
 21
9.0
 12
0.0
 22
0.0
 32
0.0
 14
0.0
 24
0.0
 34
0.0
 15
0.0
 25
0.0
 35
0.0
146
0.0
 13
0.0
 23
0.0
 33
0.0
 16
1.0
 26
0.0
 36
0.0
 17
0.0
 27
1.0
 37
0.0
 76
     0
330
1E
  0
MLINESTYLE
  5
17
102
{ACAD_REACTORS
330
16
102
}
330
16
100
AcDbMlineStyle
  2
STANDARD
 70
     0
  3

 62
   256
 51
90.0
 52
90.0
 71
     2
 49
0.5
 62
   256
  6
BYLAYER
 49
-0.5
 62
   256
  6
BYLAYER
  0
ACDBPLACEHOLDER
  5
F
102
{ACAD_REACTORS
330
E
102
}
330
E
  0
DICTIONARYVAR
  5
116A
102
{ACAD_REACTORS
330
1169
102
}
330
1169
100
DictionaryVariables
280
     0
  1
1
  0
ENDSEC
  0
EOF
