  0
SECTION
  2
HEADER
  9
$ACADVER
  1
AC1015
  9
$ACADMAINTVER
 70
    13
  9
$DWGCODEPAGE
  3
ANSI_1252
  9
$INSBASE
 10
0.0
 20
0.0
 30
0.0
  9
$EXTMIN
 10
0.250000000000002
 20
0.003093999999999
 30
0.0
  9
$EXTMAX
 10
183.2499999999999
 20
114.9994176753593
 30
0.0
  9
$LIMMIN
 10
0.0
 20
0.0
  9
$LIMMAX
 10
12.0
 20
9.0
  9
$ORTHOMODE
 70
     0
  9
$REGENMODE
 70
     1
  9
$FILLMODE
 70
     1
  9
$QTEXTMODE
 70
     0
  9
$MIRRTEXT
 70
     1
  9
$LTSCALE
 40
1.0
  9
$ATTMODE
 70
     1
  9
$TEXTSIZE
 40
0.2
  9
$TRACEWID
 40
0.05
  9
$TEXTSTYLE
  7
Standard
  9
$CLAYER
  8
0
  9
$CELTYPE
  6
Continuous
  9
$CECOLOR
 62
   256
  9
$CELTSCALE
 40
1.0
  9
$DISPSILH
 70
     0
  9
$DIMSCALE
 40
1.0
  9
$DIMASZ
 40
0.18
  9
$DIMEXO
 40
0.0625
  9
$DIMDLI
 40
0.38
  9
$DIMRND
 40
0.0
  9
$DIMDLE
 40
0.0
  9
$DIMEXE
 40
0.18
  9
$DIMTP
 40
0.0
  9
$DIMTM
 40
0.0
  9
$DIMTXT
 40
0.18
  9
$DIMCEN
 40
0.09
  9
$DIMTSZ
 40
0.0
  9
$DIMTOL
 70
     0
  9
$DIMLIM
 70
     0
  9
$DIMTIH
 70
     1
  9
$DIMTOH
 70
     1
  9
$DIMSE1
 70
     0
  9
$DIMSE2
 70
     0
  9
$DIMTAD
 70
     0
  9
$DIMZIN
 70
     0
  9
$DIMBLK
  1

  9
$DIMASO
 70
     1
  9
$DIMSHO
 70
     1
  9
$DIMPOST
  1

  9
$DIMAPOST
  1

  9
$DIMALT
 70
     0
  9
$DIMALTD
 70
     2
  9
$DIMALTF
 40
25.4
  9
$DIMLFAC
 40
1.0
  9
$DIMTOFL
 70
     0
  9
$DIMTVP
 40
0.0
  9
$DIMTIX
 70
     0
  9
$DIMSOXD
 70
     0
  9
$DIMSAH
 70
     0
  9
$DIMBLK1
  1

  9
$DIMBLK2
  1

  9
$DIMSTYLE
  2
Standard
  9
$DIMCLRD
 70
     0
  9
$DIMCLRE
 70
     0
  9
$DIMCLRT
 70
     0
  9
$DIMTFAC
 40
1.0
  9
$DIMGAP
 40
0.09
  9
$DIMJUST
 70
     0
  9
$DIMSD1
 70
     0
  9
$DIMSD2
 70
     0
  9
$DIMTOLJ
 70
     1
  9
$DIMTZIN
 70
     0
  9
$DIMALTZ
 70
     0
  9
$DIMALTTZ
 70
     0
  9
$DIMUPT
 70
     0
  9
$DIMDEC
 70
     4
  9
$DIMTDEC
 70
     4
  9
$DIMALTU
 70
     2
  9
$DIMALTTD
 70
     2
  9
$DIMTXSTY
  7
Standard
  9
$DIMAUNIT
 70
     0
  9
$DIMADEC
 70
     0
  9
$DIMALTRND
 40
0.0
  9
$DIMAZIN
 70
     0
  9
$DIMDSEP
 70
    46
  9
$DIMATFIT
 70
     3
  9
$DIMFRAC
 70
     0
  9
$DIMLDRBLK
  1

  9
$DIMLUNIT
 70
     2
  9
$DIMLWD
 70
    -2
  9
$DIMLWE
 70
    -2
  9
$DIMTMOVE
 70
     0
  9
$LUNITS
 70
     2
  9
$LUPREC
 70
     4
  9
$SKETCHINC
 40
0.1
  9
$FILLETRAD
 40
0.0
  9
$AUNITS
 70
     0
  9
$AUPREC
 70
     0
  9
$MENU
  1
.
  9
$ELEVATION
 40
0.0
  9
$PELEVATION
 40
0.0
  9
$THICKNESS
 40
0.0
  9
$LIMCHECK
 70
     0
  9
$CHAMFERA
 40
0.0
  9
$CHAMFERB
 40
0.0
  9
$CHAMFERC
 40
0.0
  9
$CHAMFERD
 40
0.0
  9
$SKPOLY
 70
     0
  9
$TDCREATE
 40
2455655.852511748
  9
$TDUCREATE
 40
2455655.769178414
  9
$TDUPDATE
 40
2455655.854242615
  9
$TDUUPDATE
 40
2455655.770909282
  9
$TDINDWG
 40
0.0017308681
  9
$TDUSRTIMER
 40
0.0017308681
  9
$USRTIMER
 70
     1
  9
$ANGBASE
 50
0.0
  9
$ANGDIR
 70
     0
  9
$PDMODE
 70
     0
  9
$PDSIZE
 40
0.0
  9
$PLINEWID
 40
0.0
  9
$SPLFRAME
 70
     0
  9
$SPLINETYPE
 70
     6
  9
$SPLINESEGS
 70
     8
  9
$HANDSEED
  5
37C
  9
$SURFTAB1
 70
     6
  9
$SURFTAB2
 70
     6
  9
$SURFTYPE
 70
     6
  9
$SURFU
 70
     6
  9
$SURFV
 70
     6
  9
$UCSBASE
  2

  9
$UCSNAME
  2

  9
$UCSORG
 10
0.0
 20
0.0
 30
0.0
  9
$UCSXDIR
 10
1.0
 20
0.0
 30
0.0
  9
$UCSYDIR
 10
0.0
 20
1.0
 30
0.0
  9
$UCSORTHOREF
  2

  9
$UCSORTHOVIEW
 70
     1
  9
$UCSORGTOP
 10
0.0
 20
0.0
 30
0.0
  9
$UCSORGBOTTOM
 10
0.0
 20
0.0
 30
0.0
  9
$UCSORGLEFT
 10
0.0
 20
0.0
 30
0.0
  9
$UCSORGRIGHT
 10
0.0
 20
0.0
 30
0.0
  9
$UCSORGFRONT
 10
0.0
 20
0.0
 30
0.0
  9
$UCSORGBACK
 10
0.0
 20
0.0
 30
0.0
  9
$PUCSBASE
  2

  9
$PUCSNAME
  2

  9
$PUCSORG
 10
0.0
 20
0.0
 30
0.0
  9
$PUCSXDIR
 10
1.0
 20
0.0
 30
0.0
  9
$PUCSYDIR
 10
0.0
 20
1.0
 30
0.0
  9
$PUCSORTHOREF
  2

  9
$PUCSORTHOVIEW
 70
     0
  9
$PUCSORGTOP
 10
0.0
 20
0.0
 30
0.0
  9
$PUCSORGBOTTOM
 10
0.0
 20
0.0
 30
0.0
  9
$PUCSORGLEFT
 10
0.0
 20
0.0
 30
0.0
  9
$PUCSORGRIGHT
 10
0.0
 20
0.0
 30
0.0
  9
$PUCSORGFRONT
 10
0.0
 20
0.0
 30
0.0
  9
$PUCSORGBACK
 10
0.0
 20
0.0
 30
0.0
  9
$USERI1
 70
     0
  9
$USERI2
 70
     0
  9
$USERI3
 70
     0
  9
$USERI4
 70
     0
  9
$USERI5
 70
     0
  9
$USERR1
 40
0.0
  9
$USERR2
 40
0.0
  9
$USERR3
 40
0.0
  9
$USERR4
 40
0.0
  9
$USERR5
 40
0.0
  9
$WORLDVIEW
 70
     1
  9
$SHADEDGE
 70
     3
  9
$SHADEDIF
 70
    70
  9
$TILEMODE
 70
     1
  9
$MAXACTVP
 70
    64
  9
$PINSBASE
 10
0.0
 20
0.0
 30
0.0
  9
$PLIMCHECK
 70
     0
  9
$PEXTMIN
 10
1.000000000000000E+20
 20
1.000000000000000E+20
 30
1.000000000000000E+20
  9
$PEXTMAX
 10
-1.000000000000000E+20
 20
-1.000000000000000E+20
 30
-1.000000000000000E+20
  9
$PLIMMIN
 10
0.0
 20
0.0
  9
$PLIMMAX
 10
12.0
 20
9.0
  9
$UNITMODE
 70
     0
  9
$VISRETAIN
 70
     1
  9
$PLINEGEN
 70
     0
  9
$PSLTSCALE
 70
     1
  9
$TREEDEPTH
 70
  3020
  9
$CMLSTYLE
  2
Standard
  9
$CMLJUST
 70
     0
  9
$CMLSCALE
 40
1.0
  9
$PROXYGRAPHICS
 70
     1
  9
$MEASUREMENT
 70
     0
  9
$CELWEIGHT
370
    -1
  9
$ENDCAPS
280
     0
  9
$JOINSTYLE
280
     0
  9
$LWDISPLAY
290
     0
  9
$INSUNITS
 70
     0
  9
$HYPERLINKBASE
  1

  9
$STYLESHEET
  1

  9
$XEDIT
290
     1
  9
$CEPSNTYPE
380
     0
  9
$PSTYLEMODE
290
     1
  9
$FINGERPRINTGUID
  2
{53440279-9603-44A4-AF13-72CD71C020A9}
  9
$VERSIONGUID
  2
{CEB4654B-47BD-4900-A999-CEB1F21DF600}
  9
$EXTNAMES
290
     1
  9
$PSVPSCALE
 40
0.0
  9
$OLESTARTUP
290
     0
  0
ENDSEC
  0
SECTION
  2
CLASSES
  0
CLASS
  1
ACDBDICTIONARYWDFLT
  2
AcDbDictionaryWithDefault
  3
AutoCAD 2000
 90
        0
280
     0
281
     0
  0
CLASS
  1
ACDBPLACEHOLDER
  2
AcDbPlaceHolder
  3
AutoCAD 2000
 90
        0
280
     0
281
     0
  0
CLASS
  1
LAYOUT
  2
AcDbLayout
  3
AutoCAD 2000
 90
        0
280
     0
281
     0
  0
CLASS
  1
DICTIONARYVAR
  2
AcDbDictionaryVar
  3
AutoCAD 2000
 90
        0
280
     0
281
     0
  0
ENDSEC
  0
SECTION
  2
TABLES
  0
TABLE
  2
VPORT
  5
8
330
0
100
AcDbSymbolTable
 70
     4
  0
VPORT
  5
37B
330
8
100
AcDbSymbolTableRecord
100
AcDbViewportTableRecord
  2
*Active
 70
     0
 10
0.0
 20
0.0
 11
1.0
 21
1.0
 12
91.75
 22
57.50125583767968
 13
0.0
 23
0.0
 14
1.0
 24
1.0
 15
0.0
 25
0.0
 16
0.0
 26
0.0
 36
1.0
 17
0.0
 27
0.0
 37
0.0
 40
115.7742018512919
 41
2.073363431151241
 42
50.0
 43
0.0
 44
0.0
 50
0.0
 51
0.0
 71
     0
 72
   100
 73
     1
 74
     3
 75
     0
 76
     0
 77
     0
 78
     0
281
     0
 65
     1
110
0.0
120
0.0
130
0.0
111
1.0
121
0.0
131
0.0
112
0.0
122
1.0
132
0.0
 79
     1
146
0.0
  0
ENDTAB
  0
TABLE
  2
LTYPE
  5
5
330
0
100
AcDbSymbolTable
 70
     1
  0
LTYPE
  5
13
330
5
100
AcDbSymbolTableRecord
100
AcDbLinetypeTableRecord
  2
ByBlock
 70
     0
  3

 72
    65
 73
     0
 40
0.0
  0
LTYPE
  5
14
330
5
100
AcDbSymbolTableRecord
100
AcDbLinetypeTableRecord
  2
ByLayer
 70
     0
  3

 72
    65
 73
     0
 40
0.0
  0
LTYPE
  5
15
330
5
100
AcDbSymbolTableRecord
100
AcDbLinetypeTableRecord
  2
Continuous
 70
     0
  3
Solid line
 72
    65
 73
     0
 40
0.0
  0
ENDTAB
  0
TABLE
  2
LAYER
  5
2
330
0
100
AcDbSymbolTable
 70
     1
  0
LAYER
  5
10
330
2
100
AcDbSymbolTableRecord
100
AcDbLayerTableRecord
  2
0
 70
     0
 62
     7
  6
Continuous
370
    -3
390
F
  0
ENDTAB
  0
TABLE
  2
STYLE
  5
3
330
0
100
AcDbSymbolTable
 70
     1
  0
STYLE
  5
11
330
3
100
AcDbSymbolTableRecord
100
AcDbTextStyleTableRecord
  2
Standard
 70
     0
 40
0.0
 41
1.0
 50
0.0
 71
     0
 42
0.2
  3
txt
  4

  0
ENDTAB
  0
TABLE
  2
VIEW
  5
6
330
0
100
AcDbSymbolTable
 70
     0
  0
ENDTAB
  0
TABLE
  2
UCS
  5
7
330
0
100
AcDbSymbolTable
 70
     0
  0
ENDTAB
  0
TABLE
  2
APPID
  5
9
330
0
100
AcDbSymbolTable
 70
     1
  0
APPID
  5
12
330
9
100
AcDbSymbolTableRecord
100
AcDbRegAppTableRecord
  2
ACAD
 70
     0
  0
ENDTAB
  0
TABLE
  2
DIMSTYLE
  5
A
330
0
100
AcDbSymbolTable
 70
     1
100
AcDbDimStyleTable
 71
     0
  0
DIMSTYLE
105
368
330
A
100
AcDbSymbolTableRecord
100
AcDbDimStyleTableRecord
  2
Standard
 70
     0
340
11
  0
ENDTAB
  0
TABLE
  2
BLOCK_RECORD
  5
1
330
0
100
AcDbSymbolTable
 70
     0
  0
BLOCK_RECORD
  5
1E
330
1
100
AcDbSymbolTableRecord
100
AcDbBlockTableRecord
  2
*Model_Space
340
21
  0
BLOCK_RECORD
  5
1A
330
1
100
AcDbSymbolTableRecord
100
AcDbBlockTableRecord
  2
*Paper_Space
340
1D
  0
ENDTAB
  0
ENDSEC
  0
SECTION
  2
BLOCKS
  0
BLOCK
  5
1F
330
1E
100
AcDbEntity
  8
0
100
AcDbBlockBegin
  2
*Model_Space
 70
     0
 10
0.0
 20
0.0
 30
0.0
  3
*Model_Space
  1

  0
ENDBLK
  5
20
330
1E
100
AcDbEntity
  8
0
100
AcDbBlockEnd
  0
BLOCK
  5
1B
330
1A
100
AcDbEntity
 67
     1
  8
0
100
AcDbBlockBegin
  2
*Paper_Space
 70
     0
 10
0.0
 20
0.0
 30
0.0
  3
*Paper_Space
  1

  0
ENDBLK
  5
1C
330
1A
100
AcDbEntity
 67
     1
  8
0
100
AcDbBlockEnd
  0
ENDSEC
  0
SECTION
  2
ENTITIES
  0
LINE
  5
22
330
1E
100
AcDbEntity
  8
0
100
AcDbLine
 10
99.25499999999999
 20
1.072995999999999
 30
0.0
 11
99.26999999999999
 21
6.393116
 31
0.0
  0
LINE
  5
23
330
1E
100
AcDbEntity
  8
0
100
AcDbLine
 10
99.25499999999999
 20
1.072995999999999
 30
0.0
 11
99.259
 21
3.284736
 31
0.0
  0
LINE
  5
24
330
1E
100
AcDbEntity
  8
0
100
AcDbLine
 10
99.265
 20
1.827066
 30
0.0
 11
99.27700000000001
 21
8.007766
 31
0.0
  0
LINE
  5
25
330
1E
100
AcDbEntity
  8
0
100
AcDbLine
 10
99.265
 20
1.827066
 30
0.0
 11
99.26999999999999
 21
6.393116
 31
0.0
  0
LINE
  5
26
330
1E
100
AcDbEntity
  8
0
100
AcDbLine
 10
99.265
 20
1.827066
 30
0.0
 11
99.27700000000001
 21
8.007766
 31
0.0
  0
LINE
  5
27
330
1E
100
AcDbEntity
  8
0
100
AcDbLine
 10
99.25499999999999
 20
1.072995999999999
 30
0.0
 11
99.259
 21
3.284736
 31
0.0
  0
LINE
  5
28
330
1E
100
AcDbEntity
  8
0
100
AcDbLine
 10
99.25499999999999
 20
1.072995999999999
 30
0.0
 11
99.26999999999999
 21
6.393116
 31
0.0
  0
LINE
  5
29
330
1E
100
AcDbEntity
  8
0
100
AcDbLine
 10
99.25499999999999
 20
1.072995999999999
 30
0.0
 11
99.259
 21
1.357026
 31
0.0
  0
LINE
  5
2A
330
1E
100
AcDbEntity
  8
0
100
AcDbLine
 10
99.25399999999999
 20
1.006785999999999
 30
0.0
 11
99.388
 21
0.508614999999999
 31
0.0
  0
LINE
  5
2B
330
1E
100
AcDbEntity
  8
0
100
AcDbLine
 10
99.25399999999999
 20
1.006785999999999
 30
0.0
 11
99.259
 21
3.284736
 31
0.0
  0
LINE
  5
2C
330
1E
100
AcDbEntity
  8
0
100
AcDbLine
 10
99.25399999999999
 20
1.006785999999999
 30
0.0
 11
99.25499999999999
 21
1.072995999999999
 31
0.0
  0
LINE
  5
2D
330
1E
100
AcDbEntity
  8
0
100
AcDbLine
 10
99.27100000000001
 20
2.458106
 30
0.0
 11
99.27600000000001
 21
3.199176
 31
0.0
  0
LINE
  5
2E
330
1E
100
AcDbEntity
  8
0
100
AcDbLine
 10
99.27600000000001
 20
3.199176
 30
0.0
 11
99.27700000000001
 21
12.995006
 31
0.0
  0
LINE
  5
2F
330
1E
100
AcDbEntity
  8
0
100
AcDbLine
 10
99.27600000000001
 20
3.199176
 30
0.0
 11
99.27700000000001
 21
8.007766
 31
0.0
  0
LINE
  5
30
330
1E
100
AcDbEntity
  8
0
100
AcDbLine
 10
99.27643779689821
 20
7.48775998897642
 30
0.0
 11
99.27700000000001
 21
12.995006
 31
0.0
  0
LINE
  5
31
330
1E
100
AcDbEntity
  8
0
100
AcDbLine
 10
99.27700000000001
 20
8.007766
 30
0.0
 11
99.27700000000001
 21
12.995006
 31
0.0
  0
LINE
  5
32
330
1E
100
AcDbEntity
  8
0
100
AcDbLine
 10
99.26999999999999
 20
6.393116
 30
0.0
 11
99.27700000000001
 21
8.007766
 31
0.0
  0
LINE
  5
33
330
1E
100
AcDbEntity
  8
0
100
AcDbLine
 10
99.27700000000001
 20
3.994235999999999
 30
0.0
 11
99.27700000000001
 21
12.995006
 31
0.0
  0
LINE
  5
34
330
1E
100
AcDbEntity
  8
0
100
AcDbLine
 10
99.259
 20
3.284736
 30
0.0
 11
99.26999999999999
 21
6.393116
 31
0.0
  0
LINE
  5
35
330
1E
100
AcDbEntity
  8
0
100
AcDbLine
 10
99.27700000000001
 20
12.995006
 30
0.0
 11
99.27700000000001
 21
3.994235999999999
 31
0.0
  0
LINE
  5
36
330
1E
100
AcDbEntity
  8
0
100
AcDbLine
 10
99.27700000000001
 20
12.995006
 30
0.0
 11
99.27700000000001
 21
51.115206
 31
0.0
  0
LINE
  5
37
330
1E
100
AcDbEntity
  8
0
100
AcDbLine
 10
99.27700000000001
 20
12.995006
 30
0.0
 11
99.27700000000001
 21
8.007766
 31
0.0
  0
LINE
  5
38
330
1E
100
AcDbEntity
  8
0
100
AcDbLine
 10
99.27600000000001
 20
3.199176
 30
0.0
 11
99.41500000000001
 21
3.068156
 31
0.0
  0
LINE
  5
39
330
1E
100
AcDbEntity
  8
0
100
AcDbLine
 10
99.27600000000001
 20
3.199176
 30
0.0
 11
99.27700000000001
 21
3.994235999999999
 31
0.0
  0
LINE
  5
3A
330
1E
100
AcDbEntity
  8
0
100
AcDbLine
 10
99.27600000000001
 20
3.199176
 30
0.0
 11
99.27700000000001
 21
12.995006
 31
0.0
  0
LINE
  5
3B
330
1E
100
AcDbEntity
  8
0
100
AcDbLine
 10
99.27600000000001
 20
3.199176
 30
0.0
 11
99.27700000000001
 21
8.007766
 31
0.0
  0
LINE
  5
3C
330
1E
100
AcDbEntity
  8
0
100
AcDbLine
 10
103.444
 20
0.003093999999999
 30
0.0
 11
113.6519999999999
 21
0.0208399999999984
 31
0.0
  0
LINE
  5
3D
330
1E
100
AcDbEntity
  8
0
100
AcDbLine
 10
100.255
 20
0.0112429999999992
 30
0.0
 11
103.444
 21
0.003093999999999
 31
0.0
  0
LINE
  5
3E
330
1E
100
AcDbEntity
  8
0
100
AcDbLine
 10
100.255
 20
0.0112429999999992
 30
0.0
 11
103.444
 21
0.003093999999999
 31
0.0
  0
LINE
  5
3F
330
1E
100
AcDbEntity
  8
0
100
AcDbLine
 10
103.444
 20
0.003093999999999
 30
0.0
 11
113.6519999999999
 21
0.0208399999999984
 31
0.0
  0
LINE
  5
40
330
1E
100
AcDbEntity
  8
0
100
AcDbLine
 10
113.6519999999999
 20
0.0208399999999984
 30
0.0
 11
114.227
 21
0.147917999999998
 31
0.0
  0
LINE
  5
41
330
1E
100
AcDbEntity
  8
0
100
AcDbLine
 10
113.6519999999999
 20
0.0208399999999984
 30
0.0
 11
114.227
 21
0.147917999999998
 31
0.0
  0
LINE
  5
42
330
1E
100
AcDbEntity
  8
0
100
AcDbLine
 10
114.227
 20
0.147917999999998
 30
0.0
 11
114.714
 21
0.469945999999998
 31
0.0
  0
LINE
  5
43
330
1E
100
AcDbEntity
  8
0
100
AcDbLine
 10
114.714
 20
0.469945999999998
 30
0.0
 11
115.04
 21
0.9509849999999978
 31
0.0
  0
LINE
  5
44
330
1E
100
AcDbEntity
  8
0
100
AcDbLine
 10
99.755
 20
0.144818999999999
 30
0.0
 11
100.255
 21
0.0112429999999992
 31
0.0
  0
LINE
  5
45
330
1E
100
AcDbEntity
  8
0
100
AcDbLine
 10
115.04
 20
2.332095999999999
 30
0.0
 11
115.154
 21
2.459106
 31
0.0
  0
LINE
  5
46
330
1E
100
AcDbEntity
  8
0
100
AcDbLine
 10
115.154
 20
1.660045999999999
 30
0.0
 11
115.154
 21
1.512036
 31
0.0
  0
LINE
  5
47
330
1E
100
AcDbEntity
  8
0
100
AcDbLine
 10
115.154
 20
1.972065999999999
 30
0.0
 11
115.154
 21
2.459106
 31
0.0
  0
LINE
  5
48
330
1E
100
AcDbEntity
  8
0
100
AcDbLine
 10
115.154
 20
1.512036
 30
0.0
 11
115.154
 21
1.660045999999999
 31
0.0
  0
LINE
  5
49
330
1E
100
AcDbEntity
  8
0
100
AcDbLine
 10
115.154
 20
2.893145999999999
 30
0.0
 11
115.154
 21
3.370185999999999
 31
0.0
  0
LINE
  5
4A
330
1E
100
AcDbEntity
  8
0
100
AcDbLine
 10
115.154
 20
2.893145999999999
 30
0.0
 11
115.154
 21
2.459106
 31
0.0
  0
LINE
  5
4B
330
1E
100
AcDbEntity
  8
0
100
AcDbLine
 10
115.154
 20
3.370185999999999
 30
0.0
 11
115.154
 21
3.994235999999999
 31
0.0
  0
LINE
  5
4C
330
1E
100
AcDbEntity
  8
0
100
AcDbLine
 10
115.154
 20
3.370185999999999
 30
0.0
 11
115.154
 21
2.459106
 31
0.0
  0
LINE
  5
4D
330
1E
100
AcDbEntity
  8
0
100
AcDbLine
 10
115.154
 20
3.370185999999999
 30
0.0
 11
115.154
 21
2.893145999999999
 31
0.0
  0
LINE
  5
4E
330
1E
100
AcDbEntity
  8
0
100
AcDbLine
 10
115.154
 20
2.459106
 30
0.0
 11
115.154
 21
2.893145999999999
 31
0.0
  0
LINE
  5
4F
330
1E
100
AcDbEntity
  8
0
100
AcDbLine
 10
115.154
 20
2.459106
 30
0.0
 11
115.154
 21
1.972065999999999
 31
0.0
  0
LINE
  5
50
330
1E
100
AcDbEntity
  8
0
100
AcDbLine
 10
115.154
 20
2.459106
 30
0.0
 11
115.154
 21
3.370185999999999
 31
0.0
  0
LINE
  5
51
330
1E
100
AcDbEntity
  8
0
100
AcDbLine
 10
115.04
 20
3.994235999999999
 30
0.0
 11
115.154
 21
3.994235999999999
 31
0.0
  0
LINE
  5
52
330
1E
100
AcDbEntity
  8
0
100
AcDbLine
 10
115.154
 20
50.99820600000001
 30
0.0
 11
115.3299999999999
 21
52.58930600000001
 31
0.0
  0
LINE
  5
56
330
1E
100
AcDbEntity
  8
0
100
AcDbLine
 10
115.154
 20
50.962206
 30
0.0
 11
115.154
 21
3.994235999999999
 31
0.0
  0
LINE
  5
57
330
1E
100
AcDbEntity
  8
0
100
AcDbLine
 10
115.154
 20
3.994235999999999
 30
0.0
 11
115.154
 21
3.370185999999999
 31
0.0
  0
LINE
  5
58
330
1E
100
AcDbEntity
  8
0
100
AcDbLine
 10
115.154
 20
3.994235999999999
 30
0.0
 11
115.154
 21
50.962206
 31
0.0
  0
LINE
  5
59
330
1E
100
AcDbEntity
  8
0
100
AcDbLine
 10
116.684
 20
55.39360600000001
 30
0.0
 11
117.7939999999999
 21
56.500606
 31
0.0
  0
LINE
  5
5A
330
1E
100
AcDbEntity
  8
0
100
AcDbLine
 10
115.849
 20
54.06750600000001
 30
0.0
 11
116.684
 21
55.39360600000001
 31
0.0
  0
LINE
  5
5B
330
1E
100
AcDbEntity
  8
0
100
AcDbLine
 10
115.3299999999999
 20
52.58930600000001
 30
0.0
 11
115.849
 21
54.06750600000001
 31
0.0
  0
LINE
  5
5C
330
1E
100
AcDbEntity
  8
0
100
AcDbLine
 10
117.7939999999999
 20
56.500606
 30
0.0
 11
119.123
 21
57.333706
 31
0.0
  0
LINE
  5
99
330
1E
100
AcDbEntity
  8
0
100
AcDbLine
 10
137.996
 20
58.012306
 30
0.0
 11
138.138
 21
58.01670600000001
 31
0.0
  0
LINE
  5
9A
330
1E
100
AcDbEntity
  8
0
100
AcDbLine
 10
138.1529999999999
 20
58.01950600000001
 30
0.0
 11
139.1889999999999
 21
58.02020600000001
 31
0.0
  0
LINE
  5
9B
330
1E
100
AcDbEntity
  8
0
100
AcDbLine
 10
137.705
 20
58.00820600000001
 30
0.0
 11
137.996
 21
58.012306
 31
0.0
  0
LINE
  5
9C
330
1E
100
AcDbEntity
  8
0
100
AcDbLine
 10
122.164
 20
58.04370600000001
 30
0.0
 11
137.705
 21
58.00820600000001
 31
0.0
  0
LINE
  5
AB
330
1E
100
AcDbEntity
  8
0
100
AcDbLine
 10
139.1889999999999
 20
58.02020600000001
 30
0.0
 11
139.439
 21
58.087206
 31
0.0
  0
LINE
  5
AC
330
1E
100
AcDbEntity
  8
0
100
AcDbLine
 10
139.439
 20
58.087206
 30
0.0
 11
139.6229999999999
 21
58.270006
 31
0.0
  0
LINE
  5
AD
330
1E
100
AcDbEntity
  8
0
100
AcDbLine
 10
139.69
 20
58.519806
 30
0.0
 11
139.69
 21
58.64080600000001
 31
0.0
  0
LINE
  5
AE
330
1E
100
AcDbEntity
  8
0
100
AcDbLine
 10
139.6229999999999
 20
58.270006
 30
0.0
 11
139.69
 21
58.519806
 31
0.0
  0
LINE
  5
AF
330
1E
100
AcDbEntity
  8
0
100
AcDbLine
 10
120.605
 20
57.850706
 30
0.0
 11
122.164
 21
58.04370600000001
 31
0.0
  0
LINE
  5
B0
330
1E
100
AcDbEntity
  8
0
100
AcDbLine
 10
119.123
 20
57.333706
 30
0.0
 11
120.605
 21
57.850706
 31
0.0
  0
LINE
  5
B1
330
1E
100
AcDbEntity
  8
0
100
AcDbLine
 10
99.388
 20
0.508614999999999
 30
0.0
 11
99.755
 21
0.144818999999999
 31
0.0
  0
LINE
  5
B2
330
1E
100
AcDbEntity
  8
0
100
AcDbLine
 10
99.388
 20
0.508614999999999
 30
0.0
 11
99.755
 21
0.144818999999999
 31
0.0
  0
LINE
  5
B3
330
1E
100
AcDbEntity
  8
0
100
AcDbLine
 10
99.27700000000001
 20
51.115206
 30
0.0
 11
99.61100000000001
 21
102.992906
 31
0.0
  0
LINE
  5
B4
330
1E
100
AcDbEntity
  8
0
100
AcDbLine
 10
99.27700000000001
 20
51.115206
 30
0.0
 11
99.27700000000001
 21
12.995006
 31
0.0
  0
LINE
  5
B5
330
1E
100
AcDbEntity
  8
0
100
AcDbLine
 10
139.69
 20
58.64080600000001
 30
0.0
 11
139.69
 21
59.15290600000001
 31
0.0
  0
LINE
  5
B7
330
1E
100
AcDbEntity
  8
0
100
AcDbLine
 10
173.877
 20
48.60310599999999
 30
0.0
 11
173.7623206710079
 21
58.6465291872861
 31
0.0
  0
LINE
  5
B8
330
1E
100
AcDbEntity
  8
0
100
AcDbLine
 10
173.877
 20
48.60310599999999
 30
0.0
 11
173.749
 21
58.753806
 31
0.0
  0
LINE
  5
B9
330
1E
100
AcDbEntity
  8
0
100
AcDbLine
 10
145.912
 20
59.138406
 30
0.0
 11
149.2489999999999
 21
58.996906
 31
0.0
  0
LINE
  5
BA
330
1E
100
AcDbEntity
  8
0
100
AcDbLine
 10
149.2489999999999
 20
58.996906
 30
0.0
 11
173.7512882153609
 21
58.996906
 31
0.0
  0
LINE
  5
BB
330
1E
100
AcDbEntity
  8
0
100
AcDbLine
 10
139.69
 20
59.15290600000001
 30
0.0
 11
139.69
 21
60.028006
 31
0.0
  0
LINE
  5
C3
330
1E
100
AcDbEntity
  8
0
100
AcDbLine
 10
8.59581
 20
69.79740600000001
 30
0.0
 11
8.71573
 21
69.623806
 31
0.0
  0
LINE
  5
C4
330
1E
100
AcDbEntity
  8
0
100
AcDbLine
 10
8.602645830537179
 20
69.7961654390821
 30
0.0
 11
8.72222
 21
69.622706
 31
0.0
  0
LINE
  5
C5
330
1E
100
AcDbEntity
  8
0
100
AcDbLine
 10
8.71573
 20
69.623806
 30
0.0
 11
8.90511
 21
69.535106
 31
0.0
  0
LINE
  5
C6
330
1E
100
AcDbEntity
  8
0
100
AcDbLine
 10
8.72222
 20
69.622706
 30
0.0
 11
8.911379999999999
 21
69.533906
 31
0.0
  0
LINE
  5
C7
330
1E
100
AcDbEntity
  8
0
100
AcDbLine
 10
8.57905
 20
70.00720600000001
 30
0.0
 11
8.81215400660767
 21
71.3231146575741
 31
0.0
  0
LINE
  5
C8
330
1E
100
AcDbEntity
  8
0
100
AcDbLine
 10
8.57905
 20
70.00720600000001
 30
0.0
 11
8.59581
 21
69.79740600000001
 31
0.0
  0
LINE
  5
C9
330
1E
100
AcDbEntity
  8
0
100
AcDbLine
 10
8.264139999999999
 20
71.24390600000001
 30
0.0
 11
8.450289999999998
 21
71.27090600000001
 31
0.0
  0
LINE
  5
CA
330
1E
100
AcDbEntity
  8
0
100
AcDbLine
 10
9.6189
 20
71.44300600000001
 30
0.0
 11
10.4083
 21
71.56490600000001
 31
0.0
  0
LINE
  5
CB
330
1E
100
AcDbEntity
  8
0
100
AcDbLine
 10
9.01171
 20
71.351906
 30
0.0
 11
9.6189
 21
71.44300600000001
 31
0.0
  0
LINE
  5
CC
330
1E
100
AcDbEntity
  8
0
100
AcDbLine
 10
6.003549999999999
 20
72.584906
 30
0.0
 11
8.264139999999999
 21
71.24390600000001
 31
0.0
  0
LINE
  5
CD
330
1E
100
AcDbEntity
  8
0
100
AcDbLine
 10
8.450289999999998
 20
71.27090600000001
 30
0.0
 11
9.01171
 21
71.351906
 31
0.0
  0
LINE
  5
E5
330
1E
100
AcDbEntity
  8
0
100
AcDbLine
 10
15.2171
 20
72.432906
 30
0.0
 11
17.35829999999999
 21
72.899906
 31
0.0
  0
LINE
  5
E6
330
1E
100
AcDbEntity
  8
0
100
AcDbLine
 10
13.32489999999999
 20
72.063906
 30
0.0
 11
15.2171
 21
72.432906
 31
0.0
  0
LINE
  5
E7
330
1E
100
AcDbEntity
  8
0
100
AcDbLine
 10
11.71529999999999
 20
71.779006
 30
0.0
 11
13.32489999999999
 21
72.063906
 31
0.0
  0
LINE
  5
E9
330
1E
100
AcDbEntity
  8
0
100
AcDbLine
 10
17.35829999999999
 20
72.899906
 30
0.0
 11
18.9032
 21
73.194906
 31
0.0
  0
LINE
  5
EB
330
1E
100
AcDbEntity
  8
0
100
AcDbLine
 10
10.4083
 20
71.56490600000001
 30
0.0
 11
11.71529999999999
 21
71.779006
 31
0.0
  0
LINE
  5
EC
330
1E
100
AcDbEntity
  8
0
100
AcDbLine
 10
2.423
 20
76.40990600000001
 30
0.0
 11
4.033599999999999
 21
74.32680600000001
 31
0.0
  0
LINE
  5
ED
330
1E
100
AcDbEntity
  8
0
100
AcDbLine
 10
4.033599999999999
 20
74.32680600000001
 30
0.0
 11
6.003549999999999
 21
72.584906
 31
0.0
  0
LINE
  5
EE
330
1E
100
AcDbEntity
  8
0
100
AcDbLine
 10
31.7426
 20
65.489606
 30
0.0
 11
31.9511
 21
65.50810600000001
 31
0.0
  0
LINE
  5
129
330
1E
100
AcDbEntity
  8
0
100
AcDbLine
 10
32.21099999999999
 20
65.82100600000001
 30
0.0
 11
32.9175929356514
 21
69.80931585403389
 31
0.0
  0
LINE
  5
12A
330
1E
100
AcDbEntity
  8
0
100
AcDbLine
 10
32.21099999999999
 20
65.82100600000001
 30
0.0
 11
32.9175929356514
 21
69.80931585403389
 31
0.0
  0
LINE
  5
12B
330
1E
100
AcDbEntity
  8
0
100
AcDbLine
 10
32.1231
 20
65.62940600000001
 30
0.0
 11
32.21099999999999
 21
65.82100600000001
 31
0.0
  0
LINE
  5
12C
330
1E
100
AcDbEntity
  8
0
100
AcDbLine
 10
31.9511
 20
65.50810600000001
 30
0.0
 11
32.1231
 21
65.62940600000001
 31
0.0
  0
LINE
  5
12D
330
1E
100
AcDbEntity
  8
0
100
AcDbLine
 10
31.4847
 20
65.53500600000001
 30
0.0
 11
31.66529999999999
 21
65.50330600000001
 31
0.0
  0
LINE
  5
12E
330
1E
100
AcDbEntity
  8
0
100
AcDbLine
 10
31.7364
 20
65.490706
 30
0.0
 11
31.9446
 21
65.50920600000001
 31
0.0
  0
LINE
  5
12F
330
1E
100
AcDbEntity
  8
0
100
AcDbLine
 10
142.597
 20
59.56040600000001
 30
0.0
 11
145.912
 21
59.138406
 31
0.0
  0
LINE
  5
136
330
1E
100
AcDbEntity
  8
0
100
AcDbLine
 10
139.69
 20
60.1829914651163
 30
0.0
 11
142.597
 21
59.56040600000001
 31
0.0
  0
LINE
  5
13A
330
1E
100
AcDbEntity
  8
0
100
AcDbLine
 10
139.69
 20
64.339306
 30
0.0
 11
139.69
 21
66.245506
 31
0.0
  0
LINE
  5
13B
330
1E
100
AcDbEntity
  8
0
100
AcDbLine
 10
139.69
 20
64.339306
 30
0.0
 11
139.69
 21
62.66810600000001
 31
0.0
  0
LINE
  5
13C
330
1E
100
AcDbEntity
  8
0
100
AcDbLine
 10
139.69
 20
62.66810600000001
 30
0.0
 11
139.69
 21
64.339306
 31
0.0
  0
LINE
  5
13D
330
1E
100
AcDbEntity
  8
0
100
AcDbLine
 10
139.69
 20
66.245506
 30
0.0
 11
139.69
 21
68.357606
 31
0.0
  0
LINE
  5
13E
330
1E
100
AcDbEntity
  8
0
100
AcDbLine
 10
139.69
 20
66.245506
 30
0.0
 11
139.69
 21
64.339306
 31
0.0
  0
LINE
  5
13F
330
1E
100
AcDbEntity
  8
0
100
AcDbLine
 10
139.69
 20
68.357606
 30
0.0
 11
139.69
 21
80.91270599999999
 31
0.0
  0
LINE
  5
140
330
1E
100
AcDbEntity
  8
0
100
AcDbLine
 10
139.69
 20
68.357606
 30
0.0
 11
139.69
 21
66.245506
 31
0.0
  0
LINE
  5
141
330
1E
100
AcDbEntity
  8
0
100
AcDbLine
 10
139.69
 20
61.253006
 30
0.0
 11
139.69
 21
62.66810600000001
 31
0.0
  0
LINE
  5
142
330
1E
100
AcDbEntity
  8
0
100
AcDbLine
 10
139.69
 20
60.028006
 30
0.0
 11
139.69
 21
61.253006
 31
0.0
  0
LINE
  5
143
330
1E
100
AcDbEntity
  8
0
100
AcDbLine
 10
20.4978
 20
73.350906
 30
0.0
 11
22.13529999999999
 21
73.335906
 31
0.0
  0
LINE
  5
144
330
1E
100
AcDbEntity
  8
0
100
AcDbLine
 10
18.9032
 20
73.194906
 30
0.0
 11
20.4978
 21
73.350906
 31
0.0
  0
LINE
  5
145
330
1E
100
AcDbEntity
  8
0
100
AcDbLine
 10
22.13529999999999
 20
73.335906
 30
0.0
 11
23.74589999999999
 21
73.137906
 31
0.0
  0
LINE
  5
147
330
1E
100
AcDbEntity
  8
0
100
AcDbLine
 10
32.9175929356514
 20
69.80931585403389
 30
0.0
 11
33.086
 21
69.807906
 31
0.0
  0
LINE
  5
148
330
1E
100
AcDbEntity
  8
0
100
AcDbLine
 10
32.8471
 20
69.80990600000001
 30
0.0
 11
33.086
 21
69.807906
 31
0.0
  0
LINE
  5
149
330
1E
100
AcDbEntity
  8
0
100
AcDbLine
 10
28.93909999999999
 20
71.38690600000001
 30
0.0
 11
29.9793
 21
70.900906
 31
0.0
  0
LINE
  5
14A
330
1E
100
AcDbEntity
  8
0
100
AcDbLine
 10
26.3619
 20
72.44090600000001
 30
0.0
 11
27.71069999999999
 21
71.92490600000001
 31
0.0
  0
LINE
  5
14B
330
1E
100
AcDbEntity
  8
0
100
AcDbLine
 10
25.09069999999999
 20
72.834906
 30
0.0
 11
26.3619
 21
72.44090600000001
 31
0.0
  0
LINE
  5
14C
330
1E
100
AcDbEntity
  8
0
100
AcDbLine
 10
27.71069999999999
 20
71.92490600000001
 30
0.0
 11
28.93909999999999
 21
71.38690600000001
 31
0.0
  0
LINE
  5
14D
330
1E
100
AcDbEntity
  8
0
100
AcDbLine
 10
139.69
 20
80.91270599999999
 30
0.0
 11
139.69
 21
68.357606
 31
0.0
  0
LINE
  5
14E
330
1E
100
AcDbEntity
  8
0
100
AcDbLine
 10
31.784
 20
70.086906
 30
0.0
 11
32.38519999999999
 21
69.882906
 31
0.0
  0
LINE
  5
14F
330
1E
100
AcDbEntity
  8
0
100
AcDbLine
 10
30.897
 20
70.469906
 30
0.0
 11
31.784
 21
70.086906
 31
0.0
  0
LINE
  5
152
330
1E
100
AcDbEntity
  8
0
100
AcDbLine
 10
29.9793
 20
70.900906
 30
0.0
 11
30.897
 21
70.469906
 31
0.0
  0
LINE
  5
153
330
1E
100
AcDbEntity
  8
0
100
AcDbLine
 10
32.38519999999999
 20
69.882906
 30
0.0
 11
32.8471
 21
69.80990600000001
 31
0.0
  0
LINE
  5
154
330
1E
100
AcDbEntity
  8
0
100
AcDbLine
 10
23.74589999999999
 20
73.137906
 30
0.0
 11
25.09069999999999
 21
72.834906
 31
0.0
  0
LINE
  5
155
330
1E
100
AcDbEntity
  8
0
100
AcDbLine
 10
33.086
 20
69.807906
 30
0.0
 11
33.2588
 21
69.807106
 31
0.0
  0
LINE
  5
157
330
1E
100
AcDbEntity
  8
0
100
AcDbLine
 10
173.754
 20
59.285006
 30
0.0
 11
173.7579999999999
 21
60.13830600000001
 31
0.0
  0
LINE
  5
158
330
1E
100
AcDbEntity
  8
0
100
AcDbLine
 10
173.761
 20
61.29800600000001
 30
0.0
 11
173.764
 21
63.088206
 31
0.0
  0
LINE
  5
159
330
1E
100
AcDbEntity
  8
0
100
AcDbLine
 10
173.7579999999999
 20
60.13830600000001
 30
0.0
 11
173.761
 21
61.29800600000001
 31
0.0
  0
LINE
  5
15A
330
1E
100
AcDbEntity
  8
0
100
AcDbLine
 10
173.749
 20
58.753806
 30
0.0
 11
173.754
 21
59.285006
 31
0.0
  0
LINE
  5
15B
330
1E
100
AcDbEntity
  8
0
100
AcDbLine
 10
173.768
 20
64.988906
 30
0.0
 11
173.7729999999999
 21
67.159106
 31
0.0
  0
LINE
  5
15C
330
1E
100
AcDbEntity
  8
0
100
AcDbLine
 10
173.7779999999999
 20
69.561006
 30
0.0
 11
173.7829999999999
 21
72.15490600000001
 31
0.0
  0
LINE
  5
15D
330
1E
100
AcDbEntity
  8
0
100
AcDbLine
 10
173.7879999999999
 20
74.89800600000001
 30
0.0
 11
173.791
 21
77.74350600000001
 31
0.0
  0
LINE
  5
15E
330
1E
100
AcDbEntity
  8
0
100
AcDbLine
 10
173.7829999999999
 20
72.15490600000001
 30
0.0
 11
173.7879999999999
 21
74.89800600000001
 31
0.0
  0
LINE
  5
15F
330
1E
100
AcDbEntity
  8
0
100
AcDbLine
 10
173.7729999999999
 20
67.159106
 30
0.0
 11
173.7779999999999
 21
69.561006
 31
0.0
  0
LINE
  5
160
330
1E
100
AcDbEntity
  8
0
100
AcDbLine
 10
173.764
 20
63.088206
 30
0.0
 11
173.768
 21
64.988906
 31
0.0
  0
LINE
  5
161
330
1E
100
AcDbEntity
  8
0
100
AcDbLine
 10
0.497860000000001
 20
81.29180600000001
 30
0.0
 11
1.230489999999999
 21
78.759906
 31
0.0
  0
LINE
  5
162
330
1E
100
AcDbEntity
  8
0
100
AcDbLine
 10
0.250000000000002
 20
83.91690600000002
 30
0.0
 11
0.250000000000002
 21
92.99690600000001
 31
0.0
  0
LINE
  5
163
330
1E
100
AcDbEntity
  8
0
100
AcDbLine
 10
0.250000000000002
 20
83.91690600000002
 30
0.0
 11
0.497860000000001
 21
81.29180600000001
 31
0.0
  0
LINE
  5
164
330
1E
100
AcDbEntity
  8
0
100
AcDbLine
 10
0.383390000000002
 20
93.496906
 30
0.0
 11
0.748710000000003
 21
93.862906
 31
0.0
  0
LINE
  5
165
330
1E
100
AcDbEntity
  8
0
100
AcDbLine
 10
0.250000000000002
 20
92.99690600000001
 30
0.0
 11
0.383390000000002
 21
93.496906
 31
0.0
  0
LINE
  5
166
330
1E
100
AcDbEntity
  8
0
100
AcDbLine
 10
1.230489999999999
 20
78.759906
 30
0.0
 11
2.423
 21
76.40990600000001
 31
0.0
  0
LINE
  5
167
330
1E
100
AcDbEntity
  8
0
100
AcDbLine
 10
1.245419999999999
 20
93.99690600000001
 30
0.0
 11
1.49129
 21
93.99690600000001
 31
0.0
  0
LINE
  5
168
330
1E
100
AcDbEntity
  8
0
100
AcDbLine
 10
0.748710000000003
 20
93.862906
 30
0.0
 11
1.245419999999999
 21
93.99690600000001
 31
0.0
  0
LINE
  5
169
330
1E
100
AcDbEntity
  8
0
100
AcDbLine
 10
1.49129
 20
93.99690600000001
 30
0.0
 11
2.22094
 21
93.99690600000001
 31
0.0
  0
LINE
  5
16A
330
1E
100
AcDbEntity
  8
0
100
AcDbLine
 10
2.22094
 20
93.99690600000001
 30
0.0
 11
3.41345
 21
93.99690600000001
 31
0.0
  0
LINE
  5
16B
330
1E
100
AcDbEntity
  8
0
100
AcDbLine
 10
3.41345
 20
93.99690600000001
 30
0.0
 11
5.03003
 21
93.99690600000001
 31
0.0
  0
LINE
  5
16E
330
1E
100
AcDbEntity
  8
0
100
AcDbLine
 10
139.66
 20
81.083706
 30
0.0
 11
139.69
 21
80.91270599999999
 31
0.0
  0
LINE
  5
170
330
1E
100
AcDbEntity
  8
0
100
AcDbLine
 10
99.32999999999999
 20
88.33940600000001
 30
0.0
 11
99.40799999999999
 21
88.338306
 31
0.0
  0
LINE
  5
174
330
1E
100
AcDbEntity
  8
0
100
AcDbLine
 10
99.32999999999999
 20
88.339306
 30
0.0
 11
99.40799999999999
 21
88.338306
 31
0.0
  0
LINE
  5
17F
330
1E
100
AcDbEntity
  8
0
100
AcDbLine
 10
17.4211
 20
93.99690600000001
 30
0.0
 11
99.43848877393641
 21
93.99690600000001
 31
0.0
  0
LINE
  5
180
330
1E
100
AcDbEntity
  8
0
100
AcDbLine
 10
17.4211
 20
93.99690600000001
 30
0.0
 11
99.43848877393641
 21
93.99690600000001
 31
0.0
  0
LINE
  5
181
330
1E
100
AcDbEntity
  8
0
100
AcDbLine
 10
14.61289999999999
 20
93.99690600000001
 30
0.0
 11
17.4211
 21
93.99690600000001
 31
0.0
  0
LINE
  5
182
330
1E
100
AcDbEntity
  8
0
100
AcDbLine
 10
11.88949999999999
 20
93.99690600000001
 30
0.0
 11
14.61289999999999
 21
93.99690600000001
 31
0.0
  0
LINE
  5
183
330
1E
100
AcDbEntity
  8
0
100
AcDbLine
 10
9.33320000000001
 20
93.99690600000001
 30
0.0
 11
11.88949999999999
 21
93.99690600000001
 31
0.0
  0
LINE
  5
186
330
1E
100
AcDbEntity
  8
0
100
AcDbLine
 10
7.02386
 20
93.99690600000001
 30
0.0
 11
9.33320000000001
 21
93.99690600000001
 31
0.0
  0
LINE
  5
187
330
1E
100
AcDbEntity
  8
0
100
AcDbLine
 10
5.03003
 20
93.99690600000001
 30
0.0
 11
7.02386
 21
93.99690600000001
 31
0.0
  0
LINE
  5
18D
330
1E
100
AcDbEntity
  8
0
100
AcDbLine
 10
173.768
 20
97.00490600000001
 30
0.0
 11
173.7729999999999
 21
94.83470600000002
 31
0.0
  0
LINE
  5
18E
330
1E
100
AcDbEntity
  8
0
100
AcDbLine
 10
173.7729999999999
 20
94.83470600000002
 30
0.0
 11
173.7779999999999
 21
92.432806
 31
0.0
  0
LINE
  5
18F
330
1E
100
AcDbEntity
  8
0
100
AcDbLine
 10
173.7829999999999
 20
89.838906
 30
0.0
 11
173.7879999999999
 21
87.095806
 31
0.0
  0
LINE
  5
190
330
1E
100
AcDbEntity
  8
0
100
AcDbLine
 10
173.7779999999999
 20
92.432806
 30
0.0
 11
173.7829999999999
 21
89.838906
 31
0.0
  0
LINE
  5
19D
330
1E
100
AcDbEntity
  8
0
100
AcDbLine
 10
132.953740644368
 20
99.48432938874692
 30
0.0
 11
133.024
 21
99.51950600000001
 31
0.0
  0
LINE
  5
19E
330
1E
100
AcDbEntity
  8
0
100
AcDbLine
 10
145.912
 20
102.855906
 30
0.0
 11
149.2489999999999
 21
102.996906
 31
0.0
  0
LINE
  5
19F
330
1E
100
AcDbEntity
  8
0
100
AcDbLine
 10
142.597
 20
102.432906
 30
0.0
 11
145.912
 21
102.855906
 31
0.0
  0
LINE
  5
1A0
330
1E
100
AcDbEntity
  8
0
100
AcDbLine
 10
139.329
 20
101.733906
 30
0.0
 11
142.597
 21
102.432906
 31
0.0
  0
LINE
  5
1A1
330
1E
100
AcDbEntity
  8
0
100
AcDbLine
 10
136.131
 20
100.7599059999999
 30
0.0
 11
139.329
 21
101.733906
 31
0.0
  0
LINE
  5
1A2
330
1E
100
AcDbEntity
  8
0
100
AcDbLine
 10
133.024
 20
99.51950600000001
 30
0.0
 11
136.131
 21
100.7599059999999
 31
0.0
  0
LINE
  5
1A3
330
1E
100
AcDbEntity
  8
0
100
AcDbLine
 10
149.2489999999999
 20
102.996906
 30
0.0
 11
173.751288135593
 21
102.996906
 31
0.0
  0
LINE
  5
1AA
330
1E
100
AcDbEntity
  8
0
100
AcDbLine
 10
99.752
 20
103.481906
 30
0.0
 11
100.1179999999999
 21
103.8399059999999
 31
0.0
  0
LINE
  5
1AB
330
1E
100
AcDbEntity
  8
0
100
AcDbLine
 10
99.61100000000001
 20
102.992906
 30
0.0
 11
99.752
 21
103.481906
 31
0.0
  0
LINE
  5
1AC
330
1E
100
AcDbEntity
  8
0
100
AcDbLine
 10
130.963
 20
103.981906
 30
0.0
 11
131.251
 21
103.891906
 31
0.0
  0
LINE
  5
1AE
330
1E
100
AcDbEntity
  8
0
100
AcDbLine
 10
131.251
 20
103.891906
 30
0.0
 11
131.434
 21
103.652906
 31
0.0
  0
LINE
  5
1AF
330
1E
100
AcDbEntity
  8
0
100
AcDbLine
 10
100.6129999999999
 20
103.968906
 30
0.0
 11
130.963
 21
103.981906
 31
0.0
  0
LINE
  5
1B0
330
1E
100
AcDbEntity
  8
0
100
AcDbLine
 10
100.1179999999999
 20
103.8399059999999
 30
0.0
 11
100.6129999999999
 21
103.968906
 31
0.0
  0
LINE
  5
1B1
330
1E
100
AcDbEntity
  8
0
100
AcDbLine
 10
173.754
 20
102.7089059999999
 30
0.0
 11
173.7579999999999
 21
101.855906
 31
0.0
  0
LINE
  5
1B2
330
1E
100
AcDbEntity
  8
0
100
AcDbLine
 10
173.7579999999999
 20
101.855906
 30
0.0
 11
173.761
 21
100.695906
 31
0.0
  0
LINE
  5
1B3
330
1E
100
AcDbEntity
  8
0
100
AcDbLine
 10
173.761
 20
100.695906
 30
0.0
 11
173.764
 21
98.905606
 31
0.0
  0
LINE
  5
1B4
330
1E
100
AcDbEntity
  8
0
100
AcDbLine
 10
173.749
 20
103.239906
 30
0.0
 11
173.754
 21
102.7089059999999
 31
0.0
  0
LINE
  5
1B5
330
1E
100
AcDbEntity
  8
0
100
AcDbLine
 10
173.742
 20
103.443906
 30
0.0
 11
173.749
 21
103.239906
 31
0.0
  0
LINE
  5
1B6
330
1E
100
AcDbEntity
  8
0
100
AcDbLine
 10
173.742
 20
103.443906
 30
0.0
 11
173.7623206710079
 21
103.347382812714
 31
0.0
  0
LINE
  5
1B7
330
1E
100
AcDbEntity
  8
0
100
AcDbLine
 10
173.7008770765699
 20
102.996906
 30
0.0
 11
173.877
 21
113.390906
 31
0.0
  0
LINE
  5
1B8
330
1E
100
AcDbEntity
  8
0
100
AcDbLine
 10
173.764
 20
98.905606
 30
0.0
 11
173.768
 21
97.00490600000001
 31
0.0
  0
LINE
  5
1B9
330
1E
100
AcDbEntity
  8
0
100
AcDbLine
 10
173.791
 20
84.25030600000001
 30
0.0
 11
173.793
 21
80.996906
 31
0.0
  0
LINE
  5
1BA
330
1E
100
AcDbEntity
  8
0
100
AcDbLine
 10
173.7879999999999
 20
87.095806
 30
0.0
 11
173.791
 21
84.25030600000001
 31
0.0
  0
LINE
  5
1BB
330
1E
100
AcDbEntity
  8
0
100
AcDbLine
 10
173.791
 20
77.74350600000001
 30
0.0
 11
173.793
 21
80.996906
 31
0.0
  0
LINE
  5
1BC
330
1E
100
AcDbEntity
  8
0
100
AcDbLine
 10
183.2499999999999
 20
47.21460599999999
 30
0.0
 11
183.2499999999999
 21
47.058606
 31
0.0
  0
LINE
  5
1BD
330
1E
100
AcDbEntity
  8
0
100
AcDbLine
 10
183.2499999999999
 20
47.058606
 30
0.0
 11
183.2499999999999
 21
47.21460599999999
 31
0.0
  0
LINE
  5
1BE
330
1E
100
AcDbEntity
  8
0
100
AcDbLine
 10
183.2499999999999
 20
47.058606
 30
0.0
 11
183.2499999999999
 21
47.005906
 31
0.0
  0
LINE
  5
1C0
330
1E
100
AcDbEntity
  8
0
100
AcDbLine
 10
183.2499999999999
 20
47.54080599999999
 30
0.0
 11
183.2499999999999
 21
47.21470599999999
 31
0.0
  0
LINE
  5
1C1
330
1E
100
AcDbEntity
  8
0
100
AcDbLine
 10
183.2499999999999
 20
48.317906
 30
0.0
 11
183.2499999999999
 21
48.893406
 31
0.0
  0
LINE
  5
1C2
330
1E
100
AcDbEntity
  8
0
100
AcDbLine
 10
183.2499999999999
 20
48.31760599999999
 30
0.0
 11
183.2499999999999
 21
47.87620599999999
 31
0.0
  0
LINE
  5
1C3
330
1E
100
AcDbEntity
  8
0
100
AcDbLine
 10
183.2499999999999
 20
47.87620599999999
 30
0.0
 11
183.2499999999999
 21
48.31760599999999
 31
0.0
  0
LINE
  5
1C4
330
1E
100
AcDbEntity
  8
0
100
AcDbLine
 10
183.2499999999999
 20
47.875906
 30
0.0
 11
183.2499999999999
 21
47.541006
 31
0.0
  0
LINE
  5
1C5
330
1E
100
AcDbEntity
  8
0
100
AcDbLine
 10
183.2499999999999
 20
47.541006
 30
0.0
 11
183.2499999999999
 21
47.875906
 31
0.0
  0
LINE
  5
1C7
330
1E
100
AcDbEntity
  8
0
100
AcDbLine
 10
183.2499999999999
 20
47.21470599999999
 30
0.0
 11
183.2499999999999
 21
47.54080599999999
 31
0.0
  0
LINE
  5
1C8
330
1E
100
AcDbEntity
  8
0
100
AcDbLine
 10
183.2499999999999
 20
51.730206
 30
0.0
 11
183.2499999999999
 21
53.149406
 31
0.0
  0
LINE
  5
1C9
330
1E
100
AcDbEntity
  8
0
100
AcDbLine
 10
183.2499999999999
 20
51.730206
 30
0.0
 11
183.2499999999999
 21
50.622106
 31
0.0
  0
LINE
  5
1CA
330
1E
100
AcDbEntity
  8
0
100
AcDbLine
 10
183.2499999999999
 20
50.622106
 30
0.0
 11
183.2499999999999
 21
51.730206
 31
0.0
  0
LINE
  5
1CB
330
1E
100
AcDbEntity
  8
0
100
AcDbLine
 10
183.2499999999999
 20
50.622106
 30
0.0
 11
183.2499999999999
 21
49.543106
 31
0.0
  0
LINE
  5
1CC
330
1E
100
AcDbEntity
  8
0
100
AcDbLine
 10
183.2499999999999
 20
49.543106
 30
0.0
 11
183.2499999999999
 21
50.622106
 31
0.0
  0
LINE
  5
1CD
330
1E
100
AcDbEntity
  8
0
100
AcDbLine
 10
183.2499999999999
 20
49.543106
 30
0.0
 11
183.2499999999999
 21
48.893406
 31
0.0
  0
LINE
  5
1CE
330
1E
100
AcDbEntity
  8
0
100
AcDbLine
 10
183.2499999999999
 20
48.893406
 30
0.0
 11
183.2499999999999
 21
49.543106
 31
0.0
  0
LINE
  5
1CF
330
1E
100
AcDbEntity
  8
0
100
AcDbLine
 10
183.2499999999999
 20
48.893406
 30
0.0
 11
183.2499999999999
 21
48.317906
 31
0.0
  0
LINE
  5
1FA
330
1E
100
AcDbEntity
  8
0
100
AcDbLine
 10
183.2499999999999
 20
47.005906
 30
0.0
 11
183.2499999999999
 21
47.058606
 31
0.0
  0
LINE
  5
297
330
1E
100
AcDbEntity
  8
0
100
AcDbLine
 10
183.2499999999999
 20
110.263906
 30
0.0
 11
183.2499999999999
 21
108.844906
 31
0.0
  0
LINE
  5
298
330
1E
100
AcDbEntity
  8
0
100
AcDbLine
 10
183.2499999999999
 20
110.263906
 30
0.0
 11
183.2499999999999
 21
111.371906
 31
0.0
  0
LINE
  5
299
330
1E
100
AcDbEntity
  8
0
100
AcDbLine
 10
183.2499999999999
 20
108.844906
 30
0.0
 11
183.2499999999999
 21
80.996906
 31
0.0
  0
LINE
  5
29A
330
1E
100
AcDbEntity
  8
0
100
AcDbLine
 10
183.2499999999999
 20
108.844906
 30
0.0
 11
183.2499999999999
 21
110.263906
 31
0.0
  0
LINE
  5
29B
330
1E
100
AcDbEntity
  8
0
100
AcDbLine
 10
183.2499999999999
 20
114.117906
 30
0.0
 11
183.2499999999999
 21
113.675906
 31
0.0
  0
LINE
  5
29C
330
1E
100
AcDbEntity
  8
0
100
AcDbLine
 10
183.2499999999999
 20
114.117906
 30
0.0
 11
183.2499999999999
 21
114.4529059999999
 31
0.0
  0
LINE
  5
29D
330
1E
100
AcDbEntity
  8
0
100
AcDbLine
 10
183.2499999999999
 20
114.4529059999999
 30
0.0
 11
183.2499999999999
 21
114.117906
 31
0.0
  0
LINE
  5
29E
330
1E
100
AcDbEntity
  8
0
100
AcDbLine
 10
183.2499999999999
 20
114.4529059999999
 30
0.0
 11
183.2499999999999
 21
114.778906
 31
0.0
  0
LINE
  5
29F
330
1E
100
AcDbEntity
  8
0
100
AcDbLine
 10
183.2499999999999
 20
113.675906
 30
0.0
 11
183.2499999999999
 21
113.100906
 31
0.0
  0
LINE
  5
2A0
330
1E
100
AcDbEntity
  8
0
100
AcDbLine
 10
183.2499999999999
 20
113.675906
 30
0.0
 11
183.2499999999999
 21
114.117906
 31
0.0
  0
LINE
  5
2A1
330
1E
100
AcDbEntity
  8
0
100
AcDbLine
 10
183.2499999999999
 20
113.100906
 30
0.0
 11
183.2499999999999
 21
112.450906
 31
0.0
  0
LINE
  5
2A2
330
1E
100
AcDbEntity
  8
0
100
AcDbLine
 10
183.2499999999999
 20
113.100906
 30
0.0
 11
183.2499999999999
 21
113.675906
 31
0.0
  0
LINE
  5
2A3
330
1E
100
AcDbEntity
  8
0
100
AcDbLine
 10
183.2499999999999
 20
114.987906
 30
0.0
 11
183.2499999999999
 21
114.934906
 31
0.0
  0
LINE
  5
2A4
330
1E
100
AcDbEntity
  8
0
100
AcDbLine
 10
183.2499999999999
 20
114.934906
 30
0.0
 11
183.2499999999999
 21
114.778906
 31
0.0
  0
LINE
  5
2A5
330
1E
100
AcDbEntity
  8
0
100
AcDbLine
 10
183.2499999999999
 20
114.934906
 30
0.0
 11
183.2499999999999
 21
114.987906
 31
0.0
  0
LINE
  5
2A6
330
1E
100
AcDbEntity
  8
0
100
AcDbLine
 10
183.2499999999999
 20
114.778906
 30
0.0
 11
183.2499999999999
 21
114.4529059999999
 31
0.0
  0
LINE
  5
2A7
330
1E
100
AcDbEntity
  8
0
100
AcDbLine
 10
183.2499999999999
 20
114.778906
 30
0.0
 11
183.2499999999999
 21
114.934906
 31
0.0
  0
LINE
  5
2A8
330
1E
100
AcDbEntity
  8
0
100
AcDbLine
 10
183.2499999999999
 20
112.450906
 30
0.0
 11
183.2499999999999
 21
111.371906
 31
0.0
  0
LINE
  5
2A9
330
1E
100
AcDbEntity
  8
0
100
AcDbLine
 10
183.2499999999999
 20
112.450906
 30
0.0
 11
183.2499999999999
 21
113.100906
 31
0.0
  0
LINE
  5
2AA
330
1E
100
AcDbEntity
  8
0
100
AcDbLine
 10
183.2499999999999
 20
111.371906
 30
0.0
 11
183.2499999999999
 21
110.263906
 31
0.0
  0
LINE
  5
2AB
330
1E
100
AcDbEntity
  8
0
100
AcDbLine
 10
183.2499999999999
 20
111.371906
 30
0.0
 11
183.2499999999999
 21
112.450906
 31
0.0
  0
LINE
  5
364
330
1E
100
AcDbEntity
  8
0
100
AcDbLine
 10
183.2499999999999
 20
80.996906
 30
0.0
 11
183.2499999999999
 21
53.149406
 31
0.0
  0
LINE
  5
365
330
1E
100
AcDbEntity
  8
0
100
AcDbLine
 10
183.2499999999999
 20
80.996906
 30
0.0
 11
183.2499999999999
 21
108.844906
 31
0.0
  0
LINE
  5
366
330
1E
100
AcDbEntity
  8
0
100
AcDbLine
 10
183.2499999999999
 20
53.149406
 30
0.0
 11
183.2499999999999
 21
80.996906
 31
0.0
  0
LINE
  5
367
330
1E
100
AcDbEntity
  8
0
100
AcDbLine
 10
183.2499999999999
 20
53.149406
 30
0.0
 11
183.2499999999999
 21
51.730206
 31
0.0
  0
LINE
  5
36C
330
1E
100
AcDbEntity
  8
0
100
AcDbLine
 10
33.2588
 20
69.807106
 30
0.0
 11
99.26471376041114
 21
69.807106
 31
0.0
  0
LINE
  5
36D
330
1E
100
AcDbEntity
  8
0
100
AcDbLine
 10
8.911379999999999
 20
69.533906
 30
0.0
 11
31.4847
 21
65.53500600000001
 31
0.0
  0
LINE
  5
36E
330
1E
100
AcDbEntity
  8
0
100
AcDbLine
 10
130.963
 20
103.981906
 30
0.0
 11
139.66
 21
81.083706
 31
0.0
  0
LINE
  5
36F
330
1E
100
AcDbEntity
  8
0
100
AcDbLine
 10
183.2499999999999
 20
114.987906
 30
0.0
 11
174.8249820876205
 21
114.9994176753593
 31
0.0
  0
LINE
  5
370
330
1E
100
AcDbEntity
  8
0
100
AcDbLine
 10
174.8249820876205
 20
114.9994176753593
 30
0.0
 11
174.2787367117629
 21
114.8557528884321
 31
0.0
  0
LINE
  5
371
330
1E
100
AcDbEntity
  8
0
100
AcDbLine
 10
174.2787367117629
 20
114.8557528884321
 30
0.0
 11
173.9193642098326
 21
114.4822241189843
 31
0.0
  0
LINE
  5
372
330
1E
100
AcDbEntity
  8
0
100
AcDbLine
 10
173.9193642098326
 20
114.4822241189843
 30
0.0
 11
173.877
 21
113.390906
 31
0.0
  0
LINE
  5
373
330
1E
100
AcDbEntity
  8
0
100
AcDbLine
 10
183.2499999999999
 20
47.005906
 30
0.0
 11
174.5427143381469
 21
47.05962357840991
 31
0.0
  0
LINE
  5
374
330
1E
100
AcDbEntity
  8
0
100
AcDbLine
 10
174.5427143381469
 20
47.05962357840991
 30
0.0
 11
174.0524463844419
 21
47.2491716776039
 31
0.0
  0
LINE
  5
375
330
1E
100
AcDbEntity
  8
0
100
AcDbLine
 10
174.0524463844419
 20
47.2491716776039
 30
0.0
 11
173.9033742531594
 21
47.68258399951173
 31
0.0
  0
LINE
  5
376
330
1E
100
AcDbEntity
  8
0
100
AcDbLine
 10
173.9033742531594
 20
47.68258399951173
 30
0.0
 11
173.877
 21
48.60310599999999
 31
0.0
  0
ENDSEC
  0
SECTION
  2
OBJECTS
  0
DICTIONARY
  5
C
330
0
100
AcDbDictionary
281
     1
  3
ACAD_GROUP
350
D
  3
ACAD_LAYOUT
350
19
  3
ACAD_MLINESTYLE
350
16
  3
ACAD_PLOTSETTINGS
350
18
  3
ACAD_PLOTSTYLENAME
350
E
  3
AcDbVariableDictionary
350
378
  0
DICTIONARY
  5
D
102
{ACAD_REACTORS
330
C
102
}
330
C
100
AcDbDictionary
281
     1
  0
DICTIONARY
  5
19
102
{ACAD_REACTORS
330
C
102
}
330
C
100
AcDbDictionary
281
     1
  3
Layout1
350
1D
  3
Model
350
21
  0
DICTIONARY
  5
16
102
{ACAD_REACTORS
330
C
102
}
330
C
100
AcDbDictionary
281
     1
  3
Standard
350
17
  0
DICTIONARY
  5
18
102
{ACAD_REACTORS
330
C
102
}
330
C
100
AcDbDictionary
281
     1
  0
ACDBDICTIONARYWDFLT
  5
E
102
{ACAD_REACTORS
330
C
102
}
330
C
100
AcDbDictionary
281
     1
  3
Normal
350
F
100
AcDbDictionaryWithDefault
340
F
  0
DICTIONARY
  5
378
102
{ACAD_REACTORS
330
C
102
}
330
C
100
AcDbDictionary
281
     1
  3
DIMASSOC
350
379
  0
LAYOUT
  5
1D
102
{ACAD_REACTORS
330
19
102
}
330
19
100
AcDbPlotSettings
  1

  2
C:\Programme\AutoCAD LT 2002 Deu\plotters\DWF ePlot (optimized for plotting).pc3
  4

  6

 40
0.0
 41
0.0
 42
0.0
 43
0.0
 44
0.0
 45
0.0
 46
0.0
 47
0.0
 48
0.0
 49
0.0
140
0.0
141
0.0
142
1.0
143
1.0
 70
   688
 72
     0
 73
     0
 74
     5
  7

 75
    16
147
1.0
148
0.0
149
0.0
100
AcDbLayout
  1
Layout1
 70
     1
 71
     1
 10
0.0
 20
0.0
 11
12.0
 21
9.0
 12
0.0
 22
0.0
 32
0.0
 14
1.000000000000000E+20
 24
1.000000000000000E+20
 34
1.000000000000000E+20
 15
-1.000000000000000E+20
 25
-1.000000000000000E+20
 35
-1.000000000000000E+20
146
0.0
 13
0.0
 23
0.0
 33
0.0
 16
1.0
 26
0.0
 36
0.0
 17
0.0
 27
1.0
 37
0.0
 76
     0
330
1A
  0
LAYOUT
  5
21
102
{ACAD_REACTORS
330
19
102
}
330
19
100
AcDbPlotSettings
  1

  2
C:\Programme\AutoCAD LT 2002 Deu\plotters\DWF ePlot (optimized for plotting).pc3
  4

  6

 40
0.0
 41
0.0
 42
0.0
 43
0.0
 44
0.0
 45
0.0
 46
0.0
 47
0.0
 48
0.0
 49
0.0
140
0.0
141
0.0
142
1.0
143
1.0
 70
  1712
 72
     0
 73
     0
 74
     0
  7

 75
     0
147
1.0
148
0.0
149
0.0
100
AcDbLayout
  1
Model
 70
     1
 71
     0
 10
0.0
 20
0.0
 11
12.0
 21
9.0
 12
0.0
 22
0.0
 32
0.0
 14
0.0
 24
0.0
 34
0.0
 15
0.0
 25
0.0
 35
0.0
146
0.0
 13
0.0
 23
0.0
 33
0.0
 16
1.0
 26
0.0
 36
0.0
 17
0.0
 27
1.0
 37
0.0
 76
     0
330
1E
  0
MLINESTYLE
  5
17
102
{ACAD_REACTORS
330
16
102
}
330
16
100
AcDbMlineStyle
  2
STANDARD
 70
     0
  3

 62
   256
 51
90.0
 52
90.0
 71
     2
 49
0.5
 62
   256
  6
BYLAYER
 49
-0.5
 62
   256
  6
BYLAYER
  0
ACDBPLACEHOLDER
  5
F
102
{ACAD_REACTORS
330
E
102
}
330
E
  0
DICTIONARYVAR
  5
379
102
{ACAD_REACTORS
330
378
102
}
330
378
100
DictionaryVariables
280
     0
  1
1
  0
ENDSEC
  0
EOF
