  0
SECTION
  2
HEADER
  9
$ACADVER
  1
AC1015
  9
$ACADMAINTVER
 70
    13
  9
$DWGCODEPAGE
  3
ANSI_1252
  9
$INSBASE
 10
0.0
 20
0.0
 30
0.0
  9
$EXTMIN
 10
205.0
 20
-0.0557999999999739
 30
0.0
  9
$EXTMAX
 10
495.0
 20
262.4978
 30
0.0
  9
$LIMMIN
 10
0.0
 20
0.0
  9
$LIMMAX
 10
12.0
 20
9.0
  9
$ORTHOMODE
 70
     0
  9
$REGENMODE
 70
     1
  9
$FILLMODE
 70
     1
  9
$QTEXTMODE
 70
     0
  9
$MIRRTEXT
 70
     1
  9
$LTSCALE
 40
1.0
  9
$ATTMODE
 70
     1
  9
$TEXTSIZE
 40
0.2
  9
$TRACEWID
 40
0.05
  9
$TEXTSTYLE
  7
Standard
  9
$CLAYER
  8
0
  9
$CELTYPE
  6
Continuous
  9
$CECOLOR
 62
   256
  9
$CELTSCALE
 40
1.0
  9
$DISPSILH
 70
     0
  9
$DIMSCALE
 40
1.0
  9
$DIMASZ
 40
0.18
  9
$DIMEXO
 40
0.0625
  9
$DIMDLI
 40
0.38
  9
$DIMRND
 40
0.0
  9
$DIMDLE
 40
0.0
  9
$DIMEXE
 40
0.18
  9
$DIMTP
 40
0.0
  9
$DIMTM
 40
0.0
  9
$DIMTXT
 40
0.18
  9
$DIMCEN
 40
0.09
  9
$DIMTSZ
 40
0.0
  9
$DIMTOL
 70
     0
  9
$DIMLIM
 70
     0
  9
$DIMTIH
 70
     1
  9
$DIMTOH
 70
     1
  9
$DIMSE1
 70
     0
  9
$DIMSE2
 70
     0
  9
$DIMTAD
 70
     0
  9
$DIMZIN
 70
     0
  9
$DIMBLK
  1

  9
$DIMASO
 70
     1
  9
$DIMSHO
 70
     1
  9
$DIMPOST
  1

  9
$DIMAPOST
  1

  9
$DIMALT
 70
     0
  9
$DIMALTD
 70
     2
  9
$DIMALTF
 40
25.4
  9
$DIMLFAC
 40
1.0
  9
$DIMTOFL
 70
     0
  9
$DIMTVP
 40
0.0
  9
$DIMTIX
 70
     0
  9
$DIMSOXD
 70
     0
  9
$DIMSAH
 70
     0
  9
$DIMBLK1
  1

  9
$DIMBLK2
  1

  9
$DIMSTYLE
  2
Standard
  9
$DIMCLRD
 70
     0
  9
$DIMCLRE
 70
     0
  9
$DIMCLRT
 70
     0
  9
$DIMTFAC
 40
1.0
  9
$DIMGAP
 40
0.09
  9
$DIMJUST
 70
     0
  9
$DIMSD1
 70
     0
  9
$DIMSD2
 70
     0
  9
$DIMTOLJ
 70
     1
  9
$DIMTZIN
 70
     0
  9
$DIMALTZ
 70
     0
  9
$DIMALTTZ
 70
     0
  9
$DIMUPT
 70
     0
  9
$DIMDEC
 70
     4
  9
$DIMTDEC
 70
     4
  9
$DIMALTU
 70
     2
  9
$DIMALTTD
 70
     2
  9
$DIMTXSTY
  7
Standard
  9
$DIMAUNIT
 70
     0
  9
$DIMADEC
 70
     0
  9
$DIMALTRND
 40
0.0
  9
$DIMAZIN
 70
     0
  9
$DIMDSEP
 70
    46
  9
$DIMATFIT
 70
     3
  9
$DIMFRAC
 70
     0
  9
$DIMLDRBLK
  1

  9
$DIMLUNIT
 70
     2
  9
$DIMLWD
 70
    -2
  9
$DIMLWE
 70
    -2
  9
$DIMTMOVE
 70
     0
  9
$LUNITS
 70
     2
  9
$LUPREC
 70
     4
  9
$SKETCHINC
 40
0.1
  9
$FILLETRAD
 40
0.0
  9
$AUNITS
 70
     0
  9
$AUPREC
 70
     0
  9
$MENU
  1
.
  9
$ELEVATION
 40
0.0
  9
$PELEVATION
 40
0.0
  9
$THICKNESS
 40
0.0
  9
$LIMCHECK
 70
     0
  9
$CHAMFERA
 40
0.0
  9
$CHAMFERB
 40
0.0
  9
$CHAMFERC
 40
0.0
  9
$CHAMFERD
 40
0.0
  9
$SKPOLY
 70
     0
  9
$TDCREATE
 40
2455654.944179143
  9
$TDUCREATE
 40
2455654.860845810
  9
$TDUPDATE
 40
2455654.961290868
  9
$TDUUPDATE
 40
2455654.877957534
  9
$TDINDWG
 40
0.0171118981
  9
$TDUSRTIMER
 40
0.0171118981
  9
$USRTIMER
 70
     1
  9
$ANGBASE
 50
0.0
  9
$ANGDIR
 70
     0
  9
$PDMODE
 70
     0
  9
$PDSIZE
 40
0.0
  9
$PLINEWID
 40
0.0
  9
$SPLFRAME
 70
     0
  9
$SPLINETYPE
 70
     6
  9
$SPLINESEGS
 70
     8
  9
$HANDSEED
  5
5E3
  9
$SURFTAB1
 70
     6
  9
$SURFTAB2
 70
     6
  9
$SURFTYPE
 70
     6
  9
$SURFU
 70
     6
  9
$SURFV
 70
     6
  9
$UCSBASE
  2

  9
$UCSNAME
  2

  9
$UCSORG
 10
0.0
 20
0.0
 30
0.0
  9
$UCSXDIR
 10
1.0
 20
0.0
 30
0.0
  9
$UCSYDIR
 10
0.0
 20
1.0
 30
0.0
  9
$UCSORTHOREF
  2

  9
$UCSORTHOVIEW
 70
     1
  9
$UCSORGTOP
 10
0.0
 20
0.0
 30
0.0
  9
$UCSORGBOTTOM
 10
0.0
 20
0.0
 30
0.0
  9
$UCSORGLEFT
 10
0.0
 20
0.0
 30
0.0
  9
$UCSORGRIGHT
 10
0.0
 20
0.0
 30
0.0
  9
$UCSORGFRONT
 10
0.0
 20
0.0
 30
0.0
  9
$UCSORGBACK
 10
0.0
 20
0.0
 30
0.0
  9
$PUCSBASE
  2

  9
$PUCSNAME
  2

  9
$PUCSORG
 10
0.0
 20
0.0
 30
0.0
  9
$PUCSXDIR
 10
1.0
 20
0.0
 30
0.0
  9
$PUCSYDIR
 10
0.0
 20
1.0
 30
0.0
  9
$PUCSORTHOREF
  2

  9
$PUCSORTHOVIEW
 70
     0
  9
$PUCSORGTOP
 10
0.0
 20
0.0
 30
0.0
  9
$PUCSORGBOTTOM
 10
0.0
 20
0.0
 30
0.0
  9
$PUCSORGLEFT
 10
0.0
 20
0.0
 30
0.0
  9
$PUCSORGRIGHT
 10
0.0
 20
0.0
 30
0.0
  9
$PUCSORGFRONT
 10
0.0
 20
0.0
 30
0.0
  9
$PUCSORGBACK
 10
0.0
 20
0.0
 30
0.0
  9
$USERI1
 70
     0
  9
$USERI2
 70
     0
  9
$USERI3
 70
     0
  9
$USERI4
 70
     0
  9
$USERI5
 70
     0
  9
$USERR1
 40
0.0
  9
$USERR2
 40
0.0
  9
$USERR3
 40
0.0
  9
$USERR4
 40
0.0
  9
$USERR5
 40
0.0
  9
$WORLDVIEW
 70
     1
  9
$SHADEDGE
 70
     3
  9
$SHADEDIF
 70
    70
  9
$TILEMODE
 70
     1
  9
$MAXACTVP
 70
    64
  9
$PINSBASE
 10
0.0
 20
0.0
 30
0.0
  9
$PLIMCHECK
 70
     0
  9
$PEXTMIN
 10
1.000000000000000E+20
 20
1.000000000000000E+20
 30
1.000000000000000E+20
  9
$PEXTMAX
 10
-1.000000000000000E+20
 20
-1.000000000000000E+20
 30
-1.000000000000000E+20
  9
$PLIMMIN
 10
0.0
 20
0.0
  9
$PLIMMAX
 10
12.0
 20
9.0
  9
$UNITMODE
 70
     0
  9
$VISRETAIN
 70
     1
  9
$PLINEGEN
 70
     0
  9
$PSLTSCALE
 70
     1
  9
$TREEDEPTH
 70
  3020
  9
$CMLSTYLE
  2
Standard
  9
$CMLJUST
 70
     0
  9
$CMLSCALE
 40
1.0
  9
$PROXYGRAPHICS
 70
     1
  9
$MEASUREMENT
 70
     0
  9
$CELWEIGHT
370
    -1
  9
$ENDCAPS
280
     0
  9
$JOINSTYLE
280
     0
  9
$LWDISPLAY
290
     0
  9
$INSUNITS
 70
     0
  9
$HYPERLINKBASE
  1

  9
$STYLESHEET
  1

  9
$XEDIT
290
     1
  9
$CEPSNTYPE
380
     0
  9
$PSTYLEMODE
290
     1
  9
$FINGERPRINTGUID
  2
{7F771FAC-18D6-4BB2-9A58-C054EF677BF5}
  9
$VERSIONGUID
  2
{4A2429EC-A60E-4A43-80D9-80995106D8FB}
  9
$EXTNAMES
290
     1
  9
$PSVPSCALE
 40
0.0
  9
$OLESTARTUP
290
     0
  0
ENDSEC
  0
SECTION
  2
CLASSES
  0
CLASS
  1
ACDBDICTIONARYWDFLT
  2
AcDbDictionaryWithDefault
  3
AutoCAD 2000
 90
        0
280
     0
281
     0
  0
CLASS
  1
ACDBPLACEHOLDER
  2
AcDbPlaceHolder
  3
AutoCAD 2000
 90
        0
280
     0
281
     0
  0
CLASS
  1
LAYOUT
  2
AcDbLayout
  3
AutoCAD 2000
 90
        0
280
     0
281
     0
  0
CLASS
  1
DICTIONARYVAR
  2
AcDbDictionaryVar
  3
AutoCAD 2000
 90
        0
280
     0
281
     0
  0
ENDSEC
  0
SECTION
  2
TABLES
  0
TABLE
  2
VPORT
  5
8
330
0
100
AcDbSymbolTable
 70
     4
  0
VPORT
  5
5E2
330
8
100
AcDbSymbolTableRecord
100
AcDbViewportTableRecord
  2
*Active
 70
     0
 10
0.0
 20
0.0
 11
1.0
 21
1.0
 12
350.0
 22
131.221
 13
0.0
 23
0.0
 14
1.0
 24
1.0
 15
0.0
 25
0.0
 16
0.0
 26
0.0
 36
1.0
 17
0.0
 27
0.0
 37
0.0
 40
264.3296108229988
 41
2.073363431151241
 42
50.0
 43
0.0
 44
0.0
 50
0.0
 51
0.0
 71
     0
 72
   100
 73
     1
 74
     3
 75
     0
 76
     0
 77
     0
 78
     0
281
     0
 65
     1
110
0.0
120
0.0
130
0.0
111
1.0
121
0.0
131
0.0
112
0.0
122
1.0
132
0.0
 79
     1
146
0.0
  0
ENDTAB
  0
TABLE
  2
LTYPE
  5
5
330
0
100
AcDbSymbolTable
 70
     1
  0
LTYPE
  5
13
330
5
100
AcDbSymbolTableRecord
100
AcDbLinetypeTableRecord
  2
ByBlock
 70
     0
  3

 72
    65
 73
     0
 40
0.0
  0
LTYPE
  5
14
330
5
100
AcDbSymbolTableRecord
100
AcDbLinetypeTableRecord
  2
ByLayer
 70
     0
  3

 72
    65
 73
     0
 40
0.0
  0
LTYPE
  5
15
330
5
100
AcDbSymbolTableRecord
100
AcDbLinetypeTableRecord
  2
Continuous
 70
     0
  3
Solid line
 72
    65
 73
     0
 40
0.0
  0
ENDTAB
  0
TABLE
  2
LAYER
  5
2
330
0
100
AcDbSymbolTable
 70
     1
  0
LAYER
  5
10
330
2
100
AcDbSymbolTableRecord
100
AcDbLayerTableRecord
  2
0
 70
     0
 62
     7
  6
Continuous
370
    -3
390
F
  0
ENDTAB
  0
TABLE
  2
STYLE
  5
3
330
0
100
AcDbSymbolTable
 70
     1
  0
STYLE
  5
11
330
3
100
AcDbSymbolTableRecord
100
AcDbTextStyleTableRecord
  2
Standard
 70
     0
 40
0.0
 41
1.0
 50
0.0
 71
     0
 42
0.2
  3
txt
  4

  0
ENDTAB
  0
TABLE
  2
VIEW
  5
6
330
0
100
AcDbSymbolTable
 70
     0
  0
ENDTAB
  0
TABLE
  2
UCS
  5
7
330
0
100
AcDbSymbolTable
 70
     0
  0
ENDTAB
  0
TABLE
  2
APPID
  5
9
330
0
100
AcDbSymbolTable
 70
     1
  0
APPID
  5
12
330
9
100
AcDbSymbolTableRecord
100
AcDbRegAppTableRecord
  2
ACAD
 70
     0
  0
ENDTAB
  0
TABLE
  2
DIMSTYLE
  5
A
330
0
100
AcDbSymbolTable
 70
     1
100
AcDbDimStyleTable
 71
     0
  0
DIMSTYLE
105
5C2
330
A
100
AcDbSymbolTableRecord
100
AcDbDimStyleTableRecord
  2
Standard
 70
     0
340
11
  0
ENDTAB
  0
TABLE
  2
BLOCK_RECORD
  5
1
330
0
100
AcDbSymbolTable
 70
     0
  0
BLOCK_RECORD
  5
1E
330
1
100
AcDbSymbolTableRecord
100
AcDbBlockTableRecord
  2
*Model_Space
340
21
  0
BLOCK_RECORD
  5
1A
330
1
100
AcDbSymbolTableRecord
100
AcDbBlockTableRecord
  2
*Paper_Space
340
1D
  0
ENDTAB
  0
ENDSEC
  0
SECTION
  2
BLOCKS
  0
BLOCK
  5
1F
330
1E
100
AcDbEntity
  8
0
100
AcDbBlockBegin
  2
*Model_Space
 70
     0
 10
0.0
 20
0.0
 30
0.0
  3
*Model_Space
  1

  0
ENDBLK
  5
20
330
1E
100
AcDbEntity
  8
0
100
AcDbBlockEnd
  0
BLOCK
  5
1B
330
1A
100
AcDbEntity
 67
     1
  8
0
100
AcDbBlockBegin
  2
*Paper_Space
 70
     0
 10
0.0
 20
0.0
 30
0.0
  3
*Paper_Space
  1

  0
ENDBLK
  5
1C
330
1A
100
AcDbEntity
 67
     1
  8
0
100
AcDbBlockEnd
  0
ENDSEC
  0
SECTION
  2
ENTITIES
  0
LINE
  5
22
330
1E
100
AcDbEntity
  8
0
100
AcDbLine
 10
219.4999999999999
 20
8.729700000000018
 30
0.0
 11
220.3619999999999
 21
8.292730000000029
 31
0.0
  0
LINE
  5
23
330
1E
100
AcDbEntity
  8
0
100
AcDbLine
 10
218.8829999999999
 20
9.265660000000018
 30
0.0
 11
219.4999999999999
 21
8.729700000000018
 31
0.0
  0
LINE
  5
24
330
1E
100
AcDbEntity
  8
0
100
AcDbLine
 10
218.7089999999999
 20
9.446590000000018
 30
0.0
 11
218.8829999999999
 21
9.265660000000018
 31
0.0
  0
LINE
  5
26
330
1E
100
AcDbEntity
  8
0
100
AcDbLine
 10
220.3619999999999
 20
8.292730000000029
 30
0.0
 11
221.32
 21
7.984350000000018
 31
0.0
  0
LINE
  5
28
330
1E
100
AcDbEntity
  8
0
100
AcDbLine
 10
217.93
 20
12.62369999999999
 30
0.0
 11
217.9349999999999
 21
12.1469
 31
0.0
  0
LINE
  5
29
330
1E
100
AcDbEntity
  8
0
100
AcDbLine
 10
218.05
 20
10.8508
 30
0.0
 11
218.21
 21
10.33077
 31
0.0
  0
LINE
  5
2A
330
1E
100
AcDbEntity
  8
0
100
AcDbLine
 10
217.965
 20
11.69628
 30
0.0
 11
218.05
 21
10.8508
 31
0.0
  0
LINE
  5
2B
330
1E
100
AcDbEntity
  8
0
100
AcDbLine
 10
218.21
 20
10.33077
 30
0.0
 11
218.2799999999999
 21
10.1157
 31
0.0
  0
LINE
  5
2C
330
1E
100
AcDbEntity
  8
0
100
AcDbLine
 10
218.2799999999999
 20
10.1157
 30
0.0
 11
218.7089999999999
 21
9.446590000000018
 31
0.0
  0
LINE
  5
2E
330
1E
100
AcDbEntity
  8
0
100
AcDbLine
 10
217.9349999999999
 20
12.1469
 30
0.0
 11
217.965
 21
11.69628
 31
0.0
  0
LINE
  5
52
330
1E
100
AcDbEntity
  8
0
100
AcDbLine
 10
231.815
 20
7.210560000000018
 30
0.0
 11
240.0
 21
7.055800000000019
 31
0.0
  0
LINE
  5
54
330
1E
100
AcDbEntity
  8
0
100
AcDbLine
 10
223.6499999999999
 20
7.666870000000018
 30
0.0
 11
231.815
 21
7.210560000000018
 31
0.0
  0
LINE
  5
5C
330
1E
100
AcDbEntity
  8
0
100
AcDbLine
 10
221.32
 20
7.984350000000018
 30
0.0
 11
222.034
 21
7.839830000000018
 31
0.0
  0
LINE
  5
5D
330
1E
100
AcDbEntity
  8
0
100
AcDbLine
 10
222.034
 20
7.839830000000018
 30
0.0
 11
223.6499999999999
 21
7.666870000000018
 31
0.0
  0
LINE
  5
61
330
1E
100
AcDbEntity
  8
0
100
AcDbLine
 10
240.0
 20
7.055800000000019
 30
0.0
 11
248.185
 21
7.210560000000018
 31
0.0
  0
LINE
  5
67
330
1E
100
AcDbEntity
  8
0
100
AcDbLine
 10
248.185
 20
7.210560000000018
 30
0.0
 11
256.35
 21
7.666870000000018
 31
0.0
  0
LINE
  5
6A
330
1E
100
AcDbEntity
  8
0
100
AcDbLine
 10
257.966
 20
7.839830000000018
 30
0.0
 11
258.68
 21
7.984350000000018
 31
0.0
  0
LINE
  5
6B
330
1E
100
AcDbEntity
  8
0
100
AcDbLine
 10
256.35
 20
7.666870000000018
 30
0.0
 11
257.966
 21
7.839830000000018
 31
0.0
  0
LINE
  5
6C
330
1E
100
AcDbEntity
  8
0
100
AcDbLine
 10
259.6379999999999
 20
8.292730000000029
 30
0.0
 11
260.4999999999999
 21
8.729700000000018
 31
0.0
  0
LINE
  5
6D
330
1E
100
AcDbEntity
  8
0
100
AcDbLine
 10
258.68
 20
7.984350000000018
 30
0.0
 11
259.6379999999999
 21
8.292730000000029
 31
0.0
  0
LINE
  5
83
330
1E
100
AcDbEntity
  8
0
100
AcDbLine
 10
260.4999999999999
 20
8.729700000000018
 30
0.0
 11
261.117
 21
9.265660000000018
 31
0.0
  0
LINE
  5
84
330
1E
100
AcDbEntity
  8
0
100
AcDbLine
 10
261.117
 20
9.265660000000018
 30
0.0
 11
261.2909999999999
 21
9.446590000000018
 31
0.0
  0
LINE
  5
85
330
1E
100
AcDbEntity
  8
0
100
AcDbLine
 10
261.2909999999999
 20
9.446590000000018
 30
0.0
 11
261.72
 21
10.1157
 31
0.0
  0
LINE
  5
88
330
1E
100
AcDbEntity
  8
0
100
AcDbLine
 10
261.79
 20
10.33077
 30
0.0
 11
261.9499999999999
 21
10.8508
 31
0.0
  0
LINE
  5
89
330
1E
100
AcDbEntity
  8
0
100
AcDbLine
 10
261.9499999999999
 20
10.8508
 30
0.0
 11
262.035
 21
11.69628
 31
0.0
  0
LINE
  5
8A
330
1E
100
AcDbEntity
  8
0
100
AcDbLine
 10
261.72
 20
10.1157
 30
0.0
 11
261.79
 21
10.33077
 31
0.0
  0
LINE
  5
8C
330
1E
100
AcDbEntity
  8
0
100
AcDbLine
 10
262.0649999999999
 20
12.1469
 30
0.0
 11
262.0699999999999
 21
12.62369999999999
 31
0.0
  0
LINE
  5
8D
330
1E
100
AcDbEntity
  8
0
100
AcDbLine
 10
262.035
 20
11.69628
 30
0.0
 11
262.0649999999999
 21
12.1469
 31
0.0
  0
LINE
  5
CB
330
1E
100
AcDbEntity
  8
0
100
AcDbLine
 10
446.054
 20
49.8125
 30
0.0
 11
446.1069999999999
 21
38.2449
 31
0.0
  0
LINE
  5
CC
330
1E
100
AcDbEntity
  8
0
100
AcDbLine
 10
446.1069999999999
 20
38.2449
 30
0.0
 11
446.2559999999999
 21
27.8922
 31
0.0
  0
LINE
  5
CD
330
1E
100
AcDbEntity
  8
0
100
AcDbLine
 10
446.1069999999999
 20
38.2127
 30
0.0
 11
446.2559999999999
 21
27.8601
 31
0.0
  0
LINE
  5
CE
330
1E
100
AcDbEntity
  8
0
100
AcDbLine
 10
446.054
 20
49.7803
 30
0.0
 11
446.1069999999999
 21
38.2127
 31
0.0
  0
LINE
  5
CF
330
1E
100
AcDbEntity
  8
0
100
AcDbLine
 10
446.0
 20
63.068
 30
0.0
 11
446.054
 21
49.8125
 31
0.0
  0
LINE
  5
D0
330
1E
100
AcDbEntity
  8
0
100
AcDbLine
 10
446.0
 20
63.068
 30
0.0
 11
446.054
 21
76.3228
 31
0.0
  0
LINE
  5
D1
330
1E
100
AcDbEntity
  8
0
100
AcDbLine
 10
446.0
 20
63.0352
 30
0.0
 11
446.054
 21
49.7803
 31
0.0
  0
LINE
  5
D2
330
1E
100
AcDbEntity
  8
0
100
AcDbLine
 10
446.0
 20
63.0352
 30
0.0
 11
446.054
 21
76.29089999999999
 31
0.0
  0
LINE
  5
D3
330
1E
100
AcDbEntity
  8
0
100
AcDbLine
 10
446.2559999999999
 20
27.8922
 30
0.0
 11
446.3799999999999
 21
20.2251
 31
0.0
  0
LINE
  5
D4
330
1E
100
AcDbEntity
  8
0
100
AcDbLine
 10
446.2559999999999
 20
27.8601
 30
0.0
 11
446.3799999999999
 21
20.19293
 31
0.0
  0
LINE
  5
D5
330
1E
100
AcDbEntity
  8
0
100
AcDbLine
 10
446.613
 20
12.20919
 30
0.0
 11
446.753
 21
9.69970000000003
 31
0.0
  0
LINE
  5
D6
330
1E
100
AcDbEntity
  8
0
100
AcDbLine
 10
446.613
 20
12.17702
 30
0.0
 11
446.753
 21
9.667630000000029
 31
0.0
  0
LINE
  5
D7
330
1E
100
AcDbEntity
  8
0
100
AcDbLine
 10
446.5049999999999
 20
15.20637999999999
 30
0.0
 11
446.613
 21
12.20919
 31
0.0
  0
LINE
  5
D8
330
1E
100
AcDbEntity
  8
0
100
AcDbLine
 10
446.5049999999999
 20
15.17431
 30
0.0
 11
446.613
 21
12.17702
 31
0.0
  0
LINE
  5
D9
330
1E
100
AcDbEntity
  8
0
100
AcDbLine
 10
446.9859999999999
 20
7.74810000000003
 30
0.0
 11
447.2869999999999
 21
5.951700000000029
 31
0.0
  0
LINE
  5
DA
330
1E
100
AcDbEntity
  8
0
100
AcDbLine
 10
446.9859999999999
 20
7.71603000000003
 30
0.0
 11
447.2869999999999
 21
5.91960000000003
 31
0.0
  0
LINE
  5
DB
330
1E
100
AcDbEntity
  8
0
100
AcDbLine
 10
446.753
 20
9.69970000000003
 30
0.0
 11
446.9859999999999
 21
7.74810000000003
 31
0.0
  0
LINE
  5
DC
330
1E
100
AcDbEntity
  8
0
100
AcDbLine
 10
446.753
 20
9.667630000000029
 30
0.0
 11
446.9859999999999
 21
7.71603000000003
 31
0.0
  0
LINE
  5
E0
330
1E
100
AcDbEntity
  8
0
100
AcDbLine
 10
446.3799999999999
 20
20.2251
 30
0.0
 11
446.5049999999999
 21
15.20637999999999
 31
0.0
  0
LINE
  5
E1
330
1E
100
AcDbEntity
  8
0
100
AcDbLine
 10
446.3799999999999
 20
20.19293
 30
0.0
 11
446.5049999999999
 21
15.17431
 31
0.0
  0
LINE
  5
106
330
1E
100
AcDbEntity
  8
0
100
AcDbLine
 10
215.294
 20
192.3498
 30
0.0
 11
216.9663692689929
 21
191.0778475076839
 31
0.0
  0
LINE
  5
107
330
1E
100
AcDbEntity
  8
0
100
AcDbLine
 10
209.735
 20
199.6588
 30
0.0
 11
215.294
 21
192.3498
 31
0.0
  0
LINE
  5
11E
330
1E
100
AcDbEntity
  8
0
100
AcDbLine
 10
206.235
 20
208.0998
 30
0.0
 11
209.735
 21
199.6588
 31
0.0
  0
LINE
  5
11F
330
1E
100
AcDbEntity
  8
0
100
AcDbLine
 10
216.7569999999999
 20
212.1507999999999
 30
0.0
 11
216.7859999999999
 21
210.0077999999999
 31
0.0
  0
LINE
  5
120
330
1E
100
AcDbEntity
  8
0
100
AcDbLine
 10
216.7859999999999
 20
210.0077999999999
 30
0.0
 11
216.8159999999999
 21
207.5368
 31
0.0
  0
LINE
  5
121
330
1E
100
AcDbEntity
  8
0
100
AcDbLine
 10
216.8159999999999
 20
207.5368
 30
0.0
 11
216.84
 21
205.5028
 31
0.0
  0
LINE
  5
122
330
1E
100
AcDbEntity
  8
0
100
AcDbLine
 10
216.9049999999999
 20
198.8737999999999
 30
0.0
 11
216.9259999999999
 21
196.5437999999999
 31
0.0
  0
LINE
  5
123
330
1E
100
AcDbEntity
  8
0
100
AcDbLine
 10
216.9259999999999
 20
196.5437999999999
 30
0.0
 11
216.947
 21
194.1698
 31
0.0
  0
LINE
  5
124
330
1E
100
AcDbEntity
  8
0
100
AcDbLine
 10
216.947
 20
194.1698
 30
0.0
 11
216.968637297251
 21
191.4195856388479
 31
0.0
  0
LINE
  5
125
330
1E
100
AcDbEntity
  8
0
100
AcDbLine
 10
216.862
 20
203.3317999999999
 30
0.0
 11
216.884
 21
201.1417999999999
 31
0.0
  0
LINE
  5
126
330
1E
100
AcDbEntity
  8
0
100
AcDbLine
 10
216.884
 20
201.1417999999999
 30
0.0
 11
216.9049999999999
 21
198.8737999999999
 31
0.0
  0
LINE
  5
127
330
1E
100
AcDbEntity
  8
0
100
AcDbLine
 10
216.84
 20
205.5028
 30
0.0
 11
216.862
 21
203.3317999999999
 31
0.0
  0
LINE
  5
166
330
1E
100
AcDbEntity
  8
0
100
AcDbLine
 10
205.0
 20
217.0558
 30
0.0
 11
206.235
 21
208.0998
 31
0.0
  0
LINE
  5
167
330
1E
100
AcDbEntity
  8
0
100
AcDbLine
 10
205.0
 20
217.0558
 30
0.0
 11
206.235
 21
226.0117999999999
 31
0.0
  0
LINE
  5
174
330
1E
100
AcDbEntity
  8
0
100
AcDbLine
 10
263.031362702749
 20
191.4195856388509
 30
0.0
 11
263.0529999999999
 21
194.1698
 31
0.0
  0
LINE
  5
18E
330
1E
100
AcDbEntity
  8
0
100
AcDbLine
 10
328.994
 20
178.7428
 30
0.0
 11
329.212
 21
170.8147999999999
 31
0.0
  0
LINE
  5
18F
330
1E
100
AcDbEntity
  8
0
100
AcDbLine
 10
329.212
 20
170.8147999999999
 30
0.0
 11
329.32
 21
166.8507999999999
 31
0.0
  0
LINE
  5
190
330
1E
100
AcDbEntity
  8
0
100
AcDbLine
 10
328.669
 20
190.6348
 30
0.0
 11
328.994
 21
178.7428
 31
0.0
  0
LINE
  5
191
330
1E
100
AcDbEntity
  8
0
100
AcDbLine
 10
329.32
 20
166.8507999999999
 30
0.0
 11
329.495
 21
160.5287999999999
 31
0.0
  0
LINE
  5
192
330
1E
100
AcDbEntity
  8
0
100
AcDbLine
 10
329.8569999999999
 20
147.9498
 30
0.0
 11
329.9269999999999
 21
145.6198
 31
0.0
  0
LINE
  5
193
330
1E
100
AcDbEntity
  8
0
100
AcDbLine
 10
329.9269999999999
 20
145.6198
 30
0.0
 11
330.0
 21
143.3077999999999
 31
0.0
  0
LINE
  5
194
330
1E
100
AcDbEntity
  8
0
100
AcDbLine
 10
330.43
 20
136.7518
 30
0.0
 11
330.783
 21
136.0047999999999
 31
0.0
  0
LINE
  5
195
330
1E
100
AcDbEntity
  8
0
100
AcDbLine
 10
330.29
 20
137.2818
 30
0.0
 11
330.43
 21
136.7518
 31
0.0
  0
LINE
  5
196
330
1E
100
AcDbEntity
  8
0
100
AcDbLine
 10
330.165
 20
138.3377999999999
 30
0.0
 11
330.29
 21
137.2818
 31
0.0
  0
LINE
  5
197
330
1E
100
AcDbEntity
  8
0
100
AcDbLine
 10
330.147
 20
138.7598
 30
0.0
 11
330.165
 21
138.3377999999999
 31
0.0
  0
LINE
  5
198
330
1E
100
AcDbEntity
  8
0
100
AcDbLine
 10
330.0719999999999
 20
141.0177999999999
 30
0.0
 11
330.147
 21
138.7598
 31
0.0
  0
LINE
  5
199
330
1E
100
AcDbEntity
  8
0
100
AcDbLine
 10
330.0
 20
143.3077999999999
 30
0.0
 11
330.0719999999999
 21
141.0177999999999
 31
0.0
  0
LINE
  5
19A
330
1E
100
AcDbEntity
  8
0
100
AcDbLine
 10
329.788
 20
150.2927999999999
 30
0.0
 11
329.8569999999999
 21
147.9498
 31
0.0
  0
LINE
  5
19B
330
1E
100
AcDbEntity
  8
0
100
AcDbLine
 10
329.719
 20
152.6448
 30
0.0
 11
329.788
 21
150.2927999999999
 31
0.0
  0
LINE
  5
19C
330
1E
100
AcDbEntity
  8
0
100
AcDbLine
 10
330.783
 20
136.0047999999999
 30
0.0
 11
330.855
 21
135.9007999999999
 31
0.0
  0
LINE
  5
19D
330
1E
100
AcDbEntity
  8
0
100
AcDbLine
 10
350.0
 20
133.0558
 30
0.0
 11
353.9509999999999
 21
133.1127999999999
 31
0.0
  0
LINE
  5
19E
330
1E
100
AcDbEntity
  8
0
100
AcDbLine
 10
357.898
 20
133.2818
 30
0.0
 11
361.836
 21
133.5738
 31
0.0
  0
LINE
  5
19F
330
1E
100
AcDbEntity
  8
0
100
AcDbLine
 10
353.9509999999999
 20
133.1127999999999
 30
0.0
 11
357.898
 21
133.2818
 31
0.0
  0
LINE
  5
1A0
330
1E
100
AcDbEntity
  8
0
100
AcDbLine
 10
361.836
 20
133.5738
 30
0.0
 11
365.7599999999999
 21
134.0068
 31
0.0
  0
LINE
  5
1A1
330
1E
100
AcDbEntity
  8
0
100
AcDbLine
 10
346.049
 20
133.1127999999999
 30
0.0
 11
350.0
 21
133.0558
 31
0.0
  0
LINE
  5
1A2
330
1E
100
AcDbEntity
  8
0
100
AcDbLine
 10
342.1019999999999
 20
133.2818
 30
0.0
 11
346.049
 21
133.1127999999999
 31
0.0
  0
LINE
  5
1A3
330
1E
100
AcDbEntity
  8
0
100
AcDbLine
 10
366.827
 20
134.2017999999999
 30
0.0
 11
367.3369999999999
 21
134.3747999999999
 31
0.0
  0
LINE
  5
1A4
330
1E
100
AcDbEntity
  8
0
100
AcDbLine
 10
365.7599999999999
 20
134.0068
 30
0.0
 11
366.827
 21
134.2017999999999
 31
0.0
  0
LINE
  5
1A5
330
1E
100
AcDbEntity
  8
0
100
AcDbLine
 10
338.1639999999999
 20
133.5738
 30
0.0
 11
342.1019999999999
 21
133.2818
 31
0.0
  0
LINE
  5
1A6
330
1E
100
AcDbEntity
  8
0
100
AcDbLine
 10
334.24
 20
134.0068
 30
0.0
 11
338.1639999999999
 21
133.5738
 31
0.0
  0
LINE
  5
1A7
330
1E
100
AcDbEntity
  8
0
100
AcDbLine
 10
368.041
 20
134.7507999999999
 30
0.0
 11
368.644
 21
135.2557999999999
 31
0.0
  0
LINE
  5
1A8
330
1E
100
AcDbEntity
  8
0
100
AcDbLine
 10
367.3369999999999
 20
134.3747999999999
 30
0.0
 11
368.041
 21
134.7507999999999
 31
0.0
  0
LINE
  5
1A9
330
1E
100
AcDbEntity
  8
0
100
AcDbLine
 10
332.663
 20
134.3747999999999
 30
0.0
 11
333.173
 21
134.2017999999999
 31
0.0
  0
LINE
  5
1BA
330
1E
100
AcDbEntity
  8
0
100
AcDbLine
 10
368.644
 20
135.2557999999999
 30
0.0
 11
369.1449999999999
 21
135.9007999999999
 31
0.0
  0
LINE
  5
1BB
330
1E
100
AcDbEntity
  8
0
100
AcDbLine
 10
369.7099999999999
 20
137.2818
 30
0.0
 11
369.835
 21
138.3377999999999
 31
0.0
  0
LINE
  5
1BC
330
1E
100
AcDbEntity
  8
0
100
AcDbLine
 10
369.5699999999999
 20
136.7518
 30
0.0
 11
369.7099999999999
 21
137.2818
 31
0.0
  0
LINE
  5
1BD
330
1E
100
AcDbEntity
  8
0
100
AcDbLine
 10
369.835
 20
138.3377999999999
 30
0.0
 11
369.853
 21
138.7598
 31
0.0
  0
LINE
  5
1BE
330
1E
100
AcDbEntity
  8
0
100
AcDbLine
 10
369.2169999999999
 20
136.0047999999999
 30
0.0
 11
369.5699999999999
 21
136.7518
 31
0.0
  0
LINE
  5
1BF
330
1E
100
AcDbEntity
  8
0
100
AcDbLine
 10
369.1449999999999
 20
135.9007999999999
 30
0.0
 11
369.2169999999999
 21
136.0047999999999
 31
0.0
  0
LINE
  5
1C0
330
1E
100
AcDbEntity
  8
0
100
AcDbLine
 10
369.853
 20
138.7598
 30
0.0
 11
369.9269999999999
 21
141.0177999999999
 31
0.0
  0
LINE
  5
1C7
330
1E
100
AcDbEntity
  8
0
100
AcDbLine
 10
370.073
 20
145.6198
 30
0.0
 11
370.143
 21
147.9498
 31
0.0
  0
LINE
  5
1C8
330
1E
100
AcDbEntity
  8
0
100
AcDbLine
 10
370.0009999999999
 20
143.3077999999999
 30
0.0
 11
370.073
 21
145.6198
 31
0.0
  0
LINE
  5
1C9
330
1E
100
AcDbEntity
  8
0
100
AcDbLine
 10
370.2119999999999
 20
150.2927999999999
 30
0.0
 11
370.2809999999999
 21
152.6448
 31
0.0
  0
LINE
  5
1CA
330
1E
100
AcDbEntity
  8
0
100
AcDbLine
 10
370.143
 20
147.9498
 30
0.0
 11
370.2119999999999
 21
150.2927999999999
 31
0.0
  0
LINE
  5
1CB
330
1E
100
AcDbEntity
  8
0
100
AcDbLine
 10
369.9269999999999
 20
141.0177999999999
 30
0.0
 11
370.0009999999999
 21
143.3077999999999
 31
0.0
  0
LINE
  5
1CD
330
1E
100
AcDbEntity
  8
0
100
AcDbLine
 10
370.2809999999999
 20
152.6448
 30
0.0
 11
370.4169999999999
 21
157.3708
 31
0.0
  0
LINE
  5
1D3
330
1E
100
AcDbEntity
  8
0
100
AcDbLine
 10
370.4169999999999
 20
157.3708
 30
0.0
 11
370.5049999999999
 21
160.5287999999999
 31
0.0
  0
LINE
  5
1E3
330
1E
100
AcDbEntity
  8
0
100
AcDbLine
 10
331.959
 20
134.7507999999999
 30
0.0
 11
332.663
 21
134.3747999999999
 31
0.0
  0
LINE
  5
1E4
330
1E
100
AcDbEntity
  8
0
100
AcDbLine
 10
331.3559999999999
 20
135.2557999999999
 30
0.0
 11
331.959
 21
134.7507999999999
 31
0.0
  0
LINE
  5
1E5
330
1E
100
AcDbEntity
  8
0
100
AcDbLine
 10
333.173
 20
134.2017999999999
 30
0.0
 11
334.24
 21
134.0068
 31
0.0
  0
LINE
  5
1E6
330
1E
100
AcDbEntity
  8
0
100
AcDbLine
 10
330.855
 20
135.9007999999999
 30
0.0
 11
331.3559999999999
 21
135.2557999999999
 31
0.0
  0
LINE
  5
1EA
330
1E
100
AcDbEntity
  8
0
100
AcDbLine
 10
370.68
 20
166.8507999999999
 30
0.0
 11
370.788
 21
170.8147999999999
 31
0.0
  0
LINE
  5
1EB
330
1E
100
AcDbEntity
  8
0
100
AcDbLine
 10
370.788
 20
170.8147999999999
 30
0.0
 11
371.0059999999999
 21
178.7428
 31
0.0
  0
LINE
  5
1EC
330
1E
100
AcDbEntity
  8
0
100
AcDbLine
 10
370.5049999999999
 20
160.5287999999999
 30
0.0
 11
370.68
 21
166.8507999999999
 31
0.0
  0
LINE
  5
1EE
330
1E
100
AcDbEntity
  8
0
100
AcDbLine
 10
371.0059999999999
 20
178.7428
 30
0.0
 11
371.3309999999999
 21
190.6348
 31
0.0
  0
LINE
  5
1EF
330
1E
100
AcDbEntity
  8
0
100
AcDbLine
 10
371.3309999999999
 20
190.6348
 30
0.0
 11
371.47
 21
195.7007999999999
 31
0.0
  0
LINE
  5
1F3
330
1E
100
AcDbEntity
  8
0
100
AcDbLine
 10
329.584
 20
157.3708
 30
0.0
 11
329.719
 21
152.6448
 31
0.0
  0
LINE
  5
1F4
330
1E
100
AcDbEntity
  8
0
100
AcDbLine
 10
329.495
 20
160.5287999999999
 30
0.0
 11
329.584
 21
157.3708
 31
0.0
  0
LINE
  5
1FE
330
1E
100
AcDbEntity
  8
0
100
AcDbLine
 10
371.4446618664029
 20
194.7773252891759
 30
0.0
 11
371.92
 21
195.1355
 31
0.0
  0
LINE
  5
1FF
330
1E
100
AcDbEntity
  8
0
100
AcDbLine
 10
263.0529999999999
 20
194.1698
 30
0.0
 11
263.074
 21
196.5437999999999
 31
0.0
  0
LINE
  5
200
330
1E
100
AcDbEntity
  8
0
100
AcDbLine
 10
264.7059999999999
 20
192.3498
 30
0.0
 11
270.2649999999999
 21
199.6588
 31
0.0
  0
LINE
  5
201
330
1E
100
AcDbEntity
  8
0
100
AcDbLine
 10
263.033630731007
 20
191.0778475076839
 30
0.0
 11
264.7059999999999
 21
192.3498
 31
0.0
  0
LINE
  5
202
330
1E
100
AcDbEntity
  8
0
100
AcDbLine
 10
263.074
 20
196.5437999999999
 30
0.0
 11
263.095
 21
198.8737999999999
 31
0.0
  0
LINE
  5
203
330
1E
100
AcDbEntity
  8
0
100
AcDbLine
 10
263.095
 20
198.8737999999999
 30
0.0
 11
263.1159999999999
 21
201.1417999999999
 31
0.0
  0
LINE
  5
205
330
1E
100
AcDbEntity
  8
0
100
AcDbLine
 10
263.1159999999999
 20
201.1417999999999
 30
0.0
 11
263.1379999999999
 21
203.3317999999999
 31
0.0
  0
LINE
  5
206
330
1E
100
AcDbEntity
  8
0
100
AcDbLine
 10
263.214
 20
210.0077999999999
 30
0.0
 11
263.2429999999999
 21
212.1507999999999
 31
0.0
  0
LINE
  5
207
330
1E
100
AcDbEntity
  8
0
100
AcDbLine
 10
263.184
 20
207.5368
 30
0.0
 11
263.214
 21
210.0077999999999
 31
0.0
  0
LINE
  5
208
330
1E
100
AcDbEntity
  8
0
100
AcDbLine
 10
263.2429999999999
 20
212.1507999999999
 30
0.0
 11
263.2819999999999
 21
214.1198
 31
0.0
  0
LINE
  5
209
330
1E
100
AcDbEntity
  8
0
100
AcDbLine
 10
263.16
 20
205.5028
 30
0.0
 11
263.184
 21
207.5368
 31
0.0
  0
LINE
  5
20A
330
1E
100
AcDbEntity
  8
0
100
AcDbLine
 10
263.1379999999999
 20
203.3317999999999
 30
0.0
 11
263.16
 21
205.5028
 31
0.0
  0
LINE
  5
20D
330
1E
100
AcDbEntity
  8
0
100
AcDbLine
 10
263.343
 20
216.4267999999999
 30
0.0
 11
263.359
 21
217.3728
 31
0.0
  0
LINE
  5
20E
330
1E
100
AcDbEntity
  8
0
100
AcDbLine
 10
263.31
 20
215.1278
 30
0.0
 11
263.343
 21
216.4267999999999
 31
0.0
  0
LINE
  5
20F
330
1E
100
AcDbEntity
  8
0
100
AcDbLine
 10
263.2819999999999
 20
214.1198
 30
0.0
 11
263.31
 21
215.1278
 31
0.0
  0
LINE
  5
214
330
1E
100
AcDbEntity
  8
0
100
AcDbLine
 10
270.2649999999999
 20
199.6588
 30
0.0
 11
273.7649999999999
 21
208.0998
 31
0.0
  0
LINE
  5
217
330
1E
100
AcDbEntity
  8
0
100
AcDbLine
 10
328.0799999999999
 20
195.1355
 30
0.0
 11
328.555338133597
 21
194.7773252891759
 31
0.0
  0
LINE
  5
218
330
1E
100
AcDbEntity
  8
0
100
AcDbLine
 10
371.92
 20
195.1355
 30
0.0
 11
376.743
 21
201.5362
 31
0.0
  0
LINE
  5
219
330
1E
100
AcDbEntity
  8
0
100
AcDbLine
 10
371.47
 20
195.7007999999999
 30
0.0
 11
371.505
 21
196.9687999999999
 31
0.0
  0
LINE
  5
21A
330
1E
100
AcDbEntity
  8
0
100
AcDbLine
 10
328.5299999999999
 20
195.7007999999999
 30
0.0
 11
328.669
 21
190.6348
 31
0.0
  0
LINE
  5
222
330
1E
100
AcDbEntity
  8
0
100
AcDbLine
 10
320.101
 20
208.9014
 30
0.0
 11
323.2569999999999
 21
201.5362
 31
0.0
  0
LINE
  5
226
330
1E
100
AcDbEntity
  8
0
100
AcDbLine
 10
328.495
 20
196.9687999999999
 30
0.0
 11
328.5299999999999
 21
195.7007999999999
 31
0.0
  0
LINE
  5
228
330
1E
100
AcDbEntity
  8
0
100
AcDbLine
 10
323.2569999999999
 20
201.5362
 30
0.0
 11
328.0799999999999
 21
195.1355
 31
0.0
  0
LINE
  5
233
330
1E
100
AcDbEntity
  8
0
100
AcDbLine
 10
328.174
 20
208.6127999999999
 30
0.0
 11
328.207
 21
207.4047999999999
 31
0.0
  0
LINE
  5
238
330
1E
100
AcDbEntity
  8
0
100
AcDbLine
 10
371.7929999999999
 20
207.4047999999999
 30
0.0
 11
371.8259999999999
 21
208.6127999999999
 31
0.0
  0
LINE
  5
239
330
1E
100
AcDbEntity
  8
0
100
AcDbLine
 10
371.8259999999999
 20
208.6127999999999
 30
0.0
 11
371.8769999999999
 21
210.4548
 31
0.0
  0
LINE
  5
23A
330
1E
100
AcDbEntity
  8
0
100
AcDbLine
 10
324.059
 20
202.1437999999999
 30
0.0
 11
328.5138033920219
 21
196.2875799690179
 31
0.0
  0
LINE
  5
23B
330
1E
100
AcDbEntity
  8
0
100
AcDbLine
 10
321.059
 20
209.3798
 30
0.0
 11
324.059
 21
202.1437999999999
 31
0.0
  0
LINE
  5
23C
330
1E
100
AcDbEntity
  8
0
100
AcDbLine
 10
371.486196607978
 20
196.2875799690179
 30
0.0
 11
375.9409999999999
 21
202.1437999999999
 31
0.0
  0
LINE
  5
23D
330
1E
100
AcDbEntity
  8
0
100
AcDbLine
 10
376.743
 20
201.5362
 30
0.0
 11
379.8989999999999
 21
208.9014
 31
0.0
  0
LINE
  5
23E
330
1E
100
AcDbEntity
  8
0
100
AcDbLine
 10
379.8989999999999
 20
208.9014
 30
0.0
 11
381.0389999999999
 21
217.0558
 31
0.0
  0
LINE
  5
23F
330
1E
100
AcDbEntity
  8
0
100
AcDbLine
 10
375.9409999999999
 20
202.1437999999999
 30
0.0
 11
378.9409999999999
 21
209.3798
 31
0.0
  0
LINE
  5
263
330
1E
100
AcDbEntity
  8
0
100
AcDbLine
 10
318.961
 20
217.0558
 30
0.0
 11
320.101
 21
225.2101999999999
 31
0.0
  0
LINE
  5
264
330
1E
100
AcDbEntity
  8
0
100
AcDbLine
 10
318.961
 20
217.0558
 30
0.0
 11
320.101
 21
208.9014
 31
0.0
  0
LINE
  5
279
330
1E
100
AcDbEntity
  8
0
100
AcDbLine
 10
328.0699999999999
 20
212.4848
 30
0.0
 11
328.123
 21
210.4548
 31
0.0
  0
LINE
  5
27A
330
1E
100
AcDbEntity
  8
0
100
AcDbLine
 10
371.93
 20
212.4848
 30
0.0
 11
371.9599999999999
 21
213.5808
 31
0.0
  0
LINE
  5
27B
330
1E
100
AcDbEntity
  8
0
100
AcDbLine
 10
371.93
 20
212.4848
 30
0.0
 11
371.961
 21
213.5958
 31
0.0
  0
LINE
  5
27C
330
1E
100
AcDbEntity
  8
0
100
AcDbLine
 10
371.8769999999999
 20
210.4548
 30
0.0
 11
371.93
 21
212.4848
 31
0.0
  0
LINE
  5
27D
330
1E
100
AcDbEntity
  8
0
100
AcDbLine
 10
328.123
 20
210.4548
 30
0.0
 11
328.174
 21
208.6127999999999
 31
0.0
  0
LINE
  5
27E
330
1E
100
AcDbEntity
  8
0
100
AcDbLine
 10
371.961
 20
213.5958
 30
0.0
 11
371.9869999999999
 21
214.6668
 31
0.0
  0
LINE
  5
285
330
1E
100
AcDbEntity
  8
0
100
AcDbLine
 10
328.039
 20
213.5958
 30
0.0
 11
328.0699999999999
 21
212.4848
 31
0.0
  0
LINE
  5
286
330
1E
100
AcDbEntity
  8
0
100
AcDbLine
 10
328.04
 20
213.5808
 30
0.0
 11
328.0699999999999
 21
212.4848
 31
0.0
  0
LINE
  5
287
330
1E
100
AcDbEntity
  8
0
100
AcDbLine
 10
328.013
 20
214.6668
 30
0.0
 11
328.039
 21
213.5958
 31
0.0
  0
LINE
  5
2B4
330
1E
100
AcDbEntity
  8
0
100
AcDbLine
 10
320.0
 20
217.0558
 30
0.0
 11
321.059
 21
209.3798
 31
0.0
  0
LINE
  5
2B5
330
1E
100
AcDbEntity
  8
0
100
AcDbLine
 10
320.0
 20
217.0558
 30
0.0
 11
321.059
 21
224.7317999999999
 31
0.0
  0
LINE
  5
2B6
330
1E
100
AcDbEntity
  8
0
100
AcDbLine
 10
378.9409999999999
 20
209.3798
 30
0.0
 11
380.0
 21
217.0558
 31
0.0
  0
LINE
  5
2B7
330
1E
100
AcDbEntity
  8
0
100
AcDbLine
 10
273.7649999999999
 20
208.0998
 30
0.0
 11
275.0
 21
217.0558
 31
0.0
  0
LINE
  5
2BC
330
1E
100
AcDbEntity
  8
0
100
AcDbLine
 10
426.2999999999999
 20
208.0557999999999
 30
0.0
 11
429.6999999999999
 21
199.6558
 31
0.0
  0
LINE
  5
2BD
330
1E
100
AcDbEntity
  8
0
100
AcDbLine
 10
425.0
 20
217.0558
 30
0.0
 11
426.2999999999999
 21
208.0557999999999
 31
0.0
  0
LINE
  5
2BE
330
1E
100
AcDbEntity
  8
0
100
AcDbLine
 10
425.0
 20
217.0558
 30
0.0
 11
426.2999999999999
 21
226.0558
 31
0.0
  0
LINE
  5
2BF
330
1E
100
AcDbEntity
  8
0
100
AcDbLine
 10
429.6999999999999
 20
199.6558
 30
0.0
 11
435.3
 21
192.3557999999999
 31
0.0
  0
LINE
  5
2C0
330
1E
100
AcDbEntity
  8
0
100
AcDbLine
 10
430.6
 20
200.1558
 30
0.0
 11
436.0
 21
193.0557999999999
 31
0.0
  0
LINE
  5
2C1
330
1E
100
AcDbEntity
  8
0
100
AcDbLine
 10
427.2
 20
208.3558
 30
0.0
 11
430.6
 21
200.1558
 31
0.0
  0
LINE
  5
302
330
1E
100
AcDbEntity
  8
0
100
AcDbLine
 10
206.235
 20
226.0117999999999
 30
0.0
 11
209.735
 21
234.4527999999999
 31
0.0
  0
LINE
  5
304
330
1E
100
AcDbEntity
  8
0
100
AcDbLine
 10
216.604
 20
218.9848
 30
0.0
 11
216.849
 21
221.3448
 31
0.0
  0
LINE
  5
313
330
1E
100
AcDbEntity
  8
0
100
AcDbLine
 10
263.359
 20
217.3728
 30
0.0
 11
263.363
 21
218.1108
 31
0.0
  0
LINE
  5
315
330
1E
100
AcDbEntity
  8
0
100
AcDbLine
 10
328.0889999999999
 20
218.8407999999999
 30
0.0
 11
328.193
 21
219.8278
 31
0.0
  0
LINE
  5
316
330
1E
100
AcDbEntity
  8
0
100
AcDbLine
 10
263.3959999999999
 20
218.9848
 30
0.0
 11
263.363
 21
218.1108
 31
0.0
  0
LINE
  5
32F
330
1E
100
AcDbEntity
  8
0
100
AcDbLine
 10
328.193
 20
219.8278
 30
0.0
 11
328.339
 21
220.8118
 31
0.0
  0
LINE
  5
330
330
1E
100
AcDbEntity
  8
0
100
AcDbLine
 10
371.8069999999999
 20
219.8278
 30
0.0
 11
371.911
 21
218.8407999999999
 31
0.0
  0
LINE
  5
331
330
1E
100
AcDbEntity
  8
0
100
AcDbLine
 10
371.661
 20
220.8118
 30
0.0
 11
371.8069999999999
 21
219.8278
 31
0.0
  0
LINE
  5
332
330
1E
100
AcDbEntity
  8
0
100
AcDbLine
 10
328.339
 20
220.8118
 30
0.0
 11
328.5299999999999
 21
221.7878
 31
0.0
  0
LINE
  5
33A
330
1E
100
AcDbEntity
  8
0
100
AcDbLine
 10
371.47
 20
221.7878
 30
0.0
 11
371.661
 21
220.8118
 31
0.0
  0
LINE
  5
33B
330
1E
100
AcDbEntity
  8
0
100
AcDbLine
 10
328.5299999999999
 20
221.7878
 30
0.0
 11
328.7659999999999
 21
222.7558
 31
0.0
  0
LINE
  5
33D
330
1E
100
AcDbEntity
  8
0
100
AcDbLine
 10
263.151
 20
221.3448
 30
0.0
 11
263.3959999999999
 21
218.9848
 31
0.0
  0
LINE
  5
34D
330
1E
100
AcDbEntity
  8
0
100
AcDbLine
 10
371.234
 20
222.7558
 30
0.0
 11
371.47
 21
221.7878
 31
0.0
  0
LINE
  5
34E
330
1E
100
AcDbEntity
  8
0
100
AcDbLine
 10
328.7659999999999
 20
222.7558
 30
0.0
 11
329.1619999999999
 21
224.0568
 31
0.0
  0
LINE
  5
34F
330
1E
100
AcDbEntity
  8
0
100
AcDbLine
 10
370.838
 20
224.0568
 30
0.0
 11
371.234
 21
222.7558
 31
0.0
  0
LINE
  5
350
330
1E
100
AcDbEntity
  8
0
100
AcDbLine
 10
329.1619999999999
 20
224.0568
 30
0.0
 11
329.6419999999999
 21
225.3308
 31
0.0
  0
LINE
  5
351
330
1E
100
AcDbEntity
  8
0
100
AcDbLine
 10
321.059
 20
224.7317999999999
 30
0.0
 11
324.059
 21
231.9678
 31
0.0
  0
LINE
  5
352
330
1E
100
AcDbEntity
  8
0
100
AcDbLine
 10
320.101
 20
225.2101999999999
 30
0.0
 11
323.2569999999999
 21
232.5757999999999
 31
0.0
  0
LINE
  5
354
330
1E
100
AcDbEntity
  8
0
100
AcDbLine
 10
379.8989999999999
 20
225.2101999999999
 30
0.0
 11
381.0389999999999
 21
217.0558
 31
0.0
  0
LINE
  5
355
330
1E
100
AcDbEntity
  8
0
100
AcDbLine
 10
370.358
 20
225.3308
 30
0.0
 11
370.838
 21
224.0568
 31
0.0
  0
LINE
  5
356
330
1E
100
AcDbEntity
  8
0
100
AcDbLine
 10
329.6419999999999
 20
225.3308
 30
0.0
 11
330.202
 21
226.5757999999999
 31
0.0
  0
LINE
  5
357
330
1E
100
AcDbEntity
  8
0
100
AcDbLine
 10
378.9409999999999
 20
224.7317999999999
 30
0.0
 11
380.0
 21
217.0558
 31
0.0
  0
LINE
  5
359
330
1E
100
AcDbEntity
  8
0
100
AcDbLine
 10
273.7649999999999
 20
226.0117999999999
 30
0.0
 11
275.0
 21
217.0558
 31
0.0
  0
LINE
  5
362
330
1E
100
AcDbEntity
  8
0
100
AcDbLine
 10
216.532
 20
217.5368
 30
0.0
 11
216.604
 21
218.9848
 31
0.0
  0
LINE
  5
36D
330
1E
100
AcDbEntity
  8
0
100
AcDbLine
 10
209.735
 20
234.4527999999999
 30
0.0
 11
215.294
 21
241.7618
 31
0.0
  0
LINE
  5
374
330
1E
100
AcDbEntity
  8
0
100
AcDbLine
 10
222.6029999999999
 20
247.3208
 30
0.0
 11
231.044
 21
250.8207999999999
 31
0.0
  0
LINE
  5
375
330
1E
100
AcDbEntity
  8
0
100
AcDbLine
 10
215.294
 20
241.7618
 30
0.0
 11
222.6029999999999
 21
247.3208
 31
0.0
  0
LINE
  5
37A
330
1E
100
AcDbEntity
  8
0
100
AcDbLine
 10
231.044
 20
250.8207999999999
 30
0.0
 11
238.0
 21
251.7800072353729
 31
0.0
  0
LINE
  5
37B
330
1E
100
AcDbEntity
  8
0
100
AcDbLine
 10
232.5349999999999
 20
238.8408
 30
0.0
 11
236.215
 21
239.7727999999999
 31
0.0
  0
LINE
  5
389
330
1E
100
AcDbEntity
  8
0
100
AcDbLine
 10
236.215
 20
239.7727999999999
 30
0.0
 11
240.0
 21
240.3197999999999
 31
0.0
  0
LINE
  5
396
330
1E
100
AcDbEntity
  8
0
100
AcDbLine
 10
323.2569999999999
 20
232.5757999999999
 30
0.0
 11
328.0799999999999
 21
238.9758
 31
0.0
  0
LINE
  5
399
330
1E
100
AcDbEntity
  8
0
100
AcDbLine
 10
330.848
 20
227.7938
 30
0.0
 11
331.6019999999999
 21
229.0167999999999
 31
0.0
  0
LINE
  5
39A
330
1E
100
AcDbEntity
  8
0
100
AcDbLine
 10
330.202
 20
226.5757999999999
 30
0.0
 11
330.848
 21
227.7938
 31
0.0
  0
LINE
  5
39B
330
1E
100
AcDbEntity
  8
0
100
AcDbLine
 10
331.6019999999999
 20
229.0167999999999
 30
0.0
 11
332.444
 21
230.2007999999999
 31
0.0
  0
LINE
  5
39C
330
1E
100
AcDbEntity
  8
0
100
AcDbLine
 10
332.444
 20
230.2007999999999
 30
0.0
 11
333.3709999999999
 21
231.3337999999999
 31
0.0
  0
LINE
  5
3A1
330
1E
100
AcDbEntity
  8
0
100
AcDbLine
 10
369.798
 20
226.5757999999999
 30
0.0
 11
370.358
 21
225.3308
 31
0.0
  0
LINE
  5
3A2
330
1E
100
AcDbEntity
  8
0
100
AcDbLine
 10
369.152
 20
227.7938
 30
0.0
 11
369.798
 21
226.5757999999999
 31
0.0
  0
LINE
  5
3A3
330
1E
100
AcDbEntity
  8
0
100
AcDbLine
 10
365.6219999999999
 20
232.4117999999999
 30
0.0
 11
366.629
 21
231.3337999999999
 31
0.0
  0
LINE
  5
3A4
330
1E
100
AcDbEntity
  8
0
100
AcDbLine
 10
367.5559999999999
 20
230.2007999999999
 30
0.0
 11
368.398
 21
229.0167999999999
 31
0.0
  0
LINE
  5
3A5
330
1E
100
AcDbEntity
  8
0
100
AcDbLine
 10
366.629
 20
231.3337999999999
 30
0.0
 11
367.5559999999999
 21
230.2007999999999
 31
0.0
  0
LINE
  5
3A6
330
1E
100
AcDbEntity
  8
0
100
AcDbLine
 10
368.398
 20
229.0167999999999
 30
0.0
 11
369.152
 21
227.7938
 31
0.0
  0
LINE
  5
3A7
330
1E
100
AcDbEntity
  8
0
100
AcDbLine
 10
334.378
 20
232.4117999999999
 30
0.0
 11
335.8439999999999
 21
233.7478
 31
0.0
  0
LINE
  5
3A8
330
1E
100
AcDbEntity
  8
0
100
AcDbLine
 10
333.3709999999999
 20
231.3337999999999
 30
0.0
 11
334.378
 21
232.4117999999999
 31
0.0
  0
LINE
  5
3AB
330
1E
100
AcDbEntity
  8
0
100
AcDbLine
 10
362.5659999999999
 20
234.9527999999999
 30
0.0
 11
364.156
 21
233.7478
 31
0.0
  0
LINE
  5
3AE
330
1E
100
AcDbEntity
  8
0
100
AcDbLine
 10
364.156
 20
233.7478
 30
0.0
 11
365.6219999999999
 21
232.4117999999999
 31
0.0
  0
LINE
  5
3B1
330
1E
100
AcDbEntity
  8
0
100
AcDbLine
 10
339.1369999999999
 20
236.0148
 30
0.0
 11
340.375
 21
236.6607999999999
 31
0.0
  0
LINE
  5
3B2
330
1E
100
AcDbEntity
  8
0
100
AcDbLine
 10
340.375
 20
236.6607999999999
 30
0.0
 11
341.6499999999999
 21
237.2257999999999
 31
0.0
  0
LINE
  5
3B3
330
1E
100
AcDbEntity
  8
0
100
AcDbLine
 10
341.6499999999999
 20
237.2257999999999
 30
0.0
 11
342.958
 21
237.7108
 31
0.0
  0
LINE
  5
3B5
330
1E
100
AcDbEntity
  8
0
100
AcDbLine
 10
342.958
 20
237.7108
 30
0.0
 11
344.29
 21
238.1108
 31
0.0
  0
LINE
  5
3B6
330
1E
100
AcDbEntity
  8
0
100
AcDbLine
 10
344.29
 20
238.1108
 30
0.0
 11
345.639
 21
238.4237999999999
 31
0.0
  0
LINE
  5
3BA
330
1E
100
AcDbEntity
  8
0
100
AcDbLine
 10
357.0419999999999
 20
237.7108
 30
0.0
 11
358.35
 21
237.2257999999999
 31
0.0
  0
LINE
  5
3BC
330
1E
100
AcDbEntity
  8
0
100
AcDbLine
 10
358.35
 20
237.2257999999999
 30
0.0
 11
359.6249999999999
 21
236.6607999999999
 31
0.0
  0
LINE
  5
3BD
330
1E
100
AcDbEntity
  8
0
100
AcDbLine
 10
359.6249999999999
 20
236.6607999999999
 30
0.0
 11
360.863
 21
236.0148
 31
0.0
  0
LINE
  5
3BE
330
1E
100
AcDbEntity
  8
0
100
AcDbLine
 10
355.7099999999999
 20
238.1108
 30
0.0
 11
357.0419999999999
 21
237.7108
 31
0.0
  0
LINE
  5
3BF
330
1E
100
AcDbEntity
  8
0
100
AcDbLine
 10
360.863
 20
236.0148
 30
0.0
 11
362.5659999999999
 21
234.9527999999999
 31
0.0
  0
LINE
  5
3C1
330
1E
100
AcDbEntity
  8
0
100
AcDbLine
 10
337.434
 20
234.9527999999999
 30
0.0
 11
339.1369999999999
 21
236.0148
 31
0.0
  0
LINE
  5
3C2
330
1E
100
AcDbEntity
  8
0
100
AcDbLine
 10
335.8439999999999
 20
233.7478
 30
0.0
 11
337.434
 21
234.9527999999999
 31
0.0
  0
LINE
  5
3C3
330
1E
100
AcDbEntity
  8
0
100
AcDbLine
 10
324.059
 20
231.9678
 30
0.0
 11
328.824
 21
238.2318
 31
0.0
  0
LINE
  5
3C4
330
1E
100
AcDbEntity
  8
0
100
AcDbLine
 10
371.1759999999999
 20
238.2318
 30
0.0
 11
375.9409999999999
 21
231.9678
 31
0.0
  0
LINE
  5
3D2
330
1E
100
AcDbEntity
  8
0
100
AcDbLine
 10
376.743
 20
232.5757999999999
 30
0.0
 11
379.8989999999999
 21
225.2101999999999
 31
0.0
  0
LINE
  5
3D3
330
1E
100
AcDbEntity
  8
0
100
AcDbLine
 10
375.9409999999999
 20
231.9678
 30
0.0
 11
378.9409999999999
 21
224.7317999999999
 31
0.0
  0
LINE
  5
3D5
330
1E
100
AcDbEntity
  8
0
100
AcDbLine
 10
345.639
 20
238.4237999999999
 30
0.0
 11
346.998
 21
238.6518
 31
0.0
  0
LINE
  5
3D8
330
1E
100
AcDbEntity
  8
0
100
AcDbLine
 10
354.361
 20
238.4237999999999
 30
0.0
 11
355.7099999999999
 21
238.1108
 31
0.0
  0
LINE
  5
3DA
330
1E
100
AcDbEntity
  8
0
100
AcDbLine
 10
353.0019999999999
 20
238.6518
 30
0.0
 11
354.361
 21
238.4237999999999
 31
0.0
  0
LINE
  5
3DB
330
1E
100
AcDbEntity
  8
0
100
AcDbLine
 10
346.998
 20
238.6518
 30
0.0
 11
348.3579999999999
 21
238.7948
 31
0.0
  0
LINE
  5
3DC
330
1E
100
AcDbEntity
  8
0
100
AcDbLine
 10
328.824
 20
238.2318
 30
0.0
 11
335.088
 21
242.9968
 31
0.0
  0
LINE
  5
3DD
330
1E
100
AcDbEntity
  8
0
100
AcDbLine
 10
270.2649999999999
 20
234.4527999999999
 30
0.0
 11
273.7649999999999
 21
226.0117999999999
 31
0.0
  0
LINE
  5
3E0
330
1E
100
AcDbEntity
  8
0
100
AcDbLine
 10
240.0
 20
240.3197999999999
 30
0.0
 11
243.785
 21
239.7727999999999
 31
0.0
  0
LINE
  5
3E8
330
1E
100
AcDbEntity
  8
0
100
AcDbLine
 10
328.0799999999999
 20
238.9758
 30
0.0
 11
334.48
 21
243.7988
 31
0.0
  0
LINE
  5
3E9
330
1E
100
AcDbEntity
  8
0
100
AcDbLine
 10
351.642
 20
238.7948
 30
0.0
 11
353.0019999999999
 21
238.6518
 31
0.0
  0
LINE
  5
3EE
330
1E
100
AcDbEntity
  8
0
100
AcDbLine
 10
371.92
 20
238.9758
 30
0.0
 11
376.743
 21
232.5757999999999
 31
0.0
  0
LINE
  5
3F0
330
1E
100
AcDbEntity
  8
0
100
AcDbLine
 10
350.0
 20
238.8557999999999
 30
0.0
 11
351.642
 21
238.7948
 31
0.0
  0
LINE
  5
3F1
330
1E
100
AcDbEntity
  8
0
100
AcDbLine
 10
348.3579999999999
 20
238.7948
 30
0.0
 11
350.0
 21
238.8557999999999
 31
0.0
  0
LINE
  5
3F2
330
1E
100
AcDbEntity
  8
0
100
AcDbLine
 10
243.785
 20
239.7727999999999
 30
0.0
 11
247.465
 21
238.8408
 31
0.0
  0
LINE
  5
40B
330
1E
100
AcDbEntity
  8
0
100
AcDbLine
 10
238.0
 20
241.032704041793
 30
0.0
 11
238.0
 21
243.4658
 31
0.0
  0
LINE
  5
40C
330
1E
100
AcDbEntity
  8
0
100
AcDbLine
 10
238.0
 20
246.2468
 30
0.0
 11
238.0009999999999
 21
244.5928
 31
0.0
  0
LINE
  5
40D
330
1E
100
AcDbEntity
  8
0
100
AcDbLine
 10
238.0
 20
246.2468
 30
0.0
 11
238.0009999999999
 21
248.2638
 31
0.0
  0
LINE
  5
40E
330
1E
100
AcDbEntity
  8
0
100
AcDbLine
 10
238.0
 20
243.4658
 30
0.0
 11
238.0009999999999
 21
244.5928
 31
0.0
  0
LINE
  5
40F
330
1E
100
AcDbEntity
  8
0
100
AcDbLine
 10
238.0
 20
243.4658
 30
0.0
 11
238.0
 21
241.032704041793
 31
0.0
  0
LINE
  5
41A
330
1E
100
AcDbEntity
  8
0
100
AcDbLine
 10
238.0
 20
250.4478
 30
0.0
 11
238.0
 21
262.3558
 31
0.0
  0
LINE
  5
41B
330
1E
100
AcDbEntity
  8
0
100
AcDbLine
 10
238.0
 20
250.4478
 30
0.0
 11
238.0009999999999
 21
248.2638
 31
0.0
  0
LINE
  5
41C
330
1E
100
AcDbEntity
  8
0
100
AcDbLine
 10
238.0
 20
262.3558
 30
0.0
 11
238.4109999999999
 21
262.4438
 31
0.0
  0
LINE
  5
41D
330
1E
100
AcDbEntity
  8
0
100
AcDbLine
 10
238.0
 20
262.3558
 30
0.0
 11
238.0
 21
250.4478
 31
0.0
  0
LINE
  5
424
330
1E
100
AcDbEntity
  8
0
100
AcDbLine
 10
238.4109999999999
 20
262.4438
 30
0.0
 11
239.4859999999999
 21
262.4978
 31
0.0
  0
LINE
  5
426
330
1E
100
AcDbEntity
  8
0
100
AcDbLine
 10
239.4859999999999
 20
262.4978
 30
0.0
 11
240.815
 21
262.4978
 31
0.0
  0
LINE
  5
434
330
1E
100
AcDbEntity
  8
0
100
AcDbLine
 10
242.3
 20
241.0292396480619
 30
0.0
 11
242.3
 21
243.4658
 31
0.0
  0
LINE
  5
439
330
1E
100
AcDbEntity
  8
0
100
AcDbLine
 10
242.3
 20
243.4658
 30
0.0
 11
242.3
 21
241.0292396480619
 31
0.0
  0
LINE
  5
43A
330
1E
100
AcDbEntity
  8
0
100
AcDbLine
 10
242.3
 20
243.4658
 30
0.0
 11
242.3
 21
244.5928
 31
0.0
  0
LINE
  5
441
330
1E
100
AcDbEntity
  8
0
100
AcDbLine
 10
242.301
 20
250.4478
 30
0.0
 11
242.301
 21
262.3558
 31
0.0
  0
LINE
  5
442
330
1E
100
AcDbEntity
  8
0
100
AcDbLine
 10
242.3
 20
248.2638
 30
0.0
 11
242.301
 21
250.4478
 31
0.0
  0
LINE
  5
443
330
1E
100
AcDbEntity
  8
0
100
AcDbLine
 10
242.3
 20
248.2638
 30
0.0
 11
242.301
 21
246.2468
 31
0.0
  0
LINE
  5
444
330
1E
100
AcDbEntity
  8
0
100
AcDbLine
 10
242.3
 20
244.5928
 30
0.0
 11
242.301
 21
246.2468
 31
0.0
  0
LINE
  5
445
330
1E
100
AcDbEntity
  8
0
100
AcDbLine
 10
242.3
 20
244.5928
 30
0.0
 11
242.3
 21
243.4658
 31
0.0
  0
LINE
  5
446
330
1E
100
AcDbEntity
  8
0
100
AcDbLine
 10
242.301
 20
262.3558
 30
0.0
 11
242.301
 21
250.4478
 31
0.0
  0
LINE
  5
447
330
1E
100
AcDbEntity
  8
0
100
AcDbLine
 10
241.8899999999999
 20
262.4438
 30
0.0
 11
242.301
 21
262.3558
 31
0.0
  0
LINE
  5
449
330
1E
100
AcDbEntity
  8
0
100
AcDbLine
 10
240.815
 20
262.4978
 30
0.0
 11
241.8899999999999
 21
262.4438
 31
0.0
  0
LINE
  5
453
330
1E
100
AcDbEntity
  8
0
100
AcDbLine
 10
341.846
 20
246.9548
 30
0.0
 11
350.0
 21
248.0948
 31
0.0
  0
LINE
  5
454
330
1E
100
AcDbEntity
  8
0
100
AcDbLine
 10
334.48
 20
243.7988
 30
0.0
 11
341.846
 21
246.9548
 31
0.0
  0
LINE
  5
455
330
1E
100
AcDbEntity
  8
0
100
AcDbLine
 10
335.088
 20
242.9968
 30
0.0
 11
342.324
 21
245.9967999999999
 31
0.0
  0
LINE
  5
469
330
1E
100
AcDbEntity
  8
0
100
AcDbLine
 10
365.5199999999999
 20
243.7988
 30
0.0
 11
371.92
 21
238.9758
 31
0.0
  0
LINE
  5
46A
330
1E
100
AcDbEntity
  8
0
100
AcDbLine
 10
358.1539999999999
 20
246.9548
 30
0.0
 11
365.5199999999999
 21
243.7988
 31
0.0
  0
LINE
  5
46B
330
1E
100
AcDbEntity
  8
0
100
AcDbLine
 10
364.9119999999999
 20
242.9968
 30
0.0
 11
371.1759999999999
 21
238.2318
 31
0.0
  0
LINE
  5
46C
330
1E
100
AcDbEntity
  8
0
100
AcDbLine
 10
357.676
 20
245.9967999999999
 30
0.0
 11
364.9119999999999
 21
242.9968
 31
0.0
  0
LINE
  5
473
330
1E
100
AcDbEntity
  8
0
100
AcDbLine
 10
350.0
 20
248.0948
 30
0.0
 11
358.1539999999999
 21
246.9548
 31
0.0
  0
LINE
  5
474
330
1E
100
AcDbEntity
  8
0
100
AcDbLine
 10
350.0
 20
247.0558
 30
0.0
 11
357.676
 21
245.9967999999999
 31
0.0
  0
LINE
  5
475
330
1E
100
AcDbEntity
  8
0
100
AcDbLine
 10
342.324
 20
245.9967999999999
 30
0.0
 11
350.0
 21
247.0558
 31
0.0
  0
LINE
  5
476
330
1E
100
AcDbEntity
  8
0
100
AcDbLine
 10
264.7059999999999
 20
241.7618
 30
0.0
 11
270.2649999999999
 21
234.4527999999999
 31
0.0
  0
LINE
  5
477
330
1E
100
AcDbEntity
  8
0
100
AcDbLine
 10
257.397
 20
247.3208
 30
0.0
 11
264.7059999999999
 21
241.7618
 31
0.0
  0
LINE
  5
484
330
1E
100
AcDbEntity
  8
0
100
AcDbLine
 10
248.9559999999999
 20
250.8207999999999
 30
0.0
 11
257.397
 21
247.3208
 31
0.0
  0
LINE
  5
485
330
1E
100
AcDbEntity
  8
0
100
AcDbLine
 10
242.301
 20
251.7385004242969
 30
0.0
 11
248.9559999999999
 21
250.8207999999999
 31
0.0
  0
LINE
  5
489
330
1E
100
AcDbEntity
  8
0
100
AcDbLine
 10
426.2999999999999
 20
226.0558
 30
0.0
 11
429.6999999999999
 21
234.4558
 31
0.0
  0
LINE
  5
48A
330
1E
100
AcDbEntity
  8
0
100
AcDbLine
 10
429.6999999999999
 20
234.4558
 30
0.0
 11
435.3
 21
241.7558
 31
0.0
  0
LINE
  5
48B
330
1E
100
AcDbEntity
  8
0
100
AcDbLine
 10
430.6
 20
233.9558
 30
0.0
 11
436.0
 21
241.0557999999999
 31
0.0
  0
LINE
  5
48C
330
1E
100
AcDbEntity
  8
0
100
AcDbLine
 10
427.2
 20
225.7557999999999
 30
0.0
 11
430.6
 21
233.9558
 31
0.0
  0
LINE
  5
48D
330
1E
100
AcDbEntity
  8
0
100
AcDbLine
 10
426.0
 20
217.0558
 30
0.0
 11
427.2
 21
208.3558
 31
0.0
  0
LINE
  5
48E
330
1E
100
AcDbEntity
  8
0
100
AcDbLine
 10
426.0
 20
217.0558
 30
0.0
 11
427.2
 21
225.7557999999999
 31
0.0
  0
LINE
  5
48F
330
1E
100
AcDbEntity
  8
0
100
AcDbLine
 10
435.3
 20
192.3557999999999
 30
0.0
 11
442.6
 21
186.7558
 31
0.0
  0
LINE
  5
490
330
1E
100
AcDbEntity
  8
0
100
AcDbLine
 10
436.0
 20
193.0557999999999
 30
0.0
 11
443.1
 21
187.6557999999999
 31
0.0
  0
LINE
  5
491
330
1E
100
AcDbEntity
  8
0
100
AcDbLine
 10
434.0
 20
210.0557999999999
 30
0.0
 11
436.6
 21
203.5557999999999
 31
0.0
  0
LINE
  5
492
330
1E
100
AcDbEntity
  8
0
100
AcDbLine
 10
436.6
 20
203.5557999999999
 30
0.0
 11
440.8999999999999
 21
197.9558
 31
0.0
  0
LINE
  5
493
330
1E
100
AcDbEntity
  8
0
100
AcDbLine
 10
442.6
 20
186.7558
 30
0.0
 11
448.0
 21
184.5700857142859
 31
0.0
  0
LINE
  5
494
330
1E
100
AcDbEntity
  8
0
100
AcDbLine
 10
443.1
 20
187.6557999999999
 30
0.0
 11
448.0
 21
185.624092682927
 31
0.0
  0
LINE
  5
495
330
1E
100
AcDbEntity
  8
0
100
AcDbLine
 10
440.8999999999999
 20
197.9558
 30
0.0
 11
446.4999999999999
 21
193.6557999999999
 31
0.0
  0
LINE
  5
496
330
1E
100
AcDbEntity
  8
0
100
AcDbLine
 10
435.3
 20
241.7558
 30
0.0
 11
442.6
 21
247.3558
 31
0.0
  0
LINE
  5
497
330
1E
100
AcDbEntity
  8
0
100
AcDbLine
 10
436.0
 20
241.0557999999999
 30
0.0
 11
443.1
 21
246.4558
 31
0.0
  0
LINE
  5
498
330
1E
100
AcDbEntity
  8
0
100
AcDbLine
 10
442.6
 20
247.3558
 30
0.0
 11
451.0
 21
250.7557999999999
 31
0.0
  0
LINE
  5
499
330
1E
100
AcDbEntity
  8
0
100
AcDbLine
 10
443.1
 20
246.4558
 30
0.0
 11
451.2999999999999
 21
249.8558
 31
0.0
  0
LINE
  5
49A
330
1E
100
AcDbEntity
  8
0
100
AcDbLine
 10
440.8999999999999
 20
236.1558
 30
0.0
 11
446.4999999999999
 21
240.4558
 31
0.0
  0
LINE
  5
49B
330
1E
100
AcDbEntity
  8
0
100
AcDbLine
 10
436.6
 20
230.5557999999999
 30
0.0
 11
440.8999999999999
 21
236.1558
 31
0.0
  0
LINE
  5
49C
330
1E
100
AcDbEntity
  8
0
100
AcDbLine
 10
434.0
 20
224.0558
 30
0.0
 11
436.6
 21
230.5557999999999
 31
0.0
  0
LINE
  5
49D
330
1E
100
AcDbEntity
  8
0
100
AcDbLine
 10
433.0
 20
217.0558
 30
0.0
 11
434.0
 21
224.0558
 31
0.0
  0
LINE
  5
49E
330
1E
100
AcDbEntity
  8
0
100
AcDbLine
 10
433.0
 20
217.0558
 30
0.0
 11
434.0
 21
210.0557999999999
 31
0.0
  0
LINE
  5
49F
330
1E
100
AcDbEntity
  8
0
100
AcDbLine
 10
446.054
 20
76.29089999999999
 30
0.0
 11
446.1069999999999
 21
87.8588
 31
0.0
  0
LINE
  5
4A0
330
1E
100
AcDbEntity
  8
0
100
AcDbLine
 10
446.1069999999999
 20
87.8588
 30
0.0
 11
446.2559999999999
 21
98.21139999999999
 31
0.0
  0
LINE
  5
4A2
330
1E
100
AcDbEntity
  8
0
100
AcDbLine
 10
446.2559999999999
 20
98.21139999999999
 30
0.0
 11
446.3799999999999
 21
105.8779999999999
 31
0.0
  0
LINE
  5
4A4
330
1E
100
AcDbEntity
  8
0
100
AcDbLine
 10
446.3799999999999
 20
105.8779999999999
 30
0.0
 11
446.5049999999999
 21
110.8964999999999
 31
0.0
  0
LINE
  5
4A6
330
1E
100
AcDbEntity
  8
0
100
AcDbLine
 10
446.4999999999999
 20
193.6557999999999
 30
0.0
 11
448.0
 21
193.0557999999999
 31
0.0
  0
LINE
  5
4A7
330
1E
100
AcDbEntity
  8
0
100
AcDbLine
 10
446.4999999999999
 20
240.4558
 30
0.0
 11
453.0
 21
243.0557999999999
 31
0.0
  0
LINE
  5
4A8
330
1E
100
AcDbEntity
  8
0
100
AcDbLine
 10
446.5049999999999
 20
110.8964999999999
 30
0.0
 11
446.613
 21
113.8939999999999
 31
0.0
  0
LINE
  5
4AD
330
1E
100
AcDbEntity
  8
0
100
AcDbLine
 10
446.9859999999999
 20
118.3867999999999
 30
0.0
 11
447.226
 21
121.3038
 31
0.0
  0
LINE
  5
4B2
330
1E
100
AcDbEntity
  8
0
100
AcDbLine
 10
446.753
 20
116.4355
 30
0.0
 11
446.9859999999999
 21
118.3867999999999
 31
0.0
  0
LINE
  5
4B3
330
1E
100
AcDbEntity
  8
0
100
AcDbLine
 10
446.613
 20
113.9267999999999
 30
0.0
 11
446.753
 21
116.4355
 31
0.0
  0
LINE
  5
4B7
330
1E
100
AcDbEntity
  8
0
100
AcDbLine
 10
446.1069999999999
 20
87.8907
 30
0.0
 11
446.2559999999999
 21
98.2435
 31
0.0
  0
LINE
  5
4B8
330
1E
100
AcDbEntity
  8
0
100
AcDbLine
 10
446.054
 20
76.3228
 30
0.0
 11
446.1069999999999
 21
87.8907
 31
0.0
  0
LINE
  5
4BB
330
1E
100
AcDbEntity
  8
0
100
AcDbLine
 10
448.781630151834
 20
2.815928670000079
 30
0.0
 11
448.9319999999999
 21
2.658100000000029
 31
0.0
  0
LINE
  5
4BC
330
1E
100
AcDbEntity
  8
0
100
AcDbLine
 10
449.347
 20
2.434300000000029
 30
0.0
 11
450.464
 21
1.876700000000029
 31
0.0
  0
LINE
  5
4BD
330
1E
100
AcDbEntity
  8
0
100
AcDbLine
 10
448.9319999999999
 20
2.658100000000029
 30
0.0
 11
449.584
 21
2.177500000000029
 31
0.0
  0
LINE
  5
4BE
330
1E
100
AcDbEntity
  8
0
100
AcDbLine
 10
448.1219999999999
 20
3.549700000000029
 30
0.0
 11
448.68
 21
2.922600000000029
 31
0.0
  0
LINE
  5
4BF
330
1E
100
AcDbEntity
  8
0
100
AcDbLine
 10
448.68
 20
2.922600000000029
 30
0.0
 11
449.347
 21
2.434300000000029
 31
0.0
  0
LINE
  5
4C0
330
1E
100
AcDbEntity
  8
0
100
AcDbLine
 10
448.1219999999999
 20
3.517700000000029
 30
0.0
 11
448.68
 21
2.890300000000029
 31
0.0
  0
LINE
  5
4C1
330
1E
100
AcDbEntity
  8
0
100
AcDbLine
 10
448.68
 20
2.890300000000029
 30
0.0
 11
449.347
 21
2.402200000000029
 31
0.0
  0
LINE
  5
4C2
330
1E
100
AcDbEntity
  8
0
100
AcDbLine
 10
449.347
 20
2.402200000000029
 30
0.0
 11
450.464
 21
1.844600000000029
 31
0.0
  0
LINE
  5
4C3
330
1E
100
AcDbEntity
  8
0
100
AcDbLine
 10
447.6869999999999
 20
4.59650000000003
 30
0.0
 11
448.1219999999999
 21
3.549700000000029
 31
0.0
  0
LINE
  5
4C4
330
1E
100
AcDbEntity
  8
0
100
AcDbLine
 10
447.6869999999999
 20
4.564500000000029
 30
0.0
 11
448.1219999999999
 21
3.517700000000029
 31
0.0
  0
LINE
  5
4C7
330
1E
100
AcDbEntity
  8
0
100
AcDbLine
 10
447.2869999999999
 20
5.951700000000029
 30
0.0
 11
447.6869999999999
 21
4.59650000000003
 31
0.0
  0
LINE
  5
4C8
330
1E
100
AcDbEntity
  8
0
100
AcDbLine
 10
447.2869999999999
 20
5.91960000000003
 30
0.0
 11
447.6869999999999
 21
4.564500000000029
 31
0.0
  0
LINE
  5
4CE
330
1E
100
AcDbEntity
  8
0
100
AcDbLine
 10
457.05
 20
0.408100000000028
 30
0.0
 11
460.0
 21
0.167600000000032
 31
0.0
  0
LINE
  5
4CF
330
1E
100
AcDbEntity
  8
0
100
AcDbLine
 10
454.598
 20
0.4197000000000271
 30
0.0
 11
457.115
 21
0.181600000000027
 31
0.0
  0
LINE
  5
4D0
330
1E
100
AcDbEntity
  8
0
100
AcDbLine
 10
454.475
 20
0.6497000000000311
 30
0.0
 11
457.05
 21
0.408100000000028
 31
0.0
  0
LINE
  5
4D1
330
1E
100
AcDbEntity
  8
0
100
AcDbLine
 10
452.345
 20
1.07800000000003
 30
0.0
 11
454.598
 21
0.4197000000000271
 31
0.0
  0
LINE
  5
4D2
330
1E
100
AcDbEntity
  8
0
100
AcDbLine
 10
454.475
 20
0.6176000000000311
 30
0.0
 11
457.05
 21
0.376100000000029
 31
0.0
  0
LINE
  5
4D3
330
1E
100
AcDbEntity
  8
0
100
AcDbLine
 10
460.0
 20
0.135500000000032
 30
0.0
 11
462.95
 21
0.376100000000029
 31
0.0
  0
LINE
  5
4D4
330
1E
100
AcDbEntity
  8
0
100
AcDbLine
 10
460.0
 20
0.167600000000032
 30
0.0
 11
462.95
 21
0.408100000000028
 31
0.0
  0
LINE
  5
4D5
330
1E
100
AcDbEntity
  8
0
100
AcDbLine
 10
462.8849999999999
 20
0.181600000000027
 30
0.0
 11
465.402
 21
0.4197000000000271
 31
0.0
  0
LINE
  5
4D6
330
1E
100
AcDbEntity
  8
0
100
AcDbLine
 10
460.0
 20
-0.0557999999999739
 30
0.0
 11
462.8849999999999
 21
0.181600000000027
 31
0.0
  0
LINE
  5
4D7
330
1E
100
AcDbEntity
  8
0
100
AcDbLine
 10
462.95
 20
0.376100000000029
 30
0.0
 11
465.5249999999999
 21
0.6176000000000311
 31
0.0
  0
LINE
  5
4DA
330
1E
100
AcDbEntity
  8
0
100
AcDbLine
 10
462.95
 20
0.408100000000028
 30
0.0
 11
465.5249999999999
 21
0.6497000000000311
 31
0.0
  0
LINE
  5
4DB
330
1E
100
AcDbEntity
  8
0
100
AcDbLine
 10
465.5249999999999
 20
0.6176000000000311
 30
0.0
 11
467.829
 21
1.286100000000029
 31
0.0
  0
LINE
  5
4DC
330
1E
100
AcDbEntity
  8
0
100
AcDbLine
 10
465.5249999999999
 20
0.6497000000000311
 30
0.0
 11
467.829
 21
1.31820000000003
 31
0.0
  0
LINE
  5
4DD
330
1E
100
AcDbEntity
  8
0
100
AcDbLine
 10
467.6549999999999
 20
1.07800000000003
 30
0.0
 11
469.324
 21
1.62830000000003
 31
0.0
  0
LINE
  5
4DE
330
1E
100
AcDbEntity
  8
0
100
AcDbLine
 10
465.402
 20
0.4197000000000271
 30
0.0
 11
467.6549999999999
 21
1.07800000000003
 31
0.0
  0
LINE
  5
4DF
330
1E
100
AcDbEntity
  8
0
100
AcDbLine
 10
457.115
 20
0.181600000000027
 30
0.0
 11
460.0
 21
-0.0557999999999739
 31
0.0
  0
LINE
  5
4E0
330
1E
100
AcDbEntity
  8
0
100
AcDbLine
 10
457.05
 20
0.376100000000029
 30
0.0
 11
460.0
 21
0.135500000000032
 31
0.0
  0
LINE
  5
4E1
330
1E
100
AcDbEntity
  8
0
100
AcDbLine
 10
452.1709999999999
 20
1.31820000000003
 30
0.0
 11
454.475
 21
0.6497000000000311
 31
0.0
  0
LINE
  5
4E2
330
1E
100
AcDbEntity
  8
0
100
AcDbLine
 10
450.6759999999999
 20
1.62830000000003
 30
0.0
 11
452.345
 21
1.07800000000003
 31
0.0
  0
LINE
  5
4E3
330
1E
100
AcDbEntity
  8
0
100
AcDbLine
 10
450.464
 20
1.876700000000029
 30
0.0
 11
452.1709999999999
 21
1.31820000000003
 31
0.0
  0
LINE
  5
4E4
330
1E
100
AcDbEntity
  8
0
100
AcDbLine
 10
450.464
 20
1.844600000000029
 30
0.0
 11
452.1709999999999
 21
1.286100000000029
 31
0.0
  0
LINE
  5
4E5
330
1E
100
AcDbEntity
  8
0
100
AcDbLine
 10
452.1709999999999
 20
1.286100000000029
 30
0.0
 11
454.475
 21
0.6176000000000311
 31
0.0
  0
LINE
  5
4E6
330
1E
100
AcDbEntity
  8
0
100
AcDbLine
 10
449.584
 20
2.177500000000029
 30
0.0
 11
450.6759999999999
 21
1.62830000000003
 31
0.0
  0
LINE
  5
4EB
330
1E
100
AcDbEntity
  8
0
100
AcDbLine
 10
467.829
 20
1.286100000000029
 30
0.0
 11
469.5359999999999
 21
1.844600000000029
 31
0.0
  0
LINE
  5
4EE
330
1E
100
AcDbEntity
  8
0
100
AcDbLine
 10
467.829
 20
1.31820000000003
 30
0.0
 11
469.5359999999999
 21
1.876700000000029
 31
0.0
  0
LINE
  5
4EF
330
1E
100
AcDbEntity
  8
0
100
AcDbLine
 10
469.5359999999999
 20
1.844600000000029
 30
0.0
 11
470.6529999999999
 21
2.402200000000029
 31
0.0
  0
LINE
  5
4F0
330
1E
100
AcDbEntity
  8
0
100
AcDbLine
 10
469.5359999999999
 20
1.876700000000029
 30
0.0
 11
470.6529999999999
 21
2.434300000000029
 31
0.0
  0
LINE
  5
4F1
330
1E
100
AcDbEntity
  8
0
100
AcDbLine
 10
470.6529999999999
 20
2.402200000000029
 30
0.0
 11
471.3199999999999
 21
2.890300000000029
 31
0.0
  0
LINE
  5
4F5
330
1E
100
AcDbEntity
  8
0
100
AcDbLine
 10
471.3199999999999
 20
2.890300000000029
 30
0.0
 11
471.878
 21
3.517700000000029
 31
0.0
  0
LINE
  5
4F6
330
1E
100
AcDbEntity
  8
0
100
AcDbLine
 10
471.878
 20
3.517700000000029
 30
0.0
 11
472.313
 21
4.564500000000029
 31
0.0
  0
LINE
  5
4F8
330
1E
100
AcDbEntity
  8
0
100
AcDbLine
 10
472.313
 20
4.564500000000029
 30
0.0
 11
472.713
 21
5.91960000000003
 31
0.0
  0
LINE
  5
4F9
330
1E
100
AcDbEntity
  8
0
100
AcDbLine
 10
472.713
 20
5.91960000000003
 30
0.0
 11
473.014
 21
7.71603000000003
 31
0.0
  0
LINE
  5
4FC
330
1E
100
AcDbEntity
  8
0
100
AcDbLine
 10
473.014
 20
7.71603000000003
 30
0.0
 11
473.2469999999999
 21
9.667630000000029
 31
0.0
  0
LINE
  5
4FD
330
1E
100
AcDbEntity
  8
0
100
AcDbLine
 10
472.713
 20
5.951700000000029
 30
0.0
 11
473.014
 21
7.74810000000003
 31
0.0
  0
LINE
  5
4FF
330
1E
100
AcDbEntity
  8
0
100
AcDbLine
 10
473.2469999999999
 20
9.667630000000029
 30
0.0
 11
473.3869999999999
 21
12.17702
 31
0.0
  0
LINE
  5
501
330
1E
100
AcDbEntity
  8
0
100
AcDbLine
 10
473.014
 20
7.74810000000003
 30
0.0
 11
473.2469999999999
 21
9.69970000000003
 31
0.0
  0
LINE
  5
502
330
1E
100
AcDbEntity
  8
0
100
AcDbLine
 10
473.3869999999999
 20
12.17702
 30
0.0
 11
473.495
 21
15.17431
 31
0.0
  0
LINE
  5
503
330
1E
100
AcDbEntity
  8
0
100
AcDbLine
 10
473.2469999999999
 20
9.69970000000003
 30
0.0
 11
473.3869999999999
 21
12.20919
 31
0.0
  0
LINE
  5
504
330
1E
100
AcDbEntity
  8
0
100
AcDbLine
 10
473.495
 20
15.17431
 30
0.0
 11
473.62
 21
20.19293
 31
0.0
  0
LINE
  5
506
330
1E
100
AcDbEntity
  8
0
100
AcDbLine
 10
473.3869999999999
 20
12.20919
 30
0.0
 11
473.495
 21
15.20637999999999
 31
0.0
  0
LINE
  5
507
330
1E
100
AcDbEntity
  8
0
100
AcDbLine
 10
473.62
 20
20.19293
 30
0.0
 11
473.744
 21
27.8601
 31
0.0
  0
LINE
  5
508
330
1E
100
AcDbEntity
  8
0
100
AcDbLine
 10
473.495
 20
15.20637999999999
 30
0.0
 11
473.62
 21
20.2251
 31
0.0
  0
LINE
  5
50A
330
1E
100
AcDbEntity
  8
0
100
AcDbLine
 10
473.744
 20
27.8601
 30
0.0
 11
473.893
 21
38.2127
 31
0.0
  0
LINE
  5
50C
330
1E
100
AcDbEntity
  8
0
100
AcDbLine
 10
473.62
 20
20.2251
 30
0.0
 11
473.744
 21
27.8922
 31
0.0
  0
LINE
  5
50D
330
1E
100
AcDbEntity
  8
0
100
AcDbLine
 10
473.893
 20
38.2127
 30
0.0
 11
473.946
 21
49.7803
 31
0.0
  0
LINE
  5
50E
330
1E
100
AcDbEntity
  8
0
100
AcDbLine
 10
473.744
 20
27.8922
 30
0.0
 11
473.893
 21
38.2449
 31
0.0
  0
LINE
  5
510
330
1E
100
AcDbEntity
  8
0
100
AcDbLine
 10
473.946
 20
49.7803
 30
0.0
 11
474.0
 21
63.0352
 31
0.0
  0
LINE
  5
512
330
1E
100
AcDbEntity
  8
0
100
AcDbLine
 10
473.893
 20
38.2449
 30
0.0
 11
473.946
 21
49.8125
 31
0.0
  0
LINE
  5
513
330
1E
100
AcDbEntity
  8
0
100
AcDbLine
 10
473.946
 20
49.8125
 30
0.0
 11
474.0
 21
63.068
 31
0.0
  0
LINE
  5
514
330
1E
100
AcDbEntity
  8
0
100
AcDbLine
 10
472.313
 20
4.59650000000003
 30
0.0
 11
472.713
 21
5.951700000000029
 31
0.0
  0
LINE
  5
515
330
1E
100
AcDbEntity
  8
0
100
AcDbLine
 10
471.878
 20
3.549700000000029
 30
0.0
 11
472.313
 21
4.59650000000003
 31
0.0
  0
LINE
  5
516
330
1E
100
AcDbEntity
  8
0
100
AcDbLine
 10
471.3199999999999
 20
2.922600000000029
 30
0.0
 11
471.878
 21
3.549700000000029
 31
0.0
  0
LINE
  5
517
330
1E
100
AcDbEntity
  8
0
100
AcDbLine
 10
471.068
 20
2.658100000000029
 30
0.0
 11
471.2183698481659
 21
2.81592867000002
 31
0.0
  0
LINE
  5
518
330
1E
100
AcDbEntity
  8
0
100
AcDbLine
 10
470.6529999999999
 20
2.434300000000029
 30
0.0
 11
471.3199999999999
 21
2.922600000000029
 31
0.0
  0
LINE
  5
519
330
1E
100
AcDbEntity
  8
0
100
AcDbLine
 10
470.4159999999999
 20
2.177500000000029
 30
0.0
 11
471.068
 21
2.658100000000029
 31
0.0
  0
LINE
  5
51A
330
1E
100
AcDbEntity
  8
0
100
AcDbLine
 10
469.324
 20
1.62830000000003
 30
0.0
 11
470.4159999999999
 21
2.177500000000029
 31
0.0
  0
LINE
  5
51B
330
1E
100
AcDbEntity
  8
0
100
AcDbLine
 10
473.946
 20
76.3228
 30
0.0
 11
474.0
 21
63.068
 31
0.0
  0
LINE
  5
51C
330
1E
100
AcDbEntity
  8
0
100
AcDbLine
 10
473.946
 20
76.29089999999999
 30
0.0
 11
474.0
 21
63.0352
 31
0.0
  0
LINE
  5
51D
330
1E
100
AcDbEntity
  8
0
100
AcDbLine
 10
473.744
 20
98.2435
 30
0.0
 11
473.893
 21
87.8907
 31
0.0
  0
LINE
  5
51E
330
1E
100
AcDbEntity
  8
0
100
AcDbLine
 10
473.744
 20
98.21139999999999
 30
0.0
 11
473.893
 21
87.8588
 31
0.0
  0
LINE
  5
51F
330
1E
100
AcDbEntity
  8
0
100
AcDbLine
 10
473.3869999999999
 20
113.9267999999999
 30
0.0
 11
473.495
 21
110.9294
 31
0.0
  0
LINE
  5
520
330
1E
100
AcDbEntity
  8
0
100
AcDbLine
 10
473.3869999999999
 20
113.8939999999999
 30
0.0
 11
473.495
 21
110.8964999999999
 31
0.0
  0
LINE
  5
522
330
1E
100
AcDbEntity
  8
0
100
AcDbLine
 10
473.2469999999999
 20
116.4355
 30
0.0
 11
473.3869999999999
 21
113.9267999999999
 31
0.0
  0
LINE
  5
526
330
1E
100
AcDbEntity
  8
0
100
AcDbLine
 10
473.495
 20
110.9294
 30
0.0
 11
473.62
 21
105.9101
 31
0.0
  0
LINE
  5
527
330
1E
100
AcDbEntity
  8
0
100
AcDbLine
 10
473.62
 20
105.9101
 30
0.0
 11
473.744
 21
98.2435
 31
0.0
  0
LINE
  5
528
330
1E
100
AcDbEntity
  8
0
100
AcDbLine
 10
473.495
 20
110.8964999999999
 30
0.0
 11
473.62
 21
105.8779999999999
 31
0.0
  0
LINE
  5
529
330
1E
100
AcDbEntity
  8
0
100
AcDbLine
 10
473.62
 20
105.8779999999999
 30
0.0
 11
473.744
 21
98.21139999999999
 31
0.0
  0
LINE
  5
52D
330
1E
100
AcDbEntity
  8
0
100
AcDbLine
 10
473.893
 20
87.8907
 30
0.0
 11
473.946
 21
76.3228
 31
0.0
  0
LINE
  5
52E
330
1E
100
AcDbEntity
  8
0
100
AcDbLine
 10
473.893
 20
87.8588
 30
0.0
 11
473.946
 21
76.29089999999999
 31
0.0
  0
LINE
  5
535
330
1E
100
AcDbEntity
  8
0
100
AcDbLine
 10
472.7739999999999
 20
121.3038
 30
0.0
 11
473.0193249775521
 21
117.930817448064
 31
0.0
  0
LINE
  5
544
330
1E
100
AcDbEntity
  8
0
100
AcDbLine
 10
472.635
 20
123.6377999999999
 30
0.0
 11
472.7739999999999
 21
121.3038
 31
0.0
  0
LINE
  5
547
330
1E
100
AcDbEntity
  8
0
100
AcDbLine
 10
447.48
 20
125.1568
 30
0.0
 11
447.804
 21
129.7917999999999
 31
0.0
  0
LINE
  5
548
330
1E
100
AcDbEntity
  8
0
100
AcDbLine
 10
448.0
 20
136.8987999999999
 30
0.0
 11
448.0
 21
144.3608
 31
0.0
  0
LINE
  5
549
330
1E
100
AcDbEntity
  8
0
100
AcDbLine
 10
447.804
 20
129.7917999999999
 30
0.0
 11
448.0
 21
136.8987999999999
 31
0.0
  0
LINE
  5
54A
330
1E
100
AcDbEntity
  8
0
100
AcDbLine
 10
448.0
 20
144.3608
 30
0.0
 11
448.0
 21
136.8987999999999
 31
0.0
  0
LINE
  5
54B
330
1E
100
AcDbEntity
  8
0
100
AcDbLine
 10
448.0
 20
144.3608
 30
0.0
 11
448.0
 21
151.8218
 31
0.0
  0
LINE
  5
54C
330
1E
100
AcDbEntity
  8
0
100
AcDbLine
 10
448.0
 20
151.8218
 30
0.0
 11
448.0
 21
144.3608
 31
0.0
  0
LINE
  5
54D
330
1E
100
AcDbEntity
  8
0
100
AcDbLine
 10
448.0
 20
151.8218
 30
0.0
 11
448.0
 21
163.4798
 31
0.0
  0
LINE
  5
54E
330
1E
100
AcDbEntity
  8
0
100
AcDbLine
 10
448.0
 20
163.4798
 30
0.0
 11
448.0
 21
151.8218
 31
0.0
  0
LINE
  5
54F
330
1E
100
AcDbEntity
  8
0
100
AcDbLine
 10
448.0
 20
163.4798
 30
0.0
 11
448.0
 21
177.7298
 31
0.0
  0
LINE
  5
550
330
1E
100
AcDbEntity
  8
0
100
AcDbLine
 10
448.0
 20
190.1887999999999
 30
0.0
 11
448.0
 21
195.9028
 31
0.0
  0
LINE
  5
551
330
1E
100
AcDbEntity
  8
0
100
AcDbLine
 10
448.0
 20
203.1557999999999
 30
0.0
 11
448.0
 21
195.9028
 31
0.0
  0
LINE
  5
552
330
1E
100
AcDbEntity
  8
0
100
AcDbLine
 10
448.0
 20
203.1557999999999
 30
0.0
 11
448.3999999999999
 21
205.9557999999999
 31
0.0
  0
LINE
  5
553
330
1E
100
AcDbEntity
  8
0
100
AcDbLine
 10
448.0
 20
195.9028
 30
0.0
 11
448.0
 21
203.1557999999999
 31
0.0
  0
LINE
  5
554
330
1E
100
AcDbEntity
  8
0
100
AcDbLine
 10
448.0
 20
195.9028
 30
0.0
 11
448.0
 21
190.1887999999999
 31
0.0
  0
LINE
  5
555
330
1E
100
AcDbEntity
  8
0
100
AcDbLine
 10
448.0
 20
177.7298
 30
0.0
 11
448.0
 21
163.4798
 31
0.0
  0
LINE
  5
556
330
1E
100
AcDbEntity
  8
0
100
AcDbLine
 10
448.0
 20
177.7298
 30
0.0
 11
448.0
 21
197.7228
 31
0.0
  0
LINE
  5
562
330
1E
100
AcDbEntity
  8
0
100
AcDbLine
 10
472.0
 20
136.8987999999999
 30
0.0
 11
472.0
 21
144.3608
 31
0.0
  0
LINE
  5
563
330
1E
100
AcDbEntity
  8
0
100
AcDbLine
 10
472.0
 20
136.8987999999999
 30
0.0
 11
472.196
 21
129.7917999999999
 31
0.0
  0
LINE
  5
568
330
1E
100
AcDbEntity
  8
0
100
AcDbLine
 10
472.0
 20
144.3608
 30
0.0
 11
472.0
 21
151.8218
 31
0.0
  0
LINE
  5
569
330
1E
100
AcDbEntity
  8
0
100
AcDbLine
 10
472.0
 20
144.3608
 30
0.0
 11
472.0
 21
136.8987999999999
 31
0.0
  0
LINE
  5
56D
330
1E
100
AcDbEntity
  8
0
100
AcDbLine
 10
472.0
 20
163.4798
 30
0.0
 11
472.0
 21
151.8218
 31
0.0
  0
LINE
  5
56E
330
1E
100
AcDbEntity
  8
0
100
AcDbLine
 10
472.0
 20
163.4798
 30
0.0
 11
472.0
 21
177.7298
 31
0.0
  0
LINE
  5
570
330
1E
100
AcDbEntity
  8
0
100
AcDbLine
 10
472.52
 20
125.1568
 30
0.0
 11
472.635
 21
123.6377999999999
 31
0.0
  0
LINE
  5
573
330
1E
100
AcDbEntity
  8
0
100
AcDbLine
 10
472.196
 20
129.7917999999999
 30
0.0
 11
472.52
 21
125.1568
 31
0.0
  0
LINE
  5
574
330
1E
100
AcDbEntity
  8
0
100
AcDbLine
 10
472.0
 20
151.8218
 30
0.0
 11
472.0
 21
144.3608
 31
0.0
  0
LINE
  5
575
330
1E
100
AcDbEntity
  8
0
100
AcDbLine
 10
472.0
 20
151.8218
 30
0.0
 11
472.0
 21
163.4798
 31
0.0
  0
LINE
  5
578
330
1E
100
AcDbEntity
  8
0
100
AcDbLine
 10
472.0
 20
177.7298
 30
0.0
 11
472.0
 21
197.7228
 31
0.0
  0
LINE
  5
579
330
1E
100
AcDbEntity
  8
0
100
AcDbLine
 10
472.0
 20
177.7298
 30
0.0
 11
472.0
 21
163.4798
 31
0.0
  0
LINE
  5
57C
330
1E
100
AcDbEntity
  8
0
100
AcDbLine
 10
468.5819999999999
 20
199.2778
 30
0.0
 11
471.658
 21
198.4998
 31
0.0
  0
LINE
  5
57D
330
1E
100
AcDbEntity
  8
0
100
AcDbLine
 10
472.0
 20
184.5700857142859
 30
0.0
 11
477.4
 21
186.7558
 31
0.0
  0
LINE
  5
57E
330
1E
100
AcDbEntity
  8
0
100
AcDbLine
 10
472.0
 20
185.624092682927
 30
0.0
 11
476.9
 21
187.6557999999999
 31
0.0
  0
LINE
  5
57F
330
1E
100
AcDbEntity
  8
0
100
AcDbLine
 10
472.0
 20
193.0557999999999
 30
0.0
 11
473.5
 21
193.6557999999999
 31
0.0
  0
LINE
  5
580
330
1E
100
AcDbEntity
  8
0
100
AcDbLine
 10
477.4
 20
186.7558
 30
0.0
 11
484.7
 21
192.3557999999999
 31
0.0
  0
LINE
  5
581
330
1E
100
AcDbEntity
  8
0
100
AcDbLine
 10
484.7
 20
192.3557999999999
 30
0.0
 11
490.3
 21
199.6558
 31
0.0
  0
LINE
  5
582
330
1E
100
AcDbEntity
  8
0
100
AcDbLine
 10
476.9
 20
187.6557999999999
 30
0.0
 11
484.0
 21
193.0557999999999
 31
0.0
  0
LINE
  5
583
330
1E
100
AcDbEntity
  8
0
100
AcDbLine
 10
484.0
 20
193.0557999999999
 30
0.0
 11
489.4
 21
200.1558
 31
0.0
  0
LINE
  5
584
330
1E
100
AcDbEntity
  8
0
100
AcDbLine
 10
473.5
 20
193.6557999999999
 30
0.0
 11
479.1
 21
197.9558
 31
0.0
  0
LINE
  5
585
330
1E
100
AcDbEntity
  8
0
100
AcDbLine
 10
479.1
 20
197.9558
 30
0.0
 11
483.3999999999999
 21
203.5557999999999
 31
0.0
  0
LINE
  5
586
330
1E
100
AcDbEntity
  8
0
100
AcDbLine
 10
472.0
 20
197.7228
 30
0.0
 11
472.0
 21
177.7298
 31
0.0
  0
LINE
  5
587
330
1E
100
AcDbEntity
  8
0
100
AcDbLine
 10
472.0
 20
197.7228
 30
0.0
 11
472.0
 21
203.1557999999999
 31
0.0
  0
LINE
  5
589
330
1E
100
AcDbEntity
  8
0
100
AcDbLine
 10
471.658
 20
198.4998
 30
0.0
 11
472.0
 21
197.7228
 31
0.0
  0
LINE
  5
58A
330
1E
100
AcDbEntity
  8
0
100
AcDbLine
 10
460.0
 20
213.9558
 30
0.0
 11
463.1
 21
213.5558
 31
0.0
  0
LINE
  5
58B
330
1E
100
AcDbEntity
  8
0
100
AcDbLine
 10
456.8999999999999
 20
213.5558
 30
0.0
 11
460.0
 21
213.9558
 31
0.0
  0
LINE
  5
58C
330
1E
100
AcDbEntity
  8
0
100
AcDbLine
 10
454.0
 20
212.4557999999999
 30
0.0
 11
456.8999999999999
 21
213.5558
 31
0.0
  0
LINE
  5
58D
330
1E
100
AcDbEntity
  8
0
100
AcDbLine
 10
451.4999999999999
 20
210.7558
 30
0.0
 11
454.0
 21
212.4557999999999
 31
0.0
  0
LINE
  5
58E
330
1E
100
AcDbEntity
  8
0
100
AcDbLine
 10
449.6
 20
208.4558
 30
0.0
 11
451.4999999999999
 21
210.7558
 31
0.0
  0
LINE
  5
58F
330
1E
100
AcDbEntity
  8
0
100
AcDbLine
 10
448.3999999999999
 20
205.9557999999999
 30
0.0
 11
449.6
 21
208.4558
 31
0.0
  0
LINE
  5
590
330
1E
100
AcDbEntity
  8
0
100
AcDbLine
 10
460.0
 20
252.0558
 30
0.0
 11
469.0
 21
250.7557999999999
 31
0.0
  0
LINE
  5
591
330
1E
100
AcDbEntity
  8
0
100
AcDbLine
 10
460.0
 20
251.0558
 30
0.0
 11
468.7
 21
249.8558
 31
0.0
  0
LINE
  5
592
330
1E
100
AcDbEntity
  8
0
100
AcDbLine
 10
451.0
 20
250.7557999999999
 30
0.0
 11
460.0
 21
252.0558
 31
0.0
  0
LINE
  5
593
330
1E
100
AcDbEntity
  8
0
100
AcDbLine
 10
451.2999999999999
 20
249.8558
 30
0.0
 11
460.0
 21
251.0558
 31
0.0
  0
LINE
  5
594
330
1E
100
AcDbEntity
  8
0
100
AcDbLine
 10
460.0
 20
244.0558
 30
0.0
 11
467.0
 21
243.0557999999999
 31
0.0
  0
LINE
  5
595
330
1E
100
AcDbEntity
  8
0
100
AcDbLine
 10
453.0
 20
243.0557999999999
 30
0.0
 11
460.0
 21
244.0558
 31
0.0
  0
LINE
  5
596
330
1E
100
AcDbEntity
  8
0
100
AcDbLine
 10
472.0
 20
203.1557999999999
 30
0.0
 11
472.0
 21
197.7228
 31
0.0
  0
LINE
  5
597
330
1E
100
AcDbEntity
  8
0
100
AcDbLine
 10
490.3
 20
199.6558
 30
0.0
 11
493.7
 21
208.0557999999999
 31
0.0
  0
LINE
  5
598
330
1E
100
AcDbEntity
  8
0
100
AcDbLine
 10
489.4
 20
200.1558
 30
0.0
 11
492.7999999999999
 21
208.3558
 31
0.0
  0
LINE
  5
599
330
1E
100
AcDbEntity
  8
0
100
AcDbLine
 10
483.3999999999999
 20
203.5557999999999
 30
0.0
 11
486.0
 21
210.0557999999999
 31
0.0
  0
LINE
  5
59A
330
1E
100
AcDbEntity
  8
0
100
AcDbLine
 10
463.1
 20
213.5558
 30
0.0
 11
466.0
 21
212.4557999999999
 31
0.0
  0
LINE
  5
59B
330
1E
100
AcDbEntity
  8
0
100
AcDbLine
 10
469.0
 20
250.7557999999999
 30
0.0
 11
477.4
 21
247.3558
 31
0.0
  0
LINE
  5
59C
330
1E
100
AcDbEntity
  8
0
100
AcDbLine
 10
468.7
 20
249.8558
 30
0.0
 11
476.9
 21
246.4558
 31
0.0
  0
LINE
  5
59D
330
1E
100
AcDbEntity
  8
0
100
AcDbLine
 10
467.0
 20
243.0557999999999
 30
0.0
 11
473.5
 21
240.4558
 31
0.0
  0
LINE
  5
59E
330
1E
100
AcDbEntity
  8
0
100
AcDbLine
 10
466.0
 20
212.4557999999999
 30
0.0
 11
468.5
 21
210.7558
 31
0.0
  0
LINE
  5
59F
330
1E
100
AcDbEntity
  8
0
100
AcDbLine
 10
468.5
 20
210.7558
 30
0.0
 11
470.3999999999999
 21
208.4558
 31
0.0
  0
LINE
  5
5A0
330
1E
100
AcDbEntity
  8
0
100
AcDbLine
 10
493.7
 20
208.0557999999999
 30
0.0
 11
495.0
 21
217.0558
 31
0.0
  0
LINE
  5
5A1
330
1E
100
AcDbEntity
  8
0
100
AcDbLine
 10
492.7999999999999
 20
208.3558
 30
0.0
 11
494.0
 21
217.0558
 31
0.0
  0
LINE
  5
5A2
330
1E
100
AcDbEntity
  8
0
100
AcDbLine
 10
477.4
 20
247.3558
 30
0.0
 11
484.7
 21
241.7558
 31
0.0
  0
LINE
  5
5A3
330
1E
100
AcDbEntity
  8
0
100
AcDbLine
 10
476.9
 20
246.4558
 30
0.0
 11
484.0
 21
241.0557999999999
 31
0.0
  0
LINE
  5
5A4
330
1E
100
AcDbEntity
  8
0
100
AcDbLine
 10
473.5
 20
240.4558
 30
0.0
 11
479.1
 21
236.1558
 31
0.0
  0
LINE
  5
5A5
330
1E
100
AcDbEntity
  8
0
100
AcDbLine
 10
484.7
 20
241.7558
 30
0.0
 11
490.3
 21
234.4558
 31
0.0
  0
LINE
  5
5A6
330
1E
100
AcDbEntity
  8
0
100
AcDbLine
 10
484.0
 20
241.0557999999999
 30
0.0
 11
489.4
 21
233.9558
 31
0.0
  0
LINE
  5
5A7
330
1E
100
AcDbEntity
  8
0
100
AcDbLine
 10
479.1
 20
236.1558
 30
0.0
 11
483.3999999999999
 21
230.5557999999999
 31
0.0
  0
LINE
  5
5A8
330
1E
100
AcDbEntity
  8
0
100
AcDbLine
 10
483.3999999999999
 20
230.5557999999999
 30
0.0
 11
486.0
 21
224.0558
 31
0.0
  0
LINE
  5
5AD
330
1E
100
AcDbEntity
  8
0
100
AcDbLine
 10
490.3
 20
234.4558
 30
0.0
 11
493.7
 21
226.0558
 31
0.0
  0
LINE
  5
5AE
330
1E
100
AcDbEntity
  8
0
100
AcDbLine
 10
493.7
 20
226.0558
 30
0.0
 11
495.0
 21
217.0558
 31
0.0
  0
LINE
  5
5AF
330
1E
100
AcDbEntity
  8
0
100
AcDbLine
 10
489.4
 20
233.9558
 30
0.0
 11
492.7999999999999
 21
225.7557999999999
 31
0.0
  0
LINE
  5
5B0
330
1E
100
AcDbEntity
  8
0
100
AcDbLine
 10
492.7999999999999
 20
225.7557999999999
 30
0.0
 11
494.0
 21
217.0558
 31
0.0
  0
LINE
  5
5B1
330
1E
100
AcDbEntity
  8
0
100
AcDbLine
 10
486.0
 20
224.0558
 30
0.0
 11
487.0
 21
217.0558
 31
0.0
  0
LINE
  5
5B2
330
1E
100
AcDbEntity
  8
0
100
AcDbLine
 10
486.0
 20
210.0557999999999
 30
0.0
 11
487.0
 21
217.0558
 31
0.0
  0
LINE
  5
5B3
330
1E
100
AcDbEntity
  8
0
100
AcDbLine
 10
470.3999999999999
 20
208.4558
 30
0.0
 11
471.6
 21
205.9557999999999
 31
0.0
  0
LINE
  5
5B4
330
1E
100
AcDbEntity
  8
0
100
AcDbLine
 10
471.6
 20
205.9557999999999
 30
0.0
 11
472.0
 21
203.1557999999999
 31
0.0
  0
LINE
  5
5B5
330
1E
100
AcDbEntity
  8
0
100
AcDbLine
 10
460.0
 20
200.0538
 30
0.0
 11
468.5819999999999
 21
199.2778
 31
0.0
  0
LINE
  5
5B6
330
1E
100
AcDbEntity
  8
0
100
AcDbLine
 10
451.418
 20
199.2778
 30
0.0
 11
460.0
 21
200.0538
 31
0.0
  0
LINE
  5
5B8
330
1E
100
AcDbEntity
  8
0
100
AcDbLine
 10
448.3419999999999
 20
198.4998
 30
0.0
 11
451.418
 21
199.2778
 31
0.0
  0
LINE
  5
5BB
330
1E
100
AcDbEntity
  8
0
100
AcDbLine
 10
448.0
 20
197.7228
 30
0.0
 11
448.0
 21
177.7298
 31
0.0
  0
LINE
  5
5BC
330
1E
100
AcDbEntity
  8
0
100
AcDbLine
 10
448.0
 20
197.7228
 30
0.0
 11
448.3419999999999
 21
198.4998
 31
0.0
  0
LINE
  5
5BE
330
1E
100
AcDbEntity
  8
0
100
AcDbLine
 10
447.365
 20
123.6377999999999
 30
0.0
 11
447.48
 21
125.1568
 31
0.0
  0
LINE
  5
5C1
330
1E
100
AcDbEntity
  8
0
100
AcDbLine
 10
447.226
 20
121.3038
 30
0.0
 11
447.365
 21
123.6377999999999
 31
0.0
  0
LINE
  5
5C6
330
1E
100
AcDbEntity
  8
0
100
AcDbLine
 10
328.013
 20
214.6668
 30
0.0
 11
328.0287716170439
 21
217.0898384040601
 31
0.0
  0
LINE
  5
5C7
330
1E
100
AcDbEntity
  8
0
100
AcDbLine
 10
328.0287716170439
 20
217.0898384040601
 30
0.0
 11
328.0889999999999
 21
218.8407999999999
 31
0.0
  0
LINE
  5
5C8
330
1E
100
AcDbEntity
  8
0
100
AcDbLine
 10
371.911
 20
218.8407999999999
 30
0.0
 11
371.9715897477697
 21
217.1958464464409
 31
0.0
  0
LINE
  5
5C9
330
1E
100
AcDbEntity
  8
0
100
AcDbLine
 10
371.9715897477697
 20
217.1958464464409
 30
0.0
 11
371.9869999999999
 21
214.6668
 31
0.0
  0
LINE
  5
5CA
330
1E
100
AcDbEntity
  8
0
100
AcDbLine
 10
371.7929999999999
 20
207.4047999999999
 30
0.0
 11
371.505
 21
196.9687999999999
 31
0.0
  0
LINE
  5
5CB
330
1E
100
AcDbEntity
  8
0
100
AcDbLine
 10
328.495
 20
196.9687999999999
 30
0.0
 11
328.207
 21
207.4047999999999
 31
0.0
  0
LINE
  5
5CC
330
1E
100
AcDbEntity
  8
0
100
AcDbLine
 10
473.0193249775521
 20
117.930817448064
 30
0.0
 11
473.2469999999999
 21
116.4355
 31
0.0
  0
LINE
  5
5CD
330
1E
100
AcDbEntity
  8
0
100
AcDbLine
 10
217.93
 20
12.62369999999999
 30
0.0
 11
216.9663692689929
 21
191.0778475076839
 31
0.0
  0
LINE
  5
5CE
330
1E
100
AcDbEntity
  8
0
100
AcDbLine
 10
262.0699999999999
 20
12.62369999999999
 30
0.0
 11
263.033630731007
 21
191.0778475076839
 31
0.0
  0
LINE
  5
5CF
330
1E
100
AcDbEntity
  8
0
100
AcDbLine
 10
216.849
 20
221.3448
 30
0.0
 11
217.6056425869294
 21
224.6979814814453
 31
0.0
  0
LINE
  5
5D0
330
1E
100
AcDbEntity
  8
0
100
AcDbLine
 10
217.6056425869294
 20
224.6979814814453
 30
0.0
 11
218.9688496498697
 21
228.4446129055502
 31
0.0
  0
LINE
  5
5D1
330
1E
100
AcDbEntity
  8
0
100
AcDbLine
 10
218.9688496498697
 20
228.4446129055502
 30
0.0
 11
220.8858605529908
 21
231.3397367934935
 31
0.0
  0
LINE
  5
5D2
330
1E
100
AcDbEntity
  8
0
100
AcDbLine
 10
220.8858605529908
 20
231.3397367934935
 30
0.0
 11
222.5046686336445
 21
233.5110803009301
 31
0.0
  0
LINE
  5
5D3
330
1E
100
AcDbEntity
  8
0
100
AcDbLine
 10
222.5046686336445
 20
233.5110803009301
 30
0.0
 11
224.8902814025736
 21
235.5972728970229
 31
0.0
  0
LINE
  5
5D4
330
1E
100
AcDbEntity
  8
0
100
AcDbLine
 10
224.8902814025736
 20
235.5972728970229
 30
0.0
 11
227.8296963765487
 21
237.3002871807069
 31
0.0
  0
LINE
  5
5D5
330
1E
100
AcDbEntity
  8
0
100
AcDbLine
 10
227.8296963765487
 20
237.3002871807069
 30
0.0
 11
232.5349999999999
 21
238.8408
 31
0.0
  0
LINE
  5
5D6
330
1E
100
AcDbEntity
  8
0
100
AcDbLine
 10
263.151
 20
221.3448
 30
0.0
 11
262.7740924352908
 21
223.7056837761118
 31
0.0
  0
LINE
  5
5D7
330
1E
100
AcDbEntity
  8
0
100
AcDbLine
 10
262.7740924352908
 20
223.7056837761118
 30
0.0
 11
261.5762792677542
 21
226.9705404731158
 31
0.0
  0
LINE
  5
5D8
330
1E
100
AcDbEntity
  8
0
100
AcDbLine
 10
261.5762792677542
 20
226.9705404731158
 30
0.0
 11
259.5073299943435
 21
230.1809826683888
 31
0.0
  0
LINE
  5
5D9
330
1E
100
AcDbEntity
  8
0
100
AcDbLine
 10
259.5073299943435
 20
230.1809826683888
 30
0.0
 11
255.9683355785878
 21
234.0988102316103
 31
0.0
  0
LINE
  5
5DA
330
1E
100
AcDbEntity
  8
0
100
AcDbLine
 10
255.9683355785878
 20
234.0988102316103
 30
0.0
 11
252.6471280507867
 21
236.4930380554726
 31
0.0
  0
LINE
  5
5DB
330
1E
100
AcDbEntity
  8
0
100
AcDbLine
 10
252.6471280507867
 20
236.4930380554726
 30
0.0
 11
250.1426099068712
 21
237.8533942896386
 31
0.0
  0
LINE
  5
5DC
330
1E
100
AcDbEntity
  8
0
100
AcDbLine
 10
250.1426099068712
 20
237.8533942896386
 30
0.0
 11
247.465
 21
238.8408
 31
0.0
  0
LINE
  5
5DD
330
1E
100
AcDbEntity
  8
0
100
AcDbLine
 10
216.7569999999999
 20
212.1507999999999
 30
0.0
 11
216.532
 21
217.5368
 31
0.0
  0
ENDSEC
  0
SECTION
  2
OBJECTS
  0
DICTIONARY
  5
C
330
0
100
AcDbDictionary
281
     1
  3
ACAD_GROUP
350
D
  3
ACAD_LAYOUT
350
19
  3
ACAD_MLINESTYLE
350
16
  3
ACAD_PLOTSETTINGS
350
18
  3
ACAD_PLOTSTYLENAME
350
E
  3
AcDbVariableDictionary
350
5DF
  0
DICTIONARY
  5
D
102
{ACAD_REACTORS
330
C
102
}
330
C
100
AcDbDictionary
281
     1
  0
DICTIONARY
  5
19
102
{ACAD_REACTORS
330
C
102
}
330
C
100
AcDbDictionary
281
     1
  3
Layout1
350
1D
  3
Model
350
21
  0
DICTIONARY
  5
16
102
{ACAD_REACTORS
330
C
102
}
330
C
100
AcDbDictionary
281
     1
  3
Standard
350
17
  0
DICTIONARY
  5
18
102
{ACAD_REACTORS
330
C
102
}
330
C
100
AcDbDictionary
281
     1
  0
ACDBDICTIONARYWDFLT
  5
E
102
{ACAD_REACTORS
330
C
102
}
330
C
100
AcDbDictionary
281
     1
  3
Normal
350
F
100
AcDbDictionaryWithDefault
340
F
  0
DICTIONARY
  5
5DF
102
{ACAD_REACTORS
330
C
102
}
330
C
100
AcDbDictionary
281
     1
  3
DIMASSOC
350
5E0
  0
LAYOUT
  5
1D
102
{ACAD_REACTORS
330
19
102
}
330
19
100
AcDbPlotSettings
  1

  2
C:\Programme\AutoCAD LT 2002 Deu\plotters\DWF ePlot (optimized for plotting).pc3
  4

  6

 40
0.0
 41
0.0
 42
0.0
 43
0.0
 44
0.0
 45
0.0
 46
0.0
 47
0.0
 48
0.0
 49
0.0
140
0.0
141
0.0
142
1.0
143
1.0
 70
   688
 72
     0
 73
     0
 74
     5
  7

 75
    16
147
1.0
148
0.0
149
0.0
100
AcDbLayout
  1
Layout1
 70
     1
 71
     1
 10
0.0
 20
0.0
 11
12.0
 21
9.0
 12
0.0
 22
0.0
 32
0.0
 14
1.000000000000000E+20
 24
1.000000000000000E+20
 34
1.000000000000000E+20
 15
-1.000000000000000E+20
 25
-1.000000000000000E+20
 35
-1.000000000000000E+20
146
0.0
 13
0.0
 23
0.0
 33
0.0
 16
1.0
 26
0.0
 36
0.0
 17
0.0
 27
1.0
 37
0.0
 76
     0
330
1A
  0
LAYOUT
  5
21
102
{ACAD_REACTORS
330
19
102
}
330
19
100
AcDbPlotSettings
  1

  2
C:\Programme\AutoCAD LT 2002 Deu\plotters\DWF ePlot (optimized for plotting).pc3
  4

  6

 40
0.0
 41
0.0
 42
0.0
 43
0.0
 44
0.0
 45
0.0
 46
0.0
 47
0.0
 48
0.0
 49
0.0
140
0.0
141
0.0
142
1.0
143
1.0
 70
  1712
 72
     0
 73
     0
 74
     0
  7

 75
     0
147
1.0
148
0.0
149
0.0
100
AcDbLayout
  1
Model
 70
     1
 71
     0
 10
0.0
 20
0.0
 11
12.0
 21
9.0
 12
0.0
 22
0.0
 32
0.0
 14
0.0
 24
0.0
 34
0.0
 15
0.0
 25
0.0
 35
0.0
146
0.0
 13
0.0
 23
0.0
 33
0.0
 16
1.0
 26
0.0
 36
0.0
 17
0.0
 27
1.0
 37
0.0
 76
     0
330
1E
  0
MLINESTYLE
  5
17
102
{ACAD_REACTORS
330
16
102
}
330
16
100
AcDbMlineStyle
  2
STANDARD
 70
     0
  3

 62
   256
 51
90.0
 52
90.0
 71
     2
 49
0.5
 62
   256
  6
BYLAYER
 49
-0.5
 62
   256
  6
BYLAYER
  0
ACDBPLACEHOLDER
  5
F
102
{ACAD_REACTORS
330
E
102
}
330
E
  0
DICTIONARYVAR
  5
5E0
102
{ACAD_REACTORS
330
5DF
102
}
330
5DF
100
DictionaryVariables
280
     0
  1
1
  0
ENDSEC
  0
EOF
