  0
SECTION
  2
HEADER
  9
$ACADVER
  1
AC1015
  9
$ACADMAINTVER
 70
    13
  9
$DWGCODEPAGE
  3
ANSI_1252
  9
$INSBASE
 10
0.0
 20
0.0
 30
0.0
  9
$EXTMIN
 10
-0.196999999999957
 20
99.28491499999999
 30
0.0
  9
$EXTMAX
 10
348.1969999999999
 20
1056.155
 30
0.0
  9
$LIMMIN
 10
0.0
 20
0.0
  9
$LIMMAX
 10
12.0
 20
9.0
  9
$ORTHOMODE
 70
     1
  9
$REGENMODE
 70
     1
  9
$FILLMODE
 70
     1
  9
$QTEXTMODE
 70
     0
  9
$MIRRTEXT
 70
     1
  9
$LTSCALE
 40
1.0
  9
$ATTMODE
 70
     1
  9
$TEXTSIZE
 40
0.2
  9
$TRACEWID
 40
0.05
  9
$TEXTSTYLE
  7
Standard
  9
$CLAYER
  8
0
  9
$CELTYPE
  6
Continuous
  9
$CECOLOR
 62
   256
  9
$CELTSCALE
 40
1.0
  9
$DISPSILH
 70
     0
  9
$DIMSCALE
 40
1.0
  9
$DIMASZ
 40
0.18
  9
$DIMEXO
 40
0.0625
  9
$DIMDLI
 40
0.38
  9
$DIMRND
 40
0.0
  9
$DIMDLE
 40
0.0
  9
$DIMEXE
 40
0.18
  9
$DIMTP
 40
0.0
  9
$DIMTM
 40
0.0
  9
$DIMTXT
 40
0.18
  9
$DIMCEN
 40
0.09
  9
$DIMTSZ
 40
0.0
  9
$DIMTOL
 70
     0
  9
$DIMLIM
 70
     0
  9
$DIMTIH
 70
     1
  9
$DIMTOH
 70
     1
  9
$DIMSE1
 70
     0
  9
$DIMSE2
 70
     0
  9
$DIMTAD
 70
     0
  9
$DIMZIN
 70
     0
  9
$DIMBLK
  1

  9
$DIMASO
 70
     1
  9
$DIMSHO
 70
     1
  9
$DIMPOST
  1

  9
$DIMAPOST
  1

  9
$DIMALT
 70
     0
  9
$DIMALTD
 70
     2
  9
$DIMALTF
 40
25.4
  9
$DIMLFAC
 40
1.0
  9
$DIMTOFL
 70
     0
  9
$DIMTVP
 40
0.0
  9
$DIMTIX
 70
     0
  9
$DIMSOXD
 70
     0
  9
$DIMSAH
 70
     0
  9
$DIMBLK1
  1

  9
$DIMBLK2
  1

  9
$DIMSTYLE
  2
Standard
  9
$DIMCLRD
 70
     0
  9
$DIMCLRE
 70
     0
  9
$DIMCLRT
 70
     0
  9
$DIMTFAC
 40
1.0
  9
$DIMGAP
 40
0.09
  9
$DIMJUST
 70
     0
  9
$DIMSD1
 70
     0
  9
$DIMSD2
 70
     0
  9
$DIMTOLJ
 70
     1
  9
$DIMTZIN
 70
     0
  9
$DIMALTZ
 70
     0
  9
$DIMALTTZ
 70
     0
  9
$DIMUPT
 70
     0
  9
$DIMDEC
 70
     4
  9
$DIMTDEC
 70
     4
  9
$DIMALTU
 70
     2
  9
$DIMALTTD
 70
     2
  9
$DIMTXSTY
  7
Standard
  9
$DIMAUNIT
 70
     0
  9
$DIMADEC
 70
     0
  9
$DIMALTRND
 40
0.0
  9
$DIMAZIN
 70
     0
  9
$DIMDSEP
 70
    46
  9
$DIMATFIT
 70
     3
  9
$DIMFRAC
 70
     0
  9
$DIMLDRBLK
  1

  9
$DIMLUNIT
 70
     2
  9
$DIMLWD
 70
    -2
  9
$DIMLWE
 70
    -2
  9
$DIMTMOVE
 70
     0
  9
$LUNITS
 70
     2
  9
$LUPREC
 70
     4
  9
$SKETCHINC
 40
0.1
  9
$FILLETRAD
 40
0.0
  9
$AUNITS
 70
     0
  9
$AUPREC
 70
     0
  9
$MENU
  1
.
  9
$ELEVATION
 40
0.0
  9
$PELEVATION
 40
0.0
  9
$THICKNESS
 40
0.0
  9
$LIMCHECK
 70
     0
  9
$CHAMFERA
 40
0.0
  9
$CHAMFERB
 40
0.0
  9
$CHAMFERC
 40
0.0
  9
$CHAMFERD
 40
0.0
  9
$SKPOLY
 70
     0
  9
$TDCREATE
 40
2455646.903021736
  9
$TDUCREATE
 40
2455646.861355069
  9
$TDUPDATE
 40
2455646.905460601
  9
$TDUUPDATE
 40
2455646.863793935
  9
$TDINDWG
 40
0.0024390509
  9
$TDUSRTIMER
 40
0.0024390509
  9
$USRTIMER
 70
     1
  9
$ANGBASE
 50
0.0
  9
$ANGDIR
 70
     0
  9
$PDMODE
 70
     0
  9
$PDSIZE
 40
0.0
  9
$PLINEWID
 40
0.0
  9
$SPLFRAME
 70
     0
  9
$SPLINETYPE
 70
     6
  9
$SPLINESEGS
 70
     8
  9
$HANDSEED
  5
502
  9
$SURFTAB1
 70
     6
  9
$SURFTAB2
 70
     6
  9
$SURFTYPE
 70
     6
  9
$SURFU
 70
     6
  9
$SURFV
 70
     6
  9
$UCSBASE
  2

  9
$UCSNAME
  2

  9
$UCSORG
 10
0.0
 20
0.0
 30
0.0
  9
$UCSXDIR
 10
1.0
 20
0.0
 30
0.0
  9
$UCSYDIR
 10
0.0
 20
1.0
 30
0.0
  9
$UCSORTHOREF
  2

  9
$UCSORTHOVIEW
 70
     1
  9
$UCSORGTOP
 10
0.0
 20
0.0
 30
0.0
  9
$UCSORGBOTTOM
 10
0.0
 20
0.0
 30
0.0
  9
$UCSORGLEFT
 10
0.0
 20
0.0
 30
0.0
  9
$UCSORGRIGHT
 10
0.0
 20
0.0
 30
0.0
  9
$UCSORGFRONT
 10
0.0
 20
0.0
 30
0.0
  9
$UCSORGBACK
 10
0.0
 20
0.0
 30
0.0
  9
$PUCSBASE
  2

  9
$PUCSNAME
  2

  9
$PUCSORG
 10
0.0
 20
0.0
 30
0.0
  9
$PUCSXDIR
 10
1.0
 20
0.0
 30
0.0
  9
$PUCSYDIR
 10
0.0
 20
1.0
 30
0.0
  9
$PUCSORTHOREF
  2

  9
$PUCSORTHOVIEW
 70
     0
  9
$PUCSORGTOP
 10
0.0
 20
0.0
 30
0.0
  9
$PUCSORGBOTTOM
 10
0.0
 20
0.0
 30
0.0
  9
$PUCSORGLEFT
 10
0.0
 20
0.0
 30
0.0
  9
$PUCSORGRIGHT
 10
0.0
 20
0.0
 30
0.0
  9
$PUCSORGFRONT
 10
0.0
 20
0.0
 30
0.0
  9
$PUCSORGBACK
 10
0.0
 20
0.0
 30
0.0
  9
$USERI1
 70
     0
  9
$USERI2
 70
     0
  9
$USERI3
 70
     0
  9
$USERI4
 70
     0
  9
$USERI5
 70
     0
  9
$USERR1
 40
0.0
  9
$USERR2
 40
0.0
  9
$USERR3
 40
0.0
  9
$USERR4
 40
0.0
  9
$USERR5
 40
0.0
  9
$WORLDVIEW
 70
     1
  9
$SHADEDGE
 70
     3
  9
$SHADEDIF
 70
    70
  9
$TILEMODE
 70
     1
  9
$MAXACTVP
 70
    64
  9
$PINSBASE
 10
0.0
 20
0.0
 30
0.0
  9
$PLIMCHECK
 70
     0
  9
$PEXTMIN
 10
1.000000000000000E+20
 20
1.000000000000000E+20
 30
1.000000000000000E+20
  9
$PEXTMAX
 10
-1.000000000000000E+20
 20
-1.000000000000000E+20
 30
-1.000000000000000E+20
  9
$PLIMMIN
 10
0.0
 20
0.0
  9
$PLIMMAX
 10
12.0
 20
9.0
  9
$UNITMODE
 70
     0
  9
$VISRETAIN
 70
     1
  9
$PLINEGEN
 70
     0
  9
$PSLTSCALE
 70
     1
  9
$TREEDEPTH
 70
  3020
  9
$CMLSTYLE
  2
Standard
  9
$CMLJUST
 70
     0
  9
$CMLSCALE
 40
1.0
  9
$PROXYGRAPHICS
 70
     1
  9
$MEASUREMENT
 70
     0
  9
$CELWEIGHT
370
    -1
  9
$ENDCAPS
280
     0
  9
$JOINSTYLE
280
     0
  9
$LWDISPLAY
290
     0
  9
$INSUNITS
 70
     0
  9
$HYPERLINKBASE
  1

  9
$STYLESHEET
  1

  9
$XEDIT
290
     1
  9
$CEPSNTYPE
380
     0
  9
$PSTYLEMODE
290
     1
  9
$FINGERPRINTGUID
  2
{6784C751-FC09-426B-8988-7DD70E9C1D3E}
  9
$VERSIONGUID
  2
{B7894529-6160-44D0-9577-7E2AB7C811AA}
  9
$EXTNAMES
290
     1
  9
$PSVPSCALE
 40
0.0
  9
$OLESTARTUP
290
     0
  0
ENDSEC
  0
SECTION
  2
CLASSES
  0
CLASS
  1
ACDBDICTIONARYWDFLT
  2
AcDbDictionaryWithDefault
  3
AutoCAD 2000
 90
        0
280
     0
281
     0
  0
CLASS
  1
ACDBPLACEHOLDER
  2
AcDbPlaceHolder
  3
AutoCAD 2000
 90
        0
280
     0
281
     0
  0
CLASS
  1
LAYOUT
  2
AcDbLayout
  3
AutoCAD 2000
 90
        0
280
     0
281
     0
  0
CLASS
  1
DICTIONARYVAR
  2
AcDbDictionaryVar
  3
AutoCAD 2000
 90
        0
280
     0
281
     0
  0
ENDSEC
  0
SECTION
  2
TABLES
  0
TABLE
  2
VPORT
  5
8
330
0
100
AcDbSymbolTable
 70
     4
  0
VPORT
  5
501
330
8
100
AcDbSymbolTableRecord
100
AcDbViewportTableRecord
  2
*Active
 70
     0
 10
0.0
 20
0.0
 11
1.0
 21
1.0
 12
174.0
 22
577.7199575
 13
0.0
 23
0.0
 14
1.0
 24
1.0
 15
0.0
 25
0.0
 16
0.0
 26
0.0
 36
1.0
 17
0.0
 27
0.0
 37
0.0
 40
963.3427124069898
 41
2.073363431151241
 42
50.0
 43
0.0
 44
0.0
 50
0.0
 51
0.0
 71
     0
 72
   100
 73
     1
 74
     3
 75
     0
 76
     0
 77
     0
 78
     0
281
     0
 65
     1
110
0.0
120
0.0
130
0.0
111
1.0
121
0.0
131
0.0
112
0.0
122
1.0
132
0.0
 79
     1
146
0.0
  0
ENDTAB
  0
TABLE
  2
LTYPE
  5
5
330
0
100
AcDbSymbolTable
 70
     1
  0
LTYPE
  5
13
330
5
100
AcDbSymbolTableRecord
100
AcDbLinetypeTableRecord
  2
ByBlock
 70
     0
  3

 72
    65
 73
     0
 40
0.0
  0
LTYPE
  5
14
330
5
100
AcDbSymbolTableRecord
100
AcDbLinetypeTableRecord
  2
ByLayer
 70
     0
  3

 72
    65
 73
     0
 40
0.0
  0
LTYPE
  5
15
330
5
100
AcDbSymbolTableRecord
100
AcDbLinetypeTableRecord
  2
Continuous
 70
     0
  3
Solid line
 72
    65
 73
     0
 40
0.0
  0
ENDTAB
  0
TABLE
  2
LAYER
  5
2
330
0
100
AcDbSymbolTable
 70
     1
  0
LAYER
  5
10
330
2
100
AcDbSymbolTableRecord
100
AcDbLayerTableRecord
  2
0
 70
     0
 62
     7
  6
Continuous
370
    -3
390
F
  0
ENDTAB
  0
TABLE
  2
STYLE
  5
3
330
0
100
AcDbSymbolTable
 70
     1
  0
STYLE
  5
11
330
3
100
AcDbSymbolTableRecord
100
AcDbTextStyleTableRecord
  2
Standard
 70
     0
 40
0.0
 41
1.0
 50
0.0
 71
     0
 42
0.2
  3
txt
  4

  0
ENDTAB
  0
TABLE
  2
VIEW
  5
6
330
0
100
AcDbSymbolTable
 70
     0
  0
ENDTAB
  0
TABLE
  2
UCS
  5
7
330
0
100
AcDbSymbolTable
 70
     0
  0
ENDTAB
  0
TABLE
  2
APPID
  5
9
330
0
100
AcDbSymbolTable
 70
     1
  0
APPID
  5
12
330
9
100
AcDbSymbolTableRecord
100
AcDbRegAppTableRecord
  2
ACAD
 70
     0
  0
ENDTAB
  0
TABLE
  2
DIMSTYLE
  5
A
330
0
100
AcDbSymbolTable
 70
     1
100
AcDbDimStyleTable
 71
     0
  0
DIMSTYLE
105
4F1
330
A
100
AcDbSymbolTableRecord
100
AcDbDimStyleTableRecord
  2
Standard
 70
     0
340
11
  0
ENDTAB
  0
TABLE
  2
BLOCK_RECORD
  5
1
330
0
100
AcDbSymbolTable
 70
     0
  0
BLOCK_RECORD
  5
1E
330
1
100
AcDbSymbolTableRecord
100
AcDbBlockTableRecord
  2
*Model_Space
340
21
  0
BLOCK_RECORD
  5
1A
330
1
100
AcDbSymbolTableRecord
100
AcDbBlockTableRecord
  2
*Paper_Space
340
1D
  0
ENDTAB
  0
ENDSEC
  0
SECTION
  2
BLOCKS
  0
BLOCK
  5
1F
330
1E
100
AcDbEntity
  8
0
100
AcDbBlockBegin
  2
*Model_Space
 70
     0
 10
0.0
 20
0.0
 30
0.0
  3
*Model_Space
  1

  0
ENDBLK
  5
20
330
1E
100
AcDbEntity
  8
0
100
AcDbBlockEnd
  0
BLOCK
  5
1B
330
1A
100
AcDbEntity
 67
     1
  8
0
100
AcDbBlockBegin
  2
*Paper_Space
 70
     0
 10
0.0
 20
0.0
 30
0.0
  3
*Paper_Space
  1

  0
ENDBLK
  5
1C
330
1A
100
AcDbEntity
 67
     1
  8
0
100
AcDbBlockEnd
  0
ENDSEC
  0
SECTION
  2
ENTITIES
  0
LINE
  5
22
330
1E
100
AcDbEntity
  8
0
100
AcDbLine
 10
78.567
 20
389.217
 30
0.0
 11
79.8529
 21
370.0899999999999
 31
0.0
  0
LINE
  5
23
330
1E
100
AcDbEntity
  8
0
100
AcDbLine
 10
78.567
 20
389.217
 30
0.0
 11
79.67780000000001
 21
408.344
 31
0.0
  0
LINE
  5
24
330
1E
100
AcDbEntity
  8
0
100
AcDbLine
 10
63.69600000000001
 20
409.1409999999999
 30
0.0
 11
67.484
 21
432.4519999999999
 31
0.0
  0
LINE
  5
25
330
1E
100
AcDbEntity
  8
0
100
AcDbLine
 10
0.630000000000043
 20
960.4269999999999
 30
0.0
 11
3.35000000000004
 21
956.563
 31
0.0
  0
LINE
  5
26
330
1E
100
AcDbEntity
  8
0
100
AcDbLine
 10
3.35000000000004
 20
956.563
 30
0.0
 11
6.18600000000004
 21
953.9329999999999
 31
0.0
  0
LINE
  5
27
330
1E
100
AcDbEntity
  8
0
100
AcDbLine
 10
-0.196999999999957
 20
963.565
 30
0.0
 11
0.630000000000043
 21
960.4269999999999
 31
0.0
  0
LINE
  5
28
330
1E
100
AcDbEntity
  8
0
100
AcDbLine
 10
0.630000000000043
 20
960.4269999999999
 30
0.0
 11
3.35000000000004
 21
956.563
 31
0.0
  0
LINE
  5
29
330
1E
100
AcDbEntity
  8
0
100
AcDbLine
 10
6.18600000000004
 20
953.9329999999999
 30
0.0
 11
10.51799999999999
 21
950.6349999999999
 31
0.0
  0
LINE
  5
33
330
1E
100
AcDbEntity
  8
0
100
AcDbLine
 10
0.9750000000000429
 20
965.671
 30
0.0
 11
1.080358905535019
 21
965.6860099225697
 31
0.0
  0
LINE
  5
36
330
1E
100
AcDbEntity
  8
0
100
AcDbLine
 10
1.20600000000004
 20
965.7300000000001
 30
0.0
 11
1.33500000000004
 21
965.7489999999999
 31
0.0
  0
LINE
  5
4E
330
1E
100
AcDbEntity
  8
0
100
AcDbLine
 10
1.20600000000004
 20
965.7300000000001
 30
0.0
 11
1.33500000000004
 21
965.7489999999999
 31
0.0
  0
LINE
  5
4F
330
1E
100
AcDbEntity
  8
0
100
AcDbLine
 10
1.09500000000004
 20
965.699
 30
0.0
 11
1.20600000000004
 21
965.7300000000001
 31
0.0
  0
LINE
  5
50
330
1E
100
AcDbEntity
  8
0
100
AcDbLine
 10
1.09500000000004
 20
965.699
 30
0.0
 11
1.20600000000004
 21
965.7300000000001
 31
0.0
  0
LINE
  5
51
330
1E
100
AcDbEntity
  8
0
100
AcDbLine
 10
1.026000000000039
 20
965.6819999999999
 30
0.0
 11
1.09500000000004
 21
965.699
 31
0.0
  0
LINE
  5
52
330
1E
100
AcDbEntity
  8
0
100
AcDbLine
 10
0.9750000000000429
 20
965.671
 30
0.0
 11
1.026000000000039
 21
965.6819999999999
 31
0.0
  0
LINE
  5
53
330
1E
100
AcDbEntity
  8
0
100
AcDbLine
 10
0.9750000000000429
 20
965.671
 30
0.0
 11
1.080358905535019
 21
965.6860099225697
 31
0.0
  0
LINE
  5
55
330
1E
100
AcDbEntity
  8
0
100
AcDbLine
 10
0.0940000000000427
 20
964.85
 30
0.0
 11
0.155000000000043
 21
964.8649999999999
 31
0.0
  0
LINE
  5
56
330
1E
100
AcDbEntity
  8
0
100
AcDbLine
 10
0.0940000000000427
 20
964.85
 30
0.0
 11
0.9750000000000429
 21
965.671
 31
0.0
  0
LINE
  5
57
330
1E
100
AcDbEntity
  8
0
100
AcDbLine
 10
-0.196999999999957
 20
963.565
 30
0.0
 11
0.0940000000000427
 21
964.85
 31
0.0
  0
LINE
  5
59
330
1E
100
AcDbEntity
  8
0
100
AcDbLine
 10
-0.196999999999957
 20
963.565
 30
0.0
 11
0.630000000000042
 21
960.4269999999999
 31
0.0
  0
LINE
  5
5A
330
1E
100
AcDbEntity
  8
0
100
AcDbLine
 10
10.51799999999999
 20
950.6349999999999
 30
0.0
 11
14.671
 21
948.689
 31
0.0
  0
LINE
  5
5B
330
1E
100
AcDbEntity
  8
0
100
AcDbLine
 10
14.671
 20
948.689
 30
0.0
 11
21.08999999999999
 21
947.1339999999999
 31
0.0
  0
LINE
  5
5C
330
1E
100
AcDbEntity
  8
0
100
AcDbLine
 10
21.08999999999999
 20
947.1339999999999
 30
0.0
 11
27.043
 21
946.546
 31
0.0
  0
LINE
  5
60
330
1E
100
AcDbEntity
  8
0
100
AcDbLine
 10
27.043
 20
946.546
 30
0.0
 11
33.891
 21
946.555
 31
0.0
  0
LINE
  5
62
330
1E
100
AcDbEntity
  8
0
100
AcDbLine
 10
33.189
 20
970.2530000000001
 30
0.0
 11
51.97200000000011
 21
971.498
 31
0.0
  0
LINE
  5
63
330
1E
100
AcDbEntity
  8
0
100
AcDbLine
 10
52.864
 20
946.837
 30
0.0
 11
86.25299999999999
 21
946.837
 31
0.0
  0
LINE
  5
64
330
1E
100
AcDbEntity
  8
0
100
AcDbLine
 10
33.891
 20
946.555
 30
0.0
 11
52.864
 21
946.837
 31
0.0
  0
LINE
  5
67
330
1E
100
AcDbEntity
  8
0
100
AcDbLine
 10
51.97200000000011
 20
971.498
 30
0.0
 11
85.55799999999999
 21
972.4669999999999
 31
0.0
  0
LINE
  5
68
330
1E
100
AcDbEntity
  8
0
100
AcDbLine
 10
23.065
 20
969.1139999999998
 30
0.0
 11
33.189
 21
970.2530000000001
 31
0.0
  0
LINE
  5
69
330
1E
100
AcDbEntity
  8
0
100
AcDbLine
 10
67.484
 20
432.4519999999999
 30
0.0
 11
73.8665
 21
456.1609999999999
 31
0.0
  0
LINE
  5
6A
330
1E
100
AcDbEntity
  8
0
100
AcDbLine
 10
79.67780000000001
 20
408.344
 30
0.0
 11
83.2751
 21
429.663
 31
0.0
  0
LINE
  5
6B
330
1E
100
AcDbEntity
  8
0
100
AcDbLine
 10
73.8665
 20
456.1609999999999
 30
0.0
 11
84.44370000000001
 21
479.7709999999999
 31
0.0
  0
LINE
  5
6C
330
1E
100
AcDbEntity
  8
0
100
AcDbLine
 10
62.5889
 20
389.217
 30
0.0
 11
63.8785
 21
369.293
 31
0.0
  0
LINE
  5
6D
330
1E
100
AcDbEntity
  8
0
100
AcDbLine
 10
62.5889
 20
389.217
 30
0.0
 11
63.69600000000001
 21
409.1409999999999
 31
0.0
  0
LINE
  5
6E
330
1E
100
AcDbEntity
  8
0
100
AcDbLine
 10
83.2751
 20
429.663
 30
0.0
 11
88.87100000000001
 21
450.6819999999999
 31
0.0
  0
LINE
  5
6F
330
1E
100
AcDbEntity
  8
0
100
AcDbLine
 10
79.8529
 20
370.0899999999999
 30
0.0
 11
83.64549999999999
 21
348.7719999999999
 31
0.0
  0
LINE
  5
70
330
1E
100
AcDbEntity
  8
0
100
AcDbLine
 10
63.8785
 20
369.293
 30
0.0
 11
67.8799
 21
345.9819999999999
 31
0.0
  0
LINE
  5
71
330
1E
100
AcDbEntity
  8
0
100
AcDbLine
 10
88.87100000000001
 20
450.6819999999999
 30
0.0
 11
98.36120000000001
 21
471.802
 31
0.0
  0
LINE
  5
72
330
1E
100
AcDbEntity
  8
0
100
AcDbLine
 10
86.25299999999999
 20
946.837
 30
0.0
 11
126.6699999999999
 21
946.6139999999999
 31
0.0
  0
LINE
  5
74
330
1E
100
AcDbEntity
  8
0
100
AcDbLine
 10
85.55799999999999
 20
972.4669999999999
 30
0.0
 11
126.1309999999999
 21
973.5380000000001
 31
0.0
  0
LINE
  5
75
330
1E
100
AcDbEntity
  8
0
100
AcDbLine
 10
84.44370000000001
 20
479.7709999999999
 30
0.0
 11
96.3306
 21
501.8909999999999
 31
0.0
  0
LINE
  5
76
330
1E
100
AcDbEntity
  8
0
100
AcDbLine
 10
83.64549999999999
 20
348.7719999999999
 30
0.0
 11
89.43389999999999
 21
327.7519999999999
 31
0.0
  0
LINE
  5
77
330
1E
100
AcDbEntity
  8
0
100
AcDbLine
 10
67.8799
 20
345.9819999999999
 30
0.0
 11
74.4795
 21
322.2729999999999
 31
0.0
  0
LINE
  5
7E
330
1E
100
AcDbEntity
  8
0
100
AcDbLine
 10
98.36120000000001
 20
471.802
 30
0.0
 11
108.561
 21
491.6299999999999
 31
0.0
  0
LINE
  5
80
330
1E
100
AcDbEntity
  8
0
100
AcDbLine
 10
96.3306
 20
501.8909999999999
 30
0.0
 11
108.515
 21
523.408
 31
0.0
  0
LINE
  5
82
330
1E
100
AcDbEntity
  8
0
100
AcDbLine
 10
89.43389999999999
 20
327.7519999999999
 30
0.0
 11
99.11740000000001
 21
306.6329999999999
 31
0.0
  0
LINE
  5
83
330
1E
100
AcDbEntity
  8
0
100
AcDbLine
 10
74.4795
 20
322.2729999999999
 30
0.0
 11
85.273
 21
298.663
 31
0.0
  0
LINE
  5
8F
330
1E
100
AcDbEntity
  8
0
100
AcDbLine
 10
108.561
 20
491.6299999999999
 30
0.0
 11
121.54
 21
514.0439999999999
 31
0.0
  0
LINE
  5
91
330
1E
100
AcDbEntity
  8
0
100
AcDbLine
 10
108.515
 20
523.408
 30
0.0
 11
117.4129999999999
 21
542.9339999999999
 31
0.0
  0
LINE
  5
92
330
1E
100
AcDbEntity
  8
0
100
AcDbLine
 10
99.11740000000001
 20
306.6329999999999
 30
0.0
 11
109.4899999999999
 21
287.8049999999999
 31
0.0
  0
LINE
  5
93
330
1E
100
AcDbEntity
  8
0
100
AcDbLine
 10
85.273
 20
298.663
 30
0.0
 11
97.35320000000001
 21
277.544
 31
0.0
  0
LINE
  5
94
330
1E
100
AcDbEntity
  8
0
100
AcDbLine
 10
109.4899999999999
 20
287.8049999999999
 30
0.0
 11
123.5389999999999
 21
272.862
 31
0.0
  0
LINE
  5
95
330
1E
100
AcDbEntity
  8
0
100
AcDbLine
 10
97.35320000000001
 20
277.544
 30
0.0
 11
113.3079999999999
 21
260.907
 31
0.0
  0
LINE
  5
96
330
1E
100
AcDbEntity
  8
0
100
AcDbLine
 10
117.4129999999999
 20
542.9339999999999
 30
0.0
 11
125.1989999999999
 21
565.6469999999999
 31
0.0
  0
LINE
  5
97
330
1E
100
AcDbEntity
  8
0
100
AcDbLine
 10
126.6699999999999
 20
946.6139999999999
 30
0.0
 11
136.878837088102
 21
946.089464957398
 31
0.0
  0
LINE
  5
99
330
1E
100
AcDbEntity
  8
0
100
AcDbLine
 10
126.1309999999999
 20
973.5380000000001
 30
0.0
 11
136.803
 21
973.775410619269
 31
0.0
  0
LINE
  5
9A
330
1E
100
AcDbEntity
  8
0
100
AcDbLine
 10
126.1309999999999
 20
973.5380000000001
 30
0.0
 11
161.463
 21
974.324
 31
0.0
  0
LINE
  5
9B
330
1E
100
AcDbEntity
  8
0
100
AcDbLine
 10
135.762
 20
614.062
 30
0.0
 11
138.559
 21
635.6799999999999
 31
0.0
  0
LINE
  5
9C
330
1E
100
AcDbEntity
  8
0
100
AcDbLine
 10
131.2789999999999
 20
589.954
 30
0.0
 11
135.762
 21
614.062
 31
0.0
  0
LINE
  5
9D
330
1E
100
AcDbEntity
  8
0
100
AcDbLine
 10
125.1989999999999
 20
565.6469999999999
 30
0.0
 11
131.2789999999999
 21
589.954
 31
0.0
  0
LINE
  5
9E
330
1E
100
AcDbEntity
  8
0
100
AcDbLine
 10
130.835
 20
534.2669999999999
 30
0.0
 11
139.116
 21
557.677
 31
0.0
  0
LINE
  5
9F
330
1E
100
AcDbEntity
  8
0
100
AcDbLine
 10
121.54
 20
514.0439999999999
 30
0.0
 11
130.835
 21
534.2669999999999
 31
0.0
  0
LINE
  5
A0
330
1E
100
AcDbEntity
  8
0
100
AcDbLine
 10
123.5389999999999
 20
272.862
 30
0.0
 11
141.3859999999999
 21
257.3209999999999
 31
0.0
  0
LINE
  5
A1
330
1E
100
AcDbEntity
  8
0
100
AcDbLine
 10
113.3079999999999
 20
260.907
 30
0.0
 11
133.46
 21
243.474
 31
0.0
  0
LINE
  5
A2
330
1E
100
AcDbEntity
  8
0
100
AcDbLine
 10
133.46
 20
243.474
 30
0.0
 11
153.4779999999999
 21
233.5119999999999
 31
0.0
  0
LINE
  5
A3
330
1E
100
AcDbEntity
  8
0
100
AcDbLine
 10
136.8439999999999
 20
917.436
 30
0.0
 11
137.108
 21
916.8449999999999
 31
0.0
  0
LINE
  5
A4
330
1E
100
AcDbEntity
  8
0
100
AcDbLine
 10
136.8439999999999
 20
917.436
 30
0.0
 11
136.8439999999999
 21
932.845
 31
0.0
  0
LINE
  5
A5
330
1E
100
AcDbEntity
  8
0
100
AcDbLine
 10
137.358
 20
916.8449999999999
 30
0.0
 11
138.2789999999999
 21
916.8449999999999
 31
0.0
  0
LINE
  5
A6
330
1E
100
AcDbEntity
  8
0
100
AcDbLine
 10
137.6479999999999
 20
916.8449999999999
 30
0.0
 11
138.836
 21
916.8449999999999
 31
0.0
  0
LINE
  5
A7
330
1E
100
AcDbEntity
  8
0
100
AcDbLine
 10
137.108
 20
916.8449999999999
 30
0.0
 11
137.6479999999999
 21
916.8449999999999
 31
0.0
  0
LINE
  5
A8
330
1E
100
AcDbEntity
  8
0
100
AcDbLine
 10
137.108
 20
916.8449999999999
 30
0.0
 11
137.358
 21
916.8449999999999
 31
0.0
  0
LINE
  5
A9
330
1E
100
AcDbEntity
  8
0
100
AcDbLine
 10
136.8439999999999
 20
932.845
 30
0.0
 11
136.8439999999999
 21
946.091254904023
 31
0.0
  0
LINE
  5
AA
330
1E
100
AcDbEntity
  8
0
100
AcDbLine
 10
136.8439999999999
 20
932.845
 30
0.0
 11
136.8439999999999
 21
917.436
 31
0.0
  0
LINE
  5
AB
330
1E
100
AcDbEntity
  8
0
100
AcDbLine
 10
136.8439999999999
 20
946.091254904023
 30
0.0
 11
136.8439999999999
 21
932.845
 31
0.0
  0
LINE
  5
AC
330
1E
100
AcDbEntity
  8
0
100
AcDbLine
 10
138.0029999999999
 20
985.992
 30
0.0
 11
139.4429999999999
 21
985.992
 31
0.0
  0
LINE
  5
AD
330
1E
100
AcDbEntity
  8
0
100
AcDbLine
 10
137.1029999999999
 20
985.992
 30
0.0
 11
138.0029999999999
 21
985.992
 31
0.0
  0
LINE
  5
AE
330
1E
100
AcDbEntity
  8
0
100
AcDbLine
 10
136.803
 20
973.775410619269
 30
0.0
 11
136.803
 21
985.992
 31
0.0
  0
LINE
  5
AF
330
1E
100
AcDbEntity
  8
0
100
AcDbLine
 10
136.803
 20
985.992
 30
0.0
 11
138.0029999999999
 21
986.7230000000001
 31
0.0
  0
LINE
  5
B0
330
1E
100
AcDbEntity
  8
0
100
AcDbLine
 10
136.803
 20
985.992
 30
0.0
 11
137.1029999999999
 21
985.992
 31
0.0
  0
LINE
  5
B1
330
1E
100
AcDbEntity
  8
0
100
AcDbLine
 10
136.803
 20
985.992
 30
0.0
 11
136.803
 21
973.775410619269
 31
0.0
  0
LINE
  5
B2
330
1E
100
AcDbEntity
  8
0
100
AcDbLine
 10
138.559
 20
635.6799999999999
 30
0.0
 11
140.2129999999999
 21
667.159
 31
0.0
  0
LINE
  5
B3
330
1E
100
AcDbEntity
  8
0
100
AcDbLine
 10
138.2789999999999
 20
916.8449999999999
 30
0.0
 11
139.8749999999999
 21
916.8449999999999
 31
0.0
  0
LINE
  5
B4
330
1E
100
AcDbEntity
  8
0
100
AcDbLine
 10
141.9449999999999
 20
916.8449999999999
 30
0.0
 11
146.747
 21
916.8449999999999
 31
0.0
  0
LINE
  5
B5
330
1E
100
AcDbEntity
  8
0
100
AcDbLine
 10
140.2779999999999
 20
916.8449999999999
 30
0.0
 11
141.9449999999999
 21
916.8449999999999
 31
0.0
  0
LINE
  5
B6
330
1E
100
AcDbEntity
  8
0
100
AcDbLine
 10
139.84
 20
916.8449999999999
 30
0.0
 11
140.2129999999999
 21
667.159
 31
0.0
  0
LINE
  5
B7
330
1E
100
AcDbEntity
  8
0
100
AcDbLine
 10
139.84
 20
916.8449999999999
 30
0.0
 11
140.2779999999999
 21
916.8449999999999
 31
0.0
  0
LINE
  5
B8
330
1E
100
AcDbEntity
  8
0
100
AcDbLine
 10
139.116
 20
557.677
 30
0.0
 11
145.7899999999999
 21
583.2799999999999
 31
0.0
  0
LINE
  5
B9
330
1E
100
AcDbEntity
  8
0
100
AcDbLine
 10
141.3859999999999
 20
257.3209999999999
 30
0.0
 11
158.902
 21
248.455
 31
0.0
  0
LINE
  5
CB
330
1E
100
AcDbEntity
  8
0
100
AcDbLine
 10
146.747
 20
916.8449999999999
 30
0.0
 11
147.412
 21
916.8449999999999
 31
0.0
  0
LINE
  5
CC
330
1E
100
AcDbEntity
  8
0
100
AcDbLine
 10
145.7899999999999
 20
583.2799999999999
 30
0.0
 11
150.767
 21
608.5830000000001
 31
0.0
  0
LINE
  5
CD
330
1E
100
AcDbEntity
  8
0
100
AcDbLine
 10
144.5199999999999
 20
916.8449999999999
 30
0.0
 11
147.2669999999999
 21
916.8449999999999
 31
0.0
  0
LINE
  5
CE
330
1E
100
AcDbEntity
  8
0
100
AcDbLine
 10
142.027
 20
916.8449999999999
 30
0.0
 11
144.5199999999999
 21
916.8449999999999
 31
0.0
  0
LINE
  5
CF
330
1E
100
AcDbEntity
  8
0
100
AcDbLine
 10
139.8749999999999
 20
916.8449999999999
 30
0.0
 11
142.027
 21
916.8449999999999
 31
0.0
  0
LINE
  5
D2
330
1E
100
AcDbEntity
  8
0
100
AcDbLine
 10
150.539
 20
916.8449999999999
 30
0.0
 11
153.129
 21
916.8449999999999
 31
0.0
  0
LINE
  5
D3
330
1E
100
AcDbEntity
  8
0
100
AcDbLine
 10
147.412
 20
916.8449999999999
 30
0.0
 11
150.539
 21
916.8449999999999
 31
0.0
  0
LINE
  5
D4
330
1E
100
AcDbEntity
  8
0
100
AcDbLine
 10
150.767
 20
608.5830000000001
 30
0.0
 11
154.3499999999999
 21
632.8899999999999
 31
0.0
  0
LINE
  5
D5
330
1E
100
AcDbEntity
  8
0
100
AcDbLine
 10
147.2669999999999
 20
916.8449999999999
 30
0.0
 11
150.056
 21
916.8449999999999
 31
0.0
  0
LINE
  5
D6
330
1E
100
AcDbEntity
  8
0
100
AcDbLine
 10
150.056
 20
916.8449999999999
 30
0.0
 11
152.66
 21
916.8449999999999
 31
0.0
  0
LINE
  5
DD
330
1E
100
AcDbEntity
  8
0
100
AcDbLine
 10
153.129
 20
916.8449999999999
 30
0.0
 11
155.057
 21
916.8449999999999
 31
0.0
  0
LINE
  5
DE
330
1E
100
AcDbEntity
  8
0
100
AcDbLine
 10
155.057
 20
916.8449999999999
 30
0.0
 11
155.8179999999999
 21
916.8449999999999
 31
0.0
  0
LINE
  5
DF
330
1E
100
AcDbEntity
  8
0
100
AcDbLine
 10
154.3499999999999
 20
632.8899999999999
 30
0.0
 11
156.191
 21
667.159
 31
0.0
  0
LINE
  5
E0
330
1E
100
AcDbEntity
  8
0
100
AcDbLine
 10
153.4779999999999
 20
233.5119999999999
 30
0.0
 11
176.1779999999999
 21
226.638
 31
0.0
  0
LINE
  5
E1
330
1E
100
AcDbEntity
  8
0
100
AcDbLine
 10
152.66
 20
916.8449999999999
 30
0.0
 11
154.991
 21
916.8449999999999
 31
0.0
  0
LINE
  5
E2
330
1E
100
AcDbEntity
  8
0
100
AcDbLine
 10
154.991
 20
916.8449999999999
 30
0.0
 11
156.822
 21
916.8449999999999
 31
0.0
  0
LINE
  5
E3
330
1E
100
AcDbEntity
  8
0
100
AcDbLine
 10
156.822
 20
916.8449999999999
 30
0.0
 11
158.0099999999999
 21
916.8449999999999
 31
0.0
  0
LINE
  5
E4
330
1E
100
AcDbEntity
  8
0
100
AcDbLine
 10
155.8179999999999
 20
916.8449999999999
 30
0.0
 11
157.3789999999999
 21
916.8449999999999
 31
0.0
  0
LINE
  5
E5
330
1E
100
AcDbEntity
  8
0
100
AcDbLine
 10
155.8179999999999
 20
916.8449999999999
 30
0.0
 11
156.191
 21
667.159
 31
0.0
  0
LINE
  5
E6
330
1E
100
AcDbEntity
  8
0
100
AcDbLine
 10
157.803
 20
110.8449999999999
 30
0.0
 11
158.0429999999999
 21
111.545
 31
0.0
  0
LINE
  5
E7
330
1E
100
AcDbEntity
  8
0
100
AcDbLine
 10
157.803
 20
110.8449999999999
 30
0.0
 11
157.803
 21
99.845
 31
0.0
  0
LINE
  5
EB
330
1E
100
AcDbEntity
  8
0
100
AcDbLine
 10
158.1539999999999
 20
99.845
 30
0.0
 11
158.7129999999999
 21
99.845
 31
0.0
  0
LINE
  5
EC
330
1E
100
AcDbEntity
  8
0
100
AcDbLine
 10
158.422
 20
111.545
 30
0.0
 11
158.959
 21
111.545
 31
0.0
  0
LINE
  5
ED
330
1E
100
AcDbEntity
  8
0
100
AcDbLine
 10
158.1539999999999
 20
111.545
 30
0.0
 11
158.422
 21
111.545
 31
0.0
  0
LINE
  5
EE
330
1E
100
AcDbEntity
  8
0
100
AcDbLine
 10
158.0429999999999
 20
111.545
 30
0.0
 11
158.6029999999999
 21
111.8449999999999
 31
0.0
  0
LINE
  5
EF
330
1E
100
AcDbEntity
  8
0
100
AcDbLine
 10
158.0429999999999
 20
111.545
 30
0.0
 11
158.1539999999999
 21
111.545
 31
0.0
  0
LINE
  5
F0
330
1E
100
AcDbEntity
  8
0
100
AcDbLine
 10
157.8849999999999
 20
99.845
 30
0.0
 11
158.1539999999999
 21
99.845
 31
0.0
  0
LINE
  5
F1
330
1E
100
AcDbEntity
  8
0
100
AcDbLine
 10
157.803
 20
99.845
 30
0.0
 11
157.8849999999999
 21
99.845
 31
0.0
  0
LINE
  5
F2
330
1E
100
AcDbEntity
  8
0
100
AcDbLine
 10
157.803
 20
99.845
 30
0.0
 11
157.803
 21
110.8449999999999
 31
0.0
  0
LINE
  5
F3
330
1E
100
AcDbEntity
  8
0
100
AcDbLine
 10
158.0099999999999
 20
916.8449999999999
 30
0.0
 11
158.55
 21
916.8449999999999
 31
0.0
  0
LINE
  5
F4
330
1E
100
AcDbEntity
  8
0
100
AcDbLine
 10
157.3789999999999
 20
916.8449999999999
 30
0.0
 11
158.3
 21
916.8449999999999
 31
0.0
  0
LINE
  5
F5
330
1E
100
AcDbEntity
  8
0
100
AcDbLine
 10
158.3
 20
916.8449999999999
 30
0.0
 11
158.55
 21
916.8449999999999
 31
0.0
  0
LINE
  5
F6
330
1E
100
AcDbEntity
  8
0
100
AcDbLine
 10
158.6689999999999
 20
111.8449999999999
 30
0.0
 11
158.937
 21
111.8449999999999
 31
0.0
  0
LINE
  5
F7
330
1E
100
AcDbEntity
  8
0
100
AcDbLine
 10
158.6029999999999
 20
111.8449999999999
 30
0.0
 11
158.6689999999999
 21
111.8449999999999
 31
0.0
  0
LINE
  5
F8
330
1E
100
AcDbEntity
  8
0
100
AcDbLine
 10
158.7129999999999
 20
99.845
 30
0.0
 11
159.386
 21
99.845
 31
0.0
  0
LINE
  5
F9
330
1E
100
AcDbEntity
  8
0
100
AcDbLine
 10
158.55
 20
916.8449999999999
 30
0.0
 11
158.8139999999999
 21
917.436
 31
0.0
  0
LINE
  5
FA
330
1E
100
AcDbEntity
  8
0
100
AcDbLine
 10
158.8139999999999
 20
944.9624255587691
 30
0.0
 11
164.7
 21
944.66
 31
0.0
  0
LINE
  5
FB
330
1E
100
AcDbEntity
  8
0
100
AcDbLine
 10
158.8139999999999
 20
917.436
 30
0.0
 11
158.8139999999999
 21
932.845
 31
0.0
  0
LINE
  5
FC
330
1E
100
AcDbEntity
  8
0
100
AcDbLine
 10
138.836
 20
916.8449999999999
 30
0.0
 11
139.84
 21
916.8449999999999
 31
0.0
  0
LINE
  5
FD
330
1E
100
AcDbEntity
  8
0
100
AcDbLine
 10
158.8139999999999
 20
945.0068452800419
 30
0.0
 11
158.8139999999999
 21
932.845
 31
0.0
  0
LINE
  5
104
330
1E
100
AcDbEntity
  8
0
100
AcDbLine
 10
164.315
 20
99.845
 30
0.0
 11
165.4429999999999
 21
99.845
 31
0.0
  0
LINE
  5
105
330
1E
100
AcDbEntity
  8
0
100
AcDbLine
 10
163.336
 20
99.845
 30
0.0
 11
164.315
 21
99.845
 31
0.0
  0
LINE
  5
106
330
1E
100
AcDbEntity
  8
0
100
AcDbLine
 10
162.5459999999999
 20
99.845
 30
0.0
 11
163.336
 21
99.845
 31
0.0
  0
LINE
  5
107
330
1E
100
AcDbEntity
  8
0
100
AcDbLine
 10
161.768
 20
99.845
 30
0.0
 11
162.5459999999999
 21
99.845
 31
0.0
  0
LINE
  5
108
330
1E
100
AcDbEntity
  8
0
100
AcDbLine
 10
161.219
 20
99.845
 30
0.0
 11
161.768
 21
99.845
 31
0.0
  0
LINE
  5
109
330
1E
100
AcDbEntity
  8
0
100
AcDbLine
 10
160.717
 20
99.845
 30
0.0
 11
161.219
 21
99.845
 31
0.0
  0
LINE
  5
10A
330
1E
100
AcDbEntity
  8
0
100
AcDbLine
 10
160.119
 20
99.845
 30
0.0
 11
160.717
 21
99.845
 31
0.0
  0
LINE
  5
10B
330
1E
100
AcDbEntity
  8
0
100
AcDbLine
 10
159.386
 20
99.845
 30
0.0
 11
160.119
 21
99.845
 31
0.0
  0
LINE
  5
10C
330
1E
100
AcDbEntity
  8
0
100
AcDbLine
 10
158.937
 20
111.8449999999999
 30
0.0
 11
159.4519999999999
 21
111.8449999999999
 31
0.0
  0
LINE
  5
10D
330
1E
100
AcDbEntity
  8
0
100
AcDbLine
 10
165.643
 20
111.545
 30
0.0
 11
166.934
 21
111.545
 31
0.0
  0
LINE
  5
10E
330
1E
100
AcDbEntity
  8
0
100
AcDbLine
 10
164.5159999999999
 20
111.545
 30
0.0
 11
165.643
 21
111.545
 31
0.0
  0
LINE
  5
10F
330
1E
100
AcDbEntity
  8
0
100
AcDbLine
 10
163.511
 20
111.545
 30
0.0
 11
164.5159999999999
 21
111.545
 31
0.0
  0
LINE
  5
110
330
1E
100
AcDbEntity
  8
0
100
AcDbLine
 10
162.733
 20
111.545
 30
0.0
 11
163.511
 21
111.545
 31
0.0
  0
LINE
  5
111
330
1E
100
AcDbEntity
  8
0
100
AcDbLine
 10
161.983
 20
111.545
 30
0.0
 11
162.733
 21
111.545
 31
0.0
  0
LINE
  5
112
330
1E
100
AcDbEntity
  8
0
100
AcDbLine
 10
161.46
 20
111.545
 30
0.0
 11
161.983
 21
111.545
 31
0.0
  0
LINE
  5
113
330
1E
100
AcDbEntity
  8
0
100
AcDbLine
 10
160.9679999999999
 20
111.545
 30
0.0
 11
161.46
 21
111.545
 31
0.0
  0
LINE
  5
114
330
1E
100
AcDbEntity
  8
0
100
AcDbLine
 10
166.043
 20
111.8449999999999
 30
0.0
 11
167.3109999999999
 21
111.8449999999999
 31
0.0
  0
LINE
  5
115
330
1E
100
AcDbEntity
  8
0
100
AcDbLine
 10
164.864
 20
111.8449999999999
 30
0.0
 11
166.043
 21
111.8449999999999
 31
0.0
  0
LINE
  5
116
330
1E
100
AcDbEntity
  8
0
100
AcDbLine
 10
163.924
 20
111.8449999999999
 30
0.0
 11
164.864
 21
111.8449999999999
 31
0.0
  0
LINE
  5
117
330
1E
100
AcDbEntity
  8
0
100
AcDbLine
 10
163.146
 20
111.8449999999999
 30
0.0
 11
163.924
 21
111.8449999999999
 31
0.0
  0
LINE
  5
118
330
1E
100
AcDbEntity
  8
0
100
AcDbLine
 10
162.433
 20
111.8449999999999
 30
0.0
 11
163.146
 21
111.8449999999999
 31
0.0
  0
LINE
  5
119
330
1E
100
AcDbEntity
  8
0
100
AcDbLine
 10
161.9139999999999
 20
111.8449999999999
 30
0.0
 11
162.433
 21
111.8449999999999
 31
0.0
  0
LINE
  5
11A
330
1E
100
AcDbEntity
  8
0
100
AcDbLine
 10
161.455
 20
111.8449999999999
 30
0.0
 11
161.9139999999999
 21
111.8449999999999
 31
0.0
  0
LINE
  5
11B
330
1E
100
AcDbEntity
  8
0
100
AcDbLine
 10
160.7909999999999
 20
111.8449999999999
 30
0.0
 11
161.455
 21
111.8449999999999
 31
0.0
  0
LINE
  5
11C
330
1E
100
AcDbEntity
  8
0
100
AcDbLine
 10
160.0989999999999
 20
111.8449999999999
 30
0.0
 11
160.7909999999999
 21
111.8449999999999
 31
0.0
  0
LINE
  5
11D
330
1E
100
AcDbEntity
  8
0
100
AcDbLine
 10
159.4519999999999
 20
111.8449999999999
 30
0.0
 11
160.0989999999999
 21
111.8449999999999
 31
0.0
  0
LINE
  5
11E
330
1E
100
AcDbEntity
  8
0
100
AcDbLine
 10
160.3779999999999
 20
111.545
 30
0.0
 11
160.9679999999999
 21
111.545
 31
0.0
  0
LINE
  5
11F
330
1E
100
AcDbEntity
  8
0
100
AcDbLine
 10
158.959
 20
111.545
 30
0.0
 11
159.678
 21
111.545
 31
0.0
  0
LINE
  5
120
330
1E
100
AcDbEntity
  8
0
100
AcDbLine
 10
165.4429999999999
 20
99.845
 30
0.0
 11
166.72
 21
99.845
 31
0.0
  0
LINE
  5
123
330
1E
100
AcDbEntity
  8
0
100
AcDbLine
 10
167.8029999999999
 20
99.28491499999999
 30
0.0
 11
168.0999737615229
 21
99.845
 31
0.0
  0
LINE
  5
125
330
1E
100
AcDbEntity
  8
0
100
AcDbLine
 10
168.1929999999999
 20
99.845
 30
0.0
 11
169.5729999999999
 21
99.845
 31
0.0
  0
LINE
  5
127
330
1E
100
AcDbEntity
  8
0
100
AcDbLine
 10
169.5729999999999
 20
99.845
 30
0.0
 11
171.502
 21
99.845
 31
0.0
  0
LINE
  5
128
330
1E
100
AcDbEntity
  8
0
100
AcDbLine
 10
171.502
 20
99.845
 30
0.0
 11
173.7389999999999
 21
99.845
 31
0.0
  0
LINE
  5
12F
330
1E
100
AcDbEntity
  8
0
100
AcDbLine
 10
173.7389999999999
 20
99.845
 30
0.0
 11
176.4569999999999
 21
99.845
 31
0.0
  0
LINE
  5
130
330
1E
100
AcDbEntity
  8
0
100
AcDbLine
 10
176.4569999999999
 20
99.845
 30
0.0
 11
181.4799999999999
 21
99.845
 31
0.0
  0
LINE
  5
135
330
1E
100
AcDbEntity
  8
0
100
AcDbLine
 10
181.4799999999999
 20
99.845
 30
0.0
 11
187.621
 21
99.845
 31
0.0
  0
LINE
  5
136
330
1E
100
AcDbEntity
  8
0
100
AcDbLine
 10
187.621
 20
99.845
 30
0.0
 11
196.522
 21
99.845
 31
0.0
  0
LINE
  5
13F
330
1E
100
AcDbEntity
  8
0
100
AcDbLine
 10
196.522
 20
99.845
 30
0.0
 11
206.6759999999999
 21
99.845
 31
0.0
  0
LINE
  5
140
330
1E
100
AcDbEntity
  8
0
100
AcDbLine
 10
166.934
 20
111.545
 30
0.0
 11
168.368
 21
111.545
 31
0.0
  0
LINE
  5
141
330
1E
100
AcDbEntity
  8
0
100
AcDbLine
 10
168.368
 20
111.545
 30
0.0
 11
169.734
 21
111.545
 31
0.0
  0
LINE
  5
142
330
1E
100
AcDbEntity
  8
0
100
AcDbLine
 10
169.734
 20
111.545
 30
0.0
 11
171.69
 21
111.545
 31
0.0
  0
LINE
  5
143
330
1E
100
AcDbEntity
  8
0
100
AcDbLine
 10
171.69
 20
111.545
 30
0.0
 11
173.887
 21
111.545
 31
0.0
  0
LINE
  5
144
330
1E
100
AcDbEntity
  8
0
100
AcDbLine
 10
173.887
 20
111.545
 30
0.0
 11
176.589
 21
111.545
 31
0.0
  0
LINE
  5
145
330
1E
100
AcDbEntity
  8
0
100
AcDbLine
 10
176.589
 20
111.545
 30
0.0
 11
181.608
 21
111.545
 31
0.0
  0
LINE
  5
146
330
1E
100
AcDbEntity
  8
0
100
AcDbLine
 10
187.7829999999999
 20
111.545
 30
0.0
 11
196.634
 21
111.545
 31
0.0
  0
LINE
  5
147
330
1E
100
AcDbEntity
  8
0
100
AcDbLine
 10
167.3109999999999
 20
111.8449999999999
 30
0.0
 11
168.802
 21
111.8449999999999
 31
0.0
  0
LINE
  5
148
330
1E
100
AcDbEntity
  8
0
100
AcDbLine
 10
168.802
 20
111.8449999999999
 30
0.0
 11
170.1299999999999
 21
111.8449999999999
 31
0.0
  0
LINE
  5
149
330
1E
100
AcDbEntity
  8
0
100
AcDbLine
 10
170.1299999999999
 20
111.8449999999999
 30
0.0
 11
172.041
 21
111.8449999999999
 31
0.0
  0
LINE
  5
14A
330
1E
100
AcDbEntity
  8
0
100
AcDbLine
 10
172.041
 20
111.8449999999999
 30
0.0
 11
174.2109999999999
 21
111.8449999999999
 31
0.0
  0
LINE
  5
14B
330
1E
100
AcDbEntity
  8
0
100
AcDbLine
 10
174.2109999999999
 20
111.8449999999999
 30
0.0
 11
176.928
 21
111.8449999999999
 31
0.0
  0
LINE
  5
14C
330
1E
100
AcDbEntity
  8
0
100
AcDbLine
 10
176.928
 20
111.8449999999999
 30
0.0
 11
181.83
 21
111.8449999999999
 31
0.0
  0
LINE
  5
14D
330
1E
100
AcDbEntity
  8
0
100
AcDbLine
 10
195.8394904593209
 20
111.8449999999999
 30
0.0
 11
196.082
 21
141.3728
 31
0.0
  0
LINE
  5
14E
330
1E
100
AcDbEntity
  8
0
100
AcDbLine
 10
181.83
 20
111.8449999999999
 30
0.0
 11
187.945
 21
111.8449999999999
 31
0.0
  0
LINE
  5
14F
330
1E
100
AcDbEntity
  8
0
100
AcDbLine
 10
196.082
 20
141.3728
 30
0.0
 11
196.282
 21
782.467
 31
0.0
  0
LINE
  5
150
330
1E
100
AcDbEntity
  8
0
100
AcDbLine
 10
196.082
 20
141.3728
 30
0.0
 11
196.282
 21
782.467
 31
0.0
  0
LINE
  5
151
330
1E
100
AcDbEntity
  8
0
100
AcDbLine
 10
187.945
 20
111.8449999999999
 30
0.0
 11
196.88
 21
111.8449999999999
 31
0.0
  0
LINE
  5
152
330
1E
100
AcDbEntity
  8
0
100
AcDbLine
 10
196.88
 20
111.8449999999999
 30
0.0
 11
206.833
 21
111.8449999999999
 31
0.0
  0
LINE
  5
153
330
1E
100
AcDbEntity
  8
0
100
AcDbLine
 10
196.634
 20
111.545
 30
0.0
 11
206.7209999999999
 21
111.545
 31
0.0
  0
LINE
  5
154
330
1E
100
AcDbEntity
  8
0
100
AcDbLine
 10
206.833
 20
111.8449999999999
 30
0.0
 11
214.6049999999999
 21
111.8449999999999
 31
0.0
  0
LINE
  5
155
330
1E
100
AcDbEntity
  8
0
100
AcDbLine
 10
206.7209999999999
 20
111.545
 30
0.0
 11
214.5379999999999
 21
111.545
 31
0.0
  0
LINE
  5
156
330
1E
100
AcDbEntity
  8
0
100
AcDbLine
 10
206.6759999999999
 20
99.845
 30
0.0
 11
214.516
 21
99.845
 31
0.0
  0
LINE
  5
157
330
1E
100
AcDbEntity
  8
0
100
AcDbLine
 10
166.72
 20
99.845
 30
0.0
 11
168.0999737615229
 21
99.845
 31
0.0
  0
LINE
  5
158
330
1E
100
AcDbEntity
  8
0
100
AcDbLine
 10
166.72
 20
99.845
 30
0.0
 11
168.1929999999999
 21
99.845
 31
0.0
  0
LINE
  5
159
330
1E
100
AcDbEntity
  8
0
100
AcDbLine
 10
164.7
 20
944.66
 30
0.0
 11
173.327
 21
941.919
 31
0.0
  0
LINE
  5
15A
330
1E
100
AcDbEntity
  8
0
100
AcDbLine
 10
173.638
 20
941.7480000000001
 30
0.0
 11
179.2229999999999
 21
939.3930000000001
 31
0.0
  0
LINE
  5
15F
330
1E
100
AcDbEntity
  8
0
100
AcDbLine
 10
173.327
 20
941.919
 30
0.0
 11
173.638
 21
941.7480000000001
 31
0.0
  0
LINE
  5
160
330
1E
100
AcDbEntity
  8
0
100
AcDbLine
 10
158.902
 20
248.455
 30
0.0
 11
178.9029999999999
 21
242.3779999999999
 31
0.0
  0
LINE
  5
161
330
1E
100
AcDbEntity
  8
0
100
AcDbLine
 10
196.282
 20
782.467
 30
0.0
 11
196.4819999999999
 21
823.5599999999999
 31
0.0
  0
LINE
  5
162
330
1E
100
AcDbEntity
  8
0
100
AcDbLine
 10
179.2229999999999
 20
939.3930000000001
 30
0.0
 11
184.7199999999999
 21
936.428
 31
0.0
  0
LINE
  5
16C
330
1E
100
AcDbEntity
  8
0
100
AcDbLine
 10
184.7199999999999
 20
936.428
 30
0.0
 11
189.7669999999999
 21
932.732
 31
0.0
  0
LINE
  5
16D
330
1E
100
AcDbEntity
  8
0
100
AcDbLine
 10
195.8759999999999
 20
919.5249999999999
 30
0.0
 11
196.5819999999999
 21
905.7479999999999
 31
0.0
  0
LINE
  5
16E
330
1E
100
AcDbEntity
  8
0
100
AcDbLine
 10
193.8179999999999
 20
927.7039999999999
 30
0.0
 11
195.8759999999999
 21
919.5249999999999
 31
0.0
  0
LINE
  5
175
330
1E
100
AcDbEntity
  8
0
100
AcDbLine
 10
189.7669999999999
 20
932.732
 30
0.0
 11
193.8179999999999
 21
927.7039999999999
 31
0.0
  0
LINE
  5
188
330
1E
100
AcDbEntity
  8
0
100
AcDbLine
 10
196.5819999999999
 20
864.6539999999999
 30
0.0
 11
196.5819999999999
 21
905.7479999999999
 31
0.0
  0
LINE
  5
18D
330
1E
100
AcDbEntity
  8
0
100
AcDbLine
 10
196.5819999999999
 20
905.7479999999999
 30
0.0
 11
196.5819999999999
 21
864.6539999999999
 31
0.0
  0
LINE
  5
18E
330
1E
100
AcDbEntity
  8
0
100
AcDbLine
 10
196.4819999999999
 20
823.5599999999999
 30
0.0
 11
196.5819999999999
 21
864.6539999999999
 31
0.0
  0
LINE
  5
18F
330
1E
100
AcDbEntity
  8
0
100
AcDbLine
 10
178.9029999999999
 20
242.3779999999999
 30
0.0
 11
196.1131952653199
 21
241.368318319731
 31
0.0
  0
LINE
  5
190
330
1E
100
AcDbEntity
  8
0
100
AcDbLine
 10
176.1779999999999
 20
226.638
 30
0.0
 11
196.1082278974859
 21
225.445564781761
 31
0.0
  0
LINE
  5
191
330
1E
100
AcDbEntity
  8
0
100
AcDbLine
 10
158.8139999999999
 20
932.845
 30
0.0
 11
158.8139999999999
 21
945.0068452800419
 31
0.0
  0
LINE
  5
192
330
1E
100
AcDbEntity
  8
0
100
AcDbLine
 10
158.8139999999999
 20
932.845
 30
0.0
 11
158.8139999999999
 21
917.436
 31
0.0
  0
LINE
  5
193
330
1E
100
AcDbEntity
  8
0
100
AcDbLine
 10
145.8029999999999
 20
985.992
 30
0.0
 11
148.143
 21
985.9910000000001
 31
0.0
  0
LINE
  5
194
330
1E
100
AcDbEntity
  8
0
100
AcDbLine
 10
143.463
 20
985.992
 30
0.0
 11
145.8029999999999
 21
985.992
 31
0.0
  0
LINE
  5
195
330
1E
100
AcDbEntity
  8
0
100
AcDbLine
 10
141.303
 20
985.992
 30
0.0
 11
143.463
 21
985.992
 31
0.0
  0
LINE
  5
196
330
1E
100
AcDbEntity
  8
0
100
AcDbLine
 10
139.4429999999999
 20
985.992
 30
0.0
 11
141.303
 21
985.992
 31
0.0
  0
LINE
  5
197
330
1E
100
AcDbEntity
  8
0
100
AcDbLine
 10
148.143
 20
985.9910000000001
 30
0.0
 11
150.303
 21
985.992
 31
0.0
  0
LINE
  5
198
330
1E
100
AcDbEntity
  8
0
100
AcDbLine
 10
150.303
 20
985.992
 30
0.0
 11
152.1629999999999
 21
985.992
 31
0.0
  0
LINE
  5
199
330
1E
100
AcDbEntity
  8
0
100
AcDbLine
 10
152.1629999999999
 20
985.992
 30
0.0
 11
153.6029999999999
 21
985.992
 31
0.0
  0
LINE
  5
19A
330
1E
100
AcDbEntity
  8
0
100
AcDbLine
 10
154.8029999999999
 20
974.1758408241819
 30
0.0
 11
154.8029999999999
 21
985.992
 31
0.0
  0
LINE
  5
19B
330
1E
100
AcDbEntity
  8
0
100
AcDbLine
 10
154.8029999999999
 20
974.1758408241819
 30
0.0
 11
161.463
 21
974.324
 31
0.0
  0
LINE
  5
19C
330
1E
100
AcDbEntity
  8
0
100
AcDbLine
 10
153.6029999999999
 20
985.992
 30
0.0
 11
154.5029999999999
 21
985.992
 31
0.0
  0
LINE
  5
19D
330
1E
100
AcDbEntity
  8
0
100
AcDbLine
 10
154.5029999999999
 20
985.992
 30
0.0
 11
154.8029999999999
 21
985.992
 31
0.0
  0
LINE
  5
1A0
330
1E
100
AcDbEntity
  8
0
100
AcDbLine
 10
161.463
 20
974.324
 30
0.0
 11
171.1349999999999
 21
974.8239999999999
 31
0.0
  0
LINE
  5
1A1
330
1E
100
AcDbEntity
  8
0
100
AcDbLine
 10
171.1349999999999
 20
974.8239999999999
 30
0.0
 11
181.2279999999999
 21
975.181
 31
0.0
  0
LINE
  5
1A5
330
1E
100
AcDbEntity
  8
0
100
AcDbLine
 10
181.2279999999999
 20
975.181
 30
0.0
 11
190.5999999999999
 21
975.3949999999999
 31
0.0
  0
LINE
  5
1A6
330
1E
100
AcDbEntity
  8
0
100
AcDbLine
 10
195.902
 20
975.7480000000001
 30
0.0
 11
207.7869999999999
 21
975.7480000000001
 31
0.0
  0
LINE
  5
1A7
330
1E
100
AcDbEntity
  8
0
100
AcDbLine
 10
190.5999999999999
 20
975.3949999999999
 30
0.0
 11
195.902
 21
975.7480000000001
 31
0.0
  0
LINE
  5
1A8
330
1E
100
AcDbEntity
  8
0
100
AcDbLine
 10
154.8029999999999
 20
985.992
 30
0.0
 11
154.8029999999999
 21
974.1758408241819
 31
0.0
  0
LINE
  5
1A9
330
1E
100
AcDbEntity
  8
0
100
AcDbLine
 10
153.6029999999999
 20
986.7230000000001
 30
0.0
 11
154.8029999999999
 21
985.992
 31
0.0
  0
LINE
  5
1AA
330
1E
100
AcDbEntity
  8
0
100
AcDbLine
 10
145.8029999999999
 20
986.9659999999999
 30
0.0
 11
153.6029999999999
 21
986.7230000000001
 31
0.0
  0
LINE
  5
1AB
330
1E
100
AcDbEntity
  8
0
100
AcDbLine
 10
138.0029999999999
 20
986.7230000000001
 30
0.0
 11
145.8029999999999
 21
986.9659999999999
 31
0.0
  0
LINE
  5
1AC
330
1E
100
AcDbEntity
  8
0
100
AcDbLine
 10
207.457
 20
1055.239
 30
0.0
 11
214.685384173444
 21
977.199476584246
 31
0.0
  0
LINE
  5
1AD
330
1E
100
AcDbEntity
  8
0
100
AcDbLine
 10
207.457
 20
1055.239
 30
0.0
 11
207.564
 21
1055.244999999999
 31
0.0
  0
LINE
  5
1B0
330
1E
100
AcDbEntity
  8
0
100
AcDbLine
 10
207.7869999999999
 20
975.7480000000001
 30
0.0
 11
231.7969999999999
 21
975.7480000000001
 31
0.0
  0
LINE
  5
1B1
330
1E
100
AcDbEntity
  8
0
100
AcDbLine
 10
207.564
 20
1055.244999999999
 30
0.0
 11
207.878
 21
1055.263999999999
 31
0.0
  0
LINE
  5
1B2
330
1E
100
AcDbEntity
  8
0
100
AcDbLine
 10
207.878
 20
1055.263999999999
 30
0.0
 11
208.214
 21
1055.285
 31
0.0
  0
LINE
  5
1B3
330
1E
100
AcDbEntity
  8
0
100
AcDbLine
 10
208.214
 20
1055.285
 30
0.0
 11
208.775
 21
1055.318999999999
 31
0.0
  0
LINE
  5
1B4
330
1E
100
AcDbEntity
  8
0
100
AcDbLine
 10
208.775
 20
1055.318999999999
 30
0.0
 11
210.726
 21
1055.438999999999
 31
0.0
  0
LINE
  5
1BB
330
1E
100
AcDbEntity
  8
0
100
AcDbLine
 10
225.09
 20
99.845
 30
0.0
 11
232.9299999999999
 21
99.845
 31
0.0
  0
LINE
  5
1BC
330
1E
100
AcDbEntity
  8
0
100
AcDbLine
 10
219.803
 20
99.845
 30
0.0
 11
225.09
 21
99.845
 31
0.0
  0
LINE
  5
1C1
330
1E
100
AcDbEntity
  8
0
100
AcDbLine
 10
219.803
 20
111.8449999999999
 30
0.0
 11
225.0009999999999
 21
111.8449999999999
 31
0.0
  0
LINE
  5
1C2
330
1E
100
AcDbEntity
  8
0
100
AcDbLine
 10
225.0009999999999
 20
111.8449999999999
 30
0.0
 11
232.7729999999999
 21
111.8449999999999
 31
0.0
  0
LINE
  5
1C3
330
1E
100
AcDbEntity
  8
0
100
AcDbLine
 10
225.068
 20
111.545
 30
0.0
 11
232.885
 21
111.545
 31
0.0
  0
LINE
  5
1C4
330
1E
100
AcDbEntity
  8
0
100
AcDbLine
 10
219.803
 20
111.545
 30
0.0
 11
225.068
 21
111.545
 31
0.0
  0
LINE
  5
1D0
330
1E
100
AcDbEntity
  8
0
100
AcDbLine
 10
214.6049999999999
 20
111.8449999999999
 30
0.0
 11
219.803
 21
111.8449999999999
 31
0.0
  0
LINE
  5
1D1
330
1E
100
AcDbEntity
  8
0
100
AcDbLine
 10
214.5379999999999
 20
111.545
 30
0.0
 11
219.803
 21
111.545
 31
0.0
  0
LINE
  5
1D2
330
1E
100
AcDbEntity
  8
0
100
AcDbLine
 10
214.516
 20
99.845
 30
0.0
 11
219.803
 21
99.845
 31
0.0
  0
LINE
  5
1D5
330
1E
100
AcDbEntity
  8
0
100
AcDbLine
 10
232.7729999999999
 20
111.8449999999999
 30
0.0
 11
242.7259999999999
 21
111.8449999999999
 31
0.0
  0
LINE
  5
1D6
330
1E
100
AcDbEntity
  8
0
100
AcDbLine
 10
232.885
 20
111.545
 30
0.0
 11
242.9729999999999
 21
111.545
 31
0.0
  0
LINE
  5
1DD
330
1E
100
AcDbEntity
  8
0
100
AcDbLine
 10
232.9299999999999
 20
99.845
 30
0.0
 11
243.0849999999999
 21
99.845
 31
0.0
  0
LINE
  5
1DE
330
1E
100
AcDbEntity
  8
0
100
AcDbLine
 10
241.410146106766
 20
689.0399999999999
 30
0.0
 11
246.905
 21
689.0399999999999
 31
0.0
  0
LINE
  5
1E1
330
1E
100
AcDbEntity
  8
0
100
AcDbLine
 10
242.7259999999999
 20
111.8449999999999
 30
0.0
 11
251.6609999999999
 21
111.8449999999999
 31
0.0
  0
LINE
  5
1E2
330
1E
100
AcDbEntity
  8
0
100
AcDbLine
 10
242.9729999999999
 20
111.545
 30
0.0
 11
251.8229999999999
 21
111.545
 31
0.0
  0
LINE
  5
1E3
330
1E
100
AcDbEntity
  8
0
100
AcDbLine
 10
243.0849999999999
 20
99.845
 30
0.0
 11
251.985
 21
99.845
 31
0.0
  0
LINE
  5
1E4
330
1E
100
AcDbEntity
  8
0
100
AcDbLine
 10
243.4747011308969
 20
228.8785332438279
 30
0.0
 11
258.734
 21
233.5119999999999
 31
0.0
  0
LINE
  5
1E5
330
1E
100
AcDbEntity
  8
0
100
AcDbLine
 10
243.4695162664089
 20
245.4984659990459
 30
0.0
 11
253.173
 21
248.455
 31
0.0
  0
LINE
  5
1E6
330
1E
100
AcDbEntity
  8
0
100
AcDbLine
 10
243.502
 20
141.3728
 30
0.0
 11
243.744509540679
 21
111.8449999999999
 31
0.0
  0
LINE
  5
1E7
330
1E
100
AcDbEntity
  8
0
100
AcDbLine
 10
243.4747011308969
 20
228.8785332438279
 30
0.0
 11
258.734
 21
233.5119999999999
 31
0.0
  0
LINE
  5
1E8
330
1E
100
AcDbEntity
  8
0
100
AcDbLine
 10
243.3436247721469
 20
649.04
 30
0.0
 11
246.905
 21
649.04
 31
0.0
  0
LINE
  5
1E9
330
1E
100
AcDbEntity
  8
0
100
AcDbLine
 10
243.3436247721469
 20
649.04
 30
0.0
 11
243.502
 21
141.3728
 31
0.0
  0
LINE
  5
1EA
330
1E
100
AcDbEntity
  8
0
100
AcDbLine
 10
243.3436247721469
 20
649.04
 30
0.0
 11
243.502
 21
141.3728
 31
0.0
  0
LINE
  5
1EB
330
1E
100
AcDbEntity
  8
0
100
AcDbLine
 10
241.4226247721469
 20
649.04
 30
0.0
 11
246.905
 21
649.04
 31
0.0
  0
LINE
  5
1EC
330
1E
100
AcDbEntity
  8
0
100
AcDbLine
 10
243.302
 20
782.467
 30
0.0
 11
243.331146106766
 21
689.0399999999999
 31
0.0
  0
LINE
  5
1ED
330
1E
100
AcDbEntity
  8
0
100
AcDbLine
 10
246.001
 20
743.832
 30
0.0
 11
246.127
 21
721.038
 31
0.0
  0
LINE
  5
1EE
330
1E
100
AcDbEntity
  8
0
100
AcDbLine
 10
246.001
 20
743.832
 30
0.0
 11
246.319
 21
761.962
 31
0.0
  0
LINE
  5
1EF
330
1E
100
AcDbEntity
  8
0
100
AcDbLine
 10
246.605
 20
649.04
 30
0.0
 11
247.005
 21
649.04
 31
0.0
  0
LINE
  5
1F0
330
1E
100
AcDbEntity
  8
0
100
AcDbLine
 10
247.005
 20
649.04
 30
0.0
 11
248.205
 21
649.04
 31
0.0
  0
LINE
  5
1F1
330
1E
100
AcDbEntity
  8
0
100
AcDbLine
 10
246.905
 20
649.04
 30
0.0
 11
247.6049999999999
 21
649.04
 31
0.0
  0
LINE
  5
1F2
330
1E
100
AcDbEntity
  8
0
100
AcDbLine
 10
246.905
 20
649.04
 30
0.0
 11
246.905
 21
689.0399999999999
 31
0.0
  0
LINE
  5
1F3
330
1E
100
AcDbEntity
  8
0
100
AcDbLine
 10
248.205
 20
649.04
 30
0.0
 11
249.805
 21
649.04
 31
0.0
  0
LINE
  5
1F4
330
1E
100
AcDbEntity
  8
0
100
AcDbLine
 10
247.6049999999999
 20
649.04
 30
0.0
 11
250.605
 21
649.04
 31
0.0
  0
LINE
  5
1F5
330
1E
100
AcDbEntity
  8
0
100
AcDbLine
 10
246.905
 20
689.0399999999999
 30
0.0
 11
247.6049999999999
 21
689.0399999999999
 31
0.0
  0
LINE
  5
1F6
330
1E
100
AcDbEntity
  8
0
100
AcDbLine
 10
246.905
 20
689.0399999999999
 30
0.0
 11
246.905
 21
649.04
 31
0.0
  0
LINE
  5
1F7
330
1E
100
AcDbEntity
  8
0
100
AcDbLine
 10
247.6049999999999
 20
689.0169999999999
 30
0.0
 11
248.3319999999999
 21
689.0169999999999
 31
0.0
  0
LINE
  5
1F9
330
1E
100
AcDbEntity
  8
0
100
AcDbLine
 10
251.6609999999999
 20
111.8449999999999
 30
0.0
 11
257.777
 21
111.8449999999999
 31
0.0
  0
LINE
  5
1FA
330
1E
100
AcDbEntity
  8
0
100
AcDbLine
 10
251.985
 20
99.845
 30
0.0
 11
258.125
 21
99.845
 31
0.0
  0
LINE
  5
1FB
330
1E
100
AcDbEntity
  8
0
100
AcDbLine
 10
249.805
 20
649.04
 30
0.0
 11
252.0049999999999
 21
649.04
 31
0.0
  0
LINE
  5
203
330
1E
100
AcDbEntity
  8
0
100
AcDbLine
 10
253.197654983571
 20
649.04
 30
0.0
 11
254.2129999999999
 21
632.8899999999999
 31
0.0
  0
LINE
  5
204
330
1E
100
AcDbEntity
  8
0
100
AcDbLine
 10
254.2129999999999
 20
632.8899999999999
 30
0.0
 11
258.02
 21
608.5830000000001
 31
0.0
  0
LINE
  5
205
330
1E
100
AcDbEntity
  8
0
100
AcDbLine
 10
253.173
 20
248.455
 30
0.0
 11
270.608
 21
257.3209999999999
 31
0.0
  0
LINE
  5
206
330
1E
100
AcDbEntity
  8
0
100
AcDbLine
 10
252.0049999999999
 20
649.04
 30
0.0
 11
254.705
 21
649.04
 31
0.0
  0
LINE
  5
207
330
1E
100
AcDbEntity
  8
0
100
AcDbLine
 10
252.0049999999999
 20
649.04
 30
0.0
 11
253.197654983571
 21
649.04
 31
0.0
  0
LINE
  5
208
330
1E
100
AcDbEntity
  8
0
100
AcDbLine
 10
250.605
 20
649.04
 30
0.0
 11
254.0049999999999
 21
649.04
 31
0.0
  0
LINE
  5
209
330
1E
100
AcDbEntity
  8
0
100
AcDbLine
 10
250.605
 20
649.04
 30
0.0
 11
253.197654983571
 21
649.04
 31
0.0
  0
LINE
  5
20A
330
1E
100
AcDbEntity
  8
0
100
AcDbLine
 10
254.705
 20
649.04
 30
0.0
 11
257.7509999999999
 21
649.04
 31
0.0
  0
LINE
  5
20B
330
1E
100
AcDbEntity
  8
0
100
AcDbLine
 10
254.0049999999999
 20
649.04
 30
0.0
 11
257.605
 21
649.04
 31
0.0
  0
LINE
  5
20C
330
1E
100
AcDbEntity
  8
0
100
AcDbLine
 10
257.777
 20
111.8449999999999
 30
0.0
 11
262.677
 21
111.8449999999999
 31
0.0
  0
LINE
  5
20D
330
1E
100
AcDbEntity
  8
0
100
AcDbLine
 10
257.997
 20
111.545
 30
0.0
 11
263.017
 21
111.545
 31
0.0
  0
LINE
  5
20F
330
1E
100
AcDbEntity
  8
0
100
AcDbLine
 10
258.125
 20
99.845
 30
0.0
 11
263.1489999999999
 21
99.845
 31
0.0
  0
LINE
  5
210
330
1E
100
AcDbEntity
  8
0
100
AcDbLine
 10
258.02
 20
608.5830000000001
 30
0.0
 11
263.228
 21
583.2799999999999
 31
0.0
  0
LINE
  5
211
330
1E
100
AcDbEntity
  8
0
100
AcDbLine
 10
258.734
 20
233.5119999999999
 30
0.0
 11
278.661
 21
243.474
 31
0.0
  0
LINE
  5
212
330
1E
100
AcDbEntity
  8
0
100
AcDbLine
 10
257.7509999999999
 20
649.04
 30
0.0
 11
260.5049999999999
 21
649.04
 31
0.0
  0
LINE
  5
213
330
1E
100
AcDbEntity
  8
0
100
AcDbLine
 10
257.605
 20
649.04
 30
0.0
 11
261.2049999999999
 21
649.04
 31
0.0
  0
LINE
  5
215
330
1E
100
AcDbEntity
  8
0
100
AcDbLine
 10
262.677
 20
111.8449999999999
 30
0.0
 11
265.395
 21
111.8449999999999
 31
0.0
  0
LINE
  5
216
330
1E
100
AcDbEntity
  8
0
100
AcDbLine
 10
263.017
 20
111.545
 30
0.0
 11
265.7189999999999
 21
111.545
 31
0.0
  0
LINE
  5
217
330
1E
100
AcDbEntity
  8
0
100
AcDbLine
 10
260.5049999999999
 20
649.04
 30
0.0
 11
263.105
 21
649.04
 31
0.0
  0
LINE
  5
218
330
1E
100
AcDbEntity
  8
0
100
AcDbLine
 10
261.2049999999999
 20
649.04
 30
0.0
 11
264.7049999999999
 21
649.04
 31
0.0
  0
LINE
  5
219
330
1E
100
AcDbEntity
  8
0
100
AcDbLine
 10
263.1489999999999
 20
99.845
 30
0.0
 11
265.8659999999999
 21
99.845
 31
0.0
  0
LINE
  5
21A
330
1E
100
AcDbEntity
  8
0
100
AcDbLine
 10
263.228
 20
583.2799999999999
 30
0.0
 11
270.1359999999999
 21
557.677
 31
0.0
  0
LINE
  5
21B
330
1E
100
AcDbEntity
  8
0
100
AcDbLine
 10
263.105
 20
649.04
 30
0.0
 11
265.105
 21
649.04
 31
0.0
  0
LINE
  5
21C
330
1E
100
AcDbEntity
  8
0
100
AcDbLine
 10
249.332
 20
689.018
 30
0.0
 11
255.9239999999999
 21
689.1469999999999
 31
0.0
  0
LINE
  5
21D
330
1E
100
AcDbEntity
  8
0
100
AcDbLine
 10
249.332
 20
689.018
 30
0.0
 11
250.60390391026
 21
689.025385470131
 31
0.0
  0
LINE
  5
21E
330
1E
100
AcDbEntity
  8
0
100
AcDbLine
 10
250.4562170542649
 20
689.0399999999999
 30
0.0
 11
250.605
 21
689.0399999999999
 31
0.0
  0
LINE
  5
21F
330
1E
100
AcDbEntity
  8
0
100
AcDbLine
 10
253.120775193804
 20
689.0399999999999
 30
0.0
 11
253.881750392902
 21
689.044418698266
 31
0.0
  0
LINE
  5
220
330
1E
100
AcDbEntity
  8
0
100
AcDbLine
 10
250.605
 20
689.0399999999999
 30
0.0
 11
254.0049999999999
 21
689.0399999999999
 31
0.0
  0
LINE
  5
221
330
1E
100
AcDbEntity
  8
0
100
AcDbLine
 10
254.0049999999999
 20
689.0399999999999
 30
0.0
 11
257.605
 21
689.0399999999999
 31
0.0
  0
LINE
  5
222
330
1E
100
AcDbEntity
  8
0
100
AcDbLine
 10
257.605
 20
689.0399999999999
 30
0.0
 11
261.2049999999999
 21
689.0399999999999
 31
0.0
  0
LINE
  5
223
330
1E
100
AcDbEntity
  8
0
100
AcDbLine
 10
255.9239999999999
 20
689.1469999999999
 30
0.0
 11
256.5904299999999
 21
689.1469999999999
 31
0.0
  0
LINE
  5
224
330
1E
100
AcDbEntity
  8
0
100
AcDbLine
 10
255.9239999999999
 20
689.1469999999999
 30
0.0
 11
256.5868466666669
 21
689.1469999999999
 31
0.0
  0
LINE
  5
225
330
1E
100
AcDbEntity
  8
0
100
AcDbLine
 10
262.5899999999999
 20
689.19
 30
0.0
 11
265.29
 21
689.19
 31
0.0
  0
LINE
  5
226
330
1E
100
AcDbEntity
  8
0
100
AcDbLine
 10
259.5899999999999
 20
689.19
 30
0.0
 11
262.5899999999999
 21
689.19
 31
0.0
  0
LINE
  5
227
330
1E
100
AcDbEntity
  8
0
100
AcDbLine
 10
256.5899999999999
 20
689.19
 30
0.0
 11
259.5899999999999
 21
689.19
 31
0.0
  0
LINE
  5
228
330
1E
100
AcDbEntity
  8
0
100
AcDbLine
 10
261.2049999999999
 20
689.0399999999999
 30
0.0
 11
264.7049999999999
 21
689.0399999999999
 31
0.0
  0
LINE
  5
229
330
1E
100
AcDbEntity
  8
0
100
AcDbLine
 10
264.7049999999999
 20
689.0399999999999
 30
0.0
 11
267.505
 21
689.0399999999999
 31
0.0
  0
LINE
  5
22A
330
1E
100
AcDbEntity
  8
0
100
AcDbLine
 10
264.7049999999999
 20
649.04
 30
0.0
 11
267.505
 21
649.04
 31
0.0
  0
LINE
  5
232
330
1E
100
AcDbEntity
  8
0
100
AcDbLine
 10
265.8659999999999
 20
99.845
 30
0.0
 11
268.104
 21
99.845
 31
0.0
  0
LINE
  5
235
330
1E
100
AcDbEntity
  8
0
100
AcDbLine
 10
268.104
 20
99.845
 30
0.0
 11
270.033
 21
99.845
 31
0.0
  0
LINE
  5
236
330
1E
100
AcDbEntity
  8
0
100
AcDbLine
 10
265.395
 20
111.8449999999999
 30
0.0
 11
267.565
 21
111.8449999999999
 31
0.0
  0
LINE
  5
237
330
1E
100
AcDbEntity
  8
0
100
AcDbLine
 10
267.565
 20
111.8449999999999
 30
0.0
 11
269.477
 21
111.8449999999999
 31
0.0
  0
LINE
  5
238
330
1E
100
AcDbEntity
  8
0
100
AcDbLine
 10
267.9159999999999
 20
111.545
 30
0.0
 11
269.872
 21
111.545
 31
0.0
  0
LINE
  5
239
330
1E
100
AcDbEntity
  8
0
100
AcDbLine
 10
265.7189999999999
 20
111.545
 30
0.0
 11
267.9159999999999
 21
111.545
 31
0.0
  0
LINE
  5
23A
330
1E
100
AcDbEntity
  8
0
100
AcDbLine
 10
267.506066637574
 20
99.845
 30
0.0
 11
268.104
 21
99.845
 31
0.0
  0
LINE
  5
23B
330
1E
100
AcDbEntity
  8
0
100
AcDbLine
 10
267.506066637574
 20
99.845
 30
0.0
 11
267.803
 21
99.28491499999999
 31
0.0
  0
LINE
  5
23C
330
1E
100
AcDbEntity
  8
0
100
AcDbLine
 10
269.0049999999999
 20
649.04
 30
0.0
 11
269.0049999999999
 21
689.0399999999999
 31
0.0
  0
LINE
  5
23D
330
1E
100
AcDbEntity
  8
0
100
AcDbLine
 10
269.0049999999999
 20
651.4702779321839
 30
0.0
 11
269.979
 21
635.6799999999999
 31
0.0
  0
LINE
  5
23E
330
1E
100
AcDbEntity
  8
0
100
AcDbLine
 10
269.0049999999999
 20
659.19
 30
0.0
 11
269.6899999999999
 21
659.19
 31
0.0
  0
LINE
  5
23F
330
1E
100
AcDbEntity
  8
0
100
AcDbLine
 10
267.6899999999999
 20
689.19
 30
0.0
 11
269.5899999999999
 21
689.19
 31
0.0
  0
LINE
  5
240
330
1E
100
AcDbEntity
  8
0
100
AcDbLine
 10
265.29
 20
689.19
 30
0.0
 11
267.6899999999999
 21
689.19
 31
0.0
  0
LINE
  5
241
330
1E
100
AcDbEntity
  8
0
100
AcDbLine
 10
267.505
 20
689.0399999999999
 30
0.0
 11
269.0049999999999
 21
689.0399999999999
 31
0.0
  0
LINE
  5
242
330
1E
100
AcDbEntity
  8
0
100
AcDbLine
 10
269.0049999999999
 20
689.0399999999999
 30
0.0
 11
269.0049999999999
 21
649.04
 31
0.0
  0
LINE
  5
243
330
1E
100
AcDbEntity
  8
0
100
AcDbLine
 10
267.505
 20
649.04
 30
0.0
 11
269.0049999999999
 21
649.04
 31
0.0
  0
LINE
  5
244
330
1E
100
AcDbEntity
  8
0
100
AcDbLine
 10
265.105
 20
649.04
 30
0.0
 11
269.0049999999999
 21
649.04
 31
0.0
  0
LINE
  5
246
330
1E
100
AcDbEntity
  8
0
100
AcDbLine
 10
248.3319999999999
 20
689.0169999999999
 30
0.0
 11
249.332
 21
689.018
 31
0.0
  0
LINE
  5
247
330
1E
100
AcDbEntity
  8
0
100
AcDbLine
 10
266.678
 20
760.868
 30
0.0
 11
268.6449999999999
 21
744.125
 31
0.0
  0
LINE
  5
248
330
1E
100
AcDbEntity
  8
0
100
AcDbLine
 10
268.6449999999999
 20
744.125
 30
0.0
 11
270.699
 21
721.1699999999999
 31
0.0
  0
LINE
  5
24E
330
1E
100
AcDbEntity
  8
0
100
AcDbLine
 10
264.9459999999999
 20
772.904
 30
0.0
 11
266.678
 21
760.868
 31
0.0
  0
LINE
  5
24F
330
1E
100
AcDbEntity
  8
0
100
AcDbLine
 10
262.908
 20
784.3719999999999
 30
0.0
 11
264.9459999999999
 21
772.904
 31
0.0
  0
LINE
  5
255
330
1E
100
AcDbEntity
  8
0
100
AcDbLine
 10
262.617
 20
793.691
 30
0.0
 11
262.9499999999999
 21
802.796
 31
0.0
  0
LINE
  5
256
330
1E
100
AcDbEntity
  8
0
100
AcDbLine
 10
262.617
 20
793.691
 30
0.0
 11
262.908
 21
784.3719999999999
 31
0.0
  0
LINE
  5
257
330
1E
100
AcDbEntity
  8
0
100
AcDbLine
 10
262.9499999999999
 20
802.796
 30
0.0
 11
263.254
 21
805.69
 31
0.0
  0
LINE
  5
25D
330
1E
100
AcDbEntity
  8
0
100
AcDbLine
 10
247.379
 20
795.821
 30
0.0
 11
247.7959999999999
 21
803.0460000000001
 31
0.0
  0
LINE
  5
25E
330
1E
100
AcDbEntity
  8
0
100
AcDbLine
 10
246.875
 20
784.9960000000001
 30
0.0
 11
247.379
 21
795.821
 31
0.0
  0
LINE
  5
25F
330
1E
100
AcDbEntity
  8
0
100
AcDbLine
 10
246.5969999999999
 20
773.4789999999999
 30
0.0
 11
246.875
 21
784.9960000000001
 31
0.0
  0
LINE
  5
260
330
1E
100
AcDbEntity
  8
0
100
AcDbLine
 10
246.319
 20
761.962
 30
0.0
 11
246.5969999999999
 21
773.4789999999999
 31
0.0
  0
LINE
  5
261
330
1E
100
AcDbEntity
  8
0
100
AcDbLine
 10
246.127
 20
721.038
 30
0.0
 11
246.33285846346
 21
689.0399999999999
 31
0.0
  0
LINE
  5
264
330
1E
100
AcDbEntity
  8
0
100
AcDbLine
 10
247.7959999999999
 20
803.0460000000001
 30
0.0
 11
248.116
 21
805.413
 31
0.0
  0
LINE
  5
265
330
1E
100
AcDbEntity
  8
0
100
AcDbLine
 10
269.477
 20
111.8449999999999
 30
0.0
 11
270.805
 21
111.8449999999999
 31
0.0
  0
LINE
  5
266
330
1E
100
AcDbEntity
  8
0
100
AcDbLine
 10
269.872
 20
111.545
 30
0.0
 11
271.238
 21
111.545
 31
0.0
  0
LINE
  5
267
330
1E
100
AcDbEntity
  8
0
100
AcDbLine
 10
270.033
 20
99.845
 30
0.0
 11
271.413
 21
99.845
 31
0.0
  0
LINE
  5
268
330
1E
100
AcDbEntity
  8
0
100
AcDbLine
 10
269.979
 20
635.6799999999999
 30
0.0
 11
272.974
 21
614.062
 31
0.0
  0
LINE
  5
26D
330
1E
100
AcDbEntity
  8
0
100
AcDbLine
 10
272.8859999999999
 20
99.845
 30
0.0
 11
274.163
 21
99.845
 31
0.0
  0
LINE
  5
26E
330
1E
100
AcDbEntity
  8
0
100
AcDbLine
 10
271.413
 20
99.845
 30
0.0
 11
272.8859999999999
 21
99.845
 31
0.0
  0
LINE
  5
26F
330
1E
100
AcDbEntity
  8
0
100
AcDbLine
 10
274.163
 20
99.845
 30
0.0
 11
275.2909999999999
 21
99.845
 31
0.0
  0
LINE
  5
270
330
1E
100
AcDbEntity
  8
0
100
AcDbLine
 10
275.2909999999999
 20
99.845
 30
0.0
 11
276.269
 21
99.845
 31
0.0
  0
LINE
  5
271
330
1E
100
AcDbEntity
  8
0
100
AcDbLine
 10
276.269
 20
99.845
 30
0.0
 11
277.061
 21
99.845
 31
0.0
  0
LINE
  5
272
330
1E
100
AcDbEntity
  8
0
100
AcDbLine
 10
277.061
 20
99.845
 30
0.0
 11
277.8379999999999
 21
99.845
 31
0.0
  0
LINE
  5
273
330
1E
100
AcDbEntity
  8
0
100
AcDbLine
 10
277.8379999999999
 20
99.845
 30
0.0
 11
278.3869999999999
 21
99.845
 31
0.0
  0
LINE
  5
274
330
1E
100
AcDbEntity
  8
0
100
AcDbLine
 10
278.3869999999999
 20
99.845
 30
0.0
 11
278.889
 21
99.845
 31
0.0
  0
LINE
  5
275
330
1E
100
AcDbEntity
  8
0
100
AcDbLine
 10
278.889
 20
99.845
 30
0.0
 11
279.487
 21
99.845
 31
0.0
  0
LINE
  5
278
330
1E
100
AcDbEntity
  8
0
100
AcDbLine
 10
279.487
 20
99.845
 30
0.0
 11
280.22
 21
99.845
 31
0.0
  0
LINE
  5
279
330
1E
100
AcDbEntity
  8
0
100
AcDbLine
 10
280.22
 20
99.845
 30
0.0
 11
280.8929999999999
 21
99.845
 31
0.0
  0
LINE
  5
27A
330
1E
100
AcDbEntity
  8
0
100
AcDbLine
 10
280.8929999999999
 20
99.845
 30
0.0
 11
281.4519999999999
 21
99.845
 31
0.0
  0
LINE
  5
27B
330
1E
100
AcDbEntity
  8
0
100
AcDbLine
 10
273.9629999999999
 20
111.545
 30
0.0
 11
275.0899999999999
 21
111.545
 31
0.0
  0
LINE
  5
27C
330
1E
100
AcDbEntity
  8
0
100
AcDbLine
 10
275.0899999999999
 20
111.545
 30
0.0
 11
276.095
 21
111.545
 31
0.0
  0
LINE
  5
27D
330
1E
100
AcDbEntity
  8
0
100
AcDbLine
 10
276.095
 20
111.545
 30
0.0
 11
276.873
 21
111.545
 31
0.0
  0
LINE
  5
27E
330
1E
100
AcDbEntity
  8
0
100
AcDbLine
 10
276.873
 20
111.545
 30
0.0
 11
277.6229999999999
 21
111.545
 31
0.0
  0
LINE
  5
27F
330
1E
100
AcDbEntity
  8
0
100
AcDbLine
 10
277.6229999999999
 20
111.545
 30
0.0
 11
278.1459999999999
 21
111.545
 31
0.0
  0
LINE
  5
280
330
1E
100
AcDbEntity
  8
0
100
AcDbLine
 10
278.1459999999999
 20
111.545
 30
0.0
 11
278.6379999999999
 21
111.545
 31
0.0
  0
LINE
  5
281
330
1E
100
AcDbEntity
  8
0
100
AcDbLine
 10
278.6379999999999
 20
111.545
 30
0.0
 11
279.228
 21
111.545
 31
0.0
  0
LINE
  5
282
330
1E
100
AcDbEntity
  8
0
100
AcDbLine
 10
279.9279999999999
 20
111.545
 30
0.0
 11
280.6459999999999
 21
111.545
 31
0.0
  0
LINE
  5
283
330
1E
100
AcDbEntity
  8
0
100
AcDbLine
 10
280.6459999999999
 20
111.545
 30
0.0
 11
281.184
 21
111.545
 31
0.0
  0
LINE
  5
284
330
1E
100
AcDbEntity
  8
0
100
AcDbLine
 10
272.672
 20
111.545
 30
0.0
 11
273.9629999999999
 21
111.545
 31
0.0
  0
LINE
  5
285
330
1E
100
AcDbEntity
  8
0
100
AcDbLine
 10
273.563
 20
111.8449999999999
 30
0.0
 11
274.742
 21
111.8449999999999
 31
0.0
  0
LINE
  5
286
330
1E
100
AcDbEntity
  8
0
100
AcDbLine
 10
274.742
 20
111.8449999999999
 30
0.0
 11
275.682
 21
111.8449999999999
 31
0.0
  0
LINE
  5
287
330
1E
100
AcDbEntity
  8
0
100
AcDbLine
 10
275.682
 20
111.8449999999999
 30
0.0
 11
276.4599999999999
 21
111.8449999999999
 31
0.0
  0
LINE
  5
288
330
1E
100
AcDbEntity
  8
0
100
AcDbLine
 10
276.4599999999999
 20
111.8449999999999
 30
0.0
 11
277.173
 21
111.8449999999999
 31
0.0
  0
LINE
  5
289
330
1E
100
AcDbEntity
  8
0
100
AcDbLine
 10
277.173
 20
111.8449999999999
 30
0.0
 11
277.692
 21
111.8449999999999
 31
0.0
  0
LINE
  5
28A
330
1E
100
AcDbEntity
  8
0
100
AcDbLine
 10
277.692
 20
111.8449999999999
 30
0.0
 11
278.1519999999999
 21
111.8449999999999
 31
0.0
  0
LINE
  5
28B
330
1E
100
AcDbEntity
  8
0
100
AcDbLine
 10
278.1519999999999
 20
111.8449999999999
 30
0.0
 11
278.8149999999999
 21
111.8449999999999
 31
0.0
  0
LINE
  5
28C
330
1E
100
AcDbEntity
  8
0
100
AcDbLine
 10
278.8149999999999
 20
111.8449999999999
 30
0.0
 11
279.5069999999999
 21
111.8449999999999
 31
0.0
  0
LINE
  5
28D
330
1E
100
AcDbEntity
  8
0
100
AcDbLine
 10
279.5069999999999
 20
111.8449999999999
 30
0.0
 11
280.154
 21
111.8449999999999
 31
0.0
  0
LINE
  5
28E
330
1E
100
AcDbEntity
  8
0
100
AcDbLine
 10
280.154
 20
111.8449999999999
 30
0.0
 11
280.669
 21
111.8449999999999
 31
0.0
  0
LINE
  5
28F
330
1E
100
AcDbEntity
  8
0
100
AcDbLine
 10
280.669
 20
111.8449999999999
 30
0.0
 11
280.937
 21
111.8449999999999
 31
0.0
  0
LINE
  5
290
330
1E
100
AcDbEntity
  8
0
100
AcDbLine
 10
272.294
 20
111.8449999999999
 30
0.0
 11
273.563
 21
111.8449999999999
 31
0.0
  0
LINE
  5
291
330
1E
100
AcDbEntity
  8
0
100
AcDbLine
 10
270.805
 20
111.8449999999999
 30
0.0
 11
272.294
 21
111.8449999999999
 31
0.0
  0
LINE
  5
292
330
1E
100
AcDbEntity
  8
0
100
AcDbLine
 10
271.238
 20
111.545
 30
0.0
 11
272.672
 21
111.545
 31
0.0
  0
LINE
  5
293
330
1E
100
AcDbEntity
  8
0
100
AcDbLine
 10
281.184
 20
111.545
 30
0.0
 11
281.4519999999999
 21
111.545
 31
0.0
  0
LINE
  5
294
330
1E
100
AcDbEntity
  8
0
100
AcDbLine
 10
281.4519999999999
 20
111.545
 30
0.0
 11
281.563
 21
111.545
 31
0.0
  0
LINE
  5
295
330
1E
100
AcDbEntity
  8
0
100
AcDbLine
 10
280.937
 20
111.8449999999999
 30
0.0
 11
281.0029999999999
 21
111.8449999999999
 31
0.0
  0
LINE
  5
296
330
1E
100
AcDbEntity
  8
0
100
AcDbLine
 10
281.0029999999999
 20
111.8449999999999
 30
0.0
 11
281.563
 21
111.545
 31
0.0
  0
LINE
  5
297
330
1E
100
AcDbEntity
  8
0
100
AcDbLine
 10
281.563
 20
111.545
 30
0.0
 11
281.8029999999999
 21
110.8449999999999
 31
0.0
  0
LINE
  5
298
330
1E
100
AcDbEntity
  8
0
100
AcDbLine
 10
281.4519999999999
 20
99.845
 30
0.0
 11
281.721
 21
99.845
 31
0.0
  0
LINE
  5
2AA
330
1E
100
AcDbEntity
  8
0
100
AcDbLine
 10
281.8029999999999
 20
99.845
 30
0.0
 11
281.8029999999999
 21
110.8449999999999
 31
0.0
  0
LINE
  5
2AB
330
1E
100
AcDbEntity
  8
0
100
AcDbLine
 10
281.8029999999999
 20
110.8449999999999
 30
0.0
 11
281.8029999999999
 21
99.845
 31
0.0
  0
LINE
  5
2AC
330
1E
100
AcDbEntity
  8
0
100
AcDbLine
 10
281.721
 20
99.845
 30
0.0
 11
281.8029999999999
 21
99.845
 31
0.0
  0
LINE
  5
2AD
330
1E
100
AcDbEntity
  8
0
100
AcDbLine
 10
270.1359999999999
 20
557.677
 30
0.0
 11
278.6319999999999
 21
534.2669999999999
 31
0.0
  0
LINE
  5
2AE
330
1E
100
AcDbEntity
  8
0
100
AcDbLine
 10
272.974
 20
614.062
 30
0.0
 11
277.678
 21
589.954
 31
0.0
  0
LINE
  5
2AF
330
1E
100
AcDbEntity
  8
0
100
AcDbLine
 10
277.678
 20
589.954
 30
0.0
 11
283.9809999999999
 21
565.6469999999999
 31
0.0
  0
LINE
  5
2B0
330
1E
100
AcDbEntity
  8
0
100
AcDbLine
 10
283.9809999999999
 20
565.6469999999999
 30
0.0
 11
291.974
 21
542.9339999999999
 31
0.0
  0
LINE
  5
2B1
330
1E
100
AcDbEntity
  8
0
100
AcDbLine
 10
278.6319999999999
 20
534.2669999999999
 30
0.0
 11
288.112
 21
514.0439999999999
 31
0.0
  0
LINE
  5
2B2
330
1E
100
AcDbEntity
  8
0
100
AcDbLine
 10
288.112
 20
514.0439999999999
 30
0.0
 11
301.296
 21
491.6299999999999
 31
0.0
  0
LINE
  5
2B5
330
1E
100
AcDbEntity
  8
0
100
AcDbLine
 10
301.296
 20
491.6299999999999
 30
0.0
 11
311.668
 21
471.802
 31
0.0
  0
LINE
  5
2BA
330
1E
100
AcDbEntity
  8
0
100
AcDbLine
 10
291.974
 20
542.9339999999999
 30
0.0
 11
301.051
 21
523.408
 31
0.0
  0
LINE
  5
2BB
330
1E
100
AcDbEntity
  8
0
100
AcDbLine
 10
301.051
 20
523.408
 30
0.0
 11
313.4329999999999
 21
501.8909999999999
 31
0.0
  0
LINE
  5
2C8
330
1E
100
AcDbEntity
  8
0
100
AcDbLine
 10
311.668
 20
471.802
 30
0.0
 11
321.352
 21
450.6819999999999
 31
0.0
  0
LINE
  5
2CF
330
1E
100
AcDbEntity
  8
0
100
AcDbLine
 10
321.352
 20
450.6819999999999
 30
0.0
 11
327.1399999999999
 21
429.663
 31
0.0
  0
LINE
  5
2D0
330
1E
100
AcDbEntity
  8
0
100
AcDbLine
 10
313.4329999999999
 20
501.8909999999999
 30
0.0
 11
325.5129999999999
 21
479.7709999999999
 31
0.0
  0
LINE
  5
2D1
330
1E
100
AcDbEntity
  8
0
100
AcDbLine
 10
327.1399999999999
 20
429.663
 30
0.0
 11
330.933
 21
408.344
 31
0.0
  0
LINE
  5
2D2
330
1E
100
AcDbEntity
  8
0
100
AcDbLine
 10
325.5129999999999
 20
479.7709999999999
 30
0.0
 11
336.3059999999999
 21
456.1609999999999
 31
0.0
  0
LINE
  5
2D3
330
1E
100
AcDbEntity
  8
0
100
AcDbLine
 10
330.933
 20
408.344
 30
0.0
 11
332.2189999999999
 21
389.217
 31
0.0
  0
LINE
  5
2D4
330
1E
100
AcDbEntity
  8
0
100
AcDbLine
 10
346.9069999999999
 20
409.1409999999999
 30
0.0
 11
348.1969999999999
 21
389.217
 31
0.0
  0
LINE
  5
2D5
330
1E
100
AcDbEntity
  8
0
100
AcDbLine
 10
342.906
 20
432.4519999999999
 30
0.0
 11
346.9069999999999
 21
409.1409999999999
 31
0.0
  0
LINE
  5
2D6
330
1E
100
AcDbEntity
  8
0
100
AcDbLine
 10
336.3059999999999
 20
456.1609999999999
 30
0.0
 11
342.906
 21
432.4519999999999
 31
0.0
  0
LINE
  5
2D7
330
1E
100
AcDbEntity
  8
0
100
AcDbLine
 10
331.108
 20
370.0899999999999
 30
0.0
 11
332.2189999999999
 21
389.217
 31
0.0
  0
LINE
  5
2D8
330
1E
100
AcDbEntity
  8
0
100
AcDbLine
 10
347.0899999999999
 20
369.293
 30
0.0
 11
348.1969999999999
 21
389.217
 31
0.0
  0
LINE
  5
2D9
330
1E
100
AcDbEntity
  8
0
100
AcDbLine
 10
327.5109999999999
 20
348.7719999999999
 30
0.0
 11
331.108
 21
370.0899999999999
 31
0.0
  0
LINE
  5
2DA
330
1E
100
AcDbEntity
  8
0
100
AcDbLine
 10
343.3019999999999
 20
345.9819999999999
 30
0.0
 11
347.0899999999999
 21
369.293
 31
0.0
  0
LINE
  5
2DB
330
1E
100
AcDbEntity
  8
0
100
AcDbLine
 10
321.915
 20
327.7519999999999
 30
0.0
 11
327.5109999999999
 21
348.7719999999999
 31
0.0
  0
LINE
  5
2DC
330
1E
100
AcDbEntity
  8
0
100
AcDbLine
 10
336.919
 20
322.2729999999999
 30
0.0
 11
343.3019999999999
 21
345.9819999999999
 31
0.0
  0
LINE
  5
2DD
330
1E
100
AcDbEntity
  8
0
100
AcDbLine
 10
312.4249999999999
 20
306.6329999999999
 30
0.0
 11
321.915
 21
327.7519999999999
 31
0.0
  0
LINE
  5
2DE
330
1E
100
AcDbEntity
  8
0
100
AcDbLine
 10
326.3419999999999
 20
298.663
 30
0.0
 11
336.919
 21
322.2729999999999
 31
0.0
  0
LINE
  5
2DF
330
1E
100
AcDbEntity
  8
0
100
AcDbLine
 10
302.225
 20
287.8049999999999
 30
0.0
 11
312.4249999999999
 21
306.6329999999999
 31
0.0
  0
LINE
  5
2E0
330
1E
100
AcDbEntity
  8
0
100
AcDbLine
 10
314.4549999999999
 20
277.544
 30
0.0
 11
326.3419999999999
 21
298.663
 31
0.0
  0
LINE
  5
2E1
330
1E
100
AcDbEntity
  8
0
100
AcDbLine
 10
288.3129999999999
 20
272.862
 30
0.0
 11
302.225
 21
287.8049999999999
 31
0.0
  0
LINE
  5
2E2
330
1E
100
AcDbEntity
  8
0
100
AcDbLine
 10
298.653
 20
260.907
 30
0.0
 11
314.4549999999999
 21
277.544
 31
0.0
  0
LINE
  5
2E3
330
1E
100
AcDbEntity
  8
0
100
AcDbLine
 10
270.608
 20
257.3209999999999
 30
0.0
 11
288.3129999999999
 21
272.862
 31
0.0
  0
LINE
  5
2E4
330
1E
100
AcDbEntity
  8
0
100
AcDbLine
 10
278.661
 20
243.474
 30
0.0
 11
298.653
 21
260.907
 31
0.0
  0
LINE
  5
2E5
330
1E
100
AcDbEntity
  8
0
100
AcDbLine
 10
270.0899999999999
 20
659.19
 30
0.0
 11
271.0885666666669
 21
689.1469999999999
 31
0.0
  0
LINE
  5
2E6
330
1E
100
AcDbEntity
  8
0
100
AcDbLine
 10
271.0878686488389
 20
689.1443281893999
 30
0.0
 11
271.5479999999999
 21
689.1469999999999
 31
0.0
  0
LINE
  5
2E7
330
1E
100
AcDbEntity
  8
0
100
AcDbLine
 10
271.087993333333
 20
689.1469999999999
 30
0.0
 11
271.5479999999999
 21
689.1469999999999
 31
0.0
  0
LINE
  5
2E8
330
1E
100
AcDbEntity
  8
0
100
AcDbLine
 10
270.792
 20
689.1469999999999
 30
0.0
 11
271.5479999999999
 21
689.1469999999999
 31
0.0
  0
LINE
  5
2E9
330
1E
100
AcDbEntity
  8
0
100
AcDbLine
 10
270.687133333333
 20
689.1469999999999
 30
0.0
 11
270.792
 21
689.1469999999999
 31
0.0
  0
LINE
  5
2EA
330
1E
100
AcDbEntity
  8
0
100
AcDbLine
 10
271.0885666666669
 20
689.1469999999999
 30
0.0
 11
271.5479999999999
 21
689.1469999999999
 31
0.0
  0
LINE
  5
2EB
330
1E
100
AcDbEntity
  8
0
100
AcDbLine
 10
270.699
 20
721.1699999999999
 30
0.0
 11
271.5479999999999
 21
689.1469999999999
 31
0.0
  0
LINE
  5
2EC
330
1E
100
AcDbEntity
  8
0
100
AcDbLine
 10
269.5899999999999
 20
689.19
 30
0.0
 11
270.69
 21
689.19
 31
0.0
  0
LINE
  5
2ED
330
1E
100
AcDbEntity
  8
0
100
AcDbLine
 10
269.6899999999999
 20
659.19
 30
0.0
 11
270.0899999999999
 21
659.19
 31
0.0
  0
LINE
  5
2EE
330
1E
100
AcDbEntity
  8
0
100
AcDbLine
 10
263.254
 20
805.69
 30
0.0
 11
264.372
 21
812.2099999999999
 31
0.0
  0
LINE
  5
2F6
330
1E
100
AcDbEntity
  8
0
100
AcDbLine
 10
264.372
 20
812.2099999999999
 30
0.0
 11
265.81
 21
818.748
 31
0.0
  0
LINE
  5
2FD
330
1E
100
AcDbEntity
  8
0
100
AcDbLine
 10
248.78
 20
808.807
 30
0.0
 11
250.2879999999999
 21
814.5599999999999
 31
0.0
  0
LINE
  5
2FE
330
1E
100
AcDbEntity
  8
0
100
AcDbLine
 10
243.002
 20
905.7479999999999
 30
0.0
 11
243.002
 21
864.6539999999999
 31
0.0
  0
LINE
  5
2FF
330
1E
100
AcDbEntity
  8
0
100
AcDbLine
 10
243.002
 20
905.7479999999999
 30
0.0
 11
243.102
 21
919.4460000000001
 31
0.0
  0
LINE
  5
300
330
1E
100
AcDbEntity
  8
0
100
AcDbLine
 10
243.102
 20
919.4460000000001
 30
0.0
 11
243.302
 21
933.1439999999998
 31
0.0
  0
LINE
  5
301
330
1E
100
AcDbEntity
  8
0
100
AcDbLine
 10
243.302
 20
933.1439999999998
 30
0.0
 11
243.428
 21
941.7480000000001
 31
0.0
  0
LINE
  5
302
330
1E
100
AcDbEntity
  8
0
100
AcDbLine
 10
243.002
 20
864.6539999999999
 30
0.0
 11
243.102
 21
823.5599999999999
 31
0.0
  0
LINE
  5
303
330
1E
100
AcDbEntity
  8
0
100
AcDbLine
 10
243.002
 20
864.6539999999999
 30
0.0
 11
243.002
 21
905.7479999999999
 31
0.0
  0
LINE
  5
304
330
1E
100
AcDbEntity
  8
0
100
AcDbLine
 10
243.102
 20
823.5599999999999
 30
0.0
 11
243.302
 21
782.467
 31
0.0
  0
LINE
  5
31A
330
1E
100
AcDbEntity
  8
0
100
AcDbLine
 10
251.385
 20
817.9389999999999
 30
0.0
 11
257.239
 21
835.9529999999999
 31
0.0
  0
LINE
  5
31B
330
1E
100
AcDbEntity
  8
0
100
AcDbLine
 10
265.81
 20
818.748
 30
0.0
 11
268.2252110385299
 21
827.174196924572
 31
0.0
  0
LINE
  5
31C
330
1E
100
AcDbEntity
  8
0
100
AcDbLine
 10
265.824066246769
 20
828.503784579264
 30
0.0
 11
266.2609999999999
 21
828.3619999999999
 31
0.0
  0
LINE
  5
31D
330
1E
100
AcDbEntity
  8
0
100
AcDbLine
 10
266.2609999999999
 20
828.3619999999999
 30
0.0
 11
266.336
 21
829.442
 31
0.0
  0
LINE
  5
31E
330
1E
100
AcDbEntity
  8
0
100
AcDbLine
 10
266.2609999999999
 20
828.3619999999999
 30
0.0
 11
266.703
 21
827.7449999999999
 31
0.0
  0
LINE
  5
31F
330
1E
100
AcDbEntity
  8
0
100
AcDbLine
 10
266.336
 20
829.442
 30
0.0
 11
266.91
 21
830.3589999999999
 31
0.0
  0
LINE
  5
320
330
1E
100
AcDbEntity
  8
0
100
AcDbLine
 10
265.750056258306
 20
829.632138176038
 30
0.0
 11
266.336
 21
829.442
 31
0.0
  0
LINE
  5
321
330
1E
100
AcDbEntity
  8
0
100
AcDbLine
 10
266.91
 20
830.3589999999999
 30
0.0
 11
267.6299999999999
 21
830.5980000000001
 31
0.0
  0
LINE
  5
322
330
1E
100
AcDbEntity
  8
0
100
AcDbLine
 10
266.473388507511
 20
830.5009622370539
 30
0.0
 11
266.91
 21
830.3589999999999
 31
0.0
  0
LINE
  5
323
330
1E
100
AcDbEntity
  8
0
100
AcDbLine
 10
267.4003384466459
 20
830.6725249513789
 30
0.0
 11
267.6299999999999
 21
830.5980000000001
 31
0.0
  0
LINE
  5
325
330
1E
100
AcDbEntity
  8
0
100
AcDbLine
 10
267.6299999999999
 20
830.5980000000001
 30
0.0
 11
268.0719999999999
 21
829.982
 31
0.0
  0
LINE
  5
326
330
1E
100
AcDbEntity
  8
0
100
AcDbLine
 10
267.423
 20
827.984
 30
0.0
 11
267.997
 21
828.9010000000001
 31
0.0
  0
LINE
  5
327
330
1E
100
AcDbEntity
  8
0
100
AcDbLine
 10
266.196398407335
 20
827.9093917256089
 30
0.0
 11
266.703
 21
827.7449999999999
 31
0.0
  0
LINE
  5
328
330
1E
100
AcDbEntity
  8
0
100
AcDbLine
 10
266.703
 20
827.7449999999999
 30
0.0
 11
267.423
 21
827.984
 31
0.0
  0
LINE
  5
329
330
1E
100
AcDbEntity
  8
0
100
AcDbLine
 10
267.997
 20
828.9010000000001
 30
0.0
 11
268.0719999999999
 21
829.982
 31
0.0
  0
LINE
  5
32A
330
1E
100
AcDbEntity
  8
0
100
AcDbLine
 10
268.2252110385299
 20
827.174196924572
 30
0.0
 11
268.908
 21
826.9
 31
0.0
  0
LINE
  5
32B
330
1E
100
AcDbEntity
  8
0
100
AcDbLine
 10
268.1438025580569
 20
827.6920849455768
 30
0.0
 11
268.779
 21
827.4370000000001
 31
0.0
  0
LINE
  5
32C
330
1E
100
AcDbEntity
  8
0
100
AcDbLine
 10
268.779
 20
827.4370000000001
 30
0.0
 11
269.043
 21
828.462
 31
0.0
  0
LINE
  5
32D
330
1E
100
AcDbEntity
  8
0
100
AcDbLine
 10
268.779
 20
827.4370000000001
 30
0.0
 11
268.908
 21
826.9
 31
0.0
  0
LINE
  5
32E
330
1E
100
AcDbEntity
  8
0
100
AcDbLine
 10
269.043
 20
828.462
 30
0.0
 11
269.562
 21
829.385
 31
0.0
  0
LINE
  5
32F
330
1E
100
AcDbEntity
  8
0
100
AcDbLine
 10
268.573386333375
 20
828.650589198701
 30
0.0
 11
269.043
 21
828.462
 31
0.0
  0
LINE
  5
330
330
1E
100
AcDbEntity
  8
0
100
AcDbLine
 10
268.914099464104
 20
838.01389325327
 30
0.0
 11
269.759
 21
837.739
 31
0.0
  0
LINE
  5
331
330
1E
100
AcDbEntity
  8
0
100
AcDbLine
 10
269.0493682117509
 20
829.5909810807339
 30
0.0
 11
269.562
 21
829.385
 31
0.0
  0
LINE
  5
332
330
1E
100
AcDbEntity
  8
0
100
AcDbLine
 10
269.238445126172
 20
839.012581478126
 30
0.0
 11
269.835
 21
838.8189999999999
 31
0.0
  0
LINE
  5
333
330
1E
100
AcDbEntity
  8
0
100
AcDbLine
 10
269.494972641237
 20
829.89665352077
 30
0.0
 11
271.661
 21
834.3849999999999
 31
0.0
  0
LINE
  5
334
330
1E
100
AcDbEntity
  8
0
100
AcDbLine
 10
269.759
 20
837.739
 30
0.0
 11
269.835
 21
838.8189999999999
 31
0.0
  0
LINE
  5
335
330
1E
100
AcDbEntity
  8
0
100
AcDbLine
 10
269.759
 20
837.739
 30
0.0
 11
270.202
 21
837.1219999999999
 31
0.0
  0
LINE
  5
336
330
1E
100
AcDbEntity
  8
0
100
AcDbLine
 10
269.835
 20
838.8189999999999
 30
0.0
 11
270.408
 21
839.737
 31
0.0
  0
LINE
  5
337
330
1E
100
AcDbEntity
  8
0
100
AcDbLine
 10
269.717971640847
 20
839.9610583675908
 30
0.0
 11
270.408
 21
839.737
 31
0.0
  0
LINE
  5
338
330
1E
100
AcDbEntity
  8
0
100
AcDbLine
 10
269.4573304083369
 20
837.364125924115
 30
0.0
 11
270.202
 21
837.1219999999999
 31
0.0
  0
LINE
  5
339
330
1E
100
AcDbEntity
  8
0
100
AcDbLine
 10
269.562
 20
829.385
 30
0.0
 11
270.0269999999999
 21
829.6829999999999
 31
0.0
  0
LINE
  5
33A
330
1E
100
AcDbEntity
  8
0
100
AcDbLine
 10
269.3444386672559
 20
829.9571055125841
 30
0.0
 11
270.0269999999999
 21
829.6829999999999
 31
0.0
  0
LINE
  5
33B
330
1E
100
AcDbEntity
  8
0
100
AcDbLine
 10
269.892
 20
828.1210000000001
 30
0.0
 11
270.156
 21
829.146
 31
0.0
  0
LINE
  5
33C
330
1E
100
AcDbEntity
  8
0
100
AcDbLine
 10
269.3729999999999
 20
827.1979999999999
 30
0.0
 11
269.892
 21
828.1210000000001
 31
0.0
  0
LINE
  5
33D
330
1E
100
AcDbEntity
  8
0
100
AcDbLine
 10
268.012647901815
 20
827.2595588177098
 30
0.0
 11
268.908
 21
826.9
 31
0.0
  0
LINE
  5
33E
330
1E
100
AcDbEntity
  8
0
100
AcDbLine
 10
268.908
 20
826.9
 30
0.0
 11
269.3729999999999
 21
827.1979999999999
 31
0.0
  0
LINE
  5
344
330
1E
100
AcDbEntity
  8
0
100
AcDbLine
 10
251.1279999999999
 20
817.148
 30
0.0
 11
251.385
 21
817.9389999999999
 31
0.0
  0
LINE
  5
345
330
1E
100
AcDbEntity
  8
0
100
AcDbLine
 10
250.81
 20
816.169
 30
0.0
 11
251.1279999999999
 21
817.148
 31
0.0
  0
LINE
  5
346
330
1E
100
AcDbEntity
  8
0
100
AcDbLine
 10
250.2879999999999
 20
814.5599999999999
 30
0.0
 11
250.81
 21
816.169
 31
0.0
  0
LINE
  5
347
330
1E
100
AcDbEntity
  8
0
100
AcDbLine
 10
271.661
 20
834.3849999999999
 30
0.0
 11
272.473181117868
 21
836.3427905800199
 31
0.0
  0
LINE
  5
348
330
1E
100
AcDbEntity
  8
0
100
AcDbLine
 10
270.408
 20
839.737
 30
0.0
 11
271.129
 21
839.975
 31
0.0
  0
LINE
  5
349
330
1E
100
AcDbEntity
  8
0
100
AcDbLine
 10
271.129
 20
839.975
 30
0.0
 11
271.5709999999999
 21
839.3589999999999
 31
0.0
  0
LINE
  5
34A
330
1E
100
AcDbEntity
  8
0
100
AcDbLine
 10
270.7726944721969
 20
840.090851118607
 30
0.0
 11
271.129
 21
839.975
 31
0.0
  0
LINE
  5
34B
330
1E
100
AcDbEntity
  8
0
100
AcDbLine
 10
271.496
 20
838.2799999999999
 30
0.0
 11
271.5709999999999
 21
839.3589999999999
 31
0.0
  0
LINE
  5
34C
330
1E
100
AcDbEntity
  8
0
100
AcDbLine
 10
270.922
 20
837.3619999999998
 30
0.0
 11
271.496
 21
838.2799999999999
 31
0.0
  0
LINE
  5
34D
330
1E
100
AcDbEntity
  8
0
100
AcDbLine
 10
270.202
 20
837.1219999999999
 30
0.0
 11
270.922
 21
837.3619999999998
 31
0.0
  0
LINE
  5
34E
330
1E
100
AcDbEntity
  8
0
100
AcDbLine
 10
270.0269999999999
 20
829.6829999999999
 30
0.0
 11
270.156
 21
829.146
 31
0.0
  0
LINE
  5
34F
330
1E
100
AcDbEntity
  8
0
100
AcDbLine
 10
272.473181117868
 20
836.3427905800199
 30
0.0
 11
273.082
 21
836.1449999999999
 31
0.0
  0
LINE
  5
350
330
1E
100
AcDbEntity
  8
0
100
AcDbLine
 10
272.0496938337719
 20
836.9537528061339
 30
0.0
 11
272.9159999999999
 21
836.672
 31
0.0
  0
LINE
  5
351
330
1E
100
AcDbEntity
  8
0
100
AcDbLine
 10
272.1884172049269
 20
838.012239563276
 30
0.0
 11
273.11
 21
837.7119999999999
 31
0.0
  0
LINE
  5
352
330
1E
100
AcDbEntity
  8
0
100
AcDbLine
 10
272.0047624178939
 20
847.524278775835
 30
0.0
 11
272.85
 21
847.25
 31
0.0
  0
LINE
  5
354
330
1E
100
AcDbEntity
  8
0
100
AcDbLine
 10
272.3295438662869
 20
848.5235494370551
 30
0.0
 11
272.926
 21
848.3299999999999
 31
0.0
  0
LINE
  5
355
330
1E
100
AcDbEntity
  8
0
100
AcDbLine
 10
272.786688230278
 20
846.797191542895
 30
0.0
 11
273.293
 21
846.6330000000001
 31
0.0
  0
LINE
  5
356
330
1E
100
AcDbEntity
  8
0
100
AcDbLine
 10
272.775391074973
 20
838.925808203667
 30
0.0
 11
273.565
 21
838.6689999999999
 31
0.0
  0
LINE
  5
357
330
1E
100
AcDbEntity
  8
0
100
AcDbLine
 10
272.2409744039
 20
836.418228944348
 30
0.0
 11
273.082
 21
836.1449999999999
 31
0.0
  0
LINE
  5
358
330
1E
100
AcDbEntity
  8
0
100
AcDbLine
 10
272.85
 20
847.25
 30
0.0
 11
272.926
 21
848.3299999999999
 31
0.0
  0
LINE
  5
359
330
1E
100
AcDbEntity
  8
0
100
AcDbLine
 10
272.85
 20
847.25
 30
0.0
 11
273.293
 21
846.6330000000001
 31
0.0
  0
LINE
  5
35A
330
1E
100
AcDbEntity
  8
0
100
AcDbLine
 10
272.926
 20
848.3299999999999
 30
0.0
 11
273.4979999999999
 21
849.2469999999999
 31
0.0
  0
LINE
  5
35B
330
1E
100
AcDbEntity
  8
0
100
AcDbLine
 10
272.8988832834709
 20
849.442052238456
 30
0.0
 11
273.4979999999999
 21
849.2469999999999
 31
0.0
  0
LINE
  5
35C
330
1E
100
AcDbEntity
  8
0
100
AcDbLine
 10
272.9159999999999
 20
836.672
 30
0.0
 11
273.11
 21
837.7119999999999
 31
0.0
  0
LINE
  5
35D
330
1E
100
AcDbEntity
  8
0
100
AcDbLine
 10
272.9159999999999
 20
836.672
 30
0.0
 11
273.082
 21
836.1449999999999
 31
0.0
  0
LINE
  5
35E
330
1E
100
AcDbEntity
  8
0
100
AcDbLine
 10
273.11
 20
837.7119999999999
 30
0.0
 11
273.565
 21
838.6689999999999
 31
0.0
  0
LINE
  5
35F
330
1E
100
AcDbEntity
  8
0
100
AcDbLine
 10
273.6262909443989
 20
839.1224015638789
 30
0.0
 11
274.243
 21
840.6089999999998
 31
0.0
  0
LINE
  5
360
330
1E
100
AcDbEntity
  8
0
100
AcDbLine
 10
273.565
 20
838.6689999999999
 30
0.0
 11
274.009
 21
838.9980000000001
 31
0.0
  0
LINE
  5
361
330
1E
100
AcDbEntity
  8
0
100
AcDbLine
 10
273.4979999999999
 20
849.2469999999999
 30
0.0
 11
274.2189999999999
 21
849.487
 31
0.0
  0
LINE
  5
362
330
1E
100
AcDbEntity
  8
0
100
AcDbLine
 10
273.293
 20
846.6330000000001
 30
0.0
 11
274.0129999999999
 21
846.8719999999999
 31
0.0
  0
LINE
  5
363
330
1E
100
AcDbEntity
  8
0
100
AcDbLine
 10
273.279118360879
 20
839.2352518131581
 30
0.0
 11
274.009
 21
838.9980000000001
 31
0.0
  0
LINE
  5
364
330
1E
100
AcDbEntity
  8
0
100
AcDbLine
 10
274.243
 20
840.6089999999998
 30
0.0
 11
275.95407095037
 21
845.7267186982239
 31
0.0
  0
LINE
  5
365
330
1E
100
AcDbEntity
  8
0
100
AcDbLine
 10
274.2189999999999
 20
849.487
 30
0.0
 11
274.662
 21
848.8699999999999
 31
0.0
  0
LINE
  5
366
330
1E
100
AcDbEntity
  8
0
100
AcDbLine
 10
274.0641665404909
 20
849.537143221211
 30
0.0
 11
274.2189999999999
 21
849.487
 31
0.0
  0
LINE
  5
367
330
1E
100
AcDbEntity
  8
0
100
AcDbLine
 10
274.0129999999999
 20
846.8719999999999
 30
0.0
 11
274.5859999999999
 21
847.7899999999999
 31
0.0
  0
LINE
  5
368
330
1E
100
AcDbEntity
  8
0
100
AcDbLine
 10
274.5859999999999
 20
847.7899999999999
 30
0.0
 11
274.662
 21
848.8699999999999
 31
0.0
  0
LINE
  5
369
330
1E
100
AcDbEntity
  8
0
100
AcDbLine
 10
275.1143777062329
 20
846.472494151703
 30
0.0
 11
276.0059999999999
 21
846.183
 31
0.0
  0
LINE
  5
36A
330
1E
100
AcDbEntity
  8
0
100
AcDbLine
 10
275.9483265425009
 20
845.728582777599
 30
0.0
 11
276.172
 21
845.6560000000001
 31
0.0
  0
LINE
  5
36B
330
1E
100
AcDbEntity
  8
0
100
AcDbLine
 10
275.5455506118519
 20
847.4360572238518
 30
0.0
 11
276.2009999999999
 21
847.2230000000001
 31
0.0
  0
LINE
  5
36C
330
1E
100
AcDbEntity
  8
0
100
AcDbLine
 10
276.0059999999999
 20
846.183
 30
0.0
 11
276.2009999999999
 21
847.2230000000001
 31
0.0
  0
LINE
  5
36D
330
1E
100
AcDbEntity
  8
0
100
AcDbLine
 10
276.0059999999999
 20
846.183
 30
0.0
 11
276.172
 21
845.6560000000001
 31
0.0
  0
LINE
  5
36E
330
1E
100
AcDbEntity
  8
0
100
AcDbLine
 10
275.9770389111299
 20
848.4003251215538
 30
0.0
 11
276.656
 21
848.1799999999999
 31
0.0
  0
LINE
  5
36F
330
1E
100
AcDbEntity
  8
0
100
AcDbLine
 10
275.403638825848
 20
845.905335745255
 30
0.0
 11
276.172
 21
845.6560000000001
 31
0.0
  0
LINE
  5
370
330
1E
100
AcDbEntity
  8
0
100
AcDbLine
 10
276.2009999999999
 20
847.2230000000001
 30
0.0
 11
276.656
 21
848.1799999999999
 31
0.0
  0
LINE
  5
371
330
1E
100
AcDbEntity
  8
0
100
AcDbLine
 10
276.905351552222
 20
848.5719464325281
 30
0.0
 11
279.1249216608779
 21
855.2105580252451
 31
0.0
  0
LINE
  5
372
330
1E
100
AcDbEntity
  8
0
100
AcDbLine
 10
276.656
 20
848.1799999999999
 30
0.0
 11
277.0989999999999
 21
848.5089999999999
 31
0.0
  0
LINE
  5
373
330
1E
100
AcDbEntity
  8
0
100
AcDbLine
 10
276.331020741314
 20
848.758635642034
 30
0.0
 11
277.0989999999999
 21
848.5089999999999
 31
0.0
  0
LINE
  5
374
330
1E
100
AcDbEntity
  8
0
100
AcDbLine
 10
279.121391600965
 20
855.2117054895321
 30
0.0
 11
279.2619999999999
 21
855.166
 31
0.0
  0
LINE
  5
375
330
1E
100
AcDbEntity
  8
0
100
AcDbLine
 10
277.0989999999999
 20
848.5089999999999
 30
0.0
 11
277.2639999999999
 21
847.982
 31
0.0
  0
LINE
  5
376
330
1E
100
AcDbEntity
  8
0
100
AcDbLine
 10
277.07
 20
846.9409999999999
 30
0.0
 11
277.2639999999999
 21
847.982
 31
0.0
  0
LINE
  5
377
330
1E
100
AcDbEntity
  8
0
100
AcDbLine
 10
276.615
 20
845.9849999999999
 30
0.0
 11
277.07
 21
846.9409999999999
 31
0.0
  0
LINE
  5
378
330
1E
100
AcDbEntity
  8
0
100
AcDbLine
 10
276.172
 20
845.6560000000001
 30
0.0
 11
276.615
 21
845.9849999999999
 31
0.0
  0
LINE
  5
379
330
1E
100
AcDbEntity
  8
0
100
AcDbLine
 10
278.4762466027069
 20
855.8945652959719
 30
0.0
 11
279.096
 21
855.6929999999999
 31
0.0
  0
LINE
  5
37A
330
1E
100
AcDbEntity
  8
0
100
AcDbLine
 10
279.096
 20
855.6929999999999
 30
0.0
 11
279.291
 21
856.7350000000001
 31
0.0
  0
LINE
  5
37B
330
1E
100
AcDbEntity
  8
0
100
AcDbLine
 10
279.096
 20
855.6929999999999
 30
0.0
 11
279.2619999999999
 21
855.166
 31
0.0
  0
LINE
  5
37C
330
1E
100
AcDbEntity
  8
0
100
AcDbLine
 10
278.493738082064
 20
855.41572752189
 30
0.0
 11
279.2619999999999
 21
855.166
 31
0.0
  0
LINE
  5
37D
330
1E
100
AcDbEntity
  8
0
100
AcDbLine
 10
279.705
 20
855.4949999999999
 30
0.0
 11
280.16
 21
856.4519999999999
 31
0.0
  0
LINE
  5
37E
330
1E
100
AcDbEntity
  8
0
100
AcDbLine
 10
279.2619999999999
 20
855.166
 30
0.0
 11
279.705
 21
855.4949999999999
 31
0.0
  0
LINE
  5
37F
330
1E
100
AcDbEntity
  8
0
100
AcDbLine
 10
275.419094240902
 20
858.033881369228
 30
0.0
 11
276.0149999999999
 21
857.84
 31
0.0
  0
LINE
  5
380
330
1E
100
AcDbEntity
  8
0
100
AcDbLine
 10
275.610269062411
 20
856.867210511705
 30
0.0
 11
275.9399999999999
 21
856.76
 31
0.0
  0
LINE
  5
381
330
1E
100
AcDbEntity
  8
0
100
AcDbLine
 10
275.9399999999999
 20
856.76
 30
0.0
 11
276.0149999999999
 21
857.84
 31
0.0
  0
LINE
  5
382
330
1E
100
AcDbEntity
  8
0
100
AcDbLine
 10
275.9399999999999
 20
856.76
 30
0.0
 11
276.3819999999999
 21
856.1439999999999
 31
0.0
  0
LINE
  5
383
330
1E
100
AcDbEntity
  8
0
100
AcDbLine
 10
276.0149999999999
 20
857.84
 30
0.0
 11
276.589
 21
858.758
 31
0.0
  0
LINE
  5
384
330
1E
100
AcDbEntity
  8
0
100
AcDbLine
 10
276.589
 20
858.758
 30
0.0
 11
277.309
 21
858.998
 31
0.0
  0
LINE
  5
385
330
1E
100
AcDbEntity
  8
0
100
AcDbLine
 10
275.861053354964
 20
858.99468853423
 30
0.0
 11
276.589
 21
858.758
 31
0.0
  0
LINE
  5
386
330
1E
100
AcDbEntity
  8
0
100
AcDbLine
 10
277.309
 20
858.998
 30
0.0
 11
277.7509999999999
 21
858.38
 31
0.0
  0
LINE
  5
387
330
1E
100
AcDbEntity
  8
0
100
AcDbLine
 10
279.291
 20
856.7350000000001
 30
0.0
 11
279.746
 21
857.6909999999999
 31
0.0
  0
LINE
  5
388
330
1E
100
AcDbEntity
  8
0
100
AcDbLine
 10
278.84848633827
 20
856.878597148508
 30
0.0
 11
279.291
 21
856.7350000000001
 31
0.0
  0
LINE
  5
389
330
1E
100
AcDbEntity
  8
0
100
AcDbLine
 10
278.1847066891659
 20
866.546021044857
 30
0.0
 11
279.0299999999999
 21
866.271
 31
0.0
  0
LINE
  5
38A
330
1E
100
AcDbEntity
  8
0
100
AcDbLine
 10
279.0299999999999
 20
866.271
 30
0.0
 11
279.105
 21
867.3510000000002
 31
0.0
  0
LINE
  5
38B
330
1E
100
AcDbEntity
  8
0
100
AcDbLine
 10
279.0299999999999
 20
866.271
 30
0.0
 11
279.4719999999999
 21
865.6549999999999
 31
0.0
  0
LINE
  5
38C
330
1E
100
AcDbEntity
  8
0
100
AcDbLine
 10
279.105
 20
867.3510000000002
 30
0.0
 11
279.679
 21
868.2680000000001
 31
0.0
  0
LINE
  5
38D
330
1E
100
AcDbEntity
  8
0
100
AcDbLine
 10
278.509121593214
 20
867.54448703765
 30
0.0
 11
279.105
 21
867.3510000000002
 31
0.0
  0
LINE
  5
38E
330
1E
100
AcDbEntity
  8
0
100
AcDbLine
 10
279.294409640065
 20
868.393047802875
 30
0.0
 11
279.679
 21
868.2680000000001
 31
0.0
  0
LINE
  5
38F
330
1E
100
AcDbEntity
  8
0
100
AcDbLine
 10
278.85655265597
 20
865.8544431561189
 30
0.0
 11
279.4719999999999
 21
865.6549999999999
 31
0.0
  0
LINE
  5
390
330
1E
100
AcDbEntity
  8
0
100
AcDbLine
 10
278.9736639242739
 20
857.941625613977
 30
0.0
 11
279.746
 21
857.6909999999999
 31
0.0
  0
LINE
  5
391
330
1E
100
AcDbEntity
  8
0
100
AcDbLine
 10
279.746
 20
857.6909999999999
 30
0.0
 11
280.189
 21
858.0189999999999
 31
0.0
  0
LINE
  5
392
330
1E
100
AcDbEntity
  8
0
100
AcDbLine
 10
280.076165993159
 20
858.0556772792661
 30
0.0
 11
282.2961231603219
 21
864.6954465425979
 31
0.0
  0
LINE
  5
393
330
1E
100
AcDbEntity
  8
0
100
AcDbLine
 10
280.076165993159
 20
858.0556772792661
 30
0.0
 11
282.2961231603219
 21
864.6954465425979
 31
0.0
  0
LINE
  5
394
330
1E
100
AcDbEntity
  8
0
100
AcDbLine
 10
282.294806446119
 20
864.6958735850418
 30
0.0
 11
282.353
 21
864.677
 31
0.0
  0
LINE
  5
395
330
1E
100
AcDbEntity
  8
0
100
AcDbLine
 10
281.404212880362
 20
865.4580170123329
 30
0.0
 11
282.187
 21
865.2039999999999
 31
0.0
  0
LINE
  5
396
330
1E
100
AcDbEntity
  8
0
100
AcDbLine
 10
282.187
 20
865.2039999999999
 30
0.0
 11
282.3809999999999
 21
866.2449999999999
 31
0.0
  0
LINE
  5
397
330
1E
100
AcDbEntity
  8
0
100
AcDbLine
 10
282.187
 20
865.2039999999999
 30
0.0
 11
282.353
 21
864.677
 31
0.0
  0
LINE
  5
398
330
1E
100
AcDbEntity
  8
0
100
AcDbLine
 10
281.58414839723
 20
864.926357276574
 30
0.0
 11
282.353
 21
864.677
 31
0.0
  0
LINE
  5
399
330
1E
100
AcDbEntity
  8
0
100
AcDbLine
 10
282.796
 20
865.0060000000001
 30
0.0
 11
283.2509999999999
 21
865.962
 31
0.0
  0
LINE
  5
39A
330
1E
100
AcDbEntity
  8
0
100
AcDbLine
 10
282.353
 20
864.677
 30
0.0
 11
282.796
 21
865.0060000000001
 31
0.0
  0
LINE
  5
39B
330
1E
100
AcDbEntity
  8
0
100
AcDbLine
 10
279.679
 20
868.2680000000001
 30
0.0
 11
280.399
 21
868.5080000000001
 31
0.0
  0
LINE
  5
39C
330
1E
100
AcDbEntity
  8
0
100
AcDbLine
 10
280.399
 20
868.5080000000001
 30
0.0
 11
280.841
 21
867.891
 31
0.0
  0
LINE
  5
39D
330
1E
100
AcDbEntity
  8
0
100
AcDbLine
 10
282.3809999999999
 20
866.2449999999999
 30
0.0
 11
282.8359999999999
 21
867.201
 31
0.0
  0
LINE
  5
39E
330
1E
100
AcDbEntity
  8
0
100
AcDbLine
 10
281.5957608384899
 20
866.49981270804
 30
0.0
 11
282.3809999999999
 21
866.2449999999999
 31
0.0
  0
LINE
  5
39F
330
1E
100
AcDbEntity
  8
0
100
AcDbLine
 10
281.233399220348
 20
875.928396889641
 30
0.0
 11
281.829
 21
875.735
 31
0.0
  0
LINE
  5
3A0
330
1E
100
AcDbEntity
  8
0
100
AcDbLine
 10
281.557848413123
 20
876.9267971869419
 30
0.0
 11
282.403
 21
876.6519999999999
 31
0.0
  0
LINE
  5
3A1
330
1E
100
AcDbEntity
  8
0
100
AcDbLine
 10
282.403
 20
876.6519999999999
 30
0.0
 11
283.123
 21
876.8910000000001
 31
0.0
  0
LINE
  5
3A2
330
1E
100
AcDbEntity
  8
0
100
AcDbLine
 10
281.829
 20
875.735
 30
0.0
 11
282.403
 21
876.6519999999999
 31
0.0
  0
LINE
  5
3A3
330
1E
100
AcDbEntity
  8
0
100
AcDbLine
 10
281.754
 20
874.6549999999999
 30
0.0
 11
282.1959999999999
 21
874.038
 31
0.0
  0
LINE
  5
3A4
330
1E
100
AcDbEntity
  8
0
100
AcDbLine
 10
281.754
 20
874.6549999999999
 30
0.0
 11
281.829
 21
875.735
 31
0.0
  0
LINE
  5
3A5
330
1E
100
AcDbEntity
  8
0
100
AcDbLine
 10
281.369555625718
 20
874.7797518266899
 30
0.0
 11
281.754
 21
874.6549999999999
 31
0.0
  0
LINE
  5
3A6
330
1E
100
AcDbEntity
  8
0
100
AcDbLine
 10
282.1959999999999
 20
874.038
 30
0.0
 11
282.9159999999999
 21
874.277
 31
0.0
  0
LINE
  5
3A7
330
1E
100
AcDbEntity
  8
0
100
AcDbLine
 10
282.507529462258
 20
877.0911174405201
 30
0.0
 11
283.123
 21
876.8910000000001
 31
0.0
  0
LINE
  5
3A8
330
1E
100
AcDbEntity
  8
0
100
AcDbLine
 10
282.3717057259619
 20
867.351665029324
 30
0.0
 11
282.8359999999999
 21
867.201
 31
0.0
  0
LINE
  5
3A9
330
1E
100
AcDbEntity
  8
0
100
AcDbLine
 10
282.8359999999999
 20
867.201
 30
0.0
 11
283.2799999999999
 21
867.53
 31
0.0
  0
LINE
  5
3AA
330
1E
100
AcDbEntity
  8
0
100
AcDbLine
 10
283.2473728373549
 20
867.540581782479
 30
0.0
 11
284.182
 21
870.3359999999999
 31
0.0
  0
LINE
  5
3AB
330
1E
100
AcDbEntity
  8
0
100
AcDbLine
 10
282.9159999999999
 20
874.277
 30
0.0
 11
283.49
 21
875.195
 31
0.0
  0
LINE
  5
3AC
330
1E
100
AcDbEntity
  8
0
100
AcDbLine
 10
283.123
 20
876.8910000000001
 30
0.0
 11
283.565
 21
876.275
 31
0.0
  0
LINE
  5
3AD
330
1E
100
AcDbEntity
  8
0
100
AcDbLine
 10
284.182
 20
870.3359999999999
 30
0.0
 11
285.068829852336
 21
873.146457073385
 31
0.0
  0
LINE
  5
3AE
330
1E
100
AcDbEntity
  8
0
100
AcDbLine
 10
284.344197828164
 20
874.9594290724118
 30
0.0
 11
285.13
 21
874.704
 31
0.0
  0
LINE
  5
3AF
330
1E
100
AcDbEntity
  8
0
100
AcDbLine
 10
285.13
 20
874.704
 30
0.0
 11
285.5849999999999
 21
875.66
 31
0.0
  0
LINE
  5
3B0
330
1E
100
AcDbEntity
  8
0
100
AcDbLine
 10
284.9359999999999
 20
873.6629999999999
 30
0.0
 11
285.101
 21
873.136
 31
0.0
  0
LINE
  5
3B1
330
1E
100
AcDbEntity
  8
0
100
AcDbLine
 10
284.9359999999999
 20
873.6629999999999
 30
0.0
 11
285.13
 21
874.704
 31
0.0
  0
LINE
  5
3B2
330
1E
100
AcDbEntity
  8
0
100
AcDbLine
 10
284.4711983314409
 20
873.814086193588
 30
0.0
 11
284.9359999999999
 21
873.6629999999999
 31
0.0
  0
LINE
  5
3B3
330
1E
100
AcDbEntity
  8
0
100
AcDbLine
 10
285.101
 20
873.136
 30
0.0
 11
285.544
 21
873.465
 31
0.0
  0
LINE
  5
3B4
330
1E
100
AcDbEntity
  8
0
100
AcDbLine
 10
284.332042605245
 20
873.385953590238
 30
0.0
 11
285.101
 21
873.136
 31
0.0
  0
LINE
  5
3B5
330
1E
100
AcDbEntity
  8
0
100
AcDbLine
 10
284.8014173316329
 20
875.9147076112959
 30
0.0
 11
285.5849999999999
 21
875.66
 31
0.0
  0
LINE
  5
3B6
330
1E
100
AcDbEntity
  8
0
100
AcDbLine
 10
285.2593222272799
 20
876.238862697645
 30
0.0
 11
286.028
 21
875.9889999999998
 31
0.0
  0
LINE
  5
3B7
330
1E
100
AcDbEntity
  8
0
100
AcDbLine
 10
283.49
 20
875.195
 30
0.0
 11
283.565
 21
876.275
 31
0.0
  0
LINE
  5
3B8
330
1E
100
AcDbEntity
  8
0
100
AcDbLine
 10
285.5849999999999
 20
875.66
 30
0.0
 11
286.028
 21
875.9889999999998
 31
0.0
  0
LINE
  5
3B9
330
1E
100
AcDbEntity
  8
0
100
AcDbLine
 10
285.544
 20
873.465
 30
0.0
 11
285.999
 21
874.422
 31
0.0
  0
LINE
  5
3BA
330
1E
100
AcDbEntity
  8
0
100
AcDbLine
 10
285.999
 20
874.422
 30
0.0
 11
286.193
 21
875.463
 31
0.0
  0
LINE
  5
3BB
330
1E
100
AcDbEntity
  8
0
100
AcDbLine
 10
285.9715720944159
 20
876.0073421834379
 30
0.0
 11
288.078239041311
 21
882.683591304475
 31
0.0
  0
LINE
  5
3BC
330
1E
100
AcDbEntity
  8
0
100
AcDbLine
 10
286.028
 20
875.9889999999998
 30
0.0
 11
286.193
 21
875.463
 31
0.0
  0
LINE
  5
3BD
330
1E
100
AcDbEntity
  8
0
100
AcDbLine
 10
285.286
 20
883.549
 30
0.0
 11
286.0069999999999
 21
883.788
 31
0.0
  0
LINE
  5
3BE
330
1E
100
AcDbEntity
  8
0
100
AcDbLine
 10
285.4929999999999
 20
886.162
 30
0.0
 11
286.214
 21
886.402
 31
0.0
  0
LINE
  5
3BF
330
1E
100
AcDbEntity
  8
0
100
AcDbLine
 10
285.163589634673
 20
886.269106279095
 30
0.0
 11
285.4929999999999
 21
886.162
 31
0.0
  0
LINE
  5
3C0
330
1E
100
AcDbEntity
  8
0
100
AcDbLine
 10
284.92
 20
885.2450000000001
 30
0.0
 11
285.4929999999999
 21
886.162
 31
0.0
  0
LINE
  5
3C1
330
1E
100
AcDbEntity
  8
0
100
AcDbLine
 10
284.32390548784
 20
885.4388174141028
 30
0.0
 11
284.92
 21
885.2450000000001
 31
0.0
  0
LINE
  5
3C2
330
1E
100
AcDbEntity
  8
0
100
AcDbLine
 10
284.845
 20
884.1649999999999
 30
0.0
 11
285.286
 21
883.549
 31
0.0
  0
LINE
  5
3C3
330
1E
100
AcDbEntity
  8
0
100
AcDbLine
 10
284.845
 20
884.1649999999999
 30
0.0
 11
284.92
 21
885.2450000000001
 31
0.0
  0
LINE
  5
3C4
330
1E
100
AcDbEntity
  8
0
100
AcDbLine
 10
284.116767861304
 20
884.401781361192
 30
0.0
 11
284.845
 21
884.1649999999999
 31
0.0
  0
LINE
  5
3C5
330
1E
100
AcDbEntity
  8
0
100
AcDbLine
 10
286.0069999999999
 20
883.788
 30
0.0
 11
286.5809999999999
 21
884.7050000000001
 31
0.0
  0
LINE
  5
3C6
330
1E
100
AcDbEntity
  8
0
100
AcDbLine
 10
287.253557449682
 20
883.4244738926489
 30
0.0
 11
288.0249999999999
 21
883.1739999999999
 31
0.0
  0
LINE
  5
3C7
330
1E
100
AcDbEntity
  8
0
100
AcDbLine
 10
286.5809999999999
 20
884.7050000000001
 30
0.0
 11
286.656
 21
885.7849999999999
 31
0.0
  0
LINE
  5
3C8
330
1E
100
AcDbEntity
  8
0
100
AcDbLine
 10
285.388296827197
 20
886.669939878957
 30
0.0
 11
286.214
 21
886.402
 31
0.0
  0
LINE
  5
3C9
330
1E
100
AcDbEntity
  8
0
100
AcDbLine
 10
286.214
 20
886.402
 30
0.0
 11
286.656
 21
885.7849999999999
 31
0.0
  0
LINE
  5
3CA
330
1E
100
AcDbEntity
  8
0
100
AcDbLine
 10
283.2799999999999
 20
867.53
 30
0.0
 11
283.445
 21
867.003
 31
0.0
  0
LINE
  5
3CB
330
1E
100
AcDbEntity
  8
0
100
AcDbLine
 10
282.510641361072
 20
867.7795217207339
 30
0.0
 11
283.2799999999999
 21
867.53
 31
0.0
  0
LINE
  5
3CC
330
1E
100
AcDbEntity
  8
0
100
AcDbLine
 10
283.2509999999999
 20
865.962
 30
0.0
 11
283.445
 21
867.003
 31
0.0
  0
LINE
  5
3CD
330
1E
100
AcDbEntity
  8
0
100
AcDbLine
 10
280.7659999999999
 20
866.811
 30
0.0
 11
280.841
 21
867.891
 31
0.0
  0
LINE
  5
3CE
330
1E
100
AcDbEntity
  8
0
100
AcDbLine
 10
280.1919999999999
 20
865.8939999999999
 30
0.0
 11
280.7659999999999
 21
866.811
 31
0.0
  0
LINE
  5
3CF
330
1E
100
AcDbEntity
  8
0
100
AcDbLine
 10
279.4719999999999
 20
865.6549999999999
 30
0.0
 11
280.1919999999999
 21
865.8939999999999
 31
0.0
  0
LINE
  5
3D0
330
1E
100
AcDbEntity
  8
0
100
AcDbLine
 10
280.189
 20
858.0189999999999
 30
0.0
 11
280.354
 21
857.492
 31
0.0
  0
LINE
  5
3D1
330
1E
100
AcDbEntity
  8
0
100
AcDbLine
 10
279.4208446113819
 20
858.268692893983
 30
0.0
 11
280.189
 21
858.0189999999999
 31
0.0
  0
LINE
  5
3D2
330
1E
100
AcDbEntity
  8
0
100
AcDbLine
 10
280.16
 20
856.4519999999999
 30
0.0
 11
280.354
 21
857.492
 31
0.0
  0
LINE
  5
3D3
330
1E
100
AcDbEntity
  8
0
100
AcDbLine
 10
277.6759999999999
 20
857.301
 30
0.0
 11
277.7509999999999
 21
858.38
 31
0.0
  0
LINE
  5
3D4
330
1E
100
AcDbEntity
  8
0
100
AcDbLine
 10
277.103
 20
856.3819999999999
 30
0.0
 11
277.6759999999999
 21
857.301
 31
0.0
  0
LINE
  5
3D5
330
1E
100
AcDbEntity
  8
0
100
AcDbLine
 10
275.5566107759619
 20
856.4120112486849
 30
0.0
 11
276.3819999999999
 21
856.1439999999999
 31
0.0
  0
LINE
  5
3D6
330
1E
100
AcDbEntity
  8
0
100
AcDbLine
 10
276.3819999999999
 20
856.1439999999999
 30
0.0
 11
277.103
 21
856.3819999999999
 31
0.0
  0
LINE
  5
3D7
330
1E
100
AcDbEntity
  8
0
100
AcDbLine
 10
274.009
 20
838.9980000000001
 30
0.0
 11
274.174
 21
838.4719999999999
 31
0.0
  0
LINE
  5
3D8
330
1E
100
AcDbEntity
  8
0
100
AcDbLine
 10
273.98
 20
837.4310000000001
 30
0.0
 11
274.174
 21
838.4719999999999
 31
0.0
  0
LINE
  5
3D9
330
1E
100
AcDbEntity
  8
0
100
AcDbLine
 10
273.5249999999999
 20
836.4739999999999
 30
0.0
 11
273.98
 21
837.4310000000001
 31
0.0
  0
LINE
  5
3DA
330
1E
100
AcDbEntity
  8
0
100
AcDbLine
 10
273.082
 20
836.1449999999999
 30
0.0
 11
273.5249999999999
 21
836.4739999999999
 31
0.0
  0
LINE
  5
3E7
330
1E
100
AcDbEntity
  8
0
100
AcDbLine
 10
282.594
 20
913.9880000000001
 30
0.0
 11
285.434
 21
922.728
 31
0.0
  0
LINE
  5
3E8
330
1E
100
AcDbEntity
  8
0
100
AcDbLine
 10
287.777018937406
 20
884.3579932924209
 30
0.0
 11
288.22
 21
884.2139999999998
 31
0.0
  0
LINE
  5
3E9
330
1E
100
AcDbEntity
  8
0
100
AcDbLine
 10
288.0752644015909
 20
882.6845565849138
 30
0.0
 11
288.1909999999999
 21
882.6469999999998
 31
0.0
  0
LINE
  5
3EA
330
1E
100
AcDbEntity
  8
0
100
AcDbLine
 10
288.053900368727
 20
885.3723354959621
 30
0.0
 11
288.674
 21
885.171
 31
0.0
  0
LINE
  5
3EB
330
1E
100
AcDbEntity
  8
0
100
AcDbLine
 10
288.22
 20
884.2139999999998
 30
0.0
 11
288.674
 21
885.171
 31
0.0
  0
LINE
  5
3EC
330
1E
100
AcDbEntity
  8
0
100
AcDbLine
 10
288.0249999999999
 20
883.1739999999999
 30
0.0
 11
288.1909999999999
 21
882.6469999999998
 31
0.0
  0
LINE
  5
3ED
330
1E
100
AcDbEntity
  8
0
100
AcDbLine
 10
288.0249999999999
 20
883.1739999999999
 30
0.0
 11
288.22
 21
884.2139999999998
 31
0.0
  0
LINE
  5
3EE
330
1E
100
AcDbEntity
  8
0
100
AcDbLine
 10
288.1909999999999
 20
882.6469999999998
 30
0.0
 11
288.634
 21
882.9760000000002
 31
0.0
  0
LINE
  5
3EF
330
1E
100
AcDbEntity
  8
0
100
AcDbLine
 10
287.422477806622
 20
882.896387996527
 30
0.0
 11
288.1909999999999
 21
882.6469999999998
 31
0.0
  0
LINE
  5
3F0
330
1E
100
AcDbEntity
  8
0
100
AcDbLine
 10
288.349450300743
 20
885.749396922276
 30
0.0
 11
289.1179999999999
 21
885.5
 31
0.0
  0
LINE
  5
3F1
330
1E
100
AcDbEntity
  8
0
100
AcDbLine
 10
288.377
 20
893.059
 30
0.0
 11
289.0969999999999
 21
893.298
 31
0.0
  0
LINE
  5
3F2
330
1E
100
AcDbEntity
  8
0
100
AcDbLine
 10
288.1765548274959
 20
895.8054789410271
 30
0.0
 11
288.5839999999999
 21
895.673
 31
0.0
  0
LINE
  5
3F3
330
1E
100
AcDbEntity
  8
0
100
AcDbLine
 10
288.01
 20
894.7549999999999
 30
0.0
 11
288.5839999999999
 21
895.673
 31
0.0
  0
LINE
  5
3F4
330
1E
100
AcDbEntity
  8
0
100
AcDbLine
 10
287.413817946551
 20
894.948845877754
 30
0.0
 11
288.01
 21
894.7549999999999
 31
0.0
  0
LINE
  5
3F5
330
1E
100
AcDbEntity
  8
0
100
AcDbLine
 10
287.935
 20
893.6760000000001
 30
0.0
 11
288.377
 21
893.059
 31
0.0
  0
LINE
  5
3F6
330
1E
100
AcDbEntity
  8
0
100
AcDbLine
 10
287.935
 20
893.6760000000001
 30
0.0
 11
288.01
 21
894.7549999999999
 31
0.0
  0
LINE
  5
3F7
330
1E
100
AcDbEntity
  8
0
100
AcDbLine
 10
287.3339487788119
 20
893.8710405384849
 30
0.0
 11
287.935
 21
893.6760000000001
 31
0.0
  0
LINE
  5
3F8
330
1E
100
AcDbEntity
  8
0
100
AcDbLine
 10
287.4162811285669
 20
893.3713733628509
 30
0.0
 11
288.377
 21
893.059
 31
0.0
  0
LINE
  5
3F9
330
1E
100
AcDbEntity
  8
0
100
AcDbLine
 10
288.9809774514549
 20
885.5444642707199
 30
0.0
 11
291.0873976579899
 21
892.219931445609
 31
0.0
  0
LINE
  5
3FA
330
1E
100
AcDbEntity
  8
0
100
AcDbLine
 10
288.674
 20
885.171
 30
0.0
 11
289.1179999999999
 21
885.5
 31
0.0
  0
LINE
  5
3FB
330
1E
100
AcDbEntity
  8
0
100
AcDbLine
 10
288.634
 20
882.9760000000002
 30
0.0
 11
289.089
 21
883.932
 31
0.0
  0
LINE
  5
3FC
330
1E
100
AcDbEntity
  8
0
100
AcDbLine
 10
289.089
 20
883.932
 30
0.0
 11
289.283
 21
884.973
 31
0.0
  0
LINE
  5
3FD
330
1E
100
AcDbEntity
  8
0
100
AcDbLine
 10
288.5839999999999
 20
895.673
 30
0.0
 11
289.304
 21
895.9119999999998
 31
0.0
  0
LINE
  5
3FE
330
1E
100
AcDbEntity
  8
0
100
AcDbLine
 10
289.0969999999999
 20
893.298
 30
0.0
 11
289.671
 21
894.2159999999999
 31
0.0
  0
LINE
  5
3FF
330
1E
100
AcDbEntity
  8
0
100
AcDbLine
 10
288.4385144626119
 20
896.193408678285
 30
0.0
 11
289.304
 21
895.9119999999998
 31
0.0
  0
LINE
  5
416
330
1E
100
AcDbEntity
  8
0
100
AcDbLine
 10
269.916
 20
874.971
 30
0.0
 11
274.9589999999999
 21
890.488
 31
0.0
  0
LINE
  5
41F
330
1E
100
AcDbEntity
  8
0
100
AcDbLine
 10
289.1179999999999
 20
885.5
 30
0.0
 11
289.283
 21
884.973
 31
0.0
  0
LINE
  5
420
330
1E
100
AcDbEntity
  8
0
100
AcDbLine
 10
289.304
 20
895.9119999999998
 30
0.0
 11
289.7459999999999
 21
895.296
 31
0.0
  0
LINE
  5
42A
330
1E
100
AcDbEntity
  8
0
100
AcDbLine
 10
243.428
 20
941.7480000000001
 30
0.0
 11
243.502
 21
948.385
 31
0.0
  0
LINE
  5
42B
330
1E
100
AcDbEntity
  8
0
100
AcDbLine
 10
243.502
 20
948.385
 30
0.0
 11
243.802
 21
955.5229999999999
 31
0.0
  0
LINE
  5
42C
330
1E
100
AcDbEntity
  8
0
100
AcDbLine
 10
243.802
 20
955.5229999999999
 30
0.0
 11
244.803
 21
966.23
 31
0.0
  0
LINE
  5
433
330
1E
100
AcDbEntity
  8
0
100
AcDbLine
 10
244.803
 20
966.23
 30
0.0
 11
245.8029999999999
 21
973.9630000000001
 31
0.0
  0
LINE
  5
437
330
1E
100
AcDbEntity
  8
0
100
AcDbLine
 10
238.8259999999999
 20
975.7480000000001
 30
0.0
 11
240.217
 21
975.7480000000001
 31
0.0
  0
LINE
  5
438
330
1E
100
AcDbEntity
  8
0
100
AcDbLine
 10
237.231
 20
975.7480000000001
 30
0.0
 11
238.8259999999999
 21
975.7480000000001
 31
0.0
  0
LINE
  5
439
330
1E
100
AcDbEntity
  8
0
100
AcDbLine
 10
235.839
 20
975.7480000000001
 30
0.0
 11
237.231
 21
975.7480000000001
 31
0.0
  0
LINE
  5
43A
330
1E
100
AcDbEntity
  8
0
100
AcDbLine
 10
234.206
 20
975.7480000000001
 30
0.0
 11
235.839
 21
975.7480000000001
 31
0.0
  0
LINE
  5
43B
330
1E
100
AcDbEntity
  8
0
100
AcDbLine
 10
232.7509999999999
 20
975.7480000000001
 30
0.0
 11
234.206
 21
975.7480000000001
 31
0.0
  0
LINE
  5
43C
330
1E
100
AcDbEntity
  8
0
100
AcDbLine
 10
231.7969999999999
 20
975.7480000000001
 30
0.0
 11
232.7509999999999
 21
975.7480000000001
 31
0.0
  0
LINE
  5
43D
330
1E
100
AcDbEntity
  8
0
100
AcDbLine
 10
240.217
 20
975.7480000000001
 30
0.0
 11
241.455
 21
975.7480000000001
 31
0.0
  0
LINE
  5
43E
330
1E
100
AcDbEntity
  8
0
100
AcDbLine
 10
241.455
 20
975.7480000000001
 30
0.0
 11
242.5019999999999
 21
975.7480000000001
 31
0.0
  0
LINE
  5
43F
330
1E
100
AcDbEntity
  8
0
100
AcDbLine
 10
242.5019999999999
 20
975.7480000000001
 30
0.0
 11
243.2669999999999
 21
975.7480000000001
 31
0.0
  0
LINE
  5
440
330
1E
100
AcDbEntity
  8
0
100
AcDbLine
 10
243.2669999999999
 20
975.7480000000001
 30
0.0
 11
243.829
 21
975.7480000000001
 31
0.0
  0
LINE
  5
441
330
1E
100
AcDbEntity
  8
0
100
AcDbLine
 10
243.829
 20
975.7480000000001
 30
0.0
 11
244.1349999999999
 21
975.7480000000001
 31
0.0
  0
LINE
  5
442
330
1E
100
AcDbEntity
  8
0
100
AcDbLine
 10
244.1349999999999
 20
975.7480000000001
 30
0.0
 11
244.302
 21
975.7480000000001
 31
0.0
  0
LINE
  5
443
330
1E
100
AcDbEntity
  8
0
100
AcDbLine
 10
244.302
 20
975.7480000000001
 30
0.0
 11
245.303
 21
975.153
 31
0.0
  0
LINE
  5
444
330
1E
100
AcDbEntity
  8
0
100
AcDbLine
 10
245.303
 20
975.153
 30
0.0
 11
245.8029999999999
 21
973.9630000000001
 31
0.0
  0
LINE
  5
447
330
1E
100
AcDbEntity
  8
0
100
AcDbLine
 10
289.671
 20
894.2159999999999
 30
0.0
 11
289.7459999999999
 21
895.296
 31
0.0
  0
LINE
  5
448
330
1E
100
AcDbEntity
  8
0
100
AcDbLine
 10
290.2436867521819
 20
894.0716106528499
 30
0.0
 11
291.31
 21
893.725
 31
0.0
  0
LINE
  5
449
330
1E
100
AcDbEntity
  8
0
100
AcDbLine
 10
290.162428236772
 20
892.9934371946901
 30
0.0
 11
291.1159999999999
 21
892.684
 31
0.0
  0
LINE
  5
44A
330
1E
100
AcDbEntity
  8
0
100
AcDbLine
 10
290.3341167112819
 20
903.411011261925
 30
0.0
 11
291.0239999999999
 21
903.1869999999999
 31
0.0
  0
LINE
  5
44B
330
1E
100
AcDbEntity
  8
0
100
AcDbLine
 10
290.51273872186
 20
892.4067273139209
 30
0.0
 11
291.2809999999999
 21
892.1569999999999
 31
0.0
  0
LINE
  5
44C
330
1E
100
AcDbEntity
  8
0
100
AcDbLine
 10
290.5035099333679
 20
904.459946026837
 30
0.0
 11
291.1
 21
904.2660000000001
 31
0.0
  0
LINE
  5
44D
330
1E
100
AcDbEntity
  8
0
100
AcDbLine
 10
290.351387884859
 20
902.9317361951621
 30
0.0
 11
291.467
 21
902.5689999999999
 31
0.0
  0
LINE
  5
450
330
1E
100
AcDbEntity
  8
0
100
AcDbLine
 10
291.0839973726909
 20
892.2210367259848
 30
0.0
 11
291.2809999999999
 21
892.1569999999999
 31
0.0
  0
LINE
  5
451
330
1E
100
AcDbEntity
  8
0
100
AcDbLine
 10
291.300387129112
 20
894.8317829823039
 30
0.0
 11
291.764
 21
894.6810000000001
 31
0.0
  0
LINE
  5
452
330
1E
100
AcDbEntity
  8
0
100
AcDbLine
 10
291.31
 20
893.725
 30
0.0
 11
291.764
 21
894.6810000000001
 31
0.0
  0
LINE
  5
453
330
1E
100
AcDbEntity
  8
0
100
AcDbLine
 10
291.1159999999999
 20
892.684
 30
0.0
 11
291.2809999999999
 21
892.1569999999999
 31
0.0
  0
LINE
  5
454
330
1E
100
AcDbEntity
  8
0
100
AcDbLine
 10
291.1159999999999
 20
892.684
 30
0.0
 11
291.31
 21
893.725
 31
0.0
  0
LINE
  5
455
330
1E
100
AcDbEntity
  8
0
100
AcDbLine
 10
291.2809999999999
 20
892.1569999999999
 30
0.0
 11
291.7239999999999
 21
892.486
 31
0.0
  0
LINE
  5
456
330
1E
100
AcDbEntity
  8
0
100
AcDbLine
 10
291.4394611304999
 20
895.2599554909641
 30
0.0
 11
292.2079999999999
 21
895.01
 31
0.0
  0
LINE
  5
457
330
1E
100
AcDbEntity
  8
0
100
AcDbLine
 10
290.827965155284
 20
905.458390357081
 30
0.0
 11
291.673
 21
905.184
 31
0.0
  0
LINE
  5
459
330
1E
100
AcDbEntity
  8
0
100
AcDbLine
 10
291.1
 20
904.2660000000001
 30
0.0
 11
291.673
 21
905.184
 31
0.0
  0
LINE
  5
45A
330
1E
100
AcDbEntity
  8
0
100
AcDbLine
 10
291.0239999999999
 20
903.1869999999999
 30
0.0
 11
291.467
 21
902.5689999999999
 31
0.0
  0
LINE
  5
45B
330
1E
100
AcDbEntity
  8
0
100
AcDbLine
 10
291.0239999999999
 20
903.1869999999999
 30
0.0
 11
291.1
 21
904.2660000000001
 31
0.0
  0
LINE
  5
45C
330
1E
100
AcDbEntity
  8
0
100
AcDbLine
 10
291.467
 20
902.5689999999999
 30
0.0
 11
292.187
 21
902.809
 31
0.0
  0
LINE
  5
45D
330
1E
100
AcDbEntity
  8
0
100
AcDbLine
 10
291.7239999999999
 20
892.486
 30
0.0
 11
292.179
 21
893.4420000000001
 31
0.0
  0
LINE
  5
45E
330
1E
100
AcDbEntity
  8
0
100
AcDbLine
 10
291.990151090615
 20
895.080852019673
 30
0.0
 11
293.614
 21
900.2269999999999
 31
0.0
  0
LINE
  5
45F
330
1E
100
AcDbEntity
  8
0
100
AcDbLine
 10
291.764
 20
894.6810000000001
 30
0.0
 11
292.2079999999999
 21
895.01
 31
0.0
  0
LINE
  5
460
330
1E
100
AcDbEntity
  8
0
100
AcDbLine
 10
292.179
 20
893.4420000000001
 30
0.0
 11
292.3729999999999
 21
894.4830000000001
 31
0.0
  0
LINE
  5
461
330
1E
100
AcDbEntity
  8
0
100
AcDbLine
 10
292.2079999999999
 20
895.01
 30
0.0
 11
292.3729999999999
 21
894.4830000000001
 31
0.0
  0
LINE
  5
462
330
1E
100
AcDbEntity
  8
0
100
AcDbLine
 10
291.673
 20
905.184
 30
0.0
 11
292.3939999999999
 21
905.423
 31
0.0
  0
LINE
  5
463
330
1E
100
AcDbEntity
  8
0
100
AcDbLine
 10
292.187
 20
902.809
 30
0.0
 11
292.7609999999999
 21
903.7260000000001
 31
0.0
  0
LINE
  5
464
330
1E
100
AcDbEntity
  8
0
100
AcDbLine
 10
293.614
 20
900.2269999999999
 30
0.0
 11
293.9887387656269
 21
901.7921135316459
 31
0.0
  0
LINE
  5
465
330
1E
100
AcDbEntity
  8
0
100
AcDbLine
 10
293.9887387656269
 20
901.7921135316459
 30
0.0
 11
294.3709999999999
 21
901.668
 31
0.0
  0
LINE
  5
466
330
1E
100
AcDbEntity
  8
0
100
AcDbLine
 10
294.3709999999999
 20
901.668
 30
0.0
 11
294.815
 21
901.9969999999998
 31
0.0
  0
LINE
  5
467
330
1E
100
AcDbEntity
  8
0
100
AcDbLine
 10
293.6486399480419
 20
901.902537664578
 30
0.0
 11
294.3709999999999
 21
901.668
 31
0.0
  0
LINE
  5
468
330
1E
100
AcDbEntity
  8
0
100
AcDbLine
 10
294.2059999999999
 20
902.195
 30
0.0
 11
294.3709999999999
 21
901.668
 31
0.0
  0
LINE
  5
469
330
1E
100
AcDbEntity
  8
0
100
AcDbLine
 10
294.2059999999999
 20
902.195
 30
0.0
 11
294.3999999999999
 21
903.236
 31
0.0
  0
LINE
  5
46A
330
1E
100
AcDbEntity
  8
0
100
AcDbLine
 10
294.3999999999999
 20
903.236
 30
0.0
 11
294.855
 21
904.1920000000001
 31
0.0
  0
LINE
  5
46B
330
1E
100
AcDbEntity
  8
0
100
AcDbLine
 10
293.478266713676
 20
903.53527066392
 30
0.0
 11
294.3999999999999
 21
903.236
 31
0.0
  0
LINE
  5
46C
330
1E
100
AcDbEntity
  8
0
100
AcDbLine
 10
293.3221835338869
 20
902.48228912723
 30
0.0
 11
294.2059999999999
 21
902.195
 31
0.0
  0
LINE
  5
46D
330
1E
100
AcDbEntity
  8
0
100
AcDbLine
 10
294.815
 20
901.9969999999998
 30
0.0
 11
295.2699999999999
 21
902.9529999999999
 31
0.0
  0
LINE
  5
46E
330
1E
100
AcDbEntity
  8
0
100
AcDbLine
 10
295.2699999999999
 20
902.9529999999999
 30
0.0
 11
295.4639999999999
 21
903.9939999999999
 31
0.0
  0
LINE
  5
46F
330
1E
100
AcDbEntity
  8
0
100
AcDbLine
 10
294.0156004419499
 20
904.46453834353
 30
0.0
 11
294.855
 21
904.1920000000001
 31
0.0
  0
LINE
  5
470
330
1E
100
AcDbEntity
  8
0
100
AcDbLine
 10
294.855
 20
904.1920000000001
 30
0.0
 11
295.298
 21
904.521
 31
0.0
  0
LINE
  5
471
330
1E
100
AcDbEntity
  8
0
100
AcDbLine
 10
294.689432138017
 20
904.718591332328
 30
0.0
 11
295.183
 21
906.78
 31
0.0
  0
LINE
  5
472
330
1E
100
AcDbEntity
  8
0
100
AcDbLine
 10
295.183
 20
906.78
 30
0.0
 11
296.069094784429
 21
911.6844022847999
 31
0.0
  0
LINE
  5
473
330
1E
100
AcDbEntity
  8
0
100
AcDbLine
 10
296.069094784429
 20
911.6844022847999
 30
0.0
 11
296.624
 21
911.5449999999999
 31
0.0
  0
LINE
  5
474
330
1E
100
AcDbEntity
  8
0
100
AcDbLine
 10
294.5296421578309
 20
904.770472341908
 30
0.0
 11
295.298
 21
904.521
 31
0.0
  0
LINE
  5
475
330
1E
100
AcDbEntity
  8
0
100
AcDbLine
 10
295.298
 20
904.521
 30
0.0
 11
295.4639999999999
 21
903.9939999999999
 31
0.0
  0
LINE
  5
476
330
1E
100
AcDbEntity
  8
0
100
AcDbLine
 10
292.7609999999999
 20
903.7260000000001
 30
0.0
 11
292.8359999999999
 21
904.8060000000001
 31
0.0
  0
LINE
  5
477
330
1E
100
AcDbEntity
  8
0
100
AcDbLine
 10
292.3939999999999
 20
905.423
 30
0.0
 11
292.8359999999999
 21
904.8060000000001
 31
0.0
  0
LINE
  5
478
330
1E
100
AcDbEntity
  8
0
100
AcDbLine
 10
295.922250609601
 20
911.721292212856
 30
0.0
 11
296.624
 21
911.5449999999999
 31
0.0
  0
LINE
  5
479
330
1E
100
AcDbEntity
  8
0
100
AcDbLine
 10
296.624
 20
911.5449999999999
 30
0.0
 11
297.0449999999999
 21
911.9019999999999
 31
0.0
  0
LINE
  5
47A
330
1E
100
AcDbEntity
  8
0
100
AcDbLine
 10
294.1479999999999
 20
912.213
 30
0.0
 11
294.869
 21
912.452
 31
0.0
  0
LINE
  5
47B
330
1E
100
AcDbEntity
  8
0
100
AcDbLine
 10
293.7059999999999
 20
912.8300000000001
 30
0.0
 11
294.1479999999999
 21
912.213
 31
0.0
  0
LINE
  5
47C
330
1E
100
AcDbEntity
  8
0
100
AcDbLine
 10
293.7059999999999
 20
912.8300000000001
 30
0.0
 11
293.781
 21
913.9089999999999
 31
0.0
  0
LINE
  5
47D
330
1E
100
AcDbEntity
  8
0
100
AcDbLine
 10
293.2696727521379
 20
912.9716793521518
 30
0.0
 11
293.7059999999999
 21
912.8300000000001
 31
0.0
  0
LINE
  5
47E
330
1E
100
AcDbEntity
  8
0
100
AcDbLine
 10
293.9187741586049
 20
912.2875317377001
 30
0.0
 11
294.1479999999999
 21
912.213
 31
0.0
  0
LINE
  5
47F
330
1E
100
AcDbEntity
  8
0
100
AcDbLine
 10
294.869
 20
912.452
 30
0.0
 11
295.442
 21
913.3700000000001
 31
0.0
  0
LINE
  5
480
330
1E
100
AcDbEntity
  8
0
100
AcDbLine
 10
293.781
 20
913.9089999999999
 30
0.0
 11
294.355
 21
914.827
 31
0.0
  0
LINE
  5
481
330
1E
100
AcDbEntity
  8
0
100
AcDbLine
 10
293.59411252054
 20
913.969804917315
 30
0.0
 11
293.781
 21
913.9089999999999
 31
0.0
  0
LINE
  5
482
330
1E
100
AcDbEntity
  8
0
100
AcDbLine
 10
295.442
 20
913.3700000000001
 30
0.0
 11
295.5169999999999
 21
914.4489999999999
 31
0.0
  0
LINE
  5
483
330
1E
100
AcDbEntity
  8
0
100
AcDbLine
 10
296.60186205069
 20
914.643350653939
 30
0.0
 11
297.651
 21
921.279
 31
0.0
  0
LINE
  5
484
330
1E
100
AcDbEntity
  8
0
100
AcDbLine
 10
296.9359999999999
 20
914.095
 30
0.0
 11
297.3559999999999
 21
914.4539999999999
 31
0.0
  0
LINE
  5
485
330
1E
100
AcDbEntity
  8
0
100
AcDbLine
 10
296.271857009571
 20
914.262113901813
 30
0.0
 11
296.9359999999999
 21
914.095
 31
0.0
  0
LINE
  5
486
330
1E
100
AcDbEntity
  8
0
100
AcDbLine
 10
296.547
 20
913.1099999999999
 30
0.0
 11
296.9359999999999
 21
914.095
 31
0.0
  0
LINE
  5
487
330
1E
100
AcDbEntity
  8
0
100
AcDbLine
 10
296.056025176538
 20
913.233540742917
 30
0.0
 11
296.547
 21
913.1099999999999
 31
0.0
  0
LINE
  5
488
330
1E
100
AcDbEntity
  8
0
100
AcDbLine
 10
296.424
 20
912.0589999999999
 30
0.0
 11
296.624
 21
911.5449999999999
 31
0.0
  0
LINE
  5
489
330
1E
100
AcDbEntity
  8
0
100
AcDbLine
 10
296.424
 20
912.0589999999999
 30
0.0
 11
296.547
 21
913.1099999999999
 31
0.0
  0
LINE
  5
48A
330
1E
100
AcDbEntity
  8
0
100
AcDbLine
 10
295.8909786392739
 20
912.192904662359
 30
0.0
 11
296.424
 21
912.0589999999999
 31
0.0
  0
LINE
  5
48B
330
1E
100
AcDbEntity
  8
0
100
AcDbLine
 10
295.922250609601
 20
911.721292212856
 30
0.0
 11
296.624
 21
911.5449999999999
 31
0.0
  0
LINE
  5
48C
330
1E
100
AcDbEntity
  8
0
100
AcDbLine
 10
297.0449999999999
 20
911.9019999999999
 30
0.0
 11
297.434
 21
912.888
 31
0.0
  0
LINE
  5
48D
330
1E
100
AcDbEntity
  8
0
100
AcDbLine
 10
294.355
 20
914.827
 30
0.0
 11
295.0759999999999
 21
915.066
 31
0.0
  0
LINE
  5
48E
330
1E
100
AcDbEntity
  8
0
100
AcDbLine
 10
293.9187570478999
 20
914.968560414967
 30
0.0
 11
294.355
 21
914.827
 31
0.0
  0
LINE
  5
48F
330
1E
100
AcDbEntity
  8
0
100
AcDbLine
 10
294.7702673484279
 20
915.1654075783721
 30
0.0
 11
295.0759999999999
 21
915.066
 31
0.0
  0
LINE
  5
490
330
1E
100
AcDbEntity
  8
0
100
AcDbLine
 10
296.3209999999999
 20
922.4949999999999
 30
0.0
 11
296.7629999999999
 21
921.878
 31
0.0
  0
LINE
  5
491
330
1E
100
AcDbEntity
  8
0
100
AcDbLine
 10
296.3209999999999
 20
922.4949999999999
 30
0.0
 11
296.3959999999999
 21
923.5739999999999
 31
0.0
  0
LINE
  5
492
330
1E
100
AcDbEntity
  8
0
100
AcDbLine
 10
296.3959999999999
 20
923.5739999999999
 30
0.0
 11
296.97
 21
924.492
 31
0.0
  0
LINE
  5
493
330
1E
100
AcDbEntity
  8
0
100
AcDbLine
 10
296.027632496859
 20
923.693773014919
 30
0.0
 11
296.3959999999999
 21
923.5739999999999
 31
0.0
  0
LINE
  5
494
330
1E
100
AcDbEntity
  8
0
100
AcDbLine
 10
296.25736377732
 20
922.5156498925571
 30
0.0
 11
296.3209999999999
 21
922.4949999999999
 31
0.0
  0
LINE
  5
495
330
1E
100
AcDbEntity
  8
0
100
AcDbLine
 10
296.97
 20
924.492
 30
0.0
 11
297.69
 21
924.731
 31
0.0
  0
LINE
  5
496
330
1E
100
AcDbEntity
  8
0
100
AcDbLine
 10
296.747838230239
 20
924.5642348869999
 30
0.0
 11
296.97
 21
924.492
 31
0.0
  0
LINE
  5
497
330
1E
100
AcDbEntity
  8
0
100
AcDbLine
 10
296.7629999999999
 20
921.878
 30
0.0
 11
297.483
 21
922.1169999999998
 31
0.0
  0
LINE
  5
498
330
1E
100
AcDbEntity
  8
0
100
AcDbLine
 10
296.644496608422
 20
921.916530837727
 30
0.0
 11
296.7629999999999
 21
921.878
 31
0.0
  0
LINE
  5
499
330
1E
100
AcDbEntity
  8
0
100
AcDbLine
 10
297.207466231311
 20
924.8878936558819
 30
0.0
 11
297.69
 21
924.731
 31
0.0
  0
LINE
  5
49A
330
1E
100
AcDbEntity
  8
0
100
AcDbLine
 10
295.0759999999999
 20
915.066
 30
0.0
 11
295.5169999999999
 21
914.4489999999999
 31
0.0
  0
LINE
  5
49B
330
1E
100
AcDbEntity
  8
0
100
AcDbLine
 10
296.460761736109
 20
914.678778438553
 30
0.0
 11
297.3559999999999
 21
914.4539999999999
 31
0.0
  0
LINE
  5
49C
330
1E
100
AcDbEntity
  8
0
100
AcDbLine
 10
297.651
 20
921.279
 30
0.0
 11
297.694993865162
 21
921.6674658293829
 31
0.0
  0
LINE
  5
49D
330
1E
100
AcDbEntity
  8
0
100
AcDbLine
 10
297.694993865162
 20
921.6674658293829
 30
0.0
 11
298.2889999999999
 21
921.518
 31
0.0
  0
LINE
  5
49E
330
1E
100
AcDbEntity
  8
0
100
AcDbLine
 10
297.600626144747
 20
921.691210953838
 30
0.0
 11
298.2889999999999
 21
921.518
 31
0.0
  0
LINE
  5
49F
330
1E
100
AcDbEntity
  8
0
100
AcDbLine
 10
298.2889999999999
 20
921.518
 30
0.0
 11
298.709
 21
921.8769999999999
 31
0.0
  0
LINE
  5
4A0
330
1E
100
AcDbEntity
  8
0
100
AcDbLine
 10
297.483
 20
922.1169999999998
 30
0.0
 11
298.057
 21
923.0349999999999
 31
0.0
  0
LINE
  5
4A1
330
1E
100
AcDbEntity
  8
0
100
AcDbLine
 10
298.035630963673
 20
924.675291409234
 30
0.0
 11
298.551
 21
929.226
 31
0.0
  0
LINE
  5
4A2
330
1E
100
AcDbEntity
  8
0
100
AcDbLine
 10
298.057
 20
923.0349999999999
 30
0.0
 11
298.132
 21
924.1150000000001
 31
0.0
  0
LINE
  5
4A3
330
1E
100
AcDbEntity
  8
0
100
AcDbLine
 10
298.6
 20
924.0689999999998
 30
0.0
 11
299.0199999999999
 21
924.4279999999999
 31
0.0
  0
LINE
  5
4A4
330
1E
100
AcDbEntity
  8
0
100
AcDbLine
 10
298.069165398494
 20
924.2025703948598
 30
0.0
 11
298.6
 21
924.0689999999998
 31
0.0
  0
LINE
  5
4A5
330
1E
100
AcDbEntity
  8
0
100
AcDbLine
 10
298.211
 20
923.085
 30
0.0
 11
298.6
 21
924.0689999999998
 31
0.0
  0
LINE
  5
4A6
330
1E
100
AcDbEntity
  8
0
100
AcDbLine
 10
298.0630532578489
 20
923.122166913026
 30
0.0
 11
298.211
 21
923.085
 31
0.0
  0
LINE
  5
4A7
330
1E
100
AcDbEntity
  8
0
100
AcDbLine
 10
298.0879999999999
 20
922.033
 30
0.0
 11
298.2889999999999
 21
921.518
 31
0.0
  0
LINE
  5
4A8
330
1E
100
AcDbEntity
  8
0
100
AcDbLine
 10
298.0879999999999
 20
922.033
 30
0.0
 11
298.211
 21
923.085
 31
0.0
  0
LINE
  5
4A9
330
1E
100
AcDbEntity
  8
0
100
AcDbLine
 10
297.5507953483
 20
922.1678825532409
 30
0.0
 11
298.0879999999999
 21
922.033
 31
0.0
  0
LINE
  5
4AA
330
1E
100
AcDbEntity
  8
0
100
AcDbLine
 10
297.600626144747
 20
921.691210953838
 30
0.0
 11
298.2889999999999
 21
921.518
 31
0.0
  0
LINE
  5
4AB
330
1E
100
AcDbEntity
  8
0
100
AcDbLine
 10
298.709
 20
921.8769999999999
 30
0.0
 11
299.098
 21
922.8610000000001
 31
0.0
  0
LINE
  5
4AC
330
1E
100
AcDbEntity
  8
0
100
AcDbLine
 10
298.919
 20
933.8139999999999
 30
0.0
 11
298.943
 21
937.3369999999999
 31
0.0
  0
LINE
  5
4AD
330
1E
100
AcDbEntity
  8
0
100
AcDbLine
 10
298.551
 20
929.226
 30
0.0
 11
298.919
 21
933.8139999999999
 31
0.0
  0
LINE
  5
4AE
330
1E
100
AcDbEntity
  8
0
100
AcDbLine
 10
297.69
 20
924.731
 30
0.0
 11
298.132
 21
924.1150000000001
 31
0.0
  0
LINE
  5
4AF
330
1E
100
AcDbEntity
  8
0
100
AcDbLine
 10
297.9509090177579
 20
924.6965751032808
 30
0.0
 11
299.0199999999999
 21
924.4279999999999
 31
0.0
  0
LINE
  5
4B0
330
1E
100
AcDbEntity
  8
0
100
AcDbLine
 10
299.098
 20
922.8610000000001
 30
0.0
 11
299.22
 21
923.9130000000001
 31
0.0
  0
LINE
  5
4B1
330
1E
100
AcDbEntity
  8
0
100
AcDbLine
 10
299.0199999999999
 20
924.4279999999999
 30
0.0
 11
299.22
 21
923.9130000000001
 31
0.0
  0
LINE
  5
4B2
330
1E
100
AcDbEntity
  8
0
100
AcDbLine
 10
297.434
 20
912.888
 30
0.0
 11
297.557
 21
913.939
 31
0.0
  0
LINE
  5
4B3
330
1E
100
AcDbEntity
  8
0
100
AcDbLine
 10
297.3559999999999
 20
914.4539999999999
 30
0.0
 11
297.557
 21
913.939
 31
0.0
  0
LINE
  5
4D2
330
1E
100
AcDbEntity
  8
0
100
AcDbLine
 10
297.629
 20
943.6489999999999
 30
0.0
 11
298.4579999999999
 21
941.026
 31
0.0
  0
LINE
  5
4D3
330
1E
100
AcDbEntity
  8
0
100
AcDbLine
 10
298.4579999999999
 20
941.026
 30
0.0
 11
298.943
 21
937.3369999999999
 31
0.0
  0
LINE
  5
4D8
330
1E
100
AcDbEntity
  8
0
100
AcDbLine
 10
295.9459999999999
 20
945.373
 30
0.0
 11
297.629
 21
943.6489999999999
 31
0.0
  0
LINE
  5
4D9
330
1E
100
AcDbEntity
  8
0
100
AcDbLine
 10
294.9139999999999
 20
945.3049999999999
 30
0.0
 11
296.002
 21
945.3549999999999
 31
0.0
  0
LINE
  5
4DC
330
1E
100
AcDbEntity
  8
0
100
AcDbLine
 10
289.5459999999999
 20
935.3819999999998
 30
0.0
 11
292.881
 21
942.345
 31
0.0
  0
LINE
  5
4DD
330
1E
100
AcDbEntity
  8
0
100
AcDbLine
 10
289.499
 20
935.241
 30
0.0
 11
289.5459999999999
 21
935.3819999999998
 31
0.0
  0
LINE
  5
4DE
330
1E
100
AcDbEntity
  8
0
100
AcDbLine
 10
248.116
 20
805.413
 30
0.0
 11
248.78
 21
808.807
 31
0.0
  0
LINE
  5
4DF
330
1E
100
AcDbEntity
  8
0
100
AcDbLine
 10
228.485
 20
975.8700000000001
 30
0.0
 11
228.667556363636
 21
975.7480000000001
 31
0.0
  0
LINE
  5
4E0
330
1E
100
AcDbEntity
  8
0
100
AcDbLine
 10
226.453
 20
976.7949999999999
 30
0.0
 11
227.551
 21
976.37
 31
0.0
  0
LINE
  5
4E1
330
1E
100
AcDbEntity
  8
0
100
AcDbLine
 10
227.551
 20
976.37
 30
0.0
 11
228.485
 21
975.8700000000001
 31
0.0
  0
LINE
  5
4E2
330
1E
100
AcDbEntity
  8
0
100
AcDbLine
 10
224.7850911786799
 20
977.269920764737
 30
0.0
 11
225.244
 21
977.1699999999999
 31
0.0
  0
LINE
  5
4E3
330
1E
100
AcDbEntity
  8
0
100
AcDbLine
 10
225.244
 20
977.1699999999999
 30
0.0
 11
226.453
 21
976.7949999999999
 31
0.0
  0
LINE
  5
4E4
330
1E
100
AcDbEntity
  8
0
100
AcDbLine
 10
214.3699999999999
 20
977.1699999999999
 30
0.0
 11
214.681830509172
 21
977.237842871853
 31
0.0
  0
LINE
  5
4E5
330
1E
100
AcDbEntity
  8
0
100
AcDbLine
 10
213.162
 20
976.7949999999999
 30
0.0
 11
214.3699999999999
 21
977.1699999999999
 31
0.0
  0
LINE
  5
4E6
330
1E
100
AcDbEntity
  8
0
100
AcDbLine
 10
212.064
 20
976.37
 30
0.0
 11
213.162
 21
976.7949999999999
 31
0.0
  0
LINE
  5
4E7
330
1E
100
AcDbEntity
  8
0
100
AcDbLine
 10
211.1299999999999
 20
975.8700000000001
 30
0.0
 11
212.064
 21
976.37
 31
0.0
  0
LINE
  5
4E8
330
1E
100
AcDbEntity
  8
0
100
AcDbLine
 10
210.9472218181819
 20
975.7480000000001
 30
0.0
 11
211.1299999999999
 21
975.8700000000001
 31
0.0
  0
LINE
  5
4E9
330
1E
100
AcDbEntity
  8
0
100
AcDbLine
 10
221.672
 20
1056.108999999999
 30
0.0
 11
222.0079999999999
 21
1056.129
 31
0.0
  0
LINE
  5
4EA
330
1E
100
AcDbEntity
  8
0
100
AcDbLine
 10
222.3219999999999
 20
1056.148
 30
0.0
 11
222.4289999999999
 21
1056.155
 31
0.0
  0
LINE
  5
4EB
330
1E
100
AcDbEntity
  8
0
100
AcDbLine
 10
222.4289999999999
 20
1056.155
 30
0.0
 11
224.787865565386
 21
977.2272200637599
 31
0.0
  0
LINE
  5
4EC
330
1E
100
AcDbEntity
  8
0
100
AcDbLine
 10
222.0079999999999
 20
1056.129
 30
0.0
 11
222.3219999999999
 21
1056.148
 31
0.0
  0
LINE
  5
4ED
330
1E
100
AcDbEntity
  8
0
100
AcDbLine
 10
221.112
 20
1056.073999999999
 30
0.0
 11
221.672
 21
1056.108999999999
 31
0.0
  0
LINE
  5
4EE
330
1E
100
AcDbEntity
  8
0
100
AcDbLine
 10
219.1609999999999
 20
1055.954999999999
 30
0.0
 11
221.112
 21
1056.073999999999
 31
0.0
  0
LINE
  5
4EF
330
1E
100
AcDbEntity
  8
0
100
AcDbLine
 10
214.9429999999999
 20
1055.697
 30
0.0
 11
219.1609999999999
 21
1055.954999999999
 31
0.0
  0
LINE
  5
4F0
330
1E
100
AcDbEntity
  8
0
100
AcDbLine
 10
210.726
 20
1055.438999999999
 30
0.0
 11
214.9429999999999
 21
1055.697
 31
0.0
  0
LINE
  5
4F5
330
1E
100
AcDbEntity
  8
0
100
AcDbLine
 10
292.881
 20
942.345
 30
0.0
 11
294.9139999999999
 21
945.3049999999999
 31
0.0
  0
LINE
  5
4F6
330
1E
100
AcDbEntity
  8
0
100
AcDbLine
 10
289.5459999999999
 20
935.3819999999998
 30
0.0
 11
285.434
 21
922.728
 31
0.0
  0
LINE
  5
4F7
330
1E
100
AcDbEntity
  8
0
100
AcDbLine
 10
282.594
 20
913.9880000000001
 30
0.0
 11
274.9589999999999
 21
890.488
 31
0.0
  0
LINE
  5
4F8
330
1E
100
AcDbEntity
  8
0
100
AcDbLine
 10
269.916
 20
874.971
 30
0.0
 11
257.239
 21
835.9529999999999
 31
0.0
  0
LINE
  5
4F9
330
1E
100
AcDbEntity
  8
0
100
AcDbLine
 10
136.878837088102
 20
946.089464957398
 30
0.0
 11
158.8139999999999
 21
945.0068452800419
 31
0.0
  0
LINE
  5
4FA
330
1E
100
AcDbEntity
  8
0
100
AcDbLine
 10
1.33500000000004
 20
965.7489999999999
 30
0.0
 11
23.065
 21
969.1139999999998
 31
0.0
  0
ENDSEC
  0
SECTION
  2
OBJECTS
  0
DICTIONARY
  5
C
330
0
100
AcDbDictionary
281
     1
  3
ACAD_GROUP
350
D
  3
ACAD_LAYOUT
350
19
  3
ACAD_MLINESTYLE
350
16
  3
ACAD_PLOTSETTINGS
350
18
  3
ACAD_PLOTSTYLENAME
350
E
  3
AcDbVariableDictionary
350
4FE
  0
DICTIONARY
  5
D
102
{ACAD_REACTORS
330
C
102
}
330
C
100
AcDbDictionary
281
     1
  0
DICTIONARY
  5
19
102
{ACAD_REACTORS
330
C
102
}
330
C
100
AcDbDictionary
281
     1
  3
Layout1
350
1D
  3
Model
350
21
  0
DICTIONARY
  5
16
102
{ACAD_REACTORS
330
C
102
}
330
C
100
AcDbDictionary
281
     1
  3
Standard
350
17
  0
DICTIONARY
  5
18
102
{ACAD_REACTORS
330
C
102
}
330
C
100
AcDbDictionary
281
     1
  0
ACDBDICTIONARYWDFLT
  5
E
102
{ACAD_REACTORS
330
C
102
}
330
C
100
AcDbDictionary
281
     1
  3
Normal
350
F
100
AcDbDictionaryWithDefault
340
F
  0
DICTIONARY
  5
4FE
102
{ACAD_REACTORS
330
C
102
}
330
C
100
AcDbDictionary
281
     1
  3
DIMASSOC
350
4FF
  0
LAYOUT
  5
1D
102
{ACAD_REACTORS
330
19
102
}
330
19
100
AcDbPlotSettings
  1

  2
C:\Programme\AutoCAD LT 2002 Deu\plotters\DWF ePlot (optimized for plotting).pc3
  4

  6

 40
0.0
 41
0.0
 42
0.0
 43
0.0
 44
0.0
 45
0.0
 46
0.0
 47
0.0
 48
0.0
 49
0.0
140
0.0
141
0.0
142
1.0
143
1.0
 70
   688
 72
     0
 73
     0
 74
     5
  7

 75
    16
147
1.0
148
0.0
149
0.0
100
AcDbLayout
  1
Layout1
 70
     1
 71
     1
 10
0.0
 20
0.0
 11
12.0
 21
9.0
 12
0.0
 22
0.0
 32
0.0
 14
1.000000000000000E+20
 24
1.000000000000000E+20
 34
1.000000000000000E+20
 15
-1.000000000000000E+20
 25
-1.000000000000000E+20
 35
-1.000000000000000E+20
146
0.0
 13
0.0
 23
0.0
 33
0.0
 16
1.0
 26
0.0
 36
0.0
 17
0.0
 27
1.0
 37
0.0
 76
     0
330
1A
  0
LAYOUT
  5
21
102
{ACAD_REACTORS
330
19
102
}
330
19
100
AcDbPlotSettings
  1

  2
C:\Programme\AutoCAD LT 2002 Deu\plotters\DWF ePlot (optimized for plotting).pc3
  4

  6

 40
0.0
 41
0.0
 42
0.0
 43
0.0
 44
0.0
 45
0.0
 46
0.0
 47
0.0
 48
0.0
 49
0.0
140
0.0
141
0.0
142
1.0
143
1.0
 70
  1712
 72
     0
 73
     0
 74
     0
  7

 75
     0
147
1.0
148
0.0
149
0.0
100
AcDbLayout
  1
Model
 70
     1
 71
     0
 10
0.0
 20
0.0
 11
12.0
 21
9.0
 12
0.0
 22
0.0
 32
0.0
 14
0.0
 24
0.0
 34
0.0
 15
0.0
 25
0.0
 35
0.0
146
0.0
 13
0.0
 23
0.0
 33
0.0
 16
1.0
 26
0.0
 36
0.0
 17
0.0
 27
1.0
 37
0.0
 76
     0
330
1E
  0
MLINESTYLE
  5
17
102
{ACAD_REACTORS
330
16
102
}
330
16
100
AcDbMlineStyle
  2
STANDARD
 70
     0
  3

 62
   256
 51
90.0
 52
90.0
 71
     2
 49
0.5
 62
   256
  6
BYLAYER
 49
-0.5
 62
   256
  6
BYLAYER
  0
ACDBPLACEHOLDER
  5
F
102
{ACAD_REACTORS
330
E
102
}
330
E
  0
DICTIONARYVAR
  5
4FF
102
{ACAD_REACTORS
330
4FE
102
}
330
4FE
100
DictionaryVariables
280
     0
  1
1
  0
ENDSEC
  0
EOF
