  0
SECTION
  2
HEADER
  9
$ACADVER
  1
AC1015
  9
$ACADMAINTVER
 70
    13
  9
$DWGCODEPAGE
  3
ANSI_1252
  9
$INSBASE
 10
0.0
 20
0.0
 30
0.0
  9
$EXTMIN
 10
0.0224842161225638
 20
0.0075500000000058
 30
0.0
  9
$EXTMAX
 10
75.999999
 20
53.99245
 30
0.0
  9
$LIMMIN
 10
0.0
 20
0.0
  9
$LIMMAX
 10
12.0
 20
9.0
  9
$ORTHOMODE
 70
     0
  9
$REGENMODE
 70
     1
  9
$FILLMODE
 70
     1
  9
$QTEXTMODE
 70
     0
  9
$MIRRTEXT
 70
     1
  9
$LTSCALE
 40
1.0
  9
$ATTMODE
 70
     1
  9
$TEXTSIZE
 40
0.2
  9
$TRACEWID
 40
0.05
  9
$TEXTSTYLE
  7
Standard
  9
$CLAYER
  8
0
  9
$CELTYPE
  6
Continuous
  9
$CECOLOR
 62
   256
  9
$CELTSCALE
 40
1.0
  9
$DISPSILH
 70
     0
  9
$DIMSCALE
 40
1.0
  9
$DIMASZ
 40
0.18
  9
$DIMEXO
 40
0.0625
  9
$DIMDLI
 40
0.38
  9
$DIMRND
 40
0.0
  9
$DIMDLE
 40
0.0
  9
$DIMEXE
 40
0.18
  9
$DIMTP
 40
0.0
  9
$DIMTM
 40
0.0
  9
$DIMTXT
 40
0.18
  9
$DIMCEN
 40
0.09
  9
$DIMTSZ
 40
0.0
  9
$DIMTOL
 70
     0
  9
$DIMLIM
 70
     0
  9
$DIMTIH
 70
     1
  9
$DIMTOH
 70
     1
  9
$DIMSE1
 70
     0
  9
$DIMSE2
 70
     0
  9
$DIMTAD
 70
     0
  9
$DIMZIN
 70
     0
  9
$DIMBLK
  1

  9
$DIMASO
 70
     1
  9
$DIMSHO
 70
     1
  9
$DIMPOST
  1

  9
$DIMAPOST
  1

  9
$DIMALT
 70
     0
  9
$DIMALTD
 70
     2
  9
$DIMALTF
 40
25.4
  9
$DIMLFAC
 40
1.0
  9
$DIMTOFL
 70
     0
  9
$DIMTVP
 40
0.0
  9
$DIMTIX
 70
     0
  9
$DIMSOXD
 70
     0
  9
$DIMSAH
 70
     0
  9
$DIMBLK1
  1

  9
$DIMBLK2
  1

  9
$DIMSTYLE
  2
Standard
  9
$DIMCLRD
 70
     0
  9
$DIMCLRE
 70
     0
  9
$DIMCLRT
 70
     0
  9
$DIMTFAC
 40
1.0
  9
$DIMGAP
 40
0.09
  9
$DIMJUST
 70
     0
  9
$DIMSD1
 70
     0
  9
$DIMSD2
 70
     0
  9
$DIMTOLJ
 70
     1
  9
$DIMTZIN
 70
     0
  9
$DIMALTZ
 70
     0
  9
$DIMALTTZ
 70
     0
  9
$DIMUPT
 70
     0
  9
$DIMDEC
 70
     4
  9
$DIMTDEC
 70
     4
  9
$DIMALTU
 70
     2
  9
$DIMALTTD
 70
     2
  9
$DIMTXSTY
  7
Standard
  9
$DIMAUNIT
 70
     0
  9
$DIMADEC
 70
     0
  9
$DIMALTRND
 40
0.0
  9
$DIMAZIN
 70
     0
  9
$DIMDSEP
 70
    46
  9
$DIMATFIT
 70
     3
  9
$DIMFRAC
 70
     0
  9
$DIMLDRBLK
  1

  9
$DIMLUNIT
 70
     2
  9
$DIMLWD
 70
    -2
  9
$DIMLWE
 70
    -2
  9
$DIMTMOVE
 70
     0
  9
$LUNITS
 70
     2
  9
$LUPREC
 70
     4
  9
$SKETCHINC
 40
0.1
  9
$FILLETRAD
 40
0.0
  9
$AUNITS
 70
     0
  9
$AUPREC
 70
     0
  9
$MENU
  1
.
  9
$ELEVATION
 40
0.0
  9
$PELEVATION
 40
0.0
  9
$THICKNESS
 40
0.0
  9
$LIMCHECK
 70
     0
  9
$CHAMFERA
 40
0.0
  9
$CHAMFERB
 40
0.0
  9
$CHAMFERC
 40
0.0
  9
$CHAMFERD
 40
0.0
  9
$SKPOLY
 70
     0
  9
$TDCREATE
 40
2455655.601219247
  9
$TDUCREATE
 40
2455655.517885914
  9
$TDUPDATE
 40
2455655.612868553
  9
$TDUUPDATE
 40
2455655.529535220
  9
$TDINDWG
 40
0.0116494907
  9
$TDUSRTIMER
 40
0.0116494907
  9
$USRTIMER
 70
     1
  9
$ANGBASE
 50
0.0
  9
$ANGDIR
 70
     0
  9
$PDMODE
 70
     0
  9
$PDSIZE
 40
0.0
  9
$PLINEWID
 40
0.0
  9
$SPLFRAME
 70
     0
  9
$SPLINETYPE
 70
     6
  9
$SPLINESEGS
 70
     8
  9
$HANDSEED
  5
243
  9
$SURFTAB1
 70
     6
  9
$SURFTAB2
 70
     6
  9
$SURFTYPE
 70
     6
  9
$SURFU
 70
     6
  9
$SURFV
 70
     6
  9
$UCSBASE
  2

  9
$UCSNAME
  2

  9
$UCSORG
 10
0.0
 20
0.0
 30
0.0
  9
$UCSXDIR
 10
1.0
 20
0.0
 30
0.0
  9
$UCSYDIR
 10
0.0
 20
1.0
 30
0.0
  9
$UCSORTHOREF
  2

  9
$UCSORTHOVIEW
 70
     1
  9
$UCSORGTOP
 10
0.0
 20
0.0
 30
0.0
  9
$UCSORGBOTTOM
 10
0.0
 20
0.0
 30
0.0
  9
$UCSORGLEFT
 10
0.0
 20
0.0
 30
0.0
  9
$UCSORGRIGHT
 10
0.0
 20
0.0
 30
0.0
  9
$UCSORGFRONT
 10
0.0
 20
0.0
 30
0.0
  9
$UCSORGBACK
 10
0.0
 20
0.0
 30
0.0
  9
$PUCSBASE
  2

  9
$PUCSNAME
  2

  9
$PUCSORG
 10
0.0
 20
0.0
 30
0.0
  9
$PUCSXDIR
 10
1.0
 20
0.0
 30
0.0
  9
$PUCSYDIR
 10
0.0
 20
1.0
 30
0.0
  9
$PUCSORTHOREF
  2

  9
$PUCSORTHOVIEW
 70
     0
  9
$PUCSORGTOP
 10
0.0
 20
0.0
 30
0.0
  9
$PUCSORGBOTTOM
 10
0.0
 20
0.0
 30
0.0
  9
$PUCSORGLEFT
 10
0.0
 20
0.0
 30
0.0
  9
$PUCSORGRIGHT
 10
0.0
 20
0.0
 30
0.0
  9
$PUCSORGFRONT
 10
0.0
 20
0.0
 30
0.0
  9
$PUCSORGBACK
 10
0.0
 20
0.0
 30
0.0
  9
$USERI1
 70
     0
  9
$USERI2
 70
     0
  9
$USERI3
 70
     0
  9
$USERI4
 70
     0
  9
$USERI5
 70
     0
  9
$USERR1
 40
0.0
  9
$USERR2
 40
0.0
  9
$USERR3
 40
0.0
  9
$USERR4
 40
0.0
  9
$USERR5
 40
0.0
  9
$WORLDVIEW
 70
     1
  9
$SHADEDGE
 70
     3
  9
$SHADEDIF
 70
    70
  9
$TILEMODE
 70
     1
  9
$MAXACTVP
 70
    64
  9
$PINSBASE
 10
0.0
 20
0.0
 30
0.0
  9
$PLIMCHECK
 70
     0
  9
$PEXTMIN
 10
1.000000000000000E+20
 20
1.000000000000000E+20
 30
1.000000000000000E+20
  9
$PEXTMAX
 10
-1.000000000000000E+20
 20
-1.000000000000000E+20
 30
-1.000000000000000E+20
  9
$PLIMMIN
 10
0.0
 20
0.0
  9
$PLIMMAX
 10
12.0
 20
9.0
  9
$UNITMODE
 70
     0
  9
$VISRETAIN
 70
     1
  9
$PLINEGEN
 70
     0
  9
$PSLTSCALE
 70
     1
  9
$TREEDEPTH
 70
  3020
  9
$CMLSTYLE
  2
Standard
  9
$CMLJUST
 70
     0
  9
$CMLSCALE
 40
1.0
  9
$PROXYGRAPHICS
 70
     1
  9
$MEASUREMENT
 70
     0
  9
$CELWEIGHT
370
    -1
  9
$ENDCAPS
280
     0
  9
$JOINSTYLE
280
     0
  9
$LWDISPLAY
290
     0
  9
$INSUNITS
 70
     0
  9
$HYPERLINKBASE
  1

  9
$STYLESHEET
  1

  9
$XEDIT
290
     1
  9
$CEPSNTYPE
380
     0
  9
$PSTYLEMODE
290
     1
  9
$FINGERPRINTGUID
  2
{E7874276-30BA-4A25-9DF3-54CFF78AEEB5}
  9
$VERSIONGUID
  2
{C3199BD0-6473-4017-9E56-EDBF8D048D30}
  9
$EXTNAMES
290
     1
  9
$PSVPSCALE
 40
0.0
  9
$OLESTARTUP
290
     0
  0
ENDSEC
  0
SECTION
  2
CLASSES
  0
CLASS
  1
ACDBDICTIONARYWDFLT
  2
AcDbDictionaryWithDefault
  3
AutoCAD 2000
 90
        0
280
     0
281
     0
  0
CLASS
  1
ACDBPLACEHOLDER
  2
AcDbPlaceHolder
  3
AutoCAD 2000
 90
        0
280
     0
281
     0
  0
CLASS
  1
LAYOUT
  2
AcDbLayout
  3
AutoCAD 2000
 90
        0
280
     0
281
     0
  0
CLASS
  1
DICTIONARYVAR
  2
AcDbDictionaryVar
  3
AutoCAD 2000
 90
        0
280
     0
281
     0
  0
ENDSEC
  0
SECTION
  2
TABLES
  0
TABLE
  2
VPORT
  5
8
330
0
100
AcDbSymbolTable
 70
     3
  0
VPORT
  5
242
330
8
100
AcDbSymbolTableRecord
100
AcDbViewportTableRecord
  2
*Active
 70
     0
 10
0.0
 20
0.0
 11
1.0
 21
1.0
 12
38.01124160806128
 22
27.0
 13
0.0
 23
0.0
 14
1.0
 24
1.0
 15
0.0
 25
0.0
 16
0.0
 26
0.0
 36
1.0
 17
0.0
 27
0.0
 37
0.0
 40
54.35007406989853
 41
2.073363431151241
 42
50.0
 43
0.0
 44
0.0
 50
0.0
 51
0.0
 71
     0
 72
   100
 73
     1
 74
     3
 75
     0
 76
     0
 77
     0
 78
     0
281
     0
 65
     1
110
0.0
120
0.0
130
0.0
111
1.0
121
0.0
131
0.0
112
0.0
122
1.0
132
0.0
 79
     1
146
0.0
  0
ENDTAB
  0
TABLE
  2
LTYPE
  5
5
330
0
100
AcDbSymbolTable
 70
     1
  0
LTYPE
  5
13
330
5
100
AcDbSymbolTableRecord
100
AcDbLinetypeTableRecord
  2
ByBlock
 70
     0
  3

 72
    65
 73
     0
 40
0.0
  0
LTYPE
  5
14
330
5
100
AcDbSymbolTableRecord
100
AcDbLinetypeTableRecord
  2
ByLayer
 70
     0
  3

 72
    65
 73
     0
 40
0.0
  0
LTYPE
  5
15
330
5
100
AcDbSymbolTableRecord
100
AcDbLinetypeTableRecord
  2
Continuous
 70
     0
  3
Solid line
 72
    65
 73
     0
 40
0.0
  0
ENDTAB
  0
TABLE
  2
LAYER
  5
2
330
0
100
AcDbSymbolTable
 70
     1
  0
LAYER
  5
10
330
2
100
AcDbSymbolTableRecord
100
AcDbLayerTableRecord
  2
0
 70
     0
 62
     7
  6
Continuous
370
    -3
390
F
  0
ENDTAB
  0
TABLE
  2
STYLE
  5
3
330
0
100
AcDbSymbolTable
 70
     1
  0
STYLE
  5
11
330
3
100
AcDbSymbolTableRecord
100
AcDbTextStyleTableRecord
  2
Standard
 70
     0
 40
0.0
 41
1.0
 50
0.0
 71
     0
 42
0.2
  3
txt
  4

  0
ENDTAB
  0
TABLE
  2
VIEW
  5
6
330
0
100
AcDbSymbolTable
 70
     0
  0
ENDTAB
  0
TABLE
  2
UCS
  5
7
330
0
100
AcDbSymbolTable
 70
     0
  0
ENDTAB
  0
TABLE
  2
APPID
  5
9
330
0
100
AcDbSymbolTable
 70
     1
  0
APPID
  5
12
330
9
100
AcDbSymbolTableRecord
100
AcDbRegAppTableRecord
  2
ACAD
 70
     0
  0
ENDTAB
  0
TABLE
  2
DIMSTYLE
  5
A
330
0
100
AcDbSymbolTable
 70
     1
100
AcDbDimStyleTable
 71
     0
  0
DIMSTYLE
105
238
330
A
100
AcDbSymbolTableRecord
100
AcDbDimStyleTableRecord
  2
Standard
 70
     0
340
11
  0
ENDTAB
  0
TABLE
  2
BLOCK_RECORD
  5
1
330
0
100
AcDbSymbolTable
 70
     0
  0
BLOCK_RECORD
  5
1E
330
1
100
AcDbSymbolTableRecord
100
AcDbBlockTableRecord
  2
*Model_Space
340
21
  0
BLOCK_RECORD
  5
1A
330
1
100
AcDbSymbolTableRecord
100
AcDbBlockTableRecord
  2
*Paper_Space
340
1D
  0
ENDTAB
  0
ENDSEC
  0
SECTION
  2
BLOCKS
  0
BLOCK
  5
1F
330
1E
100
AcDbEntity
  8
0
100
AcDbBlockBegin
  2
*Model_Space
 70
     0
 10
0.0
 20
0.0
 30
0.0
  3
*Model_Space
  1

  0
ENDBLK
  5
20
330
1E
100
AcDbEntity
  8
0
100
AcDbBlockEnd
  0
BLOCK
  5
1B
330
1A
100
AcDbEntity
 67
     1
  8
0
100
AcDbBlockBegin
  2
*Paper_Space
 70
     0
 10
0.0
 20
0.0
 30
0.0
  3
*Paper_Space
  1

  0
ENDBLK
  5
1C
330
1A
100
AcDbEntity
 67
     1
  8
0
100
AcDbBlockEnd
  0
ENDSEC
  0
SECTION
  2
ENTITIES
  0
LINE
  5
22
330
1E
100
AcDbEntity
  8
0
100
AcDbLine
 10
2.308999000000009
 20
14.73895
 30
0.0
 11
2.47599900000001
 21
14.73995
 31
0.0
  0
LINE
  5
23
330
1E
100
AcDbEntity
  8
0
100
AcDbLine
 10
2.47599900000001
 20
14.73995
 30
0.0
 11
3.392999000000009
 21
14.74795
 31
0.0
  0
LINE
  5
24
330
1E
100
AcDbEntity
  8
0
100
AcDbLine
 10
2.47599900000001
 20
14.73995
 30
0.0
 11
2.905799000000009
 21
14.74435
 31
0.0
  0
LINE
  5
25
330
1E
100
AcDbEntity
  8
0
100
AcDbLine
 10
3.392999000000009
 20
14.74795
 30
0.0
 11
4.138999000000009
 21
14.75495
 31
0.0
  0
LINE
  5
27
330
1E
100
AcDbEntity
  8
0
100
AcDbLine
 10
2.01099900000001
 20
14.83495
 30
0.0
 11
2.308999000000009
 21
14.73895
 31
0.0
  0
LINE
  5
28
330
1E
100
AcDbEntity
  8
0
100
AcDbLine
 10
4.138999000000009
 20
14.75495
 30
0.0
 11
12.653999
 21
14.82895
 31
0.0
  0
LINE
  5
29
330
1E
100
AcDbEntity
  8
0
100
AcDbLine
 10
12.653999
 20
14.82895
 30
0.0
 11
20.014999
 21
14.89295
 31
0.0
  0
LINE
  5
2A
330
1E
100
AcDbEntity
  8
0
100
AcDbLine
 10
20.014999
 20
14.89295
 30
0.0
 11
21.215999
 21
14.90395
 31
0.0
  0
LINE
  5
2B
330
1E
100
AcDbEntity
  8
0
100
AcDbLine
 10
21.215999
 20
14.90395
 30
0.0
 11
22.259999
 21
14.91295
 31
0.0
  0
LINE
  5
2C
330
1E
100
AcDbEntity
  8
0
100
AcDbLine
 10
23.413999
 20
14.92295
 30
0.0
 11
24.306999
 21
14.93095
 31
0.0
  0
LINE
  5
2D
330
1E
100
AcDbEntity
  8
0
100
AcDbLine
 10
24.306999
 20
14.93095
 30
0.0
 11
24.945999
 21
14.93595
 31
0.0
  0
LINE
  5
31
330
1E
100
AcDbEntity
  8
0
100
AcDbLine
 10
1.82629900000001
 20
15.09005
 30
0.0
 11
2.01099900000001
 21
14.83495
 31
0.0
  0
LINE
  5
34
330
1E
100
AcDbEntity
  8
0
100
AcDbLine
 10
24.945999
 20
14.93595
 30
0.0
 11
25.274999
 21
14.93895
 31
0.0
  0
LINE
  5
35
330
1E
100
AcDbEntity
  8
0
100
AcDbLine
 10
25.482899
 20
14.94095
 30
0.0
 11
25.56699899999999
 21
14.95395
 31
0.0
  0
LINE
  5
36
330
1E
100
AcDbEntity
  8
0
100
AcDbLine
 10
25.274999
 20
14.93895
 30
0.0
 11
25.482899
 21
14.94095
 31
0.0
  0
LINE
  5
37
330
1E
100
AcDbEntity
  8
0
100
AcDbLine
 10
22.259999
 20
14.91295
 30
0.0
 11
23.413999
 21
14.92295
 31
0.0
  0
LINE
  5
38
330
1E
100
AcDbEntity
  8
0
100
AcDbLine
 10
25.56699899999999
 20
14.95395
 30
0.0
 11
25.73499899999999
 21
15.05905
 31
0.0
  0
LINE
  5
3B
330
1E
100
AcDbEntity
  8
0
100
AcDbLine
 10
1.63799900000001
 20
15.67525
 30
0.0
 11
1.82629900000001
 21
15.09005
 31
0.0
  0
LINE
  5
45
330
1E
100
AcDbEntity
  8
0
100
AcDbLine
 10
25.799999
 20
16.42644999999999
 30
0.0
 11
25.799999
 21
17.26565
 31
0.0
  0
LINE
  5
46
330
1E
100
AcDbEntity
  8
0
100
AcDbLine
 10
25.799999
 20
16.42644999999999
 30
0.0
 11
25.799999
 21
15.80225
 31
0.0
  0
LINE
  5
47
330
1E
100
AcDbEntity
  8
0
100
AcDbLine
 10
25.799999
 20
15.80225
 30
0.0
 11
25.799999
 21
16.42644999999999
 31
0.0
  0
LINE
  5
48
330
1E
100
AcDbEntity
  8
0
100
AcDbLine
 10
25.799999
 20
15.80225
 30
0.0
 11
25.799999
 21
15.40615
 31
0.0
  0
LINE
  5
49
330
1E
100
AcDbEntity
  8
0
100
AcDbLine
 10
25.799999
 20
15.40615
 30
0.0
 11
25.799999
 21
15.80225
 31
0.0
  0
LINE
  5
4A
330
1E
100
AcDbEntity
  8
0
100
AcDbLine
 10
25.799999
 20
15.40615
 30
0.0
 11
25.799999
 21
15.24605
 31
0.0
  0
LINE
  5
4B
330
1E
100
AcDbEntity
  8
0
100
AcDbLine
 10
25.799999
 20
15.24605
 30
0.0
 11
25.799999
 21
15.40615
 31
0.0
  0
LINE
  5
4C
330
1E
100
AcDbEntity
  8
0
100
AcDbLine
 10
25.73499899999999
 20
15.05905
 30
0.0
 11
25.799999
 21
15.24605
 31
0.0
  0
LINE
  5
50
330
1E
100
AcDbEntity
  8
0
100
AcDbLine
 10
56.20699899999999
 20
16.83905
 30
0.0
 11
56.531999
 21
16.62235
 31
0.0
  0
LINE
  5
54
330
1E
100
AcDbEntity
  8
0
100
AcDbLine
 10
25.799999
 20
17.26565
 30
0.0
 11
25.799999
 21
38.68905
 31
0.0
  0
LINE
  5
55
330
1E
100
AcDbEntity
  8
0
100
AcDbLine
 10
25.799999
 20
17.26565
 30
0.0
 11
25.799999
 21
16.42644999999999
 31
0.0
  0
LINE
  5
56
330
1E
100
AcDbEntity
  8
0
100
AcDbLine
 10
0.9239990000000071
 20
18.45684999999999
 30
0.0
 11
1.63799900000001
 21
15.67525
 31
0.0
  0
LINE
  5
57
330
1E
100
AcDbEntity
  8
0
100
AcDbLine
 10
25.799999
 20
38.68905
 30
0.0
 11
25.799999
 21
17.26565
 31
0.0
  0
LINE
  5
5B
330
1E
100
AcDbEntity
  8
0
100
AcDbLine
 10
25.799999
 20
18.75714999999999
 30
0.0
 11
53.857999
 21
18.75714999999999
 31
0.0
  0
LINE
  5
5C
330
1E
100
AcDbEntity
  8
0
100
AcDbLine
 10
0.411999000000007
 20
21.28245
 30
0.0
 11
0.9239990000000071
 21
18.45684999999999
 31
0.0
  0
LINE
  5
5D
330
1E
100
AcDbEntity
  8
0
100
AcDbLine
 10
0.411999000000007
 20
21.28184999999999
 30
0.0
 11
0.9239990000000071
 21
18.45605
 31
0.0
  0
LINE
  5
69
330
1E
100
AcDbEntity
  8
0
100
AcDbLine
 10
25.799999
 20
18.75714999999999
 30
0.0
 11
53.857999
 21
18.75714999999999
 31
0.0
  0
LINE
  5
7A
330
1E
100
AcDbEntity
  8
0
100
AcDbLine
 10
0.107904000000007
 20
24.09264999999999
 30
0.0
 11
0.411999000000007
 21
21.28184999999999
 31
0.0
  0
LINE
  5
7B
330
1E
100
AcDbEntity
  8
0
100
AcDbLine
 10
0.107904000000007
 20
24.09264999999999
 30
0.0
 11
0.411999000000007
 21
21.28184999999999
 31
0.0
  0
LINE
  5
7C
330
1E
100
AcDbEntity
  8
0
100
AcDbLine
 10
0.107904000000007
 20
24.09264999999999
 30
0.0
 11
0.411999000000007
 21
21.28245
 31
0.0
  0
LINE
  5
99
330
1E
100
AcDbEntity
  8
0
100
AcDbLine
 10
54.240999
 20
18.69395
 30
0.0
 11
54.416599
 21
18.56395
 31
0.0
  0
LINE
  5
9A
330
1E
100
AcDbEntity
  8
0
100
AcDbLine
 10
54.416599
 20
18.56395
 30
0.0
 11
54.564999
 21
18.46405
 31
0.0
  0
LINE
  5
9B
330
1E
100
AcDbEntity
  8
0
100
AcDbLine
 10
54.030099
 20
18.72334999999999
 30
0.0
 11
54.240999
 21
18.69395
 31
0.0
  0
LINE
  5
9D
330
1E
100
AcDbEntity
  8
0
100
AcDbLine
 10
53.857999
 20
18.75714999999999
 30
0.0
 11
54.030099
 21
18.72334999999999
 31
0.0
  0
LINE
  5
A1
330
1E
100
AcDbEntity
  8
0
100
AcDbLine
 10
54.564999
 20
18.46405
 30
0.0
 11
55.235099
 21
17.79495
 31
0.0
  0
LINE
  5
A4
330
1E
100
AcDbEntity
  8
0
100
AcDbLine
 10
55.235099
 20
17.79495
 30
0.0
 11
56.20699899999999
 21
16.83905
 31
0.0
  0
LINE
  5
B0
330
1E
100
AcDbEntity
  8
0
100
AcDbLine
 10
56.531999
 20
16.62235
 30
0.0
 11
56.913999
 21
16.54645
 31
0.0
  0
LINE
  5
B1
330
1E
100
AcDbEntity
  8
0
100
AcDbLine
 10
63.004999
 20
16.54645
 30
0.0
 11
63.004999
 21
16.11035
 31
0.0
  0
LINE
  5
B2
330
1E
100
AcDbEntity
  8
0
100
AcDbLine
 10
63.004999
 20
16.11035
 30
0.0
 11
63.004999
 21
16.77655
 31
0.0
  0
LINE
  5
B3
330
1E
100
AcDbEntity
  8
0
100
AcDbLine
 10
63.004999
 20
16.11035
 30
0.0
 11
63.004999
 21
15.64815
 31
0.0
  0
LINE
  5
B4
330
1E
100
AcDbEntity
  8
0
100
AcDbLine
 10
63.004999
 20
16.11035
 30
0.0
 11
63.004999
 21
16.54645
 31
0.0
  0
LINE
  5
B5
330
1E
100
AcDbEntity
  8
0
100
AcDbLine
 10
63.004999
 20
15.64815
 30
0.0
 11
63.004999
 21
16.11035
 31
0.0
  0
LINE
  5
B6
330
1E
100
AcDbEntity
  8
0
100
AcDbLine
 10
63.004999
 20
15.64815
 30
0.0
 11
63.004999
 21
15.39715
 31
0.0
  0
LINE
  5
B7
330
1E
100
AcDbEntity
  8
0
100
AcDbLine
 10
63.004999
 20
15.39715
 30
0.0
 11
63.004999
 21
15.64815
 31
0.0
  0
LINE
  5
B8
330
1E
100
AcDbEntity
  8
0
100
AcDbLine
 10
63.133999
 20
14.98445
 30
0.0
 11
63.395764470619
 21
14.53064344773769
 31
0.0
  0
LINE
  5
B9
330
1E
100
AcDbEntity
  8
0
100
AcDbLine
 10
63.133999
 20
14.98445
 30
0.0
 11
63.3957644706186
 21
14.5306434477383
 31
0.0
  0
LINE
  5
BA
330
1E
100
AcDbEntity
  8
0
100
AcDbLine
 10
63.133999
 20
14.98495
 30
0.0
 11
71.187999
 21
1.006846000000009
 31
0.0
  0
LINE
  5
BB
330
1E
100
AcDbEntity
  8
0
100
AcDbLine
 10
63.133999
 20
14.98495
 30
0.0
 11
71.187999
 21
1.006846000000009
 31
0.0
  0
LINE
  5
BC
330
1E
100
AcDbEntity
  8
0
100
AcDbLine
 10
71.187999
 20
1.006846000000009
 30
0.0
 11
71.633999
 21
0.4756890000000061
 31
0.0
  0
LINE
  5
BD
330
1E
100
AcDbEntity
  8
0
100
AcDbLine
 10
63.004999
 20
15.37395
 30
0.0
 11
63.133999
 21
14.98445
 31
0.0
  0
LINE
  5
BE
330
1E
100
AcDbEntity
  8
0
100
AcDbLine
 10
63.004999
 20
17.63275
 30
0.0
 11
63.004999
 21
18.66405
 31
0.0
  0
LINE
  5
BF
330
1E
100
AcDbEntity
  8
0
100
AcDbLine
 10
63.004999
 20
17.63275
 30
0.0
 11
63.004999
 21
16.77655
 31
0.0
  0
LINE
  5
C0
330
1E
100
AcDbEntity
  8
0
100
AcDbLine
 10
63.004999
 20
19.85044999999999
 30
0.0
 11
63.004999
 21
21.16985
 31
0.0
  0
LINE
  5
C1
330
1E
100
AcDbEntity
  8
0
100
AcDbLine
 10
63.004999
 20
19.85044999999999
 30
0.0
 11
63.004999
 21
18.66405
 31
0.0
  0
LINE
  5
C2
330
1E
100
AcDbEntity
  8
0
100
AcDbLine
 10
63.004999
 20
18.66405
 30
0.0
 11
63.004999
 21
19.85044999999999
 31
0.0
  0
LINE
  5
C3
330
1E
100
AcDbEntity
  8
0
100
AcDbLine
 10
63.004999
 20
18.66405
 30
0.0
 11
63.004999
 21
17.63275
 31
0.0
  0
LINE
  5
C4
330
1E
100
AcDbEntity
  8
0
100
AcDbLine
 10
63.004999
 20
21.16985
 30
0.0
 11
63.004999
 21
22.59825
 31
0.0
  0
LINE
  5
C5
330
1E
100
AcDbEntity
  8
0
100
AcDbLine
 10
63.004999
 20
21.16985
 30
0.0
 11
63.004999
 21
19.85044999999999
 31
0.0
  0
LINE
  5
C6
330
1E
100
AcDbEntity
  8
0
100
AcDbLine
 10
63.004999
 20
25.67415
 30
0.0
 11
63.004999
 21
27.26364999999999
 31
0.0
  0
LINE
  5
C7
330
1E
100
AcDbEntity
  8
0
100
AcDbLine
 10
63.004999
 20
25.67415
 30
0.0
 11
63.004999
 21
24.10865
 31
0.0
  0
LINE
  5
C8
330
1E
100
AcDbEntity
  8
0
100
AcDbLine
 10
63.004999
 20
22.59825
 30
0.0
 11
63.004999
 21
24.10865
 31
0.0
  0
LINE
  5
C9
330
1E
100
AcDbEntity
  8
0
100
AcDbLine
 10
63.004999
 20
22.59825
 30
0.0
 11
63.004999
 21
21.16985
 31
0.0
  0
LINE
  5
CA
330
1E
100
AcDbEntity
  8
0
100
AcDbLine
 10
63.004999
 20
24.10865
 30
0.0
 11
63.004999
 21
25.67415
 31
0.0
  0
LINE
  5
CB
330
1E
100
AcDbEntity
  8
0
100
AcDbLine
 10
63.004999
 20
24.10865
 30
0.0
 11
63.004999
 21
22.59825
 31
0.0
  0
LINE
  5
CD
330
1E
100
AcDbEntity
  8
0
100
AcDbLine
 10
63.004999
 20
16.77655
 30
0.0
 11
63.004999
 21
16.11035
 31
0.0
  0
LINE
  5
CE
330
1E
100
AcDbEntity
  8
0
100
AcDbLine
 10
63.004999
 20
16.77655
 30
0.0
 11
63.004999
 21
17.63275
 31
0.0
  0
LINE
  5
CF
330
1E
100
AcDbEntity
  8
0
100
AcDbLine
 10
56.913999
 20
16.54645
 30
0.0
 11
63.004999
 21
16.54645
 31
0.0
  0
LINE
  5
131
330
1E
100
AcDbEntity
  8
0
100
AcDbLine
 10
0.411999000000008
 20
32.73275
 30
0.0
 11
0.9239990000000078
 21
35.55825
 31
0.0
  0
LINE
  5
140
330
1E
100
AcDbEntity
  8
0
100
AcDbLine
 10
0.9239990000000078
 20
35.55825
 30
0.0
 11
1.63799900000001
 21
38.33985
 31
0.0
  0
LINE
  5
14F
330
1E
100
AcDbEntity
  8
0
100
AcDbLine
 10
32.436999
 20
35.86215
 30
0.0
 11
32.513999
 21
36.24425
 31
0.0
  0
LINE
  5
150
330
1E
100
AcDbEntity
  8
0
100
AcDbLine
 10
32.22099899999999
 20
35.53905
 30
0.0
 11
32.436999
 21
35.86215
 31
0.0
  0
LINE
  5
151
330
1E
100
AcDbEntity
  8
0
100
AcDbLine
 10
31.89699899999999
 20
35.32204999999999
 30
0.0
 11
32.22099899999999
 21
35.53905
 31
0.0
  0
LINE
  5
153
330
1E
100
AcDbEntity
  8
0
100
AcDbLine
 10
31.515999
 20
35.24495
 30
0.0
 11
31.89699899999999
 21
35.32204999999999
 31
0.0
  0
LINE
  5
154
330
1E
100
AcDbEntity
  8
0
100
AcDbLine
 10
25.799999
 20
35.25202248818629
 30
0.0
 11
31.515999
 21
35.24495
 31
0.0
  0
LINE
  5
158
330
1E
100
AcDbEntity
  8
0
100
AcDbLine
 10
49.484999
 20
36.24325
 30
0.0
 11
49.561999
 21
35.86115
 31
0.0
  0
LINE
  5
159
330
1E
100
AcDbEntity
  8
0
100
AcDbLine
 10
49.484999
 20
36.24325
 30
0.0
 11
49.497999
 21
41.06175
 31
0.0
  0
LINE
  5
15A
330
1E
100
AcDbEntity
  8
0
100
AcDbLine
 10
49.561999
 20
35.86115
 30
0.0
 11
49.777999
 21
35.53805
 31
0.0
  0
LINE
  5
15B
330
1E
100
AcDbEntity
  8
0
100
AcDbLine
 10
49.777999
 20
35.53805
 30
0.0
 11
50.10199899999999
 21
35.32105
 31
0.0
  0
LINE
  5
15C
330
1E
100
AcDbEntity
  8
0
100
AcDbLine
 10
50.10199899999999
 20
35.32105
 30
0.0
 11
50.48299899999999
 21
35.24395
 31
0.0
  0
LINE
  5
160
330
1E
100
AcDbEntity
  8
0
100
AcDbLine
 10
50.48299899999999
 20
35.24395
 30
0.0
 11
52.920499
 21
35.25415
 31
0.0
  0
LINE
  5
162
330
1E
100
AcDbEntity
  8
0
100
AcDbLine
 10
52.920499
 20
35.25415
 30
0.0
 11
53.857999
 21
35.24544999999999
 31
0.0
  0
LINE
  5
163
330
1E
100
AcDbEntity
  8
0
100
AcDbLine
 10
54.416599
 20
35.45115
 30
0.0
 11
54.564999
 21
35.53815
 31
0.0
  0
LINE
  5
165
330
1E
100
AcDbEntity
  8
0
100
AcDbLine
 10
54.240999
 20
35.33305
 30
0.0
 11
54.416599
 21
35.45115
 31
0.0
  0
LINE
  5
167
330
1E
100
AcDbEntity
  8
0
100
AcDbLine
 10
54.564999
 20
35.53815
 30
0.0
 11
55.235099
 21
36.22014999999999
 31
0.0
  0
LINE
  5
169
330
1E
100
AcDbEntity
  8
0
100
AcDbLine
 10
55.235099
 20
36.22014999999999
 30
0.0
 11
56.20699899999999
 21
37.19055
 31
0.0
  0
LINE
  5
16F
330
1E
100
AcDbEntity
  8
0
100
AcDbLine
 10
54.030099
 20
35.29175
 30
0.0
 11
54.240999
 21
35.33305
 31
0.0
  0
LINE
  5
171
330
1E
100
AcDbEntity
  8
0
100
AcDbLine
 10
53.857999
 20
35.24544999999999
 30
0.0
 11
54.030099
 21
35.29175
 31
0.0
  0
LINE
  5
176
330
1E
100
AcDbEntity
  8
0
100
AcDbLine
 10
56.20699899999999
 20
37.19055
 30
0.0
 11
56.531999
 21
37.40764999999999
 31
0.0
  0
LINE
  5
177
330
1E
100
AcDbEntity
  8
0
100
AcDbLine
 10
63.004999
 20
27.26364999999999
 30
0.0
 11
63.004999
 21
28.84805
 31
0.0
  0
LINE
  5
178
330
1E
100
AcDbEntity
  8
0
100
AcDbLine
 10
63.004999
 20
27.26364999999999
 30
0.0
 11
63.004999
 21
25.67415
 31
0.0
  0
LINE
  5
179
330
1E
100
AcDbEntity
  8
0
100
AcDbLine
 10
63.004999
 20
30.39855
 30
0.0
 11
63.004999
 21
31.88595
 31
0.0
  0
LINE
  5
17A
330
1E
100
AcDbEntity
  8
0
100
AcDbLine
 10
63.004999
 20
30.39855
 30
0.0
 11
63.004999
 21
28.84805
 31
0.0
  0
LINE
  5
17B
330
1E
100
AcDbEntity
  8
0
100
AcDbLine
 10
63.004999
 20
35.70015
 30
0.0
 11
63.004999
 21
36.67645
 31
0.0
  0
LINE
  5
17C
330
1E
100
AcDbEntity
  8
0
100
AcDbLine
 10
63.004999
 20
35.70015
 30
0.0
 11
63.004999
 21
34.56175
 31
0.0
  0
LINE
  5
17D
330
1E
100
AcDbEntity
  8
0
100
AcDbLine
 10
63.004999
 20
34.56175
 30
0.0
 11
63.004999
 21
35.70015
 31
0.0
  0
LINE
  5
17E
330
1E
100
AcDbEntity
  8
0
100
AcDbLine
 10
63.004999
 20
34.56175
 30
0.0
 11
63.004999
 21
33.28244999999999
 31
0.0
  0
LINE
  5
17F
330
1E
100
AcDbEntity
  8
0
100
AcDbLine
 10
63.004999
 20
33.28244999999999
 30
0.0
 11
63.004999
 21
34.56175
 31
0.0
  0
LINE
  5
180
330
1E
100
AcDbEntity
  8
0
100
AcDbLine
 10
63.004999
 20
33.28244999999999
 30
0.0
 11
63.004999
 21
31.88595
 31
0.0
  0
LINE
  5
181
330
1E
100
AcDbEntity
  8
0
100
AcDbLine
 10
63.004999
 20
31.88595
 30
0.0
 11
63.004999
 21
33.28244999999999
 31
0.0
  0
LINE
  5
182
330
1E
100
AcDbEntity
  8
0
100
AcDbLine
 10
63.004999
 20
31.88595
 30
0.0
 11
63.004999
 21
30.39855
 31
0.0
  0
LINE
  5
183
330
1E
100
AcDbEntity
  8
0
100
AcDbLine
 10
63.004999
 20
37.48364999999999
 30
0.0
 11
63.004999
 21
38.07484999999999
 31
0.0
  0
LINE
  5
184
330
1E
100
AcDbEntity
  8
0
100
AcDbLine
 10
63.004999
 20
37.47365
 30
0.0
 11
63.004999
 21
38.07484999999999
 31
0.0
  0
LINE
  5
185
330
1E
100
AcDbEntity
  8
0
100
AcDbLine
 10
63.004999
 20
37.47365
 30
0.0
 11
63.004999
 21
36.67645
 31
0.0
  0
LINE
  5
186
330
1E
100
AcDbEntity
  8
0
100
AcDbLine
 10
63.004999
 20
36.67645
 30
0.0
 11
63.004999
 21
37.47365
 31
0.0
  0
LINE
  5
187
330
1E
100
AcDbEntity
  8
0
100
AcDbLine
 10
63.004999
 20
36.67645
 30
0.0
 11
63.004999
 21
35.70015
 31
0.0
  0
LINE
  5
188
330
1E
100
AcDbEntity
  8
0
100
AcDbLine
 10
63.004999
 20
28.84805
 30
0.0
 11
63.004999
 21
30.39855
 31
0.0
  0
LINE
  5
189
330
1E
100
AcDbEntity
  8
0
100
AcDbLine
 10
63.004999
 20
28.84805
 30
0.0
 11
63.004999
 21
27.26364999999999
 31
0.0
  0
LINE
  5
18A
330
1E
100
AcDbEntity
  8
0
100
AcDbLine
 10
56.531999
 20
37.40764999999999
 30
0.0
 11
56.913999
 21
37.48364999999999
 31
0.0
  0
LINE
  5
18B
330
1E
100
AcDbEntity
  8
0
100
AcDbLine
 10
1.63799900000001
 20
38.33985
 30
0.0
 11
2.549999000000009
 21
41.06345
 31
0.0
  0
LINE
  5
18F
330
1E
100
AcDbEntity
  8
0
100
AcDbLine
 10
25.56699899999999
 20
39.04745
 30
0.0
 11
25.73499899999999
 21
38.94245
 31
0.0
  0
LINE
  5
191
330
1E
100
AcDbEntity
  8
0
100
AcDbLine
 10
25.73499899999999
 20
38.94245
 30
0.0
 11
25.799999
 21
38.75555
 31
0.0
  0
LINE
  5
192
330
1E
100
AcDbEntity
  8
0
100
AcDbLine
 10
25.799999
 20
38.75555
 30
0.0
 11
25.799999
 21
38.68905
 31
0.0
  0
LINE
  5
193
330
1E
100
AcDbEntity
  8
0
100
AcDbLine
 10
25.799999
 20
38.68905
 30
0.0
 11
25.799999
 21
38.75555
 31
0.0
  0
LINE
  5
19B
330
1E
100
AcDbEntity
  8
0
100
AcDbLine
 10
2.549999000000009
 20
41.06345
 30
0.0
 11
3.654999000000009
 21
43.69145
 31
0.0
  0
LINE
  5
19C
330
1E
100
AcDbEntity
  8
0
100
AcDbLine
 10
30.729999
 20
43.01225
 30
0.0
 11
31.157999
 21
43.01225
 31
0.0
  0
LINE
  5
19F
330
1E
100
AcDbEntity
  8
0
100
AcDbLine
 10
3.654999000000009
 20
43.69145
 30
0.0
 11
3.887999000000009
 21
43.93054999999999
 31
0.0
  0
LINE
  5
1A0
330
1E
100
AcDbEntity
  8
0
100
AcDbLine
 10
3.887999000000009
 20
43.93054999999999
 30
0.0
 11
4.220999000000009
 21
43.96855
 31
0.0
  0
LINE
  5
1A2
330
1E
100
AcDbEntity
  8
0
100
AcDbLine
 10
4.220999000000089
 20
43.96855
 30
0.0
 11
25.56699899999999
 21
39.04745
 31
0.0
  0
LINE
  5
1A3
330
1E
100
AcDbEntity
  8
0
100
AcDbLine
 10
31.157999
 20
49.31415
 30
0.0
 11
31.828999
 21
49.31415
 31
0.0
  0
LINE
  5
1A4
330
1E
100
AcDbEntity
  8
0
100
AcDbLine
 10
30.729999
 20
49.31415
 30
0.0
 11
31.157999
 21
49.31415
 31
0.0
  0
LINE
  5
1A5
330
1E
100
AcDbEntity
  8
0
100
AcDbLine
 10
30.55399899999999
 20
49.31415
 30
0.0
 11
30.55399899999999
 21
43.01225
 31
0.0
  0
LINE
  5
1A6
330
1E
100
AcDbEntity
  8
0
100
AcDbLine
 10
30.55399899999999
 20
49.31415
 30
0.0
 11
30.729999
 21
49.31415
 31
0.0
  0
LINE
  5
1A7
330
1E
100
AcDbEntity
  8
0
100
AcDbLine
 10
30.55399899999999
 20
49.31415
 30
0.0
 11
31.74999899999999
 21
50.51455
 31
0.0
  0
LINE
  5
1A8
330
1E
100
AcDbEntity
  8
0
100
AcDbLine
 10
30.55399899999999
 20
43.01225
 30
0.0
 11
30.55399899999999
 21
49.31415
 31
0.0
  0
LINE
  5
1A9
330
1E
100
AcDbEntity
  8
0
100
AcDbLine
 10
30.55399899999999
 20
43.01225
 30
0.0
 11
30.729999
 21
43.01225
 31
0.0
  0
LINE
  5
1AA
330
1E
100
AcDbEntity
  8
0
100
AcDbLine
 10
30.55399899999999
 20
43.01225
 30
0.0
 11
31.721999
 21
41.84275
 31
0.0
  0
LINE
  5
1AC
330
1E
100
AcDbEntity
  8
0
100
AcDbLine
 10
31.721999
 20
41.84275
 30
0.0
 11
32.514899
 21
41.06175
 31
0.0
  0
LINE
  5
1AD
330
1E
100
AcDbEntity
  8
0
100
AcDbLine
 10
31.74999899999999
 20
50.51455
 30
0.0
 11
31.881999
 21
50.51455
 31
0.0
  0
LINE
  5
1AE
330
1E
100
AcDbEntity
  8
0
100
AcDbLine
 10
31.881999
 20
50.51455
 30
0.0
 11
32.262999
 21
50.51455
 31
0.0
  0
LINE
  5
1AF
330
1E
100
AcDbEntity
  8
0
100
AcDbLine
 10
32.262999
 20
50.51455
 30
0.0
 11
32.881999
 21
50.51455
 31
0.0
  0
LINE
  5
1B0
330
1E
100
AcDbEntity
  8
0
100
AcDbLine
 10
31.828999
 20
49.31415
 30
0.0
 11
32.725999
 21
49.31415
 31
0.0
  0
LINE
  5
1B1
330
1E
100
AcDbEntity
  8
0
100
AcDbLine
 10
31.828999
 20
43.01225
 30
0.0
 11
32.725999
 21
43.01225
 31
0.0
  0
LINE
  5
1B2
330
1E
100
AcDbEntity
  8
0
100
AcDbLine
 10
31.157999
 20
43.01225
 30
0.0
 11
31.828999
 21
43.01225
 31
0.0
  0
LINE
  5
1B3
330
1E
100
AcDbEntity
  8
0
100
AcDbLine
 10
32.505499
 20
39.66845
 30
0.0
 11
32.514899
 21
41.06175
 31
0.0
  0
LINE
  5
1B5
330
1E
100
AcDbEntity
  8
0
100
AcDbLine
 10
32.505499
 20
39.66845
 30
0.0
 11
32.513999
 21
36.24425
 31
0.0
  0
LINE
  5
1B6
330
1E
100
AcDbEntity
  8
0
100
AcDbLine
 10
49.497999
 20
41.06175
 30
0.0
 11
50.277999
 21
41.84275
 31
0.0
  0
LINE
  5
1B8
330
1E
100
AcDbEntity
  8
0
100
AcDbLine
 10
63.004999
 20
38.65305
 30
0.0
 11
63.133999
 21
39.03014999999999
 31
0.0
  0
LINE
  5
1B9
330
1E
100
AcDbEntity
  8
0
100
AcDbLine
 10
63.004999
 20
38.65305
 30
0.0
 11
63.004999
 21
38.47095
 31
0.0
  0
LINE
  5
1BA
330
1E
100
AcDbEntity
  8
0
100
AcDbLine
 10
63.004999
 20
38.47095
 30
0.0
 11
63.004999
 21
38.65305
 31
0.0
  0
LINE
  5
1BB
330
1E
100
AcDbEntity
  8
0
100
AcDbLine
 10
63.004999
 20
38.47095
 30
0.0
 11
63.004999
 21
38.07484999999999
 31
0.0
  0
LINE
  5
1BC
330
1E
100
AcDbEntity
  8
0
100
AcDbLine
 10
63.133999
 20
39.03014999999999
 30
0.0
 11
71.187999
 21
52.99335
 31
0.0
  0
LINE
  5
1BD
330
1E
100
AcDbEntity
  8
0
100
AcDbLine
 10
63.004999
 20
38.07484999999999
 30
0.0
 11
63.004999
 21
38.47095
 31
0.0
  0
LINE
  5
1BE
330
1E
100
AcDbEntity
  8
0
100
AcDbLine
 10
63.004999
 20
38.07484999999999
 30
0.0
 11
63.004999
 21
37.47365
 31
0.0
  0
LINE
  5
1BF
330
1E
100
AcDbEntity
  8
0
100
AcDbLine
 10
63.004999
 20
38.07484999999999
 30
0.0
 11
63.004999
 21
37.48364999999999
 31
0.0
  0
LINE
  5
1C0
330
1E
100
AcDbEntity
  8
0
100
AcDbLine
 10
32.59699899999999
 20
41.06175
 30
0.0
 11
32.945999
 21
41.06175
 31
0.0
  0
LINE
  5
1C1
330
1E
100
AcDbEntity
  8
0
100
AcDbLine
 10
34.361999
 20
41.06175
 30
0.0
 11
35.38399899999999
 21
41.06175
 31
0.0
  0
LINE
  5
1C2
330
1E
100
AcDbEntity
  8
0
100
AcDbLine
 10
35.38399899999999
 20
41.06175
 30
0.0
 11
36.577999
 21
41.06175
 31
0.0
  0
LINE
  5
1C3
330
1E
100
AcDbEntity
  8
0
100
AcDbLine
 10
40.79999899999999
 20
41.06175
 30
0.0
 11
42.27799899999999
 21
41.06175
 31
0.0
  0
LINE
  5
1C4
330
1E
100
AcDbEntity
  8
0
100
AcDbLine
 10
36.577999
 20
41.06175
 30
0.0
 11
37.90499899999999
 21
41.06175
 31
0.0
  0
LINE
  5
1C5
330
1E
100
AcDbEntity
  8
0
100
AcDbLine
 10
33.540999
 20
41.06175
 30
0.0
 11
34.361999
 21
41.06175
 31
0.0
  0
LINE
  5
1C6
330
1E
100
AcDbEntity
  8
0
100
AcDbLine
 10
32.945999
 20
41.06175
 30
0.0
 11
33.540999
 21
41.06175
 31
0.0
  0
LINE
  5
1C7
330
1E
100
AcDbEntity
  8
0
100
AcDbLine
 10
39.326999
 20
41.06175
 30
0.0
 11
40.79999899999999
 21
41.06175
 31
0.0
  0
LINE
  5
1C8
330
1E
100
AcDbEntity
  8
0
100
AcDbLine
 10
46.308999
 20
41.06175
 30
0.0
 11
47.38099899999999
 21
41.06175
 31
0.0
  0
LINE
  5
1C9
330
1E
100
AcDbEntity
  8
0
100
AcDbLine
 10
47.38099899999999
 20
41.06175
 30
0.0
 11
48.25899899999999
 21
41.06175
 31
0.0
  0
LINE
  5
1CA
330
1E
100
AcDbEntity
  8
0
100
AcDbLine
 10
45.074999
 20
41.06175
 30
0.0
 11
46.308999
 21
41.06175
 31
0.0
  0
LINE
  5
1CB
330
1E
100
AcDbEntity
  8
0
100
AcDbLine
 10
43.717999
 20
41.06175
 30
0.0
 11
45.074999
 21
41.06175
 31
0.0
  0
LINE
  5
1CC
330
1E
100
AcDbEntity
  8
0
100
AcDbLine
 10
42.27799899999999
 20
41.06175
 30
0.0
 11
43.717999
 21
41.06175
 31
0.0
  0
LINE
  5
1CD
330
1E
100
AcDbEntity
  8
0
100
AcDbLine
 10
32.725999
 20
49.31415
 30
0.0
 11
33.82599899999999
 21
49.31415
 31
0.0
  0
LINE
  5
1CE
330
1E
100
AcDbEntity
  8
0
100
AcDbLine
 10
42.930999
 20
43.01225
 30
0.0
 11
44.513999
 21
43.01225
 31
0.0
  0
LINE
  5
1CF
330
1E
100
AcDbEntity
  8
0
100
AcDbLine
 10
41.300999
 20
43.01225
 30
0.0
 11
42.930999
 21
43.01225
 31
0.0
  0
LINE
  5
1D0
330
1E
100
AcDbEntity
  8
0
100
AcDbLine
 10
39.662999
 20
43.01225
 30
0.0
 11
41.300999
 21
43.01225
 31
0.0
  0
LINE
  5
1D1
330
1E
100
AcDbEntity
  8
0
100
AcDbLine
 10
38.057999
 20
43.01225
 30
0.0
 11
39.662999
 21
43.01225
 31
0.0
  0
LINE
  5
1D2
330
1E
100
AcDbEntity
  8
0
100
AcDbLine
 10
36.524999
 20
43.01225
 30
0.0
 11
38.057999
 21
43.01225
 31
0.0
  0
LINE
  5
1D3
330
1E
100
AcDbEntity
  8
0
100
AcDbLine
 10
35.10299899999999
 20
43.01225
 30
0.0
 11
36.524999
 21
43.01225
 31
0.0
  0
LINE
  5
1D4
330
1E
100
AcDbEntity
  8
0
100
AcDbLine
 10
33.722999
 20
50.51455
 30
0.0
 11
34.76199899999999
 21
50.51455
 31
0.0
  0
LINE
  5
1D5
330
1E
100
AcDbEntity
  8
0
100
AcDbLine
 10
32.881999
 20
50.51455
 30
0.0
 11
33.722999
 21
50.51455
 31
0.0
  0
LINE
  5
1D6
330
1E
100
AcDbEntity
  8
0
100
AcDbLine
 10
44.513999
 20
49.31415
 30
0.0
 11
46.009999
 21
49.31415
 31
0.0
  0
LINE
  5
1D7
330
1E
100
AcDbEntity
  8
0
100
AcDbLine
 10
42.930999
 20
49.31415
 30
0.0
 11
44.513999
 21
49.31415
 31
0.0
  0
LINE
  5
1D8
330
1E
100
AcDbEntity
  8
0
100
AcDbLine
 10
41.300999
 20
49.31415
 30
0.0
 11
42.930999
 21
49.31415
 31
0.0
  0
LINE
  5
1D9
330
1E
100
AcDbEntity
  8
0
100
AcDbLine
 10
39.662999
 20
49.31415
 30
0.0
 11
41.300999
 21
49.31415
 31
0.0
  0
LINE
  5
1DA
330
1E
100
AcDbEntity
  8
0
100
AcDbLine
 10
38.057999
 20
49.31415
 30
0.0
 11
39.662999
 21
49.31415
 31
0.0
  0
LINE
  5
1DB
330
1E
100
AcDbEntity
  8
0
100
AcDbLine
 10
36.524999
 20
49.31415
 30
0.0
 11
38.057999
 21
49.31415
 31
0.0
  0
LINE
  5
1DC
330
1E
100
AcDbEntity
  8
0
100
AcDbLine
 10
43.305999
 20
50.51455
 30
0.0
 11
44.74899899999999
 21
50.51455
 31
0.0
  0
LINE
  5
1DD
330
1E
100
AcDbEntity
  8
0
100
AcDbLine
 10
41.799999
 20
50.51455
 30
0.0
 11
43.305999
 21
50.51455
 31
0.0
  0
LINE
  5
1DE
330
1E
100
AcDbEntity
  8
0
100
AcDbLine
 10
40.272999
 20
50.51455
 30
0.0
 11
41.799999
 21
50.51455
 31
0.0
  0
LINE
  5
1DF
330
1E
100
AcDbEntity
  8
0
100
AcDbLine
 10
38.76499899999999
 20
50.51455
 30
0.0
 11
40.272999
 21
50.51455
 31
0.0
  0
LINE
  5
1E0
330
1E
100
AcDbEntity
  8
0
100
AcDbLine
 10
37.317999
 20
50.51455
 30
0.0
 11
38.76499899999999
 21
50.51455
 31
0.0
  0
LINE
  5
1E1
330
1E
100
AcDbEntity
  8
0
100
AcDbLine
 10
34.76199899999999
 20
50.51455
 30
0.0
 11
35.97099899999999
 21
50.51455
 31
0.0
  0
LINE
  5
1E2
330
1E
100
AcDbEntity
  8
0
100
AcDbLine
 10
35.10299899999999
 20
49.31415
 30
0.0
 11
36.524999
 21
49.31415
 31
0.0
  0
LINE
  5
1E3
330
1E
100
AcDbEntity
  8
0
100
AcDbLine
 10
33.82599899999999
 20
49.31415
 30
0.0
 11
35.10299899999999
 21
49.31415
 31
0.0
  0
LINE
  5
1E4
330
1E
100
AcDbEntity
  8
0
100
AcDbLine
 10
33.82599899999999
 20
43.01225
 30
0.0
 11
35.10299899999999
 21
43.01225
 31
0.0
  0
LINE
  5
1E5
330
1E
100
AcDbEntity
  8
0
100
AcDbLine
 10
32.725999
 20
43.01225
 30
0.0
 11
33.82599899999999
 21
43.01225
 31
0.0
  0
LINE
  5
1E6
330
1E
100
AcDbEntity
  8
0
100
AcDbLine
 10
35.97099899999999
 20
50.51455
 30
0.0
 11
37.317999
 21
50.51455
 31
0.0
  0
LINE
  5
1E7
330
1E
100
AcDbEntity
  8
0
100
AcDbLine
 10
47.382999
 20
43.01225
 30
0.0
 11
48.598999
 21
43.01225
 31
0.0
  0
LINE
  5
1E8
330
1E
100
AcDbEntity
  8
0
100
AcDbLine
 10
44.74899899999999
 20
50.51455
 30
0.0
 11
46.08999899999999
 21
50.51455
 31
0.0
  0
LINE
  5
1E9
330
1E
100
AcDbEntity
  8
0
100
AcDbLine
 10
47.291999
 20
50.51455
 30
0.0
 11
48.32199899999999
 21
50.51455
 31
0.0
  0
LINE
  5
1EA
330
1E
100
AcDbEntity
  8
0
100
AcDbLine
 10
46.08999899999999
 20
50.51455
 30
0.0
 11
47.291999
 21
50.51455
 31
0.0
  0
LINE
  5
1EB
330
1E
100
AcDbEntity
  8
0
100
AcDbLine
 10
47.382999
 20
49.31415
 30
0.0
 11
48.598999
 21
49.31415
 31
0.0
  0
LINE
  5
1EC
330
1E
100
AcDbEntity
  8
0
100
AcDbLine
 10
46.009999
 20
49.31415
 30
0.0
 11
47.382999
 21
49.31415
 31
0.0
  0
LINE
  5
1ED
330
1E
100
AcDbEntity
  8
0
100
AcDbLine
 10
46.009999
 20
43.01225
 30
0.0
 11
47.382999
 21
43.01225
 31
0.0
  0
LINE
  5
1EE
330
1E
100
AcDbEntity
  8
0
100
AcDbLine
 10
44.513999
 20
43.01225
 30
0.0
 11
46.009999
 21
43.01225
 31
0.0
  0
LINE
  5
1EF
330
1E
100
AcDbEntity
  8
0
100
AcDbLine
 10
37.90499899999999
 20
41.06175
 30
0.0
 11
39.326999
 21
41.06175
 31
0.0
  0
LINE
  5
1F0
330
1E
100
AcDbEntity
  8
0
100
AcDbLine
 10
48.36799899999999
 20
50.51455
 30
0.0
 11
48.683999
 21
50.51455
 31
0.0
  0
LINE
  5
1F1
330
1E
100
AcDbEntity
  8
0
100
AcDbLine
 10
48.598999
 20
49.31415
 30
0.0
 11
49.626999
 21
49.31415
 31
0.0
  0
LINE
  5
1F3
330
1E
100
AcDbEntity
  8
0
100
AcDbLine
 10
50.277999
 20
41.84275
 30
0.0
 11
51.43089899999999
 21
43.01225
 31
0.0
  0
LINE
  5
1F5
330
1E
100
AcDbEntity
  8
0
100
AcDbLine
 10
48.91699899999999
 20
41.06175
 30
0.0
 11
49.333999
 21
41.06175
 31
0.0
  0
LINE
  5
1F6
330
1E
100
AcDbEntity
  8
0
100
AcDbLine
 10
51.363999
 20
43.01225
 30
0.0
 11
51.43089899999999
 21
43.01225
 31
0.0
  0
LINE
  5
1F7
330
1E
100
AcDbEntity
  8
0
100
AcDbLine
 10
51.43089899999999
 20
43.01225
 30
0.0
 11
51.43089899999999
 21
49.31415
 31
0.0
  0
LINE
  5
1F8
330
1E
100
AcDbEntity
  8
0
100
AcDbLine
 10
51.026999
 20
43.01225
 30
0.0
 11
51.363999
 21
43.01225
 31
0.0
  0
LINE
  5
1F9
330
1E
100
AcDbEntity
  8
0
100
AcDbLine
 10
50.443999
 20
43.01225
 30
0.0
 11
51.026999
 21
43.01225
 31
0.0
  0
LINE
  5
1FA
330
1E
100
AcDbEntity
  8
0
100
AcDbLine
 10
49.152999
 20
50.51455
 30
0.0
 11
49.760999
 21
50.51455
 31
0.0
  0
LINE
  5
1FB
330
1E
100
AcDbEntity
  8
0
100
AcDbLine
 10
51.43089899999999
 20
49.31415
 30
0.0
 11
51.43089899999999
 21
43.01225
 31
0.0
  0
LINE
  5
1FC
330
1E
100
AcDbEntity
  8
0
100
AcDbLine
 10
51.363999
 20
49.31415
 30
0.0
 11
51.43089899999999
 21
49.31415
 31
0.0
  0
LINE
  5
1FD
330
1E
100
AcDbEntity
  8
0
100
AcDbLine
 10
51.026999
 20
49.31415
 30
0.0
 11
51.363999
 21
49.31415
 31
0.0
  0
LINE
  5
1FE
330
1E
100
AcDbEntity
  8
0
100
AcDbLine
 10
49.760999
 20
50.51455
 30
0.0
 11
50.129999
 21
50.51455
 31
0.0
  0
LINE
  5
1FF
330
1E
100
AcDbEntity
  8
0
100
AcDbLine
 10
50.247099
 20
50.51455
 30
0.0
 11
51.43089899999999
 21
49.31415
 31
0.0
  0
LINE
  5
200
330
1E
100
AcDbEntity
  8
0
100
AcDbLine
 10
50.129999
 20
50.51455
 30
0.0
 11
50.247099
 21
50.51455
 31
0.0
  0
LINE
  5
201
330
1E
100
AcDbEntity
  8
0
100
AcDbLine
 10
50.443999
 20
49.31415
 30
0.0
 11
51.026999
 21
49.31415
 31
0.0
  0
LINE
  5
202
330
1E
100
AcDbEntity
  8
0
100
AcDbLine
 10
49.626999
 20
49.31415
 30
0.0
 11
50.443999
 21
49.31415
 31
0.0
  0
LINE
  5
203
330
1E
100
AcDbEntity
  8
0
100
AcDbLine
 10
49.626999
 20
43.01225
 30
0.0
 11
50.443999
 21
43.01225
 31
0.0
  0
LINE
  5
204
330
1E
100
AcDbEntity
  8
0
100
AcDbLine
 10
48.598999
 20
43.01225
 30
0.0
 11
49.626999
 21
43.01225
 31
0.0
  0
LINE
  5
205
330
1E
100
AcDbEntity
  8
0
100
AcDbLine
 10
71.187999
 20
52.99335
 30
0.0
 11
71.633999
 21
53.52454999999999
 31
0.0
  0
LINE
  5
206
330
1E
100
AcDbEntity
  8
0
100
AcDbLine
 10
48.32199899999999
 20
50.51455
 30
0.0
 11
49.152999
 21
50.51455
 31
0.0
  0
LINE
  5
207
330
1E
100
AcDbEntity
  8
0
100
AcDbLine
 10
48.25899899999999
 20
41.06175
 30
0.0
 11
48.91699899999999
 21
41.06175
 31
0.0
  0
LINE
  5
208
330
1E
100
AcDbEntity
  8
0
100
AcDbLine
 10
49.333999
 20
41.06175
 30
0.0
 11
49.497999
 21
41.06175
 31
0.0
  0
LINE
  5
20B
330
1E
100
AcDbEntity
  8
0
100
AcDbLine
 10
32.514899
 20
41.06175
 30
0.0
 11
32.59699899999999
 21
41.06175
 31
0.0
  0
LINE
  5
20C
330
1E
100
AcDbEntity
  8
0
100
AcDbLine
 10
56.913999
 20
37.48364999999999
 30
0.0
 11
63.004999
 21
37.48364999999999
 31
0.0
  0
LINE
  5
20F
330
1E
100
AcDbEntity
  8
0
100
AcDbLine
 10
75.999999
 20
0.0075500000000058
 30
0.0
 11
75.999999
 21
0.191605000000006
 31
0.0
  0
LINE
  5
210
330
1E
100
AcDbEntity
  8
0
100
AcDbLine
 10
72.919999
 20
0.007550000000006
 30
0.0
 11
75.999999
 21
0.0075500000000058
 31
0.0
  0
LINE
  5
211
330
1E
100
AcDbEntity
  8
0
100
AcDbLine
 10
71.633999
 20
53.52454999999999
 30
0.0
 11
72.23599899999999
 21
53.87215
 31
0.0
  0
LINE
  5
212
330
1E
100
AcDbEntity
  8
0
100
AcDbLine
 10
75.999999
 20
53.64245
 30
0.0
 11
75.999999
 21
53.94754999999999
 31
0.0
  0
LINE
  5
213
330
1E
100
AcDbEntity
  8
0
100
AcDbLine
 10
75.999999
 20
53.09625
 30
0.0
 11
75.999999
 21
53.64245
 31
0.0
  0
LINE
  5
214
330
1E
100
AcDbEntity
  8
0
100
AcDbLine
 10
75.999999
 20
52.31405
 30
0.0
 11
75.999999
 21
53.09625
 31
0.0
  0
LINE
  5
215
330
1E
100
AcDbEntity
  8
0
100
AcDbLine
 10
75.999999
 20
51.30375
 30
0.0
 11
75.999999
 21
52.31405
 31
0.0
  0
LINE
  5
216
330
1E
100
AcDbEntity
  8
0
100
AcDbLine
 10
75.999999
 20
50.07235
 30
0.0
 11
75.999999
 21
51.30375
 31
0.0
  0
LINE
  5
217
330
1E
100
AcDbEntity
  8
0
100
AcDbLine
 10
75.999999
 20
48.63195000000001
 30
0.0
 11
75.999999
 21
50.07235
 31
0.0
  0
LINE
  5
218
330
1E
100
AcDbEntity
  8
0
100
AcDbLine
 10
75.999999
 20
46.99645
 30
0.0
 11
75.999999
 21
48.63195000000001
 31
0.0
  0
LINE
  5
219
330
1E
100
AcDbEntity
  8
0
100
AcDbLine
 10
75.999999
 20
45.17895
 30
0.0
 11
75.999999
 21
46.99645
 31
0.0
  0
LINE
  5
21A
330
1E
100
AcDbEntity
  8
0
100
AcDbLine
 10
75.999999
 20
43.19735
 30
0.0
 11
75.999999
 21
45.17895
 31
0.0
  0
LINE
  5
21B
330
1E
100
AcDbEntity
  8
0
100
AcDbLine
 10
75.999999
 20
41.06875
 30
0.0
 11
75.999999
 21
43.19735
 31
0.0
  0
LINE
  5
21C
330
1E
100
AcDbEntity
  8
0
100
AcDbLine
 10
75.999999
 20
38.81405
 30
0.0
 11
75.999999
 21
41.06875
 31
0.0
  0
LINE
  5
21D
330
1E
100
AcDbEntity
  8
0
100
AcDbLine
 10
75.999999
 20
36.45134999999999
 30
0.0
 11
75.999999
 21
38.81405
 31
0.0
  0
LINE
  5
21E
330
1E
100
AcDbEntity
  8
0
100
AcDbLine
 10
75.999999
 20
34.00265
 30
0.0
 11
75.999999
 21
36.45134999999999
 31
0.0
  0
LINE
  5
21F
330
1E
100
AcDbEntity
  8
0
100
AcDbLine
 10
75.999999
 20
31.49185
 30
0.0
 11
75.999999
 21
34.00265
 31
0.0
  0
LINE
  5
220
330
1E
100
AcDbEntity
  8
0
100
AcDbLine
 10
75.999999
 20
28.93915
 30
0.0
 11
75.999999
 21
31.49185
 31
0.0
  0
LINE
  5
221
330
1E
100
AcDbEntity
  8
0
100
AcDbLine
 10
75.999999
 20
26.37035
 30
0.0
 11
75.999999
 21
28.93915
 31
0.0
  0
LINE
  5
222
330
1E
100
AcDbEntity
  8
0
100
AcDbLine
 10
75.999999
 20
23.80665
 30
0.0
 11
75.999999
 21
26.37035
 31
0.0
  0
LINE
  5
223
330
1E
100
AcDbEntity
  8
0
100
AcDbLine
 10
75.999999
 20
21.27185
 30
0.0
 11
75.999999
 21
23.80665
 31
0.0
  0
LINE
  5
224
330
1E
100
AcDbEntity
  8
0
100
AcDbLine
 10
75.999999
 20
18.78915
 30
0.0
 11
75.999999
 21
21.27185
 31
0.0
  0
LINE
  5
225
330
1E
100
AcDbEntity
  8
0
100
AcDbLine
 10
75.999999
 20
16.38044999999999
 30
0.0
 11
75.999999
 21
18.78915
 31
0.0
  0
LINE
  5
226
330
1E
100
AcDbEntity
  8
0
100
AcDbLine
 10
75.999999
 20
14.06875
 30
0.0
 11
75.999999
 21
16.38044999999999
 31
0.0
  0
LINE
  5
227
330
1E
100
AcDbEntity
  8
0
100
AcDbLine
 10
75.999999
 20
11.87405
 30
0.0
 11
75.999999
 21
14.06875
 31
0.0
  0
LINE
  5
228
330
1E
100
AcDbEntity
  8
0
100
AcDbLine
 10
75.999999
 20
9.816460000000009
 30
0.0
 11
75.999999
 21
11.87405
 31
0.0
  0
LINE
  5
229
330
1E
100
AcDbEntity
  8
0
100
AcDbLine
 10
75.999999
 20
7.913890000000009
 30
0.0
 11
75.999999
 21
9.816460000000009
 31
0.0
  0
LINE
  5
22A
330
1E
100
AcDbEntity
  8
0
100
AcDbLine
 10
75.999999
 20
6.184380000000009
 30
0.0
 11
75.999999
 21
7.913890000000009
 31
0.0
  0
LINE
  5
22B
330
1E
100
AcDbEntity
  8
0
100
AcDbLine
 10
75.999999
 20
4.643920000000009
 30
0.0
 11
75.999999
 21
6.184380000000009
 31
0.0
  0
LINE
  5
22C
330
1E
100
AcDbEntity
  8
0
100
AcDbLine
 10
75.999999
 20
3.305530000000009
 30
0.0
 11
75.999999
 21
4.643920000000009
 31
0.0
  0
LINE
  5
22D
330
1E
100
AcDbEntity
  8
0
100
AcDbLine
 10
75.999999
 20
2.18219000000001
 30
0.0
 11
75.999999
 21
3.305530000000009
 31
0.0
  0
LINE
  5
22E
330
1E
100
AcDbEntity
  8
0
100
AcDbLine
 10
75.999999
 20
1.28393000000001
 30
0.0
 11
75.999999
 21
2.18219000000001
 31
0.0
  0
LINE
  5
22F
330
1E
100
AcDbEntity
  8
0
100
AcDbLine
 10
75.999999
 20
0.6177310000000059
 30
0.0
 11
75.999999
 21
1.28393000000001
 31
0.0
  0
LINE
  5
230
330
1E
100
AcDbEntity
  8
0
100
AcDbLine
 10
75.999999
 20
0.191605000000006
 30
0.0
 11
75.999999
 21
0.6177310000000059
 31
0.0
  0
LINE
  5
231
330
1E
100
AcDbEntity
  8
0
100
AcDbLine
 10
72.919999
 20
53.99245
 30
0.0
 11
75.999999
 21
53.99245
 31
0.0
  0
LINE
  5
232
330
1E
100
AcDbEntity
  8
0
100
AcDbLine
 10
72.23599899999999
 20
53.87215
 30
0.0
 11
72.919999
 21
53.99245
 31
0.0
  0
LINE
  5
233
330
1E
100
AcDbEntity
  8
0
100
AcDbLine
 10
71.633999
 20
0.4756890000000061
 30
0.0
 11
72.23599899999999
 21
0.127586000000006
 31
0.0
  0
LINE
  5
234
330
1E
100
AcDbEntity
  8
0
100
AcDbLine
 10
71.633999
 20
0.4756890000000061
 30
0.0
 11
72.23599899999999
 21
0.127586000000006
 31
0.0
  0
LINE
  5
235
330
1E
100
AcDbEntity
  8
0
100
AcDbLine
 10
72.23599899999999
 20
0.127586000000006
 30
0.0
 11
72.919999
 21
0.007550000000006
 31
0.0
  0
LINE
  5
236
330
1E
100
AcDbEntity
  8
0
100
AcDbLine
 10
72.23599899999999
 20
0.127586000000006
 30
0.0
 11
72.919999
 21
0.007550000000006
 31
0.0
  0
LINE
  5
23C
330
1E
100
AcDbEntity
  8
0
100
AcDbLine
 10
0.107904000000007
 20
24.09264999999999
 30
0.0
 11
0.0224842161225638
 21
27.20186878488348
 31
0.0
  0
LINE
  5
23D
330
1E
100
AcDbEntity
  8
0
100
AcDbLine
 10
0.0224842161225638
 20
27.20186878488348
 30
0.0
 11
0.1376390794505085
 21
30.75040860114458
 31
0.0
  0
LINE
  5
23E
330
1E
100
AcDbEntity
  8
0
100
AcDbLine
 10
0.1376390794505085
 20
30.75040860114458
 30
0.0
 11
0.411999000000008
 21
32.73275
 31
0.0
  0
ENDSEC
  0
SECTION
  2
OBJECTS
  0
DICTIONARY
  5
C
330
0
100
AcDbDictionary
281
     1
  3
ACAD_GROUP
350
D
  3
ACAD_LAYOUT
350
19
  3
ACAD_MLINESTYLE
350
16
  3
ACAD_PLOTSETTINGS
350
18
  3
ACAD_PLOTSTYLENAME
350
E
  3
AcDbVariableDictionary
350
240
  0
DICTIONARY
  5
D
102
{ACAD_REACTORS
330
C
102
}
330
C
100
AcDbDictionary
281
     1
  0
DICTIONARY
  5
19
102
{ACAD_REACTORS
330
C
102
}
330
C
100
AcDbDictionary
281
     1
  3
Layout1
350
1D
  3
Model
350
21
  0
DICTIONARY
  5
16
102
{ACAD_REACTORS
330
C
102
}
330
C
100
AcDbDictionary
281
     1
  3
Standard
350
17
  0
DICTIONARY
  5
18
102
{ACAD_REACTORS
330
C
102
}
330
C
100
AcDbDictionary
281
     1
  0
ACDBDICTIONARYWDFLT
  5
E
102
{ACAD_REACTORS
330
C
102
}
330
C
100
AcDbDictionary
281
     1
  3
Normal
350
F
100
AcDbDictionaryWithDefault
340
F
  0
DICTIONARY
  5
240
102
{ACAD_REACTORS
330
C
102
}
330
C
100
AcDbDictionary
281
     1
  3
DIMASSOC
350
241
  0
LAYOUT
  5
1D
102
{ACAD_REACTORS
330
19
102
}
330
19
100
AcDbPlotSettings
  1

  2
C:\Programme\AutoCAD LT 2002 Deu\plotters\DWF ePlot (optimized for plotting).pc3
  4

  6

 40
0.0
 41
0.0
 42
0.0
 43
0.0
 44
0.0
 45
0.0
 46
0.0
 47
0.0
 48
0.0
 49
0.0
140
0.0
141
0.0
142
1.0
143
1.0
 70
   688
 72
     0
 73
     0
 74
     5
  7

 75
    16
147
1.0
148
0.0
149
0.0
100
AcDbLayout
  1
Layout1
 70
     1
 71
     1
 10
0.0
 20
0.0
 11
12.0
 21
9.0
 12
0.0
 22
0.0
 32
0.0
 14
1.000000000000000E+20
 24
1.000000000000000E+20
 34
1.000000000000000E+20
 15
-1.000000000000000E+20
 25
-1.000000000000000E+20
 35
-1.000000000000000E+20
146
0.0
 13
0.0
 23
0.0
 33
0.0
 16
1.0
 26
0.0
 36
0.0
 17
0.0
 27
1.0
 37
0.0
 76
     0
330
1A
  0
LAYOUT
  5
21
102
{ACAD_REACTORS
330
19
102
}
330
19
100
AcDbPlotSettings
  1

  2
C:\Programme\AutoCAD LT 2002 Deu\plotters\DWF ePlot (optimized for plotting).pc3
  4

  6

 40
0.0
 41
0.0
 42
0.0
 43
0.0
 44
0.0
 45
0.0
 46
0.0
 47
0.0
 48
0.0
 49
0.0
140
0.0
141
0.0
142
1.0
143
1.0
 70
  1712
 72
     0
 73
     0
 74
     0
  7

 75
     0
147
1.0
148
0.0
149
0.0
100
AcDbLayout
  1
Model
 70
     1
 71
     0
 10
0.0
 20
0.0
 11
12.0
 21
9.0
 12
0.0
 22
0.0
 32
0.0
 14
0.0
 24
0.0
 34
0.0
 15
0.0
 25
0.0
 35
0.0
146
0.0
 13
0.0
 23
0.0
 33
0.0
 16
1.0
 26
0.0
 36
0.0
 17
0.0
 27
1.0
 37
0.0
 76
     0
330
1E
  0
MLINESTYLE
  5
17
102
{ACAD_REACTORS
330
16
102
}
330
16
100
AcDbMlineStyle
  2
STANDARD
 70
     0
  3

 62
   256
 51
90.0
 52
90.0
 71
     2
 49
0.5
 62
   256
  6
BYLAYER
 49
-0.5
 62
   256
  6
BYLAYER
  0
ACDBPLACEHOLDER
  5
F
102
{ACAD_REACTORS
330
E
102
}
330
E
  0
DICTIONARYVAR
  5
241
102
{ACAD_REACTORS
330
240
102
}
330
240
100
DictionaryVariables
280
     0
  1
1
  0
ENDSEC
  0
EOF
