  0
SECTION
  2
HEADER
  9
$ACADVER
  1
AC1015
  9
$ACADMAINTVER
 70
    13
  9
$DWGCODEPAGE
  3
ANSI_1252
  9
$INSBASE
 10
0.0
 20
0.0
 30
0.0
  9
$EXTMIN
 10
0.0
 20
0.1939999999999631
 30
0.0
  9
$EXTMAX
 10
199.0
 20
295.8059999999999
 30
0.0
  9
$LIMMIN
 10
0.0
 20
0.0
  9
$LIMMAX
 10
12.0
 20
9.0
  9
$ORTHOMODE
 70
     0
  9
$REGENMODE
 70
     1
  9
$FILLMODE
 70
     1
  9
$QTEXTMODE
 70
     0
  9
$MIRRTEXT
 70
     1
  9
$LTSCALE
 40
1.0
  9
$ATTMODE
 70
     1
  9
$TEXTSIZE
 40
0.2
  9
$TRACEWID
 40
0.05
  9
$TEXTSTYLE
  7
Standard
  9
$CLAYER
  8
0
  9
$CELTYPE
  6
Continuous
  9
$CECOLOR
 62
   256
  9
$CELTSCALE
 40
1.0
  9
$DISPSILH
 70
     0
  9
$DIMSCALE
 40
1.0
  9
$DIMASZ
 40
0.18
  9
$DIMEXO
 40
0.0625
  9
$DIMDLI
 40
0.38
  9
$DIMRND
 40
0.0
  9
$DIMDLE
 40
0.0
  9
$DIMEXE
 40
0.18
  9
$DIMTP
 40
0.0
  9
$DIMTM
 40
0.0
  9
$DIMTXT
 40
0.18
  9
$DIMCEN
 40
0.09
  9
$DIMTSZ
 40
0.0
  9
$DIMTOL
 70
     0
  9
$DIMLIM
 70
     0
  9
$DIMTIH
 70
     1
  9
$DIMTOH
 70
     1
  9
$DIMSE1
 70
     0
  9
$DIMSE2
 70
     0
  9
$DIMTAD
 70
     0
  9
$DIMZIN
 70
     0
  9
$DIMBLK
  1

  9
$DIMASO
 70
     1
  9
$DIMSHO
 70
     1
  9
$DIMPOST
  1

  9
$DIMAPOST
  1

  9
$DIMALT
 70
     0
  9
$DIMALTD
 70
     2
  9
$DIMALTF
 40
25.4
  9
$DIMLFAC
 40
1.0
  9
$DIMTOFL
 70
     0
  9
$DIMTVP
 40
0.0
  9
$DIMTIX
 70
     0
  9
$DIMSOXD
 70
     0
  9
$DIMSAH
 70
     0
  9
$DIMBLK1
  1

  9
$DIMBLK2
  1

  9
$DIMSTYLE
  2
Standard
  9
$DIMCLRD
 70
     0
  9
$DIMCLRE
 70
     0
  9
$DIMCLRT
 70
     0
  9
$DIMTFAC
 40
1.0
  9
$DIMGAP
 40
0.09
  9
$DIMJUST
 70
     0
  9
$DIMSD1
 70
     0
  9
$DIMSD2
 70
     0
  9
$DIMTOLJ
 70
     1
  9
$DIMTZIN
 70
     0
  9
$DIMALTZ
 70
     0
  9
$DIMALTTZ
 70
     0
  9
$DIMUPT
 70
     0
  9
$DIMDEC
 70
     4
  9
$DIMTDEC
 70
     4
  9
$DIMALTU
 70
     2
  9
$DIMALTTD
 70
     2
  9
$DIMTXSTY
  7
Standard
  9
$DIMAUNIT
 70
     0
  9
$DIMADEC
 70
     0
  9
$DIMALTRND
 40
0.0
  9
$DIMAZIN
 70
     0
  9
$DIMDSEP
 70
    46
  9
$DIMATFIT
 70
     3
  9
$DIMFRAC
 70
     0
  9
$DIMLDRBLK
  1

  9
$DIMLUNIT
 70
     2
  9
$DIMLWD
 70
    -2
  9
$DIMLWE
 70
    -2
  9
$DIMTMOVE
 70
     0
  9
$LUNITS
 70
     2
  9
$LUPREC
 70
     4
  9
$SKETCHINC
 40
0.1
  9
$FILLETRAD
 40
0.0
  9
$AUNITS
 70
     0
  9
$AUPREC
 70
     0
  9
$MENU
  1
.
  9
$ELEVATION
 40
0.0
  9
$PELEVATION
 40
0.0
  9
$THICKNESS
 40
0.0
  9
$LIMCHECK
 70
     0
  9
$CHAMFERA
 40
0.0
  9
$CHAMFERB
 40
0.0
  9
$CHAMFERC
 40
0.0
  9
$CHAMFERD
 40
0.0
  9
$SKPOLY
 70
     0
  9
$TDCREATE
 40
2455655.624099930
  9
$TDUCREATE
 40
2455655.540766597
  9
$TDUPDATE
 40
2455655.626423066
  9
$TDUUPDATE
 40
2455655.543089734
  9
$TDINDWG
 40
0.0023233102
  9
$TDUSRTIMER
 40
0.0023233102
  9
$USRTIMER
 70
     1
  9
$ANGBASE
 50
0.0
  9
$ANGDIR
 70
     0
  9
$PDMODE
 70
     0
  9
$PDSIZE
 40
0.0
  9
$PLINEWID
 40
0.0
  9
$SPLFRAME
 70
     0
  9
$SPLINETYPE
 70
     6
  9
$SPLINESEGS
 70
     8
  9
$HANDSEED
  5
9D7
  9
$SURFTAB1
 70
     6
  9
$SURFTAB2
 70
     6
  9
$SURFTYPE
 70
     6
  9
$SURFU
 70
     6
  9
$SURFV
 70
     6
  9
$UCSBASE
  2

  9
$UCSNAME
  2

  9
$UCSORG
 10
0.0
 20
0.0
 30
0.0
  9
$UCSXDIR
 10
1.0
 20
0.0
 30
0.0
  9
$UCSYDIR
 10
0.0
 20
1.0
 30
0.0
  9
$UCSORTHOREF
  2

  9
$UCSORTHOVIEW
 70
     1
  9
$UCSORGTOP
 10
0.0
 20
0.0
 30
0.0
  9
$UCSORGBOTTOM
 10
0.0
 20
0.0
 30
0.0
  9
$UCSORGLEFT
 10
0.0
 20
0.0
 30
0.0
  9
$UCSORGRIGHT
 10
0.0
 20
0.0
 30
0.0
  9
$UCSORGFRONT
 10
0.0
 20
0.0
 30
0.0
  9
$UCSORGBACK
 10
0.0
 20
0.0
 30
0.0
  9
$PUCSBASE
  2

  9
$PUCSNAME
  2

  9
$PUCSORG
 10
0.0
 20
0.0
 30
0.0
  9
$PUCSXDIR
 10
1.0
 20
0.0
 30
0.0
  9
$PUCSYDIR
 10
0.0
 20
1.0
 30
0.0
  9
$PUCSORTHOREF
  2

  9
$PUCSORTHOVIEW
 70
     0
  9
$PUCSORGTOP
 10
0.0
 20
0.0
 30
0.0
  9
$PUCSORGBOTTOM
 10
0.0
 20
0.0
 30
0.0
  9
$PUCSORGLEFT
 10
0.0
 20
0.0
 30
0.0
  9
$PUCSORGRIGHT
 10
0.0
 20
0.0
 30
0.0
  9
$PUCSORGFRONT
 10
0.0
 20
0.0
 30
0.0
  9
$PUCSORGBACK
 10
0.0
 20
0.0
 30
0.0
  9
$USERI1
 70
     0
  9
$USERI2
 70
     0
  9
$USERI3
 70
     0
  9
$USERI4
 70
     0
  9
$USERI5
 70
     0
  9
$USERR1
 40
0.0
  9
$USERR2
 40
0.0
  9
$USERR3
 40
0.0
  9
$USERR4
 40
0.0
  9
$USERR5
 40
0.0
  9
$WORLDVIEW
 70
     1
  9
$SHADEDGE
 70
     3
  9
$SHADEDIF
 70
    70
  9
$TILEMODE
 70
     1
  9
$MAXACTVP
 70
    64
  9
$PINSBASE
 10
0.0
 20
0.0
 30
0.0
  9
$PLIMCHECK
 70
     0
  9
$PEXTMIN
 10
1.000000000000000E+20
 20
1.000000000000000E+20
 30
1.000000000000000E+20
  9
$PEXTMAX
 10
-1.000000000000000E+20
 20
-1.000000000000000E+20
 30
-1.000000000000000E+20
  9
$PLIMMIN
 10
0.0
 20
0.0
  9
$PLIMMAX
 10
12.0
 20
9.0
  9
$UNITMODE
 70
     0
  9
$VISRETAIN
 70
     1
  9
$PLINEGEN
 70
     0
  9
$PSLTSCALE
 70
     1
  9
$TREEDEPTH
 70
  3020
  9
$CMLSTYLE
  2
Standard
  9
$CMLJUST
 70
     0
  9
$CMLSCALE
 40
1.0
  9
$PROXYGRAPHICS
 70
     1
  9
$MEASUREMENT
 70
     0
  9
$CELWEIGHT
370
    -1
  9
$ENDCAPS
280
     0
  9
$JOINSTYLE
280
     0
  9
$LWDISPLAY
290
     0
  9
$INSUNITS
 70
     0
  9
$HYPERLINKBASE
  1

  9
$STYLESHEET
  1

  9
$XEDIT
290
     1
  9
$CEPSNTYPE
380
     0
  9
$PSTYLEMODE
290
     1
  9
$FINGERPRINTGUID
  2
{101F517A-57C5-422E-846A-4B0778330AE7}
  9
$VERSIONGUID
  2
{9903CCEE-32CB-4E29-8A1F-B92AD53C00EB}
  9
$EXTNAMES
290
     1
  9
$PSVPSCALE
 40
0.0
  9
$OLESTARTUP
290
     0
  0
ENDSEC
  0
SECTION
  2
CLASSES
  0
CLASS
  1
ACDBDICTIONARYWDFLT
  2
AcDbDictionaryWithDefault
  3
AutoCAD 2000
 90
        0
280
     0
281
     0
  0
CLASS
  1
ACDBPLACEHOLDER
  2
AcDbPlaceHolder
  3
AutoCAD 2000
 90
        0
280
     0
281
     0
  0
CLASS
  1
LAYOUT
  2
AcDbLayout
  3
AutoCAD 2000
 90
        0
280
     0
281
     0
  0
CLASS
  1
DICTIONARYVAR
  2
AcDbDictionaryVar
  3
AutoCAD 2000
 90
        0
280
     0
281
     0
  0
ENDSEC
  0
SECTION
  2
TABLES
  0
TABLE
  2
VPORT
  5
8
330
0
100
AcDbSymbolTable
 70
     3
  0
VPORT
  5
9D6
330
8
100
AcDbSymbolTableRecord
100
AcDbViewportTableRecord
  2
*Active
 70
     0
 10
0.0
 20
0.0
 11
1.0
 21
1.0
 12
99.50000000000001
 22
147.9999999999999
 13
0.0
 23
0.0
 14
1.0
 24
1.0
 15
0.0
 25
0.0
 16
0.0
 26
0.0
 36
1.0
 17
0.0
 27
0.0
 37
0.0
 40
297.6116302142052
 41
2.073363431151241
 42
50.0
 43
0.0
 44
0.0
 50
0.0
 51
0.0
 71
     0
 72
   100
 73
     1
 74
     3
 75
     0
 76
     0
 77
     0
 78
     0
281
     0
 65
     1
110
0.0
120
0.0
130
0.0
111
1.0
121
0.0
131
0.0
112
0.0
122
1.0
132
0.0
 79
     1
146
0.0
  0
ENDTAB
  0
TABLE
  2
LTYPE
  5
5
330
0
100
AcDbSymbolTable
 70
     1
  0
LTYPE
  5
13
330
5
100
AcDbSymbolTableRecord
100
AcDbLinetypeTableRecord
  2
ByBlock
 70
     0
  3

 72
    65
 73
     0
 40
0.0
  0
LTYPE
  5
14
330
5
100
AcDbSymbolTableRecord
100
AcDbLinetypeTableRecord
  2
ByLayer
 70
     0
  3

 72
    65
 73
     0
 40
0.0
  0
LTYPE
  5
15
330
5
100
AcDbSymbolTableRecord
100
AcDbLinetypeTableRecord
  2
Continuous
 70
     0
  3
Solid line
 72
    65
 73
     0
 40
0.0
  0
ENDTAB
  0
TABLE
  2
LAYER
  5
2
330
0
100
AcDbSymbolTable
 70
     1
  0
LAYER
  5
10
330
2
100
AcDbSymbolTableRecord
100
AcDbLayerTableRecord
  2
0
 70
     0
 62
     7
  6
Continuous
370
    -3
390
F
  0
ENDTAB
  0
TABLE
  2
STYLE
  5
3
330
0
100
AcDbSymbolTable
 70
     1
  0
STYLE
  5
11
330
3
100
AcDbSymbolTableRecord
100
AcDbTextStyleTableRecord
  2
Standard
 70
     0
 40
0.0
 41
1.0
 50
0.0
 71
     0
 42
0.2
  3
txt
  4

  0
ENDTAB
  0
TABLE
  2
VIEW
  5
6
330
0
100
AcDbSymbolTable
 70
     0
  0
ENDTAB
  0
TABLE
  2
UCS
  5
7
330
0
100
AcDbSymbolTable
 70
     0
  0
ENDTAB
  0
TABLE
  2
APPID
  5
9
330
0
100
AcDbSymbolTable
 70
     1
  0
APPID
  5
12
330
9
100
AcDbSymbolTableRecord
100
AcDbRegAppTableRecord
  2
ACAD
 70
     0
  0
ENDTAB
  0
TABLE
  2
DIMSTYLE
  5
A
330
0
100
AcDbSymbolTable
 70
     1
100
AcDbDimStyleTable
 71
     0
  0
DIMSTYLE
105
3F9
330
A
100
AcDbSymbolTableRecord
100
AcDbDimStyleTableRecord
  2
Standard
 70
     0
340
11
  0
ENDTAB
  0
TABLE
  2
BLOCK_RECORD
  5
1
330
0
100
AcDbSymbolTable
 70
     2
  0
BLOCK_RECORD
  5
1E
330
1
100
AcDbSymbolTableRecord
100
AcDbBlockTableRecord
  2
*Model_Space
340
21
  0
BLOCK_RECORD
  5
1A
330
1
100
AcDbSymbolTableRecord
100
AcDbBlockTableRecord
  2
*Paper_Space
340
1D
  0
ENDTAB
  0
ENDSEC
  0
SECTION
  2
BLOCKS
  0
BLOCK
  5
1F
330
1E
100
AcDbEntity
  8
0
100
AcDbBlockBegin
  2
*Model_Space
 70
     0
 10
0.0
 20
0.0
 30
0.0
  3
*Model_Space
  1

  0
ENDBLK
  5
20
330
1E
100
AcDbEntity
  8
0
100
AcDbBlockEnd
  0
BLOCK
  5
1B
330
1A
100
AcDbEntity
 67
     1
  8
0
100
AcDbBlockBegin
  2
*Paper_Space
 70
     0
 10
0.0
 20
0.0
 30
0.0
  3
*Paper_Space
  1

  0
ENDBLK
  5
1C
330
1A
100
AcDbEntity
 67
     1
  8
0
100
AcDbBlockEnd
  0
ENDSEC
  0
SECTION
  2
ENTITIES
  0
LINE
  5
AB
330
1E
100
AcDbEntity
  8
0
100
AcDbLine
 10
177.6999999999999
 20
0.193999999999966
 30
0.0
 11
180.9
 21
0.193999999999966
 31
0.0
  0
LINE
  5
AC
330
1E
100
AcDbEntity
  8
0
100
AcDbLine
 10
174.5
 20
0.193999999999966
 30
0.0
 11
177.6999999999999
 21
0.193999999999966
 31
0.0
  0
LINE
  5
AE
330
1E
100
AcDbEntity
  8
0
100
AcDbLine
 10
155.0
 20
0.193999999999966
 30
0.0
 11
157.1999999999999
 21
0.193999999999966
 31
0.0
  0
LINE
  5
AF
330
1E
100
AcDbEntity
  8
0
100
AcDbLine
 10
153.2
 20
0.193999999999966
 30
0.0
 11
155.0
 21
0.193999999999966
 31
0.0
  0
LINE
  5
B0
330
1E
100
AcDbEntity
  8
0
100
AcDbLine
 10
151.5
 20
0.193999999999966
 30
0.0
 11
153.2
 21
0.193999999999966
 31
0.0
  0
LINE
  5
B1
330
1E
100
AcDbEntity
  8
0
100
AcDbLine
 10
150.8
 20
0.193999999999967
 30
0.0
 11
151.5
 21
0.193999999999966
 31
0.0
  0
LINE
  5
B2
330
1E
100
AcDbEntity
  8
0
100
AcDbLine
 10
150.1999999999999
 20
0.193999999999967
 30
0.0
 11
150.8
 21
0.193999999999967
 31
0.0
  0
LINE
  5
B3
330
1E
100
AcDbEntity
  8
0
100
AcDbLine
 10
157.1999999999999
 20
0.193999999999968
 30
0.0
 11
159.6
 21
0.193999999999968
 31
0.0
  0
LINE
  5
B5
330
1E
100
AcDbEntity
  8
0
100
AcDbLine
 10
155.0
 20
0.193999999999968
 30
0.0
 11
157.1999999999999
 21
0.193999999999968
 31
0.0
  0
LINE
  5
B6
330
1E
100
AcDbEntity
  8
0
100
AcDbLine
 10
153.2
 20
0.193999999999968
 30
0.0
 11
155.0
 21
0.193999999999968
 31
0.0
  0
LINE
  5
B7
330
1E
100
AcDbEntity
  8
0
100
AcDbLine
 10
151.5
 20
0.193999999999968
 30
0.0
 11
153.2
 21
0.193999999999968
 31
0.0
  0
LINE
  5
B8
330
1E
100
AcDbEntity
  8
0
100
AcDbLine
 10
150.8
 20
0.193999999999967
 30
0.0
 11
151.5
 21
0.193999999999968
 31
0.0
  0
LINE
  5
B9
330
1E
100
AcDbEntity
  8
0
100
AcDbLine
 10
150.1999999999999
 20
0.193999999999967
 30
0.0
 11
150.8
 21
0.193999999999967
 31
0.0
  0
LINE
  5
BA
330
1E
100
AcDbEntity
  8
0
100
AcDbLine
 10
150.0
 20
0.193999999999967
 30
0.0
 11
150.1999999999999
 21
0.193999999999967
 31
0.0
  0
LINE
  5
BB
330
1E
100
AcDbEntity
  8
0
100
AcDbLine
 10
150.0
 20
0.193999999999967
 30
0.0
 11
150.1999999999999
 21
0.193999999999967
 31
0.0
  0
LINE
  5
BC
330
1E
100
AcDbEntity
  8
0
100
AcDbLine
 10
159.6
 20
0.193999999999968
 30
0.0
 11
162.1999999999999
 21
0.193999999999968
 31
0.0
  0
LINE
  5
BD
330
1E
100
AcDbEntity
  8
0
100
AcDbLine
 10
162.1999999999999
 20
0.193999999999968
 30
0.0
 11
165.0999999999999
 21
0.193999999999968
 31
0.0
  0
LINE
  5
BE
330
1E
100
AcDbEntity
  8
0
100
AcDbLine
 10
157.1999999999999
 20
0.193999999999966
 30
0.0
 11
159.6
 21
0.193999999999966
 31
0.0
  0
LINE
  5
BF
330
1E
100
AcDbEntity
  8
0
100
AcDbLine
 10
159.6
 20
0.193999999999966
 30
0.0
 11
162.1999999999999
 21
0.193999999999966
 31
0.0
  0
LINE
  5
C0
330
1E
100
AcDbEntity
  8
0
100
AcDbLine
 10
165.0999999999999
 20
0.193999999999968
 30
0.0
 11
168.1
 21
0.193999999999968
 31
0.0
  0
LINE
  5
C1
330
1E
100
AcDbEntity
  8
0
100
AcDbLine
 10
168.1
 20
0.193999999999968
 30
0.0
 11
171.3
 21
0.193999999999968
 31
0.0
  0
LINE
  5
C2
330
1E
100
AcDbEntity
  8
0
100
AcDbLine
 10
162.1999999999999
 20
0.193999999999966
 30
0.0
 11
165.0999999999999
 21
0.193999999999966
 31
0.0
  0
LINE
  5
C3
330
1E
100
AcDbEntity
  8
0
100
AcDbLine
 10
165.0999999999999
 20
0.193999999999966
 30
0.0
 11
168.1
 21
0.193999999999966
 31
0.0
  0
LINE
  5
C4
330
1E
100
AcDbEntity
  8
0
100
AcDbLine
 10
198.8
 20
0.193999999999967
 30
0.0
 11
199.0
 21
0.193999999999967
 31
0.0
  0
LINE
  5
C5
330
1E
100
AcDbEntity
  8
0
100
AcDbLine
 10
198.2
 20
0.193999999999967
 30
0.0
 11
198.8
 21
0.193999999999967
 31
0.0
  0
LINE
  5
C6
330
1E
100
AcDbEntity
  8
0
100
AcDbLine
 10
197.5
 20
0.193999999999966
 30
0.0
 11
198.2
 21
0.193999999999967
 31
0.0
  0
LINE
  5
C7
330
1E
100
AcDbEntity
  8
0
100
AcDbLine
 10
195.8
 20
0.193999999999966
 30
0.0
 11
197.5
 21
0.193999999999966
 31
0.0
  0
LINE
  5
C8
330
1E
100
AcDbEntity
  8
0
100
AcDbLine
 10
194.0
 20
0.193999999999966
 30
0.0
 11
195.8
 21
0.193999999999966
 31
0.0
  0
LINE
  5
C9
330
1E
100
AcDbEntity
  8
0
100
AcDbLine
 10
191.8
 20
0.193999999999966
 30
0.0
 11
194.0
 21
0.193999999999966
 31
0.0
  0
LINE
  5
CA
330
1E
100
AcDbEntity
  8
0
100
AcDbLine
 10
189.4
 20
0.193999999999966
 30
0.0
 11
191.8
 21
0.193999999999966
 31
0.0
  0
LINE
  5
CB
330
1E
100
AcDbEntity
  8
0
100
AcDbLine
 10
186.8
 20
0.193999999999966
 30
0.0
 11
189.4
 21
0.193999999999966
 31
0.0
  0
LINE
  5
CC
330
1E
100
AcDbEntity
  8
0
100
AcDbLine
 10
183.9
 20
0.193999999999966
 30
0.0
 11
186.8
 21
0.193999999999966
 31
0.0
  0
LINE
  5
CD
330
1E
100
AcDbEntity
  8
0
100
AcDbLine
 10
180.9
 20
0.193999999999966
 30
0.0
 11
183.9
 21
0.193999999999966
 31
0.0
  0
LINE
  5
CE
330
1E
100
AcDbEntity
  8
0
100
AcDbLine
 10
177.6999999999999
 20
0.193999999999968
 30
0.0
 11
180.9
 21
0.193999999999968
 31
0.0
  0
LINE
  5
CF
330
1E
100
AcDbEntity
  8
0
100
AcDbLine
 10
180.9
 20
0.193999999999968
 30
0.0
 11
183.9
 21
0.193999999999968
 31
0.0
  0
LINE
  5
D0
330
1E
100
AcDbEntity
  8
0
100
AcDbLine
 10
183.9
 20
0.193999999999968
 30
0.0
 11
186.8
 21
0.193999999999968
 31
0.0
  0
LINE
  5
D1
330
1E
100
AcDbEntity
  8
0
100
AcDbLine
 10
186.8
 20
0.193999999999968
 30
0.0
 11
189.4
 21
0.193999999999968
 31
0.0
  0
LINE
  5
D2
330
1E
100
AcDbEntity
  8
0
100
AcDbLine
 10
189.4
 20
0.193999999999968
 30
0.0
 11
191.8
 21
0.193999999999968
 31
0.0
  0
LINE
  5
D3
330
1E
100
AcDbEntity
  8
0
100
AcDbLine
 10
191.8
 20
0.193999999999968
 30
0.0
 11
194.0
 21
0.193999999999968
 31
0.0
  0
LINE
  5
D4
330
1E
100
AcDbEntity
  8
0
100
AcDbLine
 10
194.0
 20
0.193999999999968
 30
0.0
 11
195.8
 21
0.193999999999968
 31
0.0
  0
LINE
  5
D5
330
1E
100
AcDbEntity
  8
0
100
AcDbLine
 10
195.8
 20
0.193999999999968
 30
0.0
 11
197.5
 21
0.193999999999968
 31
0.0
  0
LINE
  5
D6
330
1E
100
AcDbEntity
  8
0
100
AcDbLine
 10
197.5
 20
0.193999999999968
 30
0.0
 11
198.2
 21
0.193999999999967
 31
0.0
  0
LINE
  5
D7
330
1E
100
AcDbEntity
  8
0
100
AcDbLine
 10
198.2
 20
0.193999999999967
 30
0.0
 11
198.8
 21
0.193999999999967
 31
0.0
  0
LINE
  5
D8
330
1E
100
AcDbEntity
  8
0
100
AcDbLine
 10
198.8
 20
0.193999999999967
 30
0.0
 11
199.0
 21
0.193999999999967
 31
0.0
  0
LINE
  5
D9
330
1E
100
AcDbEntity
  8
0
100
AcDbLine
 10
174.5
 20
0.193999999999969
 30
0.0
 11
177.6999999999999
 21
0.193999999999968
 31
0.0
  0
LINE
  5
DA
330
1E
100
AcDbEntity
  8
0
100
AcDbLine
 10
171.3
 20
0.193999999999968
 30
0.0
 11
174.5
 21
0.193999999999969
 31
0.0
  0
LINE
  5
DB
330
1E
100
AcDbEntity
  8
0
100
AcDbLine
 10
168.1
 20
0.193999999999966
 30
0.0
 11
171.3
 21
0.193999999999966
 31
0.0
  0
LINE
  5
DC
330
1E
100
AcDbEntity
  8
0
100
AcDbLine
 10
171.3
 20
0.193999999999966
 30
0.0
 11
174.5
 21
0.193999999999966
 31
0.0
  0
LINE
  5
DD
330
1E
100
AcDbEntity
  8
0
100
AcDbLine
 10
27.4488
 20
21.694
 30
0.0
 11
28.0758
 21
21.701
 31
0.0
  0
LINE
  5
DE
330
1E
100
AcDbEntity
  8
0
100
AcDbLine
 10
25.6277
 20
21.697
 30
0.0
 11
27.4488
 21
21.694
 31
0.0
  0
LINE
  5
DF
330
1E
100
AcDbEntity
  8
0
100
AcDbLine
 10
14.5237
 20
21.69599999999999
 30
0.0
 11
16.0714521375301
 21
21.6996924504275
 31
0.0
  0
LINE
  5
E0
330
1E
100
AcDbEntity
  8
0
100
AcDbLine
 10
12.886317052658
 20
21.6977982350748
 30
0.0
 11
14.5237
 21
21.69599999999999
 31
0.0
  0
LINE
  5
E1
330
1E
100
AcDbEntity
  8
0
100
AcDbLine
 10
12.6498
 20
21.697
 30
0.0
 11
14.42759999999999
 21
21.703
 31
0.0
  0
LINE
  5
E3
330
1E
100
AcDbEntity
  8
0
100
AcDbLine
 10
12.07559999999999
 20
21.70199999999999
 30
0.0
 11
12.6498
 21
21.697
 31
0.0
  0
LINE
  5
15D
330
1E
100
AcDbEntity
  8
0
100
AcDbLine
 10
23.11269999999999
 20
21.701
 30
0.0
 11
25.6277
 21
21.697
 31
0.0
  0
LINE
  5
15E
330
1E
100
AcDbEntity
  8
0
100
AcDbLine
 10
20.0077
 20
21.699
 30
0.0
 11
23.11269999999999
 21
21.701
 31
0.0
  0
LINE
  5
19E
330
1E
100
AcDbEntity
  8
0
100
AcDbLine
 10
14.42759999999999
 20
21.703
 30
0.0
 11
16.9126
 21
21.69799999999999
 31
0.0
  0
LINE
  5
19F
330
1E
100
AcDbEntity
  8
0
100
AcDbLine
 10
16.9126
 20
21.69799999999999
 30
0.0
 11
20.0077
 21
21.699
 31
0.0
  0
LINE
  5
4E5
330
1E
100
AcDbEntity
  8
0
100
AcDbLine
 10
196.0192259789054
 20
74.6392503788075
 30
0.0
 11
196.9526175323151
 21
75.17738830935986
 31
0.0
  0
LINE
  5
4E6
330
1E
100
AcDbEntity
  8
0
100
AcDbLine
 10
194.2388382557312
 20
72.88064110358317
 30
0.0
 11
195.0858337746045
 21
73.88585690017766
 31
0.0
  0
LINE
  5
4E7
330
1E
100
AcDbEntity
  8
0
100
AcDbLine
 10
193.6654599999999
 20
71.92409999999995
 30
0.0
 11
194.2388382557312
 21
72.88064110358317
 31
0.0
  0
LINE
  5
4E8
330
1E
100
AcDbEntity
  8
0
100
AcDbLine
 10
195.0858337746045
 20
73.88585690017766
 30
0.0
 11
196.0192259789054
 21
74.6392503788075
 31
0.0
  0
LINE
  5
4E9
330
1E
100
AcDbEntity
  8
0
100
AcDbLine
 10
152.9807740210945
 20
74.6392503788075
 30
0.0
 11
152.0473824676848
 21
75.17738830935986
 31
0.0
  0
LINE
  5
4EA
330
1E
100
AcDbEntity
  8
0
100
AcDbLine
 10
153.9141662253954
 20
73.88585690017766
 30
0.0
 11
152.9807740210945
 21
74.6392503788075
 31
0.0
  0
LINE
  5
4EB
330
1E
100
AcDbEntity
  8
0
100
AcDbLine
 10
154.7611617442687
 20
72.88064110358317
 30
0.0
 11
153.9141662253954
 21
73.88585690017766
 31
0.0
  0
LINE
  5
4EC
330
1E
100
AcDbEntity
  8
0
100
AcDbLine
 10
155.3345399999999
 20
71.92409999999995
 30
0.0
 11
154.7611617442687
 21
72.88064110358317
 31
0.0
  0
LINE
  5
4ED
330
1E
100
AcDbEntity
  8
0
100
AcDbLine
 10
181.9846
 20
129.4609999999998
 30
0.0
 11
179.5239
 21
129.3239999999999
 31
0.0
  0
LINE
  5
4EE
330
1E
100
AcDbEntity
  8
0
100
AcDbLine
 10
179.5239
 20
129.3239999999999
 30
0.0
 11
174.5
 21
129.1439999999998
 31
0.0
  0
LINE
  5
4EF
330
1E
100
AcDbEntity
  8
0
100
AcDbLine
 10
184.2402
 20
129.6319999999998
 30
0.0
 11
188.5982918515734
 21
129.9906650356896
 31
0.0
  0
LINE
  5
4F0
330
1E
100
AcDbEntity
  8
0
100
AcDbLine
 10
184.2402
 20
129.6319999999998
 30
0.0
 11
181.9846
 21
129.4609999999998
 31
0.0
  0
LINE
  5
4F1
330
1E
100
AcDbEntity
  8
0
100
AcDbLine
 10
193.7604033319975
 20
130.5525022873681
 30
0.0
 11
197.0025063849848
 21
130.9409788405718
 31
0.0
  0
LINE
  5
4F2
330
1E
100
AcDbEntity
  8
0
100
AcDbLine
 10
188.5982918515734
 20
129.9906650356896
 30
0.0
 11
193.7604033319975
 21
130.5525022873681
 31
0.0
  0
LINE
  5
4F3
330
1E
100
AcDbEntity
  8
0
100
AcDbLine
 10
169.4760999999999
 20
129.3239999999999
 30
0.0
 11
174.5
 21
129.1439999999998
 31
0.0
  0
LINE
  5
4F4
330
1E
100
AcDbEntity
  8
0
100
AcDbLine
 10
155.2395966680024
 20
130.5525022873681
 30
0.0
 11
151.9974936150151
 21
130.9409788405718
 31
0.0
  0
LINE
  5
4F5
330
1E
100
AcDbEntity
  8
0
100
AcDbLine
 10
160.4017081484265
 20
129.9906650356896
 30
0.0
 11
155.2395966680024
 21
130.5525022873681
 31
0.0
  0
LINE
  5
4F6
330
1E
100
AcDbEntity
  8
0
100
AcDbLine
 10
164.7597999999999
 20
129.6319999999998
 30
0.0
 11
160.4017081484265
 21
129.9906650356896
 31
0.0
  0
LINE
  5
4F7
330
1E
100
AcDbEntity
  8
0
100
AcDbLine
 10
171.3
 20
0.1939999999999631
 30
0.0
 11
174.5
 21
0.1939999999999631
 31
0.0
  0
LINE
  5
4F8
330
1E
100
AcDbEntity
  8
0
100
AcDbLine
 10
172.1
 20
75.59819999999996
 30
0.0
 11
174.5
 21
75.56349999999998
 31
0.0
  0
LINE
  5
4F9
330
1E
100
AcDbEntity
  8
0
100
AcDbLine
 10
193.2
 20
78.81069999999997
 30
0.0
 11
196.1999999999999
 21
93.07829999999995
 31
0.0
  0
LINE
  5
4FA
330
1E
100
AcDbEntity
  8
0
100
AcDbLine
 10
196.3
 20
92.89249999999995
 30
0.0
 11
196.5
 21
92.38889999999997
 31
0.0
  0
LINE
  5
4FB
330
1E
100
AcDbEntity
  8
0
100
AcDbLine
 10
196.0
 20
93.56449999999998
 30
0.0
 11
196.3
 21
92.89249999999995
 31
0.0
  0
LINE
  5
4FC
330
1E
100
AcDbEntity
  8
0
100
AcDbLine
 10
196.0
 20
93.56449999999998
 30
0.0
 11
196.1999999999999
 21
93.07829999999995
 31
0.0
  0
LINE
  5
4FD
330
1E
100
AcDbEntity
  8
0
100
AcDbLine
 10
196.7488
 20
133.1339999999999
 30
0.0
 11
197.0563999999999
 21
132.9989999999999
 31
0.0
  0
LINE
  5
4FE
330
1E
100
AcDbEntity
  8
0
100
AcDbLine
 10
196.0310999999999
 20
133.1909999999999
 30
0.0
 11
196.7488
 21
133.1339999999999
 31
0.0
  0
LINE
  5
4FF
330
1E
100
AcDbEntity
  8
0
100
AcDbLine
 10
196.2359999999999
 20
94.27709999999995
 30
0.0
 11
196.5
 21
94.78139999999996
 31
0.0
  0
LINE
  5
500
330
1E
100
AcDbEntity
  8
0
100
AcDbLine
 10
196.5
 20
94.78139999999996
 30
0.0
 11
196.8725999999999
 21
123.8789999999998
 31
0.0
  0
LINE
  5
501
330
1E
100
AcDbEntity
  8
0
100
AcDbLine
 10
196.8725999999999
 20
123.8789999999998
 30
0.0
 11
196.8888999999999
 21
125.9939999999998
 31
0.0
  0
LINE
  5
502
330
1E
100
AcDbEntity
  8
0
100
AcDbLine
 10
196.8888999999999
 20
125.9939999999998
 30
0.0
 11
196.952487376507
 21
128.6532810294428
 31
0.0
  0
LINE
  5
503
330
1E
100
AcDbEntity
  8
0
100
AcDbLine
 10
196.9705
 20
128.7819999999998
 30
0.0
 11
197.0563999999999
 21
132.9989999999999
 31
0.0
  0
LINE
  5
504
330
1E
100
AcDbEntity
  8
0
100
AcDbLine
 10
195.7320916696449
 20
93.82501406043719
 30
0.0
 11
196.0
 21
93.56449999999998
 31
0.0
  0
LINE
  5
505
330
1E
100
AcDbEntity
  8
0
100
AcDbLine
 10
195.7079999999999
 20
93.80339999999995
 30
0.0
 11
196.2359999999999
 21
94.27709999999995
 31
0.0
  0
LINE
  5
506
330
1E
100
AcDbEntity
  8
0
100
AcDbLine
 10
194.74
 20
93.32969999999997
 30
0.0
 11
195.7079999999999
 21
93.80339999999995
 31
0.0
  0
LINE
  5
507
330
1E
100
AcDbEntity
  8
0
100
AcDbLine
 10
195.5
 20
93.70161322314046
 30
0.0
 11
195.5
 21
93.29079999999995
 31
0.0
  0
LINE
  5
508
330
1E
100
AcDbEntity
  8
0
100
AcDbLine
 10
195.5
 20
93.29079999999995
 30
0.0
 11
195.5
 21
93.70161322314046
 31
0.0
  0
LINE
  5
509
330
1E
100
AcDbEntity
  8
0
100
AcDbLine
 10
196.5
 20
92.38889999999997
 30
0.0
 11
197.2814999999999
 21
63.66159999999997
 31
0.0
  0
LINE
  5
50A
330
1E
100
AcDbEntity
  8
0
100
AcDbLine
 10
193.596
 20
92.88649999999995
 30
0.0
 11
194.74
 21
93.32969999999997
 31
0.0
  0
LINE
  5
50B
330
1E
100
AcDbEntity
  8
0
100
AcDbLine
 10
179.3
 20
75.68509999999998
 30
0.0
 11
181.6
 21
75.82399999999996
 31
0.0
  0
LINE
  5
50C
330
1E
100
AcDbEntity
  8
0
100
AcDbLine
 10
181.6
 20
75.82399999999996
 30
0.0
 11
183.8
 21
75.99759999999998
 31
0.0
  0
LINE
  5
50D
330
1E
100
AcDbEntity
  8
0
100
AcDbLine
 10
183.8
 20
75.99759999999998
 30
0.0
 11
185.8
 21
76.24069999999997
 31
0.0
  0
LINE
  5
50E
330
1E
100
AcDbEntity
  8
0
100
AcDbLine
 10
185.8
 20
76.24069999999997
 30
0.0
 11
187.6999999999999
 21
76.51859999999996
 31
0.0
  0
LINE
  5
50F
330
1E
100
AcDbEntity
  8
0
100
AcDbLine
 10
193.0
 20
78.39399999999997
 30
0.0
 11
193.2
 21
78.81069999999997
 31
0.0
  0
LINE
  5
510
330
1E
100
AcDbEntity
  8
0
100
AcDbLine
 10
192.7502
 20
133.1939999999999
 30
0.0
 11
192.9551999999999
 21
133.1939999999999
 31
0.0
  0
LINE
  5
511
330
1E
100
AcDbEntity
  8
0
100
AcDbLine
 10
192.9551999999999
 20
133.1939999999999
 30
0.0
 11
196.0310999999999
 21
133.1909999999999
 31
0.0
  0
LINE
  5
512
330
1E
100
AcDbEntity
  8
0
100
AcDbLine
 10
192.2375
 20
133.1939999999999
 30
0.0
 11
192.7502
 21
133.1939999999999
 31
0.0
  0
LINE
  5
513
330
1E
100
AcDbEntity
  8
0
100
AcDbLine
 10
156.2497999999999
 20
133.1939999999999
 30
0.0
 11
192.2375
 21
133.1939999999999
 31
0.0
  0
LINE
  5
514
330
1E
100
AcDbEntity
  8
0
100
AcDbLine
 10
191.9239999999999
 20
92.45869999999996
 30
0.0
 11
193.596
 21
92.88649999999995
 31
0.0
  0
LINE
  5
515
330
1E
100
AcDbEntity
  8
0
100
AcDbLine
 10
189.9879999999999
 20
92.09189999999997
 30
0.0
 11
191.9239999999999
 21
92.45869999999996
 31
0.0
  0
LINE
  5
516
330
1E
100
AcDbEntity
  8
0
100
AcDbLine
 10
187.8759999999999
 20
91.75569999999996
 30
0.0
 11
189.9879999999999
 21
92.09189999999997
 31
0.0
  0
LINE
  5
517
330
1E
100
AcDbEntity
  8
0
100
AcDbLine
 10
192.5
 20
77.97719999999995
 30
0.0
 11
193.0
 21
78.39399999999997
 31
0.0
  0
LINE
  5
518
330
1E
100
AcDbEntity
  8
0
100
AcDbLine
 10
191.6999999999999
 20
77.57779999999996
 30
0.0
 11
192.5
 21
77.97719999999995
 31
0.0
  0
LINE
  5
519
330
1E
100
AcDbEntity
  8
0
100
AcDbLine
 10
190.7
 20
77.19579999999996
 30
0.0
 11
191.6999999999999
 21
77.57779999999996
 31
0.0
  0
LINE
  5
51A
330
1E
100
AcDbEntity
  8
0
100
AcDbLine
 10
189.3
 20
76.84849999999997
 30
0.0
 11
190.7
 21
77.19579999999996
 31
0.0
  0
LINE
  5
51B
330
1E
100
AcDbEntity
  8
0
100
AcDbLine
 10
187.6999999999999
 20
76.51859999999996
 30
0.0
 11
189.3
 21
76.84849999999997
 31
0.0
  0
LINE
  5
51C
330
1E
100
AcDbEntity
  8
0
100
AcDbLine
 10
185.4119999999999
 20
91.46539999999999
 30
0.0
 11
187.8759999999999
 21
91.75569999999996
 31
0.0
  0
LINE
  5
51D
330
1E
100
AcDbEntity
  8
0
100
AcDbLine
 10
182.86
 20
91.26669999999995
 30
0.0
 11
185.4119999999999
 21
91.46539999999999
 31
0.0
  0
LINE
  5
51E
330
1E
100
AcDbEntity
  8
0
100
AcDbLine
 10
180.132
 20
91.09859999999997
 30
0.0
 11
182.86
 21
91.26669999999995
 31
0.0
  0
LINE
  5
51F
330
1E
100
AcDbEntity
  8
0
100
AcDbLine
 10
177.404
 20
91.00699999999994
 30
0.0
 11
180.132
 21
91.09859999999997
 31
0.0
  0
LINE
  5
520
330
1E
100
AcDbEntity
  8
0
100
AcDbLine
 10
174.5
 20
90.96109999999995
 30
0.0
 11
177.404
 21
91.00699999999994
 31
0.0
  0
LINE
  5
521
330
1E
100
AcDbEntity
  8
0
100
AcDbLine
 10
172.5
 20
105.7529999999998
 30
0.0
 11
172.572
 21
105.2599999999999
 31
0.0
  0
LINE
  5
522
330
1E
100
AcDbEntity
  8
0
100
AcDbLine
 10
172.5
 20
105.7529999999998
 30
0.0
 11
172.572
 21
106.2459999999999
 31
0.0
  0
LINE
  5
523
330
1E
100
AcDbEntity
  8
0
100
AcDbLine
 10
172.572
 20
106.2459999999999
 30
0.0
 11
172.764
 21
106.7079999999998
 31
0.0
  0
LINE
  5
524
330
1E
100
AcDbEntity
  8
0
100
AcDbLine
 10
172.764
 20
106.7079999999998
 30
0.0
 11
173.084
 21
107.1169999999998
 31
0.0
  0
LINE
  5
525
330
1E
100
AcDbEntity
  8
0
100
AcDbLine
 10
173.084
 20
107.1169999999998
 30
0.0
 11
173.5079999999999
 21
107.4249999999999
 31
0.0
  0
LINE
  5
526
330
1E
100
AcDbEntity
  8
0
100
AcDbLine
 10
173.5079999999999
 20
107.4249999999999
 30
0.0
 11
173.988
 21
107.6099999999998
 31
0.0
  0
LINE
  5
527
330
1E
100
AcDbEntity
  8
0
100
AcDbLine
 10
173.988
 20
107.6099999999998
 30
0.0
 11
174.5
 21
107.6789999999999
 31
0.0
  0
LINE
  5
528
330
1E
100
AcDbEntity
  8
0
100
AcDbLine
 10
174.5
 20
107.6789999999999
 30
0.0
 11
175.012
 21
107.6099999999998
 31
0.0
  0
LINE
  5
529
330
1E
100
AcDbEntity
  8
0
100
AcDbLine
 10
175.4919999999999
 20
107.4249999999999
 30
0.0
 11
175.916
 21
107.1169999999998
 31
0.0
  0
LINE
  5
52A
330
1E
100
AcDbEntity
  8
0
100
AcDbLine
 10
175.012
 20
107.6099999999998
 30
0.0
 11
175.4919999999999
 21
107.4249999999999
 31
0.0
  0
LINE
  5
52B
330
1E
100
AcDbEntity
  8
0
100
AcDbLine
 10
176.2359999999999
 20
106.7079999999998
 30
0.0
 11
176.428
 21
106.2459999999999
 31
0.0
  0
LINE
  5
52C
330
1E
100
AcDbEntity
  8
0
100
AcDbLine
 10
175.916
 20
107.1169999999998
 30
0.0
 11
176.2359999999999
 21
106.7079999999998
 31
0.0
  0
LINE
  5
52D
330
1E
100
AcDbEntity
  8
0
100
AcDbLine
 10
176.428
 20
106.2459999999999
 30
0.0
 11
176.5
 21
105.7529999999998
 31
0.0
  0
LINE
  5
52E
330
1E
100
AcDbEntity
  8
0
100
AcDbLine
 10
176.428
 20
105.2599999999999
 30
0.0
 11
176.5
 21
105.7529999999998
 31
0.0
  0
LINE
  5
52F
330
1E
100
AcDbEntity
  8
0
100
AcDbLine
 10
176.2359999999999
 20
104.7979999999999
 30
0.0
 11
176.428
 21
105.2599999999999
 31
0.0
  0
LINE
  5
530
330
1E
100
AcDbEntity
  8
0
100
AcDbLine
 10
175.916
 20
104.3899999999998
 30
0.0
 11
176.2359999999999
 21
104.7979999999999
 31
0.0
  0
LINE
  5
531
330
1E
100
AcDbEntity
  8
0
100
AcDbLine
 10
172.572
 20
105.2599999999999
 30
0.0
 11
172.764
 21
104.7979999999999
 31
0.0
  0
LINE
  5
532
330
1E
100
AcDbEntity
  8
0
100
AcDbLine
 10
172.764
 20
104.7979999999999
 30
0.0
 11
173.084
 21
104.3899999999998
 31
0.0
  0
LINE
  5
533
330
1E
100
AcDbEntity
  8
0
100
AcDbLine
 10
175.4919999999999
 20
104.0819999999998
 30
0.0
 11
175.916
 21
104.3899999999998
 31
0.0
  0
LINE
  5
534
330
1E
100
AcDbEntity
  8
0
100
AcDbLine
 10
175.012
 20
103.8969999999998
 30
0.0
 11
175.4919999999999
 21
104.0819999999998
 31
0.0
  0
LINE
  5
535
330
1E
100
AcDbEntity
  8
0
100
AcDbLine
 10
173.084
 20
104.3899999999998
 30
0.0
 11
173.5079999999999
 21
104.0819999999998
 31
0.0
  0
LINE
  5
536
330
1E
100
AcDbEntity
  8
0
100
AcDbLine
 10
173.5079999999999
 20
104.0819999999998
 30
0.0
 11
173.988
 21
103.8969999999998
 31
0.0
  0
LINE
  5
537
330
1E
100
AcDbEntity
  8
0
100
AcDbLine
 10
174.5
 20
103.8269999999998
 30
0.0
 11
175.012
 21
103.8969999999998
 31
0.0
  0
LINE
  5
538
330
1E
100
AcDbEntity
  8
0
100
AcDbLine
 10
173.988
 20
103.8969999999998
 30
0.0
 11
174.5
 21
103.8269999999998
 31
0.0
  0
LINE
  5
539
330
1E
100
AcDbEntity
  8
0
100
AcDbLine
 10
171.596
 20
91.00699999999994
 30
0.0
 11
174.5
 21
90.96109999999995
 31
0.0
  0
LINE
  5
53A
330
1E
100
AcDbEntity
  8
0
100
AcDbLine
 10
187.5
 20
53.73779999999996
 30
0.0
 11
187.5
 21
60.82973333333327
 31
0.0
  0
LINE
  5
53B
330
1E
100
AcDbEntity
  8
0
100
AcDbLine
 10
197.4731
 20
56.44899999999997
 30
0.0
 11
197.8056999999999
 21
45.88369999999996
 31
0.0
  0
LINE
  5
53C
330
1E
100
AcDbEntity
  8
0
100
AcDbLine
 10
197.2814999999999
 20
63.66159999999997
 30
0.0
 11
197.4731
 21
56.44899999999997
 31
0.0
  0
LINE
  5
53D
330
1E
100
AcDbEntity
  8
0
100
AcDbLine
 10
197.8056999999999
 20
45.88369999999996
 30
0.0
 11
199.0
 21
0.193999999999964
 31
0.0
  0
LINE
  5
53E
330
1E
100
AcDbEntity
  8
0
100
AcDbLine
 10
197.8056999999999
 20
45.88369999999996
 30
0.0
 11
199.0
 21
0.193999999999964
 31
0.0
  0
LINE
  5
53F
330
1E
100
AcDbEntity
  8
0
100
AcDbLine
 10
198.8
 20
0.193999999999964
 30
0.0
 11
199.0
 21
0.193999999999964
 31
0.0
  0
LINE
  5
540
330
1E
100
AcDbEntity
  8
0
100
AcDbLine
 10
198.2
 20
0.1939999999999653
 30
0.0
 11
198.8
 21
0.193999999999964
 31
0.0
  0
LINE
  5
541
330
1E
100
AcDbEntity
  8
0
100
AcDbLine
 10
198.2
 20
0.193999999999964
 30
0.0
 11
198.8
 21
0.193999999999964
 31
0.0
  0
LINE
  5
542
330
1E
100
AcDbEntity
  8
0
100
AcDbLine
 10
198.8
 20
0.193999999999964
 30
0.0
 11
199.0
 21
0.193999999999964
 31
0.0
  0
LINE
  5
543
330
1E
100
AcDbEntity
  8
0
100
AcDbLine
 10
197.5
 20
0.1939999999999653
 30
0.0
 11
198.2
 21
0.1939999999999653
 31
0.0
  0
LINE
  5
544
330
1E
100
AcDbEntity
  8
0
100
AcDbLine
 10
195.8
 20
0.1939999999999653
 30
0.0
 11
197.5
 21
0.1939999999999653
 31
0.0
  0
LINE
  5
545
330
1E
100
AcDbEntity
  8
0
100
AcDbLine
 10
194.0
 20
0.1939999999999653
 30
0.0
 11
195.8
 21
0.1939999999999653
 31
0.0
  0
LINE
  5
546
330
1E
100
AcDbEntity
  8
0
100
AcDbLine
 10
194.0
 20
0.1939999999999631
 30
0.0
 11
195.8
 21
0.1939999999999631
 31
0.0
  0
LINE
  5
547
330
1E
100
AcDbEntity
  8
0
100
AcDbLine
 10
195.8
 20
0.1939999999999631
 30
0.0
 11
197.5
 21
0.193999999999964
 31
0.0
  0
LINE
  5
548
330
1E
100
AcDbEntity
  8
0
100
AcDbLine
 10
197.5
 20
0.193999999999964
 30
0.0
 11
198.2
 21
0.193999999999964
 31
0.0
  0
LINE
  5
549
330
1E
100
AcDbEntity
  8
0
100
AcDbLine
 10
191.2791999999999
 20
65.32439999999997
 30
0.0
 11
191.5993999999999
 21
65.56309999999996
 31
0.0
  0
LINE
  5
54A
330
1E
100
AcDbEntity
  8
0
100
AcDbLine
 10
191.5993999999999
 20
65.56309999999996
 30
0.0
 11
192.6200999999999
 21
68.34699999999997
 31
0.0
  0
LINE
  5
54B
330
1E
100
AcDbEntity
  8
0
100
AcDbLine
 10
192.6200999999999
 20
68.34699999999997
 30
0.0
 11
193.6655
 21
71.92409999999995
 31
0.0
  0
LINE
  5
54C
330
1E
100
AcDbEntity
  8
0
100
AcDbLine
 10
189.7982
 20
62.99459999999997
 30
0.0
 11
191.2791999999999
 21
65.32439999999997
 31
0.0
  0
LINE
  5
54D
330
1E
100
AcDbEntity
  8
0
100
AcDbLine
 10
191.8
 20
0.1939999999999653
 30
0.0
 11
194.0
 21
0.1939999999999653
 31
0.0
  0
LINE
  5
54E
330
1E
100
AcDbEntity
  8
0
100
AcDbLine
 10
191.8
 20
0.1939999999999631
 30
0.0
 11
194.0
 21
0.1939999999999631
 31
0.0
  0
LINE
  5
54F
330
1E
100
AcDbEntity
  8
0
100
AcDbLine
 10
188.1370999999999
 20
60.63299999999996
 30
0.0
 11
189.7982
 21
62.99459999999997
 31
0.0
  0
LINE
  5
550
330
1E
100
AcDbEntity
  8
0
100
AcDbLine
 10
189.3999999999999
 20
0.1939999999999653
 30
0.0
 11
191.8
 21
0.1939999999999653
 31
0.0
  0
LINE
  5
551
330
1E
100
AcDbEntity
  8
0
100
AcDbLine
 10
189.3999999999999
 20
0.1939999999999631
 30
0.0
 11
191.8
 21
0.1939999999999631
 31
0.0
  0
LINE
  5
552
330
1E
100
AcDbEntity
  8
0
100
AcDbLine
 10
186.72
 20
54.57849999999996
 30
0.0
 11
187.1879999999999
 21
53.19399999999997
 31
0.0
  0
LINE
  5
553
330
1E
100
AcDbEntity
  8
0
100
AcDbLine
 10
185.472
 20
55.85309999999997
 30
0.0
 11
186.72
 21
54.57849999999996
 31
0.0
  0
LINE
  5
554
330
1E
100
AcDbEntity
  8
0
100
AcDbLine
 10
187.5
 20
60.82973333333327
 30
0.0
 11
187.5
 21
53.73779999999996
 31
0.0
  0
LINE
  5
555
330
1E
100
AcDbEntity
  8
0
100
AcDbLine
 10
187.5
 20
60.06752599933377
 30
0.0
 11
188.1370999999999
 21
60.63299999999996
 31
0.0
  0
LINE
  5
556
330
1E
100
AcDbEntity
  8
0
100
AcDbLine
 10
183.444
 20
56.97389999999995
 30
0.0
 11
185.472
 21
55.85309999999997
 31
0.0
  0
LINE
  5
557
330
1E
100
AcDbEntity
  8
0
100
AcDbLine
 10
180.792
 20
57.83099999999997
 30
0.0
 11
183.444
 21
56.97389999999995
 31
0.0
  0
LINE
  5
558
330
1E
100
AcDbEntity
  8
0
100
AcDbLine
 10
177.776
 20
58.35839999999997
 30
0.0
 11
180.792
 21
57.83099999999997
 31
0.0
  0
LINE
  5
559
330
1E
100
AcDbEntity
  8
0
100
AcDbLine
 10
174.5
 20
58.55619999999997
 30
0.0
 11
177.776
 21
58.35839999999997
 31
0.0
  0
LINE
  5
55A
330
1E
100
AcDbEntity
  8
0
100
AcDbLine
 10
176.8999999999999
 20
75.59819999999996
 30
0.0
 11
179.3
 21
75.68509999999998
 31
0.0
  0
LINE
  5
55B
330
1E
100
AcDbEntity
  8
0
100
AcDbLine
 10
174.5
 20
75.56349999999998
 30
0.0
 11
176.8999999999999
 21
75.59819999999996
 31
0.0
  0
LINE
  5
55C
330
1E
100
AcDbEntity
  8
0
100
AcDbLine
 10
187.0319999999999
 20
52.33129999999997
 30
0.0
 11
187.5
 21
53.73779999999996
 31
0.0
  0
LINE
  5
55D
330
1E
100
AcDbEntity
  8
0
100
AcDbLine
 10
186.72
 20
51.80949999999996
 30
0.0
 11
187.0319999999999
 21
52.33129999999997
 31
0.0
  0
LINE
  5
55E
330
1E
100
AcDbEntity
  8
0
100
AcDbLine
 10
186.72
 20
51.80949999999996
 30
0.0
 11
187.1879999999999
 21
53.19399999999997
 31
0.0
  0
LINE
  5
55F
330
1E
100
AcDbEntity
  8
0
100
AcDbLine
 10
185.472
 20
50.53489999999996
 30
0.0
 11
186.72
 21
51.80949999999996
 31
0.0
  0
LINE
  5
560
330
1E
100
AcDbEntity
  8
0
100
AcDbLine
 10
186.8
 20
0.1939999999999662
 30
0.0
 11
189.3999999999999
 21
0.1939999999999653
 31
0.0
  0
LINE
  5
561
330
1E
100
AcDbEntity
  8
0
100
AcDbLine
 10
186.8
 20
0.1939999999999631
 30
0.0
 11
189.3999999999999
 21
0.1939999999999631
 31
0.0
  0
LINE
  5
562
330
1E
100
AcDbEntity
  8
0
100
AcDbLine
 10
183.444
 20
49.41409999999997
 30
0.0
 11
185.472
 21
50.53489999999996
 31
0.0
  0
LINE
  5
563
330
1E
100
AcDbEntity
  8
0
100
AcDbLine
 10
180.792
 20
48.55699999999996
 30
0.0
 11
183.444
 21
49.41409999999997
 31
0.0
  0
LINE
  5
564
330
1E
100
AcDbEntity
  8
0
100
AcDbLine
 10
183.8999999999999
 20
0.1939999999999662
 30
0.0
 11
186.8
 21
0.1939999999999662
 31
0.0
  0
LINE
  5
565
330
1E
100
AcDbEntity
  8
0
100
AcDbLine
 10
180.8999999999999
 20
0.1939999999999662
 30
0.0
 11
183.8999999999999
 21
0.1939999999999662
 31
0.0
  0
LINE
  5
566
330
1E
100
AcDbEntity
  8
0
100
AcDbLine
 10
180.8999999999999
 20
0.1939999999999631
 30
0.0
 11
183.8999999999999
 21
0.1939999999999631
 31
0.0
  0
LINE
  5
567
330
1E
100
AcDbEntity
  8
0
100
AcDbLine
 10
183.8999999999999
 20
0.1939999999999631
 30
0.0
 11
186.8
 21
0.1939999999999631
 31
0.0
  0
LINE
  5
568
330
1E
100
AcDbEntity
  8
0
100
AcDbLine
 10
177.776
 20
48.02959999999996
 30
0.0
 11
180.792
 21
48.55699999999996
 31
0.0
  0
LINE
  5
569
330
1E
100
AcDbEntity
  8
0
100
AcDbLine
 10
174.5
 20
47.83179999999997
 30
0.0
 11
177.776
 21
48.02959999999996
 31
0.0
  0
LINE
  5
56A
330
1E
100
AcDbEntity
  8
0
100
AcDbLine
 10
177.6999999999999
 20
0.1939999999999662
 30
0.0
 11
180.8999999999999
 21
0.1939999999999662
 31
0.0
  0
LINE
  5
56B
330
1E
100
AcDbEntity
  8
0
100
AcDbLine
 10
177.6999999999999
 20
0.1939999999999631
 30
0.0
 11
180.8999999999999
 21
0.1939999999999631
 31
0.0
  0
LINE
  5
56C
330
1E
100
AcDbEntity
  8
0
100
AcDbLine
 10
174.5
 20
0.1939999999999662
 30
0.0
 11
177.6999999999999
 21
0.1939999999999662
 31
0.0
  0
LINE
  5
56D
330
1E
100
AcDbEntity
  8
0
100
AcDbLine
 10
174.5
 20
0.1939999999999631
 30
0.0
 11
177.6999999999999
 21
0.1939999999999631
 31
0.0
  0
LINE
  5
56E
330
1E
100
AcDbEntity
  8
0
100
AcDbLine
 10
168.1
 20
0.1939999999999631
 30
0.0
 11
171.3
 21
0.1939999999999631
 31
0.0
  0
LINE
  5
56F
330
1E
100
AcDbEntity
  8
0
100
AcDbLine
 10
165.0999999999999
 20
0.1939999999999631
 30
0.0
 11
168.1
 21
0.1939999999999631
 31
0.0
  0
LINE
  5
570
330
1E
100
AcDbEntity
  8
0
100
AcDbLine
 10
169.6999999999999
 20
75.68509999999998
 30
0.0
 11
172.1
 21
75.59819999999996
 31
0.0
  0
LINE
  5
571
330
1E
100
AcDbEntity
  8
0
100
AcDbLine
 10
167.3999999999999
 20
75.82399999999996
 30
0.0
 11
169.6999999999999
 21
75.68509999999998
 31
0.0
  0
LINE
  5
572
330
1E
100
AcDbEntity
  8
0
100
AcDbLine
 10
168.8679999999999
 20
91.09859999999997
 30
0.0
 11
171.596
 21
91.00699999999994
 31
0.0
  0
LINE
  5
573
330
1E
100
AcDbEntity
  8
0
100
AcDbLine
 10
165.1999999999999
 20
75.99759999999998
 30
0.0
 11
167.3999999999999
 21
75.82399999999996
 31
0.0
  0
LINE
  5
574
330
1E
100
AcDbEntity
  8
0
100
AcDbLine
 10
166.1399999999999
 20
91.26669999999995
 30
0.0
 11
168.8679999999999
 21
91.09859999999997
 31
0.0
  0
LINE
  5
575
330
1E
100
AcDbEntity
  8
0
100
AcDbLine
 10
167.0154
 20
129.4609999999998
 30
0.0
 11
169.4760999999999
 21
129.3239999999999
 31
0.0
  0
LINE
  5
576
330
1E
100
AcDbEntity
  8
0
100
AcDbLine
 10
165.5559999999999
 20
56.97389999999995
 30
0.0
 11
168.2079999999999
 21
57.83099999999997
 31
0.0
  0
LINE
  5
577
330
1E
100
AcDbEntity
  8
0
100
AcDbLine
 10
168.2079999999999
 20
57.83099999999997
 30
0.0
 11
171.2239999999999
 21
58.35839999999997
 31
0.0
  0
LINE
  5
578
330
1E
100
AcDbEntity
  8
0
100
AcDbLine
 10
171.2239999999999
 20
58.35839999999997
 30
0.0
 11
174.5
 21
58.55619999999997
 31
0.0
  0
LINE
  5
579
330
1E
100
AcDbEntity
  8
0
100
AcDbLine
 10
168.2079999999999
 20
48.55699999999996
 30
0.0
 11
171.2239999999999
 21
48.02959999999996
 31
0.0
  0
LINE
  5
57A
330
1E
100
AcDbEntity
  8
0
100
AcDbLine
 10
171.2239999999999
 20
48.02959999999996
 30
0.0
 11
174.5
 21
47.83179999999997
 31
0.0
  0
LINE
  5
57B
330
1E
100
AcDbEntity
  8
0
100
AcDbLine
 10
171.3
 20
0.1939999999999662
 30
0.0
 11
174.5
 21
0.1939999999999662
 31
0.0
  0
LINE
  5
57C
330
1E
100
AcDbEntity
  8
0
100
AcDbLine
 10
168.1
 20
0.1939999999999662
 30
0.0
 11
171.3
 21
0.1939999999999662
 31
0.0
  0
LINE
  5
57D
330
1E
100
AcDbEntity
  8
0
100
AcDbLine
 10
165.5559999999999
 20
49.41409999999997
 30
0.0
 11
168.2079999999999
 21
48.55699999999996
 31
0.0
  0
LINE
  5
57E
330
1E
100
AcDbEntity
  8
0
100
AcDbLine
 10
162.1999999999999
 20
0.1939999999999631
 30
0.0
 11
165.0999999999999
 21
0.1939999999999631
 31
0.0
  0
LINE
  5
57F
330
1E
100
AcDbEntity
  8
0
100
AcDbLine
 10
159.6
 20
0.1939999999999631
 30
0.0
 11
162.1999999999999
 21
0.1939999999999631
 31
0.0
  0
LINE
  5
580
330
1E
100
AcDbEntity
  8
0
100
AcDbLine
 10
163.1999999999999
 20
76.24069999999997
 30
0.0
 11
165.1999999999999
 21
75.99759999999998
 31
0.0
  0
LINE
  5
581
330
1E
100
AcDbEntity
  8
0
100
AcDbLine
 10
161.3
 20
76.51859999999996
 30
0.0
 11
163.1999999999999
 21
76.24069999999997
 31
0.0
  0
LINE
  5
582
330
1E
100
AcDbEntity
  8
0
100
AcDbLine
 10
163.588
 20
91.46539999999999
 30
0.0
 11
166.1399999999999
 21
91.26669999999995
 31
0.0
  0
LINE
  5
583
330
1E
100
AcDbEntity
  8
0
100
AcDbLine
 10
164.7597999999999
 20
129.6319999999998
 30
0.0
 11
167.0154
 21
129.4609999999998
 31
0.0
  0
LINE
  5
584
330
1E
100
AcDbEntity
  8
0
100
AcDbLine
 10
159.6999999999999
 20
76.84849999999997
 30
0.0
 11
161.3
 21
76.51859999999996
 31
0.0
  0
LINE
  5
585
330
1E
100
AcDbEntity
  8
0
100
AcDbLine
 10
161.124
 20
91.75569999999996
 30
0.0
 11
163.588
 21
91.46539999999999
 31
0.0
  0
LINE
  5
586
330
1E
100
AcDbEntity
  8
0
100
AcDbLine
 10
161.5
 20
60.82973333333327
 30
0.0
 11
161.5
 21
53.73779999999996
 31
0.0
  0
LINE
  5
587
330
1E
100
AcDbEntity
  8
0
100
AcDbLine
 10
161.812
 20
53.19399999999997
 30
0.0
 11
162.2799999999999
 21
51.80949999999996
 31
0.0
  0
LINE
  5
588
330
1E
100
AcDbEntity
  8
0
100
AcDbLine
 10
161.812
 20
53.19399999999997
 30
0.0
 11
162.2799999999999
 21
54.57849999999996
 31
0.0
  0
LINE
  5
589
330
1E
100
AcDbEntity
  8
0
100
AcDbLine
 10
162.2799999999999
 20
54.57849999999996
 30
0.0
 11
163.528
 21
55.85309999999997
 31
0.0
  0
LINE
  5
58A
330
1E
100
AcDbEntity
  8
0
100
AcDbLine
 10
163.528
 20
55.85309999999997
 30
0.0
 11
165.5559999999999
 21
56.97389999999995
 31
0.0
  0
LINE
  5
58B
330
1E
100
AcDbEntity
  8
0
100
AcDbLine
 10
161.968
 20
52.33129999999997
 30
0.0
 11
162.2799999999999
 21
51.80949999999996
 31
0.0
  0
LINE
  5
58C
330
1E
100
AcDbEntity
  8
0
100
AcDbLine
 10
162.2799999999999
 20
51.80949999999996
 30
0.0
 11
163.528
 21
50.53489999999996
 31
0.0
  0
LINE
  5
58D
330
1E
100
AcDbEntity
  8
0
100
AcDbLine
 10
163.528
 20
50.53489999999996
 30
0.0
 11
165.5559999999999
 21
49.41409999999997
 31
0.0
  0
LINE
  5
58E
330
1E
100
AcDbEntity
  8
0
100
AcDbLine
 10
165.0999999999999
 20
0.1939999999999662
 30
0.0
 11
168.1
 21
0.1939999999999662
 31
0.0
  0
LINE
  5
58F
330
1E
100
AcDbEntity
  8
0
100
AcDbLine
 10
162.1999999999999
 20
0.1939999999999662
 30
0.0
 11
165.0999999999999
 21
0.1939999999999662
 31
0.0
  0
LINE
  5
590
330
1E
100
AcDbEntity
  8
0
100
AcDbLine
 10
161.5
 20
53.73779999999996
 30
0.0
 11
161.5
 21
60.82973333333327
 31
0.0
  0
LINE
  5
591
330
1E
100
AcDbEntity
  8
0
100
AcDbLine
 10
161.5
 20
53.73779999999996
 30
0.0
 11
161.968
 21
52.33129999999997
 31
0.0
  0
LINE
  5
592
330
1E
100
AcDbEntity
  8
0
100
AcDbLine
 10
160.8628999999999
 20
60.63299999999996
 30
0.0
 11
161.5
 21
60.06752599933377
 31
0.0
  0
LINE
  5
593
330
1E
100
AcDbEntity
  8
0
100
AcDbLine
 10
157.1999999999999
 20
0.1939999999999631
 30
0.0
 11
159.6
 21
0.1939999999999631
 31
0.0
  0
LINE
  5
594
330
1E
100
AcDbEntity
  8
0
100
AcDbLine
 10
150.0
 20
0.193999999999964
 30
0.0
 11
151.19429
 21
45.88369999999996
 31
0.0
  0
LINE
  5
595
330
1E
100
AcDbEntity
  8
0
100
AcDbLine
 10
150.0
 20
0.193999999999964
 30
0.0
 11
150.2
 21
0.193999999999964
 31
0.0
  0
LINE
  5
596
330
1E
100
AcDbEntity
  8
0
100
AcDbLine
 10
150.0
 20
0.193999999999964
 30
0.0
 11
150.2
 21
0.193999999999964
 31
0.0
  0
LINE
  5
597
330
1E
100
AcDbEntity
  8
0
100
AcDbLine
 10
150.2
 20
0.193999999999964
 30
0.0
 11
150.8
 21
0.193999999999964
 31
0.0
  0
LINE
  5
598
330
1E
100
AcDbEntity
  8
0
100
AcDbLine
 10
152.8
 20
93.07829999999995
 30
0.0
 11
155.8
 21
78.81069999999997
 31
0.0
  0
LINE
  5
599
330
1E
100
AcDbEntity
  8
0
100
AcDbLine
 10
152.8
 20
93.07829999999995
 30
0.0
 11
153.0
 21
93.56449999999998
 31
0.0
  0
LINE
  5
59A
330
1E
100
AcDbEntity
  8
0
100
AcDbLine
 10
153.0
 20
93.56449999999998
 30
0.0
 11
153.2679083303549
 21
93.82501406043719
 31
0.0
  0
LINE
  5
59B
330
1E
100
AcDbEntity
  8
0
100
AcDbLine
 10
156.0448
 20
133.1939999999999
 30
0.0
 11
156.2497999999999
 21
133.1939999999999
 31
0.0
  0
LINE
  5
59C
330
1E
100
AcDbEntity
  8
0
100
AcDbLine
 10
152.9688999999999
 20
133.1909999999999
 30
0.0
 11
156.0448
 21
133.1939999999999
 31
0.0
  0
LINE
  5
59D
330
1E
100
AcDbEntity
  8
0
100
AcDbLine
 10
153.292
 20
93.80339999999995
 30
0.0
 11
154.26
 21
93.32969999999997
 31
0.0
  0
LINE
  5
59E
330
1E
100
AcDbEntity
  8
0
100
AcDbLine
 10
153.5
 20
93.70161322314046
 30
0.0
 11
153.5
 21
93.29079999999995
 31
0.0
  0
LINE
  5
59F
330
1E
100
AcDbEntity
  8
0
100
AcDbLine
 10
155.8
 20
78.81069999999997
 30
0.0
 11
156.0
 21
78.39399999999997
 31
0.0
  0
LINE
  5
5A0
330
1E
100
AcDbEntity
  8
0
100
AcDbLine
 10
156.0
 20
78.39399999999997
 30
0.0
 11
156.4999999999999
 21
77.97719999999995
 31
0.0
  0
LINE
  5
5A1
330
1E
100
AcDbEntity
  8
0
100
AcDbLine
 10
157.0759999999999
 20
92.45869999999996
 30
0.0
 11
159.0119999999999
 21
92.09189999999997
 31
0.0
  0
LINE
  5
5A2
330
1E
100
AcDbEntity
  8
0
100
AcDbLine
 10
159.0119999999999
 20
92.09189999999997
 30
0.0
 11
161.124
 21
91.75569999999996
 31
0.0
  0
LINE
  5
5A3
330
1E
100
AcDbEntity
  8
0
100
AcDbLine
 10
156.4999999999999
 20
77.97719999999995
 30
0.0
 11
157.3
 21
77.57779999999996
 31
0.0
  0
LINE
  5
5A4
330
1E
100
AcDbEntity
  8
0
100
AcDbLine
 10
157.3
 20
77.57779999999996
 30
0.0
 11
158.3
 21
77.19579999999996
 31
0.0
  0
LINE
  5
5A5
330
1E
100
AcDbEntity
  8
0
100
AcDbLine
 10
158.3
 20
77.19579999999996
 30
0.0
 11
159.6999999999999
 21
76.84849999999997
 31
0.0
  0
LINE
  5
5A6
330
1E
100
AcDbEntity
  8
0
100
AcDbLine
 10
159.6
 20
0.1939999999999653
 30
0.0
 11
162.1999999999999
 21
0.1939999999999662
 31
0.0
  0
LINE
  5
5A7
330
1E
100
AcDbEntity
  8
0
100
AcDbLine
 10
159.20177
 20
62.99459999999997
 30
0.0
 11
160.8628999999999
 21
60.63299999999996
 31
0.0
  0
LINE
  5
5A8
330
1E
100
AcDbEntity
  8
0
100
AcDbLine
 10
157.1999999999999
 20
0.1939999999999653
 30
0.0
 11
159.6
 21
0.1939999999999653
 31
0.0
  0
LINE
  5
5A9
330
1E
100
AcDbEntity
  8
0
100
AcDbLine
 10
157.72077
 20
65.32439999999997
 30
0.0
 11
159.20177
 21
62.99459999999997
 31
0.0
  0
LINE
  5
5AA
330
1E
100
AcDbEntity
  8
0
100
AcDbLine
 10
157.40055
 20
65.56309999999996
 30
0.0
 11
157.72077
 21
65.32439999999997
 31
0.0
  0
LINE
  5
5AB
330
1E
100
AcDbEntity
  8
0
100
AcDbLine
 10
156.37986
 20
68.34699999999997
 30
0.0
 11
157.40055
 21
65.56309999999996
 31
0.0
  0
LINE
  5
5AC
330
1E
100
AcDbEntity
  8
0
100
AcDbLine
 10
153.2
 20
0.1939999999999653
 30
0.0
 11
155.0
 21
0.1939999999999653
 31
0.0
  0
LINE
  5
5AD
330
1E
100
AcDbEntity
  8
0
100
AcDbLine
 10
155.0
 20
0.1939999999999653
 30
0.0
 11
157.1999999999999
 21
0.1939999999999653
 31
0.0
  0
LINE
  5
5AE
330
1E
100
AcDbEntity
  8
0
100
AcDbLine
 10
155.3345399999999
 20
71.92409999999995
 30
0.0
 11
156.37986
 21
68.34699999999997
 31
0.0
  0
LINE
  5
5AF
330
1E
100
AcDbEntity
  8
0
100
AcDbLine
 10
155.404
 20
92.88649999999995
 30
0.0
 11
157.0759999999999
 21
92.45869999999996
 31
0.0
  0
LINE
  5
5B0
330
1E
100
AcDbEntity
  8
0
100
AcDbLine
 10
154.26
 20
93.32969999999997
 30
0.0
 11
155.404
 21
92.88649999999995
 31
0.0
  0
LINE
  5
5B1
330
1E
100
AcDbEntity
  8
0
100
AcDbLine
 10
153.5
 20
93.29079999999995
 30
0.0
 11
153.5
 21
93.70161322314046
 31
0.0
  0
LINE
  5
5B2
330
1E
100
AcDbEntity
  8
0
100
AcDbLine
 10
152.5
 20
92.38889999999997
 30
0.0
 11
152.6999999999999
 21
92.89249999999995
 31
0.0
  0
LINE
  5
5B3
330
1E
100
AcDbEntity
  8
0
100
AcDbLine
 10
152.6999999999999
 20
92.89249999999995
 30
0.0
 11
153.0
 21
93.56449999999998
 31
0.0
  0
LINE
  5
5B4
330
1E
100
AcDbEntity
  8
0
100
AcDbLine
 10
152.764
 20
94.27709999999995
 30
0.0
 11
153.292
 21
93.80339999999995
 31
0.0
  0
LINE
  5
5B5
330
1E
100
AcDbEntity
  8
0
100
AcDbLine
 10
151.9435999999999
 20
132.9989999999999
 30
0.0
 11
152.02951
 21
128.7819999999998
 31
0.0
  0
LINE
  5
5B6
330
1E
100
AcDbEntity
  8
0
100
AcDbLine
 10
151.9435999999999
 20
132.9989999999999
 30
0.0
 11
152.2512
 21
133.1339999999999
 31
0.0
  0
LINE
  5
5B7
330
1E
100
AcDbEntity
  8
0
100
AcDbLine
 10
152.2512
 20
133.1339999999999
 30
0.0
 11
152.9688999999999
 21
133.1909999999999
 31
0.0
  0
LINE
  5
5B8
330
1E
100
AcDbEntity
  8
0
100
AcDbLine
 10
152.5
 20
94.78139999999996
 30
0.0
 11
152.764
 21
94.27709999999995
 31
0.0
  0
LINE
  5
5B9
330
1E
100
AcDbEntity
  8
0
100
AcDbLine
 10
152.1273799999999
 20
123.8789999999998
 30
0.0
 11
152.5
 21
94.78139999999996
 31
0.0
  0
LINE
  5
5BA
330
1E
100
AcDbEntity
  8
0
100
AcDbLine
 10
152.11107
 20
125.9939999999998
 30
0.0
 11
152.1273799999999
 21
123.8789999999998
 31
0.0
  0
LINE
  5
5BB
330
1E
100
AcDbEntity
  8
0
100
AcDbLine
 10
152.0474874978295
 20
128.6535535182658
 30
0.0
 11
152.11107
 21
125.9939999999998
 31
0.0
  0
LINE
  5
5BC
330
1E
100
AcDbEntity
  8
0
100
AcDbLine
 10
150.2
 20
0.193999999999964
 30
0.0
 11
150.8
 21
0.1939999999999653
 31
0.0
  0
LINE
  5
5BD
330
1E
100
AcDbEntity
  8
0
100
AcDbLine
 10
150.8
 20
0.1939999999999653
 30
0.0
 11
151.5
 21
0.1939999999999653
 31
0.0
  0
LINE
  5
5BE
330
1E
100
AcDbEntity
  8
0
100
AcDbLine
 10
151.5
 20
0.1939999999999653
 30
0.0
 11
153.2
 21
0.1939999999999653
 31
0.0
  0
LINE
  5
5BF
330
1E
100
AcDbEntity
  8
0
100
AcDbLine
 10
151.5269099999999
 20
56.44899999999997
 30
0.0
 11
151.71848
 21
63.66159999999997
 31
0.0
  0
LINE
  5
5C0
330
1E
100
AcDbEntity
  8
0
100
AcDbLine
 10
151.71848
 20
63.66159999999997
 30
0.0
 11
152.5
 21
92.38889999999997
 31
0.0
  0
LINE
  5
5C1
330
1E
100
AcDbEntity
  8
0
100
AcDbLine
 10
151.19429
 20
45.88369999999996
 30
0.0
 11
151.5269099999999
 21
56.44899999999997
 31
0.0
  0
LINE
  5
5C2
330
1E
100
AcDbEntity
  8
0
100
AcDbLine
 10
150.2
 20
0.193999999999964
 30
0.0
 11
150.8
 21
0.1939999999999653
 31
0.0
  0
LINE
  5
5C3
330
1E
100
AcDbEntity
  8
0
100
AcDbLine
 10
150.8
 20
0.193999999999964
 30
0.0
 11
151.5
 21
0.193999999999964
 31
0.0
  0
LINE
  5
5C4
330
1E
100
AcDbEntity
  8
0
100
AcDbLine
 10
151.5
 20
0.193999999999964
 30
0.0
 11
153.2
 21
0.1939999999999631
 31
0.0
  0
LINE
  5
5C5
330
1E
100
AcDbEntity
  8
0
100
AcDbLine
 10
153.2
 20
0.1939999999999631
 30
0.0
 11
155.0
 21
0.1939999999999631
 31
0.0
  0
LINE
  5
5C6
330
1E
100
AcDbEntity
  8
0
100
AcDbLine
 10
155.0
 20
0.1939999999999631
 30
0.0
 11
157.1999999999999
 21
0.1939999999999631
 31
0.0
  0
LINE
  5
5C7
330
1E
100
AcDbEntity
  8
0
100
AcDbLine
 10
150.2
 20
0.193999999999964
 30
0.0
 11
150.8
 21
0.193999999999964
 31
0.0
  0
LINE
  5
5C8
330
1E
100
AcDbEntity
  8
0
100
AcDbLine
 10
150.0
 20
0.193999999999964
 30
0.0
 11
151.19429
 21
45.88369999999996
 31
0.0
  0
LINE
  5
7D0
330
1E
100
AcDbEntity
  8
0
100
AcDbLine
 10
8.0
 20
174.359
 30
0.0
 11
8.0
 21
140.772
 31
0.0
  0
LINE
  5
7D1
330
1E
100
AcDbEntity
  8
0
100
AcDbLine
 10
32.0
 20
174.359
 30
0.0
 11
32.0
 21
140.772
 31
0.0
  0
LINE
  5
7D2
330
1E
100
AcDbEntity
  8
0
100
AcDbLine
 10
32.0
 20
140.772
 30
0.0
 11
32.0
 21
174.359
 31
0.0
  0
LINE
  5
7D3
330
1E
100
AcDbEntity
  8
0
100
AcDbLine
 10
8.0
 20
140.772
 30
0.0
 11
8.0
 21
174.359
 31
0.0
  0
LINE
  5
7D4
330
1E
100
AcDbEntity
  8
0
100
AcDbLine
 10
12.03159999999999
 20
77.70019999999999
 30
0.0
 11
12.05969999999999
 21
54.703
 31
0.0
  0
LINE
  5
7D5
330
1E
100
AcDbEntity
  8
0
100
AcDbLine
 10
28.0306
 20
77.7092
 30
0.0
 11
28.0596
 21
54.702
 31
0.0
  0
LINE
  5
7D6
330
1E
100
AcDbEntity
  8
0
100
AcDbLine
 10
20.0077
 20
21.699
 30
0.0
 11
23.1127
 21
21.701
 31
0.0
  0
LINE
  5
7D7
330
1E
100
AcDbEntity
  8
0
100
AcDbLine
 10
12.05969999999999
 20
54.703
 30
0.0
 11
12.07559999999999
 21
21.70199999999999
 31
0.0
  0
LINE
  5
7D8
330
1E
100
AcDbEntity
  8
0
100
AcDbLine
 10
12.64979999999999
 20
21.697
 30
0.0
 11
14.42759999999999
 21
21.703
 31
0.0
  0
LINE
  5
7D9
330
1E
100
AcDbEntity
  8
0
100
AcDbLine
 10
12.886317052658
 20
21.6977982350748
 30
0.0
 11
14.5237
 21
21.69599999999999
 31
0.0
  0
LINE
  5
7DA
330
1E
100
AcDbEntity
  8
0
100
AcDbLine
 10
12.07559999999999
 20
21.70199999999999
 30
0.0
 11
12.64979999999999
 21
21.697
 31
0.0
  0
LINE
  5
7DB
330
1E
100
AcDbEntity
  8
0
100
AcDbLine
 10
16.91259999999999
 20
21.69799999999999
 30
0.0
 11
20.0077
 21
21.699
 31
0.0
  0
LINE
  5
7DC
330
1E
100
AcDbEntity
  8
0
100
AcDbLine
 10
14.42759999999999
 20
21.703
 30
0.0
 11
16.91259999999999
 21
21.69799999999999
 31
0.0
  0
LINE
  5
7DD
330
1E
100
AcDbEntity
  8
0
100
AcDbLine
 10
14.5237
 20
21.69599999999999
 30
0.0
 11
16.0714521375301
 21
21.6996924504275
 31
0.0
  0
LINE
  5
7DE
330
1E
100
AcDbEntity
  8
0
100
AcDbLine
 10
28.0596
 20
54.702
 30
0.0
 11
28.0758
 21
21.701
 31
0.0
  0
LINE
  5
7DF
330
1E
100
AcDbEntity
  8
0
100
AcDbLine
 10
23.1127
 20
21.701
 30
0.0
 11
25.6277
 21
21.697
 31
0.0
  0
LINE
  5
7E0
330
1E
100
AcDbEntity
  8
0
100
AcDbLine
 10
27.4488
 20
21.694
 30
0.0
 11
28.0758
 21
21.701
 31
0.0
  0
LINE
  5
7E1
330
1E
100
AcDbEntity
  8
0
100
AcDbLine
 10
25.6277
 20
21.697
 30
0.0
 11
27.4488
 21
21.694
 31
0.0
  0
LINE
  5
7E2
330
1E
100
AcDbEntity
  8
0
100
AcDbLine
 10
5.0
 20
147.608
 30
0.0
 11
8.0
 21
147.608
 31
0.0
  0
LINE
  5
7E3
330
1E
100
AcDbEntity
  8
0
100
AcDbLine
 10
5.0
 20
147.608
 30
0.0
 11
8.0
 21
147.608
 31
0.0
  0
LINE
  5
7E4
330
1E
100
AcDbEntity
  8
0
100
AcDbLine
 10
5.688999999999992
 20
136.857
 30
0.0
 11
6.5715
 21
136.495
 31
0.0
  0
LINE
  5
7E5
330
1E
100
AcDbEntity
  8
0
100
AcDbLine
 10
6.068100000000001
 20
90.42579999999999
 30
0.0
 11
7.087900000000004
 21
89.9657
 31
0.0
  0
LINE
  5
7E6
330
1E
100
AcDbEntity
  8
0
100
AcDbLine
 10
5.0
 20
147.608
 30
0.0
 11
5.0
 21
97.60229999999999
 31
0.0
  0
LINE
  5
7E7
330
1E
100
AcDbEntity
  8
0
100
AcDbLine
 10
5.0
 20
137.5739999999999
 30
0.0
 11
5.0
 21
97.60229999999999
 31
0.0
  0
LINE
  5
7E8
330
1E
100
AcDbEntity
  8
0
100
AcDbLine
 10
5.0
 20
97.60229999999999
 30
0.0
 11
5.0
 21
147.608
 31
0.0
  0
LINE
  5
7E9
330
1E
100
AcDbEntity
  8
0
100
AcDbLine
 10
5.0
 20
97.60229999999999
 30
0.0
 11
5.0
 21
137.5739999999999
 31
0.0
  0
LINE
  5
7EA
330
1E
100
AcDbEntity
  8
0
100
AcDbLine
 10
5.0
 20
97.60229999999999
 30
0.0
 11
5.0
 21
91.3391
 31
0.0
  0
LINE
  5
7EB
330
1E
100
AcDbEntity
  8
0
100
AcDbLine
 10
5.0
 20
91.3391
 30
0.0
 11
5.147599999999997
 21
91.09219999999998
 31
0.0
  0
LINE
  5
7EC
330
1E
100
AcDbEntity
  8
0
100
AcDbLine
 10
5.147599999999997
 20
91.09219999999998
 30
0.0
 11
5.440200000000004
 21
90.82460000000001
 31
0.0
  0
LINE
  5
7ED
330
1E
100
AcDbEntity
  8
0
100
AcDbLine
 10
5.440200000000004
 20
90.82460000000001
 30
0.0
 11
6.068100000000001
 21
90.42579999999999
 31
0.0
  0
LINE
  5
7EE
330
1E
100
AcDbEntity
  8
0
100
AcDbLine
 10
5.0
 20
147.608
 30
0.0
 11
5.0
 21
137.5739999999999
 31
0.0
  0
LINE
  5
7EF
330
1E
100
AcDbEntity
  8
0
100
AcDbLine
 10
5.0
 20
137.5739999999999
 30
0.0
 11
5.0
 21
147.608
 31
0.0
  0
LINE
  5
7F0
330
1E
100
AcDbEntity
  8
0
100
AcDbLine
 10
5.116100000000002
 20
137.335
 30
0.0
 11
5.688999999999992
 21
136.857
 31
0.0
  0
LINE
  5
7F1
330
1E
100
AcDbEntity
  8
0
100
AcDbLine
 10
5.0
 20
137.5739999999999
 30
0.0
 11
5.116100000000002
 21
137.335
 31
0.0
  0
LINE
  5
7F2
330
1E
100
AcDbEntity
  8
0
100
AcDbLine
 10
35.0
 20
137.5739999999999
 30
0.0
 11
35.0
 21
97.60229999999999
 31
0.0
  0
LINE
  5
7F3
330
1E
100
AcDbEntity
  8
0
100
AcDbLine
 10
31.4795
 20
136.024
 30
0.0
 11
31.5039
 21
89.60779999999999
 31
0.0
  0
LINE
  5
7F4
330
1E
100
AcDbEntity
  8
0
100
AcDbLine
 10
10.7166
 20
136.233
 30
0.0
 11
10.8272
 21
89.83369999999998
 31
0.0
  0
LINE
  5
7F5
330
1E
100
AcDbEntity
  8
0
100
AcDbLine
 10
11.98969999999999
 20
102.497
 30
0.0
 11
12.03159999999999
 21
77.70019999999999
 31
0.0
  0
LINE
  5
7F6
330
1E
100
AcDbEntity
  8
0
100
AcDbLine
 10
27.98959999999999
 20
102.506
 30
0.0
 11
28.0306
 21
77.7092
 31
0.0
  0
LINE
  5
7F7
330
1E
100
AcDbEntity
  8
0
100
AcDbLine
 10
35.0
 20
97.60229999999999
 30
0.0
 11
35.0
 21
137.5739999999999
 31
0.0
  0
LINE
  5
7F8
330
1E
100
AcDbEntity
  8
0
100
AcDbLine
 10
29.17289999999999
 20
89.83369999999998
 30
0.0
 11
29.2834
 21
136.233
 31
0.0
  0
LINE
  5
7F9
330
1E
100
AcDbEntity
  8
0
100
AcDbLine
 10
8.495999999999995
 20
89.60779999999999
 30
0.0
 11
10.8272
 21
89.83369999999998
 31
0.0
  0
LINE
  5
7FA
330
1E
100
AcDbEntity
  8
0
100
AcDbLine
 10
7.087900000000004
 20
89.9657
 30
0.0
 11
8.495999999999995
 21
89.60779999999999
 31
0.0
  0
LINE
  5
7FB
330
1E
100
AcDbEntity
  8
0
100
AcDbLine
 10
11.8224
 20
93.22309999999999
 30
0.0
 11
12.0053211234526
 21
93.25227746949222
 31
0.0
  0
LINE
  5
7FC
330
1E
100
AcDbEntity
  8
0
100
AcDbLine
 10
11.8224
 20
93.22309999999999
 30
0.0
 11
12.0053211234526
 21
93.25227746949222
 31
0.0
  0
LINE
  5
7FD
330
1E
100
AcDbEntity
  8
0
100
AcDbLine
 10
10.8197960054523
 20
92.9398497668688
 30
0.0
 11
11.8224
 21
93.22309999999999
 31
0.0
  0
LINE
  5
7FE
330
1E
100
AcDbEntity
  8
0
100
AcDbLine
 10
29.17289999999999
 20
89.83369999999998
 30
0.0
 11
31.5039
 21
89.60779999999999
 31
0.0
  0
LINE
  5
7FF
330
1E
100
AcDbEntity
  8
0
100
AcDbLine
 10
28.0049031636755
 20
93.25064660904189
 30
0.0
 11
28.17759999999999
 21
93.22309999999999
 31
0.0
  0
LINE
  5
800
330
1E
100
AcDbEntity
  8
0
100
AcDbLine
 10
28.17759999999999
 20
93.22309999999999
 30
0.0
 11
29.1802972374238
 21
92.93982342439809
 31
0.0
  0
LINE
  5
801
330
1E
100
AcDbEntity
  8
0
100
AcDbLine
 10
32.9121
 20
89.9657
 30
0.0
 11
33.9318
 21
90.42579999999999
 31
0.0
  0
LINE
  5
802
330
1E
100
AcDbEntity
  8
0
100
AcDbLine
 10
31.5039
 20
89.60779999999999
 30
0.0
 11
32.9121
 21
89.9657
 31
0.0
  0
LINE
  5
803
330
1E
100
AcDbEntity
  8
0
100
AcDbLine
 10
35.0
 20
97.60229999999999
 30
0.0
 11
35.0
 21
91.3391
 31
0.0
  0
LINE
  5
804
330
1E
100
AcDbEntity
  8
0
100
AcDbLine
 10
35.0
 20
91.3391
 30
0.0
 11
35.0
 21
97.60229999999999
 31
0.0
  0
LINE
  5
805
330
1E
100
AcDbEntity
  8
0
100
AcDbLine
 10
33.9318
 20
90.42579999999999
 30
0.0
 11
34.5598
 21
90.82460000000001
 31
0.0
  0
LINE
  5
806
330
1E
100
AcDbEntity
  8
0
100
AcDbLine
 10
34.5598
 20
90.82460000000001
 30
0.0
 11
34.8524
 21
91.09219999999998
 31
0.0
  0
LINE
  5
807
330
1E
100
AcDbEntity
  8
0
100
AcDbLine
 10
34.8524
 20
91.09219999999998
 30
0.0
 11
35.0
 21
91.3391
 31
0.0
  0
LINE
  5
808
330
1E
100
AcDbEntity
  8
0
100
AcDbLine
 10
20.0
 20
135.776
 30
0.0
 11
23.0533
 21
135.882
 31
0.0
  0
LINE
  5
809
330
1E
100
AcDbEntity
  8
0
100
AcDbLine
 10
20.0
 20
106.4899999999999
 30
0.0
 11
22.29999999999999
 21
106.5679999999999
 31
0.0
  0
LINE
  5
80A
330
1E
100
AcDbEntity
  8
0
100
AcDbLine
 10
13.59999999999999
 20
107.1629999999999
 30
0.0
 11
15.5
 21
106.7999999999999
 31
0.0
  0
LINE
  5
80B
330
1E
100
AcDbEntity
  8
0
100
AcDbLine
 10
11.9783213374299
 20
107.795150176669
 30
0.0
 11
11.98969999999999
 21
102.497
 31
0.0
  0
LINE
  5
80C
330
1E
100
AcDbEntity
  8
0
100
AcDbLine
 10
12.2
 20
107.655
 30
0.0
 11
13.59999999999999
 21
107.1629999999999
 31
0.0
  0
LINE
  5
80D
330
1E
100
AcDbEntity
  8
0
100
AcDbLine
 10
11.9783213374299
 20
107.795150176669
 30
0.0
 11
11.98969999999999
 21
102.497
 31
0.0
  0
LINE
  5
80E
330
1E
100
AcDbEntity
  8
0
100
AcDbLine
 10
11.29999999999999
 20
108.2239999999999
 30
0.0
 11
12.2
 21
107.655
 31
0.0
  0
LINE
  5
80F
330
1E
100
AcDbEntity
  8
0
100
AcDbLine
 10
10.77468264109859
 20
111.865966644423
 30
0.0
 11
11.0
 21
108.8189999999999
 31
0.0
  0
LINE
  5
810
330
1E
100
AcDbEntity
  8
0
100
AcDbLine
 10
11.0
 20
108.8189999999999
 30
0.0
 11
11.29999999999999
 21
108.2239999999999
 31
0.0
  0
LINE
  5
811
330
1E
100
AcDbEntity
  8
0
100
AcDbLine
 10
17.7
 20
106.5679999999999
 30
0.0
 11
20.0
 21
106.4899999999999
 31
0.0
  0
LINE
  5
812
330
1E
100
AcDbEntity
  8
0
100
AcDbLine
 10
15.5
 20
106.7999999999999
 30
0.0
 11
17.7
 21
106.5679999999999
 31
0.0
  0
LINE
  5
813
330
1E
100
AcDbEntity
  8
0
100
AcDbLine
 10
12.29999999999999
 20
136.5999999999999
 30
0.0
 11
14.281
 21
136.196
 31
0.0
  0
LINE
  5
814
330
1E
100
AcDbEntity
  8
0
100
AcDbLine
 10
9.4097
 20
136.5989999999999
 30
0.0
 11
10.7166
 21
136.233
 31
0.0
  0
LINE
  5
815
330
1E
100
AcDbEntity
  8
0
100
AcDbLine
 10
6.5715
 20
136.495
 30
0.0
 11
8.520499999999998
 21
136.024
 31
0.0
  0
LINE
  5
816
330
1E
100
AcDbEntity
  8
0
100
AcDbLine
 10
8.520499999999998
 20
136.024
 30
0.0
 11
10.7166
 21
136.233
 31
0.0
  0
LINE
  5
817
330
1E
100
AcDbEntity
  8
0
100
AcDbLine
 10
9.504999999999995
 20
137.6929999999999
 30
0.0
 11
10.72679999999999
 21
137.047
 31
0.0
  0
LINE
  5
818
330
1E
100
AcDbEntity
  8
0
100
AcDbLine
 10
8.0
 20
140.772
 30
0.0
 11
9.0
 21
138.524
 31
0.0
  0
LINE
  5
819
330
1E
100
AcDbEntity
  8
0
100
AcDbLine
 10
8.348500000000001
 20
138.6709999999999
 30
0.0
 11
8.826529717453382
 21
138.913961195165
 31
0.0
  0
LINE
  5
81A
330
1E
100
AcDbEntity
  8
0
100
AcDbLine
 10
8.125100000000003
 20
137.59
 30
0.0
 11
8.404300000000006
 21
137.11
 31
0.0
  0
LINE
  5
81B
330
1E
100
AcDbEntity
  8
0
100
AcDbLine
 10
8.125100000000003
 20
137.59
 30
0.0
 11
8.125100000000003
 21
138.0409999999999
 31
0.0
  0
LINE
  5
81C
330
1E
100
AcDbEntity
  8
0
100
AcDbLine
 10
8.404300000000006
 20
137.11
 30
0.0
 11
9.4097
 21
136.5989999999999
 31
0.0
  0
LINE
  5
81D
330
1E
100
AcDbEntity
  8
0
100
AcDbLine
 10
9.0
 20
138.524
 30
0.0
 11
9.504999999999995
 21
137.6929999999999
 31
0.0
  0
LINE
  5
81E
330
1E
100
AcDbEntity
  8
0
100
AcDbLine
 10
8.125100000000003
 20
138.0409999999999
 30
0.0
 11
8.348500000000001
 21
138.6709999999999
 31
0.0
  0
LINE
  5
81F
330
1E
100
AcDbEntity
  8
0
100
AcDbLine
 10
8.125100000000003
 20
138.0409999999999
 30
0.0
 11
8.131234784851628
 21
137.5794530919459
 31
0.0
  0
LINE
  5
820
330
1E
100
AcDbEntity
  8
0
100
AcDbLine
 10
10.72679999999999
 20
137.047
 30
0.0
 11
12.29999999999999
 21
136.5999999999999
 31
0.0
  0
LINE
  5
821
330
1E
100
AcDbEntity
  8
0
100
AcDbLine
 10
16.9467
 20
135.882
 30
0.0
 11
20.0
 21
135.776
 31
0.0
  0
LINE
  5
822
330
1E
100
AcDbEntity
  8
0
100
AcDbLine
 10
14.281
 20
136.196
 30
0.0
 11
16.9467
 21
135.882
 31
0.0
  0
LINE
  5
823
330
1E
100
AcDbEntity
  8
0
100
AcDbLine
 10
24.5
 20
106.7999999999999
 30
0.0
 11
26.4
 21
107.1629999999999
 31
0.0
  0
LINE
  5
824
330
1E
100
AcDbEntity
  8
0
100
AcDbLine
 10
22.29999999999999
 20
106.5679999999999
 30
0.0
 11
24.5
 21
106.7999999999999
 31
0.0
  0
LINE
  5
825
330
1E
100
AcDbEntity
  8
0
100
AcDbLine
 10
27.97809020071019
 20
107.7675925824489
 30
0.0
 11
27.98959999999999
 21
102.506
 31
0.0
  0
LINE
  5
826
330
1E
100
AcDbEntity
  8
0
100
AcDbLine
 10
26.4
 20
107.1629999999999
 30
0.0
 11
27.79999999999999
 21
107.655
 31
0.0
  0
LINE
  5
827
330
1E
100
AcDbEntity
  8
0
100
AcDbLine
 10
29.0
 20
108.8189999999999
 30
0.0
 11
29.22537162241039
 21
111.8667004498559
 31
0.0
  0
LINE
  5
828
330
1E
100
AcDbEntity
  8
0
100
AcDbLine
 10
28.7
 20
108.2239999999999
 30
0.0
 11
29.0
 21
108.8189999999999
 31
0.0
  0
LINE
  5
829
330
1E
100
AcDbEntity
  8
0
100
AcDbLine
 10
27.79999999999999
 20
107.655
 30
0.0
 11
28.7
 21
108.2239999999999
 31
0.0
  0
LINE
  5
82A
330
1E
100
AcDbEntity
  8
0
100
AcDbLine
 10
29.2834
 20
136.233
 30
0.0
 11
30.59019999999999
 21
136.5989999999999
 31
0.0
  0
LINE
  5
82B
330
1E
100
AcDbEntity
  8
0
100
AcDbLine
 10
29.2834
 20
136.233
 30
0.0
 11
31.4795
 21
136.024
 31
0.0
  0
LINE
  5
82C
330
1E
100
AcDbEntity
  8
0
100
AcDbLine
 10
29.2732
 20
137.047
 30
0.0
 11
30.495
 21
137.6929999999999
 31
0.0
  0
LINE
  5
82D
330
1E
100
AcDbEntity
  8
0
100
AcDbLine
 10
25.719
 20
136.196
 30
0.0
 11
27.7
 21
136.5999999999999
 31
0.0
  0
LINE
  5
82E
330
1E
100
AcDbEntity
  8
0
100
AcDbLine
 10
23.0533
 20
135.882
 30
0.0
 11
25.719
 21
136.196
 31
0.0
  0
LINE
  5
82F
330
1E
100
AcDbEntity
  8
0
100
AcDbLine
 10
27.7
 20
136.5999999999999
 30
0.0
 11
29.2732
 21
137.047
 31
0.0
  0
LINE
  5
830
330
1E
100
AcDbEntity
  8
0
100
AcDbLine
 10
31.4795
 20
136.024
 30
0.0
 11
33.4285
 21
136.495
 31
0.0
  0
LINE
  5
831
330
1E
100
AcDbEntity
  8
0
100
AcDbLine
 10
32.0
 20
147.608
 30
0.0
 11
35.0
 21
147.608
 31
0.0
  0
LINE
  5
832
330
1E
100
AcDbEntity
  8
0
100
AcDbLine
 10
31.1734702825466
 20
138.913961195165
 30
0.0
 11
31.6515
 21
138.6709999999999
 31
0.0
  0
LINE
  5
833
330
1E
100
AcDbEntity
  8
0
100
AcDbLine
 10
31.0
 20
138.524
 30
0.0
 11
32.0
 21
140.772
 31
0.0
  0
LINE
  5
834
330
1E
100
AcDbEntity
  8
0
100
AcDbLine
 10
30.59019999999999
 20
136.5989999999999
 30
0.0
 11
31.5956
 21
137.11
 31
0.0
  0
LINE
  5
835
330
1E
100
AcDbEntity
  8
0
100
AcDbLine
 10
30.495
 20
137.6929999999999
 30
0.0
 11
31.0
 21
138.524
 31
0.0
  0
LINE
  5
836
330
1E
100
AcDbEntity
  8
0
100
AcDbLine
 10
31.875
 20
138.0409999999999
 30
0.0
 11
31.875
 21
137.59
 31
0.0
  0
LINE
  5
837
330
1E
100
AcDbEntity
  8
0
100
AcDbLine
 10
31.6515
 20
138.6709999999999
 30
0.0
 11
31.875
 21
138.0409999999999
 31
0.0
  0
LINE
  5
838
330
1E
100
AcDbEntity
  8
0
100
AcDbLine
 10
31.875
 20
137.59
 30
0.0
 11
31.875
 21
138.0409999999999
 31
0.0
  0
LINE
  5
839
330
1E
100
AcDbEntity
  8
0
100
AcDbLine
 10
31.86886429016761
 20
137.579459052543
 30
0.0
 11
31.875
 21
138.0409999999999
 31
0.0
  0
LINE
  5
83A
330
1E
100
AcDbEntity
  8
0
100
AcDbLine
 10
31.5956
 20
137.11
 30
0.0
 11
31.875
 21
137.59
 31
0.0
  0
LINE
  5
83B
330
1E
100
AcDbEntity
  8
0
100
AcDbLine
 10
35.0
 20
147.608
 30
0.0
 11
35.0
 21
137.5739999999999
 31
0.0
  0
LINE
  5
83C
330
1E
100
AcDbEntity
  8
0
100
AcDbLine
 10
35.0
 20
137.5739999999999
 30
0.0
 11
35.0
 21
147.608
 31
0.0
  0
LINE
  5
83D
330
1E
100
AcDbEntity
  8
0
100
AcDbLine
 10
33.4285
 20
136.495
 30
0.0
 11
34.3111
 21
136.857
 31
0.0
  0
LINE
  5
83E
330
1E
100
AcDbEntity
  8
0
100
AcDbLine
 10
34.3111
 20
136.857
 30
0.0
 11
34.88389999999999
 21
137.335
 31
0.0
  0
LINE
  5
83F
330
1E
100
AcDbEntity
  8
0
100
AcDbLine
 10
34.88389999999999
 20
137.335
 30
0.0
 11
35.0
 21
137.5739999999999
 31
0.0
  0
LINE
  5
840
330
1E
100
AcDbEntity
  8
0
100
AcDbLine
 10
34.1421
 20
290.168
 30
0.0
 11
37.3205
 21
286.1809999999999
 31
0.0
  0
LINE
  5
841
330
1E
100
AcDbEntity
  8
0
100
AcDbLine
 10
35.5885
 20
278.974
 30
0.0
 11
37.38669999999999
 21
274.7959999999999
 31
0.0
  0
LINE
  5
842
330
1E
100
AcDbEntity
  8
0
100
AcDbLine
 10
35.5885
 20
261.649
 30
0.0
 11
37.38669999999999
 21
265.8269999999999
 31
0.0
  0
LINE
  5
843
330
1E
100
AcDbEntity
  8
0
100
AcDbLine
 10
32.0
 20
256.2359999999999
 30
0.0
 11
32.0
 21
230.186
 31
0.0
  0
LINE
  5
844
330
1E
100
AcDbEntity
  8
0
100
AcDbLine
 10
32.0
 20
230.186
 30
0.0
 11
32.0
 21
256.2359999999999
 31
0.0
  0
LINE
  5
845
330
1E
100
AcDbEntity
  8
0
100
AcDbLine
 10
8.0
 20
230.186
 30
0.0
 11
8.0
 21
256.2359999999999
 31
0.0
  0
LINE
  5
846
330
1E
100
AcDbEntity
  8
0
100
AcDbLine
 10
8.0
 20
256.2359999999999
 30
0.0
 11
8.0
 21
230.186
 31
0.0
  0
LINE
  5
847
330
1E
100
AcDbEntity
  8
0
100
AcDbLine
 10
8.0
 20
174.359
 30
0.0
 11
8.0
 21
203.472
 31
0.0
  0
LINE
  5
848
330
1E
100
AcDbEntity
  8
0
100
AcDbLine
 10
32.0
 20
203.472
 30
0.0
 11
32.0
 21
174.359
 31
0.0
  0
LINE
  5
849
330
1E
100
AcDbEntity
  8
0
100
AcDbLine
 10
32.0
 20
174.359
 30
0.0
 11
32.0
 21
203.472
 31
0.0
  0
LINE
  5
84A
330
1E
100
AcDbEntity
  8
0
100
AcDbLine
 10
23.47199999999999
 20
193.233
 30
0.0
 11
23.85599999999999
 21
194.1629999999999
 31
0.0
  0
LINE
  5
84B
330
1E
100
AcDbEntity
  8
0
100
AcDbLine
 10
16.144
 20
194.1629999999999
 30
0.0
 11
16.528
 21
193.233
 31
0.0
  0
LINE
  5
84C
330
1E
100
AcDbEntity
  8
0
100
AcDbLine
 10
8.0
 20
203.472
 30
0.0
 11
8.0
 21
174.359
 31
0.0
  0
LINE
  5
84D
330
1E
100
AcDbEntity
  8
0
100
AcDbLine
 10
21.024
 20
191.417
 30
0.0
 11
21.984
 21
191.789
 31
0.0
  0
LINE
  5
84E
330
1E
100
AcDbEntity
  8
0
100
AcDbLine
 10
17.168
 20
192.4099999999999
 30
0.0
 11
18.01599999999999
 21
191.789
 31
0.0
  0
LINE
  5
84F
330
1E
100
AcDbEntity
  8
0
100
AcDbLine
 10
16.528
 20
193.233
 30
0.0
 11
17.168
 21
192.4099999999999
 31
0.0
  0
LINE
  5
850
330
1E
100
AcDbEntity
  8
0
100
AcDbLine
 10
18.97599999999999
 20
191.417
 30
0.0
 11
20.0
 21
191.277
 31
0.0
  0
LINE
  5
851
330
1E
100
AcDbEntity
  8
0
100
AcDbLine
 10
18.01599999999999
 20
191.789
 30
0.0
 11
18.97599999999999
 21
191.417
 31
0.0
  0
LINE
  5
852
330
1E
100
AcDbEntity
  8
0
100
AcDbLine
 10
20.0
 20
191.277
 30
0.0
 11
21.024
 21
191.417
 31
0.0
  0
LINE
  5
853
330
1E
100
AcDbEntity
  8
0
100
AcDbLine
 10
21.984
 20
191.789
 30
0.0
 11
22.83199999999999
 21
192.4099999999999
 31
0.0
  0
LINE
  5
854
330
1E
100
AcDbEntity
  8
0
100
AcDbLine
 10
22.83199999999999
 20
192.4099999999999
 30
0.0
 11
23.47199999999999
 21
193.233
 31
0.0
  0
LINE
  5
855
330
1E
100
AcDbEntity
  8
0
100
AcDbLine
 10
21.024
 20
229.915
 30
0.0
 11
21.984
 21
229.543
 31
0.0
  0
LINE
  5
856
330
1E
100
AcDbEntity
  8
0
100
AcDbLine
 10
16.0
 20
195.1559999999999
 30
0.0
 11
16.0
 21
226.177
 31
0.0
  0
LINE
  5
857
330
1E
100
AcDbEntity
  8
0
100
AcDbLine
 10
16.0
 20
226.177
 30
0.0
 11
16.0
 21
195.1559999999999
 31
0.0
  0
LINE
  5
858
330
1E
100
AcDbEntity
  8
0
100
AcDbLine
 10
8.0
 20
203.472
 30
0.0
 11
8.0
 21
230.186
 31
0.0
  0
LINE
  5
859
330
1E
100
AcDbEntity
  8
0
100
AcDbLine
 10
8.0
 20
230.186
 30
0.0
 11
8.0
 21
203.472
 31
0.0
  0
LINE
  5
85A
330
1E
100
AcDbEntity
  8
0
100
AcDbLine
 10
16.0
 20
195.1559999999999
 30
0.0
 11
16.144
 21
194.1629999999999
 31
0.0
  0
LINE
  5
85B
330
1E
100
AcDbEntity
  8
0
100
AcDbLine
 10
16.528
 20
228.1
 30
0.0
 11
17.168
 21
228.9219999999999
 31
0.0
  0
LINE
  5
85C
330
1E
100
AcDbEntity
  8
0
100
AcDbLine
 10
16.144
 20
227.17
 30
0.0
 11
16.528
 21
228.1
 31
0.0
  0
LINE
  5
85D
330
1E
100
AcDbEntity
  8
0
100
AcDbLine
 10
16.0
 20
226.177
 30
0.0
 11
16.144
 21
227.17
 31
0.0
  0
LINE
  5
85E
330
1E
100
AcDbEntity
  8
0
100
AcDbLine
 10
17.168
 20
228.9219999999999
 30
0.0
 11
18.01599999999999
 21
229.543
 31
0.0
  0
LINE
  5
85F
330
1E
100
AcDbEntity
  8
0
100
AcDbLine
 10
18.97599999999999
 20
229.915
 30
0.0
 11
20.0
 21
230.055
 31
0.0
  0
LINE
  5
860
330
1E
100
AcDbEntity
  8
0
100
AcDbLine
 10
18.01599999999999
 20
229.543
 30
0.0
 11
18.97599999999999
 21
229.915
 31
0.0
  0
LINE
  5
861
330
1E
100
AcDbEntity
  8
0
100
AcDbLine
 10
20.0
 20
230.055
 30
0.0
 11
21.024
 21
229.915
 31
0.0
  0
LINE
  5
862
330
1E
100
AcDbEntity
  8
0
100
AcDbLine
 10
32.0
 20
203.472
 30
0.0
 11
32.0
 21
230.186
 31
0.0
  0
LINE
  5
863
330
1E
100
AcDbEntity
  8
0
100
AcDbLine
 10
32.0
 20
230.186
 30
0.0
 11
32.0
 21
203.472
 31
0.0
  0
LINE
  5
864
330
1E
100
AcDbEntity
  8
0
100
AcDbLine
 10
24.0
 20
226.177
 30
0.0
 11
24.0
 21
195.1559999999999
 31
0.0
  0
LINE
  5
865
330
1E
100
AcDbEntity
  8
0
100
AcDbLine
 10
24.0
 20
195.1559999999999
 30
0.0
 11
24.0
 21
226.177
 31
0.0
  0
LINE
  5
866
330
1E
100
AcDbEntity
  8
0
100
AcDbLine
 10
23.85599999999999
 20
194.1629999999999
 30
0.0
 11
24.0
 21
195.1559999999999
 31
0.0
  0
LINE
  5
867
330
1E
100
AcDbEntity
  8
0
100
AcDbLine
 10
22.83199999999999
 20
228.9219999999999
 30
0.0
 11
23.47199999999999
 21
228.1
 31
0.0
  0
LINE
  5
868
330
1E
100
AcDbEntity
  8
0
100
AcDbLine
 10
23.47199999999999
 20
228.1
 30
0.0
 11
23.85599999999999
 21
227.17
 31
0.0
  0
LINE
  5
869
330
1E
100
AcDbEntity
  8
0
100
AcDbLine
 10
23.85599999999999
 20
227.17
 30
0.0
 11
24.0
 21
226.177
 31
0.0
  0
LINE
  5
86A
330
1E
100
AcDbEntity
  8
0
100
AcDbLine
 10
21.984
 20
229.543
 30
0.0
 11
22.83199999999999
 21
228.9219999999999
 31
0.0
  0
LINE
  5
86B
330
1E
100
AcDbEntity
  8
0
100
AcDbLine
 10
5.857799999999997
 20
290.168
 30
0.0
 11
10.0
 21
293.227
 31
0.0
  0
LINE
  5
86C
330
1E
100
AcDbEntity
  8
0
100
AcDbLine
 10
4.411500000000003
 20
278.974
 30
0.0
 11
7.272000000000005
 21
282.562
 31
0.0
  0
LINE
  5
86D
330
1E
100
AcDbEntity
  8
0
100
AcDbLine
 10
5.277500000000003
 20
278.243
 30
0.0
 11
7.979200000000005
 21
281.632
 31
0.0
  0
LINE
  5
86E
330
1E
100
AcDbEntity
  8
0
100
AcDbLine
 10
4.411500000000003
 20
261.649
 30
0.0
 11
7.272000000000005
 21
258.0609999999999
 31
0.0
  0
LINE
  5
86F
330
1E
100
AcDbEntity
  8
0
100
AcDbLine
 10
5.277500000000003
 20
261.8809999999999
 30
0.0
 11
7.979200000000005
 21
258.492
 31
0.0
  0
LINE
  5
870
330
1E
100
AcDbEntity
  8
0
100
AcDbLine
 10
2.679500000000004
 20
286.1809999999999
 30
0.0
 11
5.857799999999997
 21
290.168
 31
0.0
  0
LINE
  5
871
330
1E
100
AcDbEntity
  8
0
100
AcDbLine
 10
2.679500000000004
 20
286.1809999999999
 30
0.0
 11
5.857799999999997
 21
290.168
 31
0.0
  0
LINE
  5
872
330
1E
100
AcDbEntity
  8
0
100
AcDbLine
 10
2.613299999999995
 20
265.8269999999999
 30
0.0
 11
4.411500000000003
 21
261.649
 31
0.0
  0
LINE
  5
873
330
1E
100
AcDbEntity
  8
0
100
AcDbLine
 10
3.5792
 20
265.8269999999999
 30
0.0
 11
5.277500000000003
 21
261.8809999999999
 31
0.0
  0
LINE
  5
874
330
1E
100
AcDbEntity
  8
0
100
AcDbLine
 10
0.0
 20
276.5559999999999
 30
0.0
 11
0.6814999999999998
 21
271.574
 31
0.0
  0
LINE
  5
875
330
1E
100
AcDbEntity
  8
0
100
AcDbLine
 10
2.613299999999995
 20
274.7959999999999
 30
0.0
 11
4.411500000000003
 21
278.974
 31
0.0
  0
LINE
  5
876
330
1E
100
AcDbEntity
  8
0
100
AcDbLine
 10
3.5792
 20
274.297
 30
0.0
 11
5.277500000000003
 21
278.243
 31
0.0
  0
LINE
  5
877
330
1E
100
AcDbEntity
  8
0
100
AcDbLine
 10
2.0
 20
270.312
 30
0.0
 11
2.613299999999995
 21
274.7959999999999
 31
0.0
  0
LINE
  5
878
330
1E
100
AcDbEntity
  8
0
100
AcDbLine
 10
2.0
 20
270.312
 30
0.0
 11
2.613299999999995
 21
265.8269999999999
 31
0.0
  0
LINE
  5
879
330
1E
100
AcDbEntity
  8
0
100
AcDbLine
 10
1.647400000000004
 20
268.825
 30
0.0
 11
2.613299999999995
 21
265.8269999999999
 31
0.0
  0
LINE
  5
87A
330
1E
100
AcDbEntity
  8
0
100
AcDbLine
 10
0.6814999999999998
 20
271.574
 30
0.0
 11
1.647400000000004
 21
268.825
 31
0.0
  0
LINE
  5
87B
330
1E
100
AcDbEntity
  8
0
100
AcDbLine
 10
0.6814999999999998
 20
271.574
 30
0.0
 11
1.647400000000004
 21
268.825
 31
0.0
  0
LINE
  5
87C
330
1E
100
AcDbEntity
  8
0
100
AcDbLine
 10
3.0
 20
270.062
 30
0.0
 11
3.5792
 21
265.8269999999999
 31
0.0
  0
LINE
  5
87D
330
1E
100
AcDbEntity
  8
0
100
AcDbLine
 10
3.0
 20
270.062
 30
0.0
 11
3.5792
 21
274.297
 31
0.0
  0
LINE
  5
87E
330
1E
100
AcDbEntity
  8
0
100
AcDbLine
 10
0.6814999999999998
 20
281.538
 30
0.0
 11
2.679500000000004
 21
286.1809999999999
 31
0.0
  0
LINE
  5
87F
330
1E
100
AcDbEntity
  8
0
100
AcDbLine
 10
0.6814999999999998
 20
281.538
 30
0.0
 11
2.679500000000004
 21
286.1809999999999
 31
0.0
  0
LINE
  5
880
330
1E
100
AcDbEntity
  8
0
100
AcDbLine
 10
0.0
 20
276.5559999999999
 30
0.0
 11
0.6814999999999998
 21
281.538
 31
0.0
  0
LINE
  5
881
330
1E
100
AcDbEntity
  8
0
100
AcDbLine
 10
24.65869999999999
 20
287.047
 30
0.0
 11
29.0
 21
285.3149999999999
 31
0.0
  0
LINE
  5
882
330
1E
100
AcDbEntity
  8
0
100
AcDbLine
 10
11.0
 20
285.3149999999999
 30
0.0
 11
15.3413
 21
287.047
 31
0.0
  0
LINE
  5
883
330
1E
100
AcDbEntity
  8
0
100
AcDbLine
 10
20.0
 20
286.424
 30
0.0
 11
24.3999
 21
285.867
 31
0.0
  0
LINE
  5
884
330
1E
100
AcDbEntity
  8
0
100
AcDbLine
 10
20.0
 20
257.1899999999999
 30
0.0
 11
23.32649999999999
 21
257.6319999999999
 31
0.0
  0
LINE
  5
885
330
1E
100
AcDbEntity
  8
0
100
AcDbLine
 10
20.0
 20
257.281
 30
0.0
 11
23.2882
 21
257.722
 31
0.0
  0
LINE
  5
886
330
1E
100
AcDbEntity
  8
0
100
AcDbLine
 10
20.0
 20
281.9379999999999
 30
0.0
 11
23.2882
 21
281.4959999999999
 31
0.0
  0
LINE
  5
887
330
1E
100
AcDbEntity
  8
0
100
AcDbLine
 10
21.5529
 20
263.859
 30
0.0
 11
22.30669999999999
 21
263.755
 31
0.0
  0
LINE
  5
888
330
1E
100
AcDbEntity
  8
0
100
AcDbLine
 10
21.31669999999999
 20
276.7709999999999
 30
0.0
 11
22.07049999999999
 21
276.875
 31
0.0
  0
LINE
  5
889
330
1E
100
AcDbEntity
  8
0
100
AcDbLine
 10
21.5529
 20
275.0159999999999
 30
0.0
 11
22.30669999999999
 21
275.12
 31
0.0
  0
LINE
  5
88A
330
1E
100
AcDbEntity
  8
0
100
AcDbLine
 10
21.6418
 20
271.1279999999999
 30
0.0
 11
22.09799999999999
 21
271.7149999999999
 31
0.0
  0
LINE
  5
88B
330
1E
100
AcDbEntity
  8
0
100
AcDbLine
 10
21.6418
 20
271.1279999999999
 30
0.0
 11
21.732
 21
270.3999999999999
 31
0.0
  0
LINE
  5
88C
330
1E
100
AcDbEntity
  8
0
100
AcDbLine
 10
21.6418
 20
267.747
 30
0.0
 11
22.09799999999999
 21
267.16
 31
0.0
  0
LINE
  5
88D
330
1E
100
AcDbEntity
  8
0
100
AcDbLine
 10
21.6418
 20
267.747
 30
0.0
 11
21.732
 21
268.475
 31
0.0
  0
LINE
  5
88E
330
1E
100
AcDbEntity
  8
0
100
AcDbLine
 10
21.31669999999999
 20
262.104
 30
0.0
 11
22.07049999999999
 21
262.0
 31
0.0
  0
LINE
  5
88F
330
1E
100
AcDbEntity
  8
0
100
AcDbLine
 10
20.0
 20
252.9869999999999
 30
0.0
 11
24.65869999999999
 21
253.5769999999999
 31
0.0
  0
LINE
  5
890
330
1E
100
AcDbEntity
  8
0
100
AcDbLine
 10
20.0
 20
253.6999999999999
 30
0.0
 11
24.3999
 21
254.2569999999999
 31
0.0
  0
LINE
  5
891
330
1E
100
AcDbEntity
  8
0
100
AcDbLine
 10
20.95439999999999
 20
263.406
 30
0.0
 11
21.5529
 21
263.859
 31
0.0
  0
LINE
  5
892
330
1E
100
AcDbEntity
  8
0
100
AcDbLine
 10
8.758800000000007
 20
263.483
 30
0.0
 11
10.82349999999999
 21
260.8709999999999
 31
0.0
  0
LINE
  5
893
330
1E
100
AcDbEntity
  8
0
100
AcDbLine
 10
8.911799999999999
 20
263.4629999999999
 30
0.0
 11
10.93819999999999
 21
260.887
 31
0.0
  0
LINE
  5
894
330
1E
100
AcDbEntity
  8
0
100
AcDbLine
 10
9.607699999999994
 20
263.663
 30
0.0
 11
10.2175
 21
263.223
 31
0.0
  0
LINE
  5
895
330
1E
100
AcDbEntity
  8
0
100
AcDbLine
 10
10.97369999999999
 20
263.31
 30
0.0
 11
11.4299
 21
263.897
 31
0.0
  0
LINE
  5
896
330
1E
100
AcDbEntity
  8
0
100
AcDbLine
 10
11.0
 20
255.308
 30
0.0
 11
15.3413
 21
253.5769999999999
 31
0.0
  0
LINE
  5
897
330
1E
100
AcDbEntity
  8
0
100
AcDbLine
 10
11.5
 20
255.892
 30
0.0
 11
15.60009999999999
 21
254.2569999999999
 31
0.0
  0
LINE
  5
898
330
1E
100
AcDbEntity
  8
0
100
AcDbLine
 10
13.5382
 20
258.8829999999999
 30
0.0
 11
16.6735
 21
257.6319999999999
 31
0.0
  0
LINE
  5
899
330
1E
100
AcDbEntity
  8
0
100
AcDbLine
 10
13.61469999999999
 20
258.937
 30
0.0
 11
16.71179999999999
 21
257.722
 31
0.0
  0
LINE
  5
89A
330
1E
100
AcDbEntity
  8
0
100
AcDbLine
 10
13.63389999999999
 20
260.7499999999999
 30
0.0
 11
14.24379999999999
 21
261.189
 31
0.0
  0
LINE
  5
89B
330
1E
100
AcDbEntity
  8
0
100
AcDbLine
 10
13.5437
 20
260.0219999999999
 30
0.0
 11
14.0
 21
259.4349999999999
 31
0.0
  0
LINE
  5
89C
330
1E
100
AcDbEntity
  8
0
100
AcDbLine
 10
7.272000000000005
 20
258.0609999999999
 30
0.0
 11
11.0
 21
255.308
 31
0.0
  0
LINE
  5
89D
330
1E
100
AcDbEntity
  8
0
100
AcDbLine
 10
7.979200000000005
 20
258.492
 30
0.0
 11
11.5
 21
255.892
 31
0.0
  0
LINE
  5
89E
330
1E
100
AcDbEntity
  8
0
100
AcDbLine
 10
8.0
 20
256.2359999999999
 30
0.0
 11
8.0
 21
257.523396995708
 31
0.0
  0
LINE
  5
89F
330
1E
100
AcDbEntity
  8
0
100
AcDbLine
 10
8.0
 20
257.523396995708
 30
0.0
 11
8.0
 21
256.2359999999999
 31
0.0
  0
LINE
  5
8A0
330
1E
100
AcDbEntity
  8
0
100
AcDbLine
 10
10.82349999999999
 20
260.8709999999999
 30
0.0
 11
13.5382
 21
258.8829999999999
 31
0.0
  0
LINE
  5
8A1
330
1E
100
AcDbEntity
  8
0
100
AcDbLine
 10
10.93819999999999
 20
260.887
 30
0.0
 11
13.61469999999999
 21
258.937
 31
0.0
  0
LINE
  5
8A2
330
1E
100
AcDbEntity
  8
0
100
AcDbLine
 10
10.2175
 20
263.223
 30
0.0
 11
10.97369999999999
 21
263.31
 31
0.0
  0
LINE
  5
8A3
330
1E
100
AcDbEntity
  8
0
100
AcDbLine
 10
13.5437
 20
260.0219999999999
 30
0.0
 11
13.63389999999999
 21
260.7499999999999
 31
0.0
  0
LINE
  5
8A4
330
1E
100
AcDbEntity
  8
0
100
AcDbLine
 10
16.6735
 20
257.6319999999999
 30
0.0
 11
20.0
 21
257.1899999999999
 31
0.0
  0
LINE
  5
8A5
330
1E
100
AcDbEntity
  8
0
100
AcDbLine
 10
16.71179999999999
 20
257.722
 30
0.0
 11
20.0
 21
257.281
 31
0.0
  0
LINE
  5
8A6
330
1E
100
AcDbEntity
  8
0
100
AcDbLine
 10
15.3413
 20
253.5769999999999
 30
0.0
 11
20.0
 21
252.9869999999999
 31
0.0
  0
LINE
  5
8A7
330
1E
100
AcDbEntity
  8
0
100
AcDbLine
 10
15.60009999999999
 20
254.2569999999999
 30
0.0
 11
20.0
 21
253.6999999999999
 31
0.0
  0
LINE
  5
8A8
330
1E
100
AcDbEntity
  8
0
100
AcDbLine
 10
15.36599999999999
 20
259.787
 30
0.0
 11
15.45619999999999
 21
260.515
 31
0.0
  0
LINE
  5
8A9
330
1E
100
AcDbEntity
  8
0
100
AcDbLine
 10
14.7562
 20
259.348
 30
0.0
 11
15.36599999999999
 21
259.787
 31
0.0
  0
LINE
  5
8AA
330
1E
100
AcDbEntity
  8
0
100
AcDbLine
 10
14.0
 20
259.4349999999999
 30
0.0
 11
14.7562
 21
259.348
 31
0.0
  0
LINE
  5
8AB
330
1E
100
AcDbEntity
  8
0
100
AcDbLine
 10
14.24379999999999
 20
261.189
 30
0.0
 11
15.0
 21
261.102
 31
0.0
  0
LINE
  5
8AC
330
1E
100
AcDbEntity
  8
0
100
AcDbLine
 10
15.0
 20
261.214540320628
 30
0.0
 11
15.0
 21
261.102
 31
0.0
  0
LINE
  5
8AD
330
1E
100
AcDbEntity
  8
0
100
AcDbLine
 10
15.0
 20
261.102
 30
0.0
 11
15.0
 21
261.214540320628
 31
0.0
  0
LINE
  5
8AE
330
1E
100
AcDbEntity
  8
0
100
AcDbLine
 10
15.0
 20
261.102
 30
0.0
 11
15.45619999999999
 21
260.515
 31
0.0
  0
LINE
  5
8AF
330
1E
100
AcDbEntity
  8
0
100
AcDbLine
 10
19.29999999999999
 20
258.176
 30
0.0
 11
20.0
 21
257.8879999999999
 31
0.0
  0
LINE
  5
8B0
330
1E
100
AcDbEntity
  8
0
100
AcDbLine
 10
19.29999999999999
 20
259.5239999999999
 30
0.0
 11
20.0
 21
259.8129999999999
 31
0.0
  0
LINE
  5
8B1
330
1E
100
AcDbEntity
  8
0
100
AcDbLine
 10
19.0
 20
258.85
 30
0.0
 11
19.29999999999999
 21
259.5239999999999
 31
0.0
  0
LINE
  5
8B2
330
1E
100
AcDbEntity
  8
0
100
AcDbLine
 10
19.0
 20
258.85
 30
0.0
 11
19.29999999999999
 21
258.176
 31
0.0
  0
LINE
  5
8B3
330
1E
100
AcDbEntity
  8
0
100
AcDbLine
 10
20.84579999999999
 20
262.68
 30
0.0
 11
20.95439999999999
 21
263.406
 31
0.0
  0
LINE
  5
8B4
330
1E
100
AcDbEntity
  8
0
100
AcDbLine
 10
20.84579999999999
 20
262.68
 30
0.0
 11
21.31669999999999
 21
262.104
 31
0.0
  0
LINE
  5
8B5
330
1E
100
AcDbEntity
  8
0
100
AcDbLine
 10
20.7
 20
258.176
 30
0.0
 11
21.0
 21
258.85
 31
0.0
  0
LINE
  5
8B6
330
1E
100
AcDbEntity
  8
0
100
AcDbLine
 10
20.7
 20
259.5239999999999
 30
0.0
 11
21.0
 21
258.85
 31
0.0
  0
LINE
  5
8B7
330
1E
100
AcDbEntity
  8
0
100
AcDbLine
 10
20.0
 20
257.8879999999999
 30
0.0
 11
20.7
 21
258.176
 31
0.0
  0
LINE
  5
8B8
330
1E
100
AcDbEntity
  8
0
100
AcDbLine
 10
20.0
 20
259.8129999999999
 30
0.0
 11
20.7
 21
259.5239999999999
 31
0.0
  0
LINE
  5
8B9
330
1E
100
AcDbEntity
  8
0
100
AcDbLine
 10
13.63389999999999
 20
278.125
 30
0.0
 11
14.24379999999999
 21
277.6859999999999
 31
0.0
  0
LINE
  5
8BA
330
1E
100
AcDbEntity
  8
0
100
AcDbLine
 10
13.73349999999999
 20
270.3559999999999
 30
0.0
 11
14.20439999999999
 21
270.932
 31
0.0
  0
LINE
  5
8BB
330
1E
100
AcDbEntity
  8
0
100
AcDbLine
 10
13.61469999999999
 20
280.281
 30
0.0
 11
16.71179999999999
 21
281.4959999999999
 31
0.0
  0
LINE
  5
8BC
330
1E
100
AcDbEntity
  8
0
100
AcDbLine
 10
13.5437
 20
278.853
 30
0.0
 11
14.0
 21
279.4399999999999
 31
0.0
  0
LINE
  5
8BD
330
1E
100
AcDbEntity
  8
0
100
AcDbLine
 10
13.49729999999999
 20
272.1109999999999
 30
0.0
 11
14.09579999999999
 21
271.6579999999999
 31
0.0
  0
LINE
  5
8BE
330
1E
100
AcDbEntity
  8
0
100
AcDbLine
 10
11.5
 20
284.232
 30
0.0
 11
15.60009999999999
 21
285.867
 31
0.0
  0
LINE
  5
8BF
330
1E
100
AcDbEntity
  8
0
100
AcDbLine
 10
10.97369999999999
 20
275.565
 30
0.0
 11
11.4299
 21
274.978
 31
0.0
  0
LINE
  5
8C0
330
1E
100
AcDbEntity
  8
0
100
AcDbLine
 10
9.517499999999998
 20
274.485
 30
0.0
 11
9.607699999999994
 21
275.212
 31
0.0
  0
LINE
  5
8C1
330
1E
100
AcDbEntity
  8
0
100
AcDbLine
 10
7.650000000000005
 20
272.774
 30
0.0
 11
8.911799999999999
 21
275.755
 31
0.0
  0
LINE
  5
8C2
330
1E
100
AcDbEntity
  8
0
100
AcDbLine
 10
9.973699999999993
 20
273.8979999999999
 30
0.0
 11
10.7299
 21
273.8109999999999
 31
0.0
  0
LINE
  5
8C3
330
1E
100
AcDbEntity
  8
0
100
AcDbLine
 10
9.973699999999993
 20
264.977
 30
0.0
 11
10.7299
 21
265.064
 31
0.0
  0
LINE
  5
8C4
330
1E
100
AcDbEntity
  8
0
100
AcDbLine
 10
9.700000000000002
 20
268.764
 30
0.0
 11
10.0
 21
269.437
 31
0.0
  0
LINE
  5
8C5
330
1E
100
AcDbEntity
  8
0
100
AcDbLine
 10
8.0
 20
269.437
 30
0.0
 11
8.299999999999997
 21
268.764
 31
0.0
  0
LINE
  5
8C6
330
1E
100
AcDbEntity
  8
0
100
AcDbLine
 10
7.191199999999994
 20
269.609
 30
0.0
 11
7.650000000000005
 21
266.444
 31
0.0
  0
LINE
  5
8C7
330
1E
100
AcDbEntity
  8
0
100
AcDbLine
 10
7.0
 20
269.7029999999999
 30
0.0
 11
7.458799999999996
 21
266.5009999999999
 31
0.0
  0
LINE
  5
8C8
330
1E
100
AcDbEntity
  8
0
100
AcDbLine
 10
7.458799999999996
 20
266.5009999999999
 30
0.0
 11
8.758800000000007
 21
263.483
 31
0.0
  0
LINE
  5
8C9
330
1E
100
AcDbEntity
  8
0
100
AcDbLine
 10
7.650000000000005
 20
266.444
 30
0.0
 11
8.911799999999999
 21
263.4629999999999
 31
0.0
  0
LINE
  5
8CA
330
1E
100
AcDbEntity
  8
0
100
AcDbLine
 10
9.517499999999998
 20
264.3899999999999
 30
0.0
 11
9.973699999999993
 21
264.977
 31
0.0
  0
LINE
  5
8CB
330
1E
100
AcDbEntity
  8
0
100
AcDbLine
 10
9.517499999999998
 20
264.3899999999999
 30
0.0
 11
9.607699999999994
 21
263.663
 31
0.0
  0
LINE
  5
8CC
330
1E
100
AcDbEntity
  8
0
100
AcDbLine
 10
9.0
 20
268.475
 30
0.0
 11
9.700000000000002
 21
268.764
 31
0.0
  0
LINE
  5
8CD
330
1E
100
AcDbEntity
  8
0
100
AcDbLine
 10
8.299999999999997
 20
268.764
 30
0.0
 11
9.0
 21
268.475
 31
0.0
  0
LINE
  5
8CE
330
1E
100
AcDbEntity
  8
0
100
AcDbLine
 10
8.0
 20
269.437
 30
0.0
 11
8.299999999999997
 21
270.1109999999999
 31
0.0
  0
LINE
  5
8CF
330
1E
100
AcDbEntity
  8
0
100
AcDbLine
 10
8.0
 20
269.437
 30
0.0
 11
8.0
 21
269.562
 31
0.0
  0
LINE
  5
8D0
330
1E
100
AcDbEntity
  8
0
100
AcDbLine
 10
8.0
 20
269.562
 30
0.0
 11
8.0
 21
269.437
 31
0.0
  0
LINE
  5
8D1
330
1E
100
AcDbEntity
  8
0
100
AcDbLine
 10
7.0
 20
269.795720726152
 30
0.0
 11
7.0
 21
269.7029999999999
 31
0.0
  0
LINE
  5
8D2
330
1E
100
AcDbEntity
  8
0
100
AcDbLine
 10
7.191199999999994
 20
269.609
 30
0.0
 11
7.650000000000005
 21
272.774
 31
0.0
  0
LINE
  5
8D3
330
1E
100
AcDbEntity
  8
0
100
AcDbLine
 10
7.0
 20
269.7029999999999
 30
0.0
 11
7.0
 21
269.795720726152
 31
0.0
  0
LINE
  5
8D4
330
1E
100
AcDbEntity
  8
0
100
AcDbLine
 10
9.0
 20
270.3999999999999
 30
0.0
 11
9.700000000000002
 21
270.1109999999999
 31
0.0
  0
LINE
  5
8D5
330
1E
100
AcDbEntity
  8
0
100
AcDbLine
 10
9.700000000000002
 20
270.1109999999999
 30
0.0
 11
10.0
 21
269.437
 31
0.0
  0
LINE
  5
8D6
330
1E
100
AcDbEntity
  8
0
100
AcDbLine
 10
9.517499999999998
 20
274.485
 30
0.0
 11
9.973699999999993
 21
273.8979999999999
 31
0.0
  0
LINE
  5
8D7
330
1E
100
AcDbEntity
  8
0
100
AcDbLine
 10
10.0
 20
269.562
 30
0.0
 11
10.0
 21
269.437
 31
0.0
  0
LINE
  5
8D8
330
1E
100
AcDbEntity
  8
0
100
AcDbLine
 10
10.0
 20
269.437
 30
0.0
 11
10.0
 21
269.562
 31
0.0
  0
LINE
  5
8D9
330
1E
100
AcDbEntity
  8
0
100
AcDbLine
 10
8.299999999999997
 20
270.1109999999999
 30
0.0
 11
9.0
 21
270.3999999999999
 31
0.0
  0
LINE
  5
8DA
330
1E
100
AcDbEntity
  8
0
100
AcDbLine
 10
11.33969999999999
 20
264.625
 30
0.0
 11
11.33969999999999
 21
264.75712585512
 31
0.0
  0
LINE
  5
8DB
330
1E
100
AcDbEntity
  8
0
100
AcDbLine
 10
11.33969999999999
 20
264.625
 30
0.0
 11
11.4299
 21
263.897
 31
0.0
  0
LINE
  5
8DC
330
1E
100
AcDbEntity
  8
0
100
AcDbLine
 10
11.33969999999999
 20
264.75712585512
 30
0.0
 11
11.33969999999999
 21
264.625
 31
0.0
  0
LINE
  5
8DD
330
1E
100
AcDbEntity
  8
0
100
AcDbLine
 10
10.7299
 20
265.064
 30
0.0
 11
11.33969999999999
 21
264.625
 31
0.0
  0
LINE
  5
8DE
330
1E
100
AcDbEntity
  8
0
100
AcDbLine
 10
11.33969999999999
 20
274.25
 30
0.0
 11
11.4299
 21
274.978
 31
0.0
  0
LINE
  5
8DF
330
1E
100
AcDbEntity
  8
0
100
AcDbLine
 10
10.7299
 20
273.8109999999999
 30
0.0
 11
11.33969999999999
 21
274.25
 31
0.0
  0
LINE
  5
8E0
330
1E
100
AcDbEntity
  8
0
100
AcDbLine
 10
12.74349999999999
 20
272.0059999999999
 30
0.0
 11
13.49729999999999
 21
272.1109999999999
 31
0.0
  0
LINE
  5
8E1
330
1E
100
AcDbEntity
  8
0
100
AcDbLine
 10
12.97969999999999
 20
270.252
 30
0.0
 11
13.73349999999999
 21
270.3559999999999
 31
0.0
  0
LINE
  5
8E2
330
1E
100
AcDbEntity
  8
0
100
AcDbLine
 10
12.27259999999999
 20
271.43
 30
0.0
 11
12.27259999999999
 21
271.558483906548
 31
0.0
  0
LINE
  5
8E3
330
1E
100
AcDbEntity
  8
0
100
AcDbLine
 10
12.27259999999999
 20
271.43
 30
0.0
 11
12.3812
 21
270.7049999999999
 31
0.0
  0
LINE
  5
8E4
330
1E
100
AcDbEntity
  8
0
100
AcDbLine
 10
12.27259999999999
 20
271.43
 30
0.0
 11
12.74349999999999
 21
272.0059999999999
 31
0.0
  0
LINE
  5
8E5
330
1E
100
AcDbEntity
  8
0
100
AcDbLine
 10
12.27259999999999
 20
271.558483906548
 30
0.0
 11
12.27259999999999
 21
271.43
 31
0.0
  0
LINE
  5
8E6
330
1E
100
AcDbEntity
  8
0
100
AcDbLine
 10
12.3812
 20
270.7049999999999
 30
0.0
 11
12.97969999999999
 21
270.252
 31
0.0
  0
LINE
  5
8E7
330
1E
100
AcDbEntity
  8
0
100
AcDbLine
 10
8.911799999999999
 20
275.755
 30
0.0
 11
10.93819999999999
 21
278.3309999999999
 31
0.0
  0
LINE
  5
8E8
330
1E
100
AcDbEntity
  8
0
100
AcDbLine
 10
9.607699999999994
 20
275.212
 30
0.0
 11
10.2175
 21
275.652
 31
0.0
  0
LINE
  5
8E9
330
1E
100
AcDbEntity
  8
0
100
AcDbLine
 10
7.272000000000005
 20
282.562
 30
0.0
 11
11.0
 21
285.3149999999999
 31
0.0
  0
LINE
  5
8EA
330
1E
100
AcDbEntity
  8
0
100
AcDbLine
 10
7.979200000000005
 20
281.632
 30
0.0
 11
11.5
 21
284.232
 31
0.0
  0
LINE
  5
8EB
330
1E
100
AcDbEntity
  8
0
100
AcDbLine
 10
9.607699999999994
 20
275.212
 30
0.0
 11
9.607699999999994
 21
275.3287829413349
 31
0.0
  0
LINE
  5
8EC
330
1E
100
AcDbEntity
  8
0
100
AcDbLine
 10
9.607699999999994
 20
275.3287829413349
 30
0.0
 11
9.607699999999994
 21
275.212
 31
0.0
  0
LINE
  5
8ED
330
1E
100
AcDbEntity
  8
0
100
AcDbLine
 10
10.93819999999999
 20
278.3309999999999
 30
0.0
 11
13.61469999999999
 21
280.281
 31
0.0
  0
LINE
  5
8EE
330
1E
100
AcDbEntity
  8
0
100
AcDbLine
 10
10.2175
 20
275.652
 30
0.0
 11
10.97369999999999
 21
275.565
 31
0.0
  0
LINE
  5
8EF
330
1E
100
AcDbEntity
  8
0
100
AcDbLine
 10
13.5437
 20
278.853
 30
0.0
 11
13.63389999999999
 21
278.125
 31
0.0
  0
LINE
  5
8F0
330
1E
100
AcDbEntity
  8
0
100
AcDbLine
 10
17.1457
 20
267.0729999999999
 30
0.0
 11
17.90189999999999
 21
267.16
 31
0.0
  0
LINE
  5
8F1
330
1E
100
AcDbEntity
  8
0
100
AcDbLine
 10
17.6581
 20
268.914
 30
0.0
 11
18.26789999999999
 21
268.475
 31
0.0
  0
LINE
  5
8F2
330
1E
100
AcDbEntity
  8
0
100
AcDbLine
 10
17.1457
 20
271.802
 30
0.0
 11
17.90189999999999
 21
271.7149999999999
 31
0.0
  0
LINE
  5
8F3
330
1E
100
AcDbEntity
  8
0
100
AcDbLine
 10
17.6581
 20
269.961
 30
0.0
 11
18.26789999999999
 21
270.3999999999999
 31
0.0
  0
LINE
  5
8F4
330
1E
100
AcDbEntity
  8
0
100
AcDbLine
 10
15.7573
 20
265.354
 30
0.0
 11
16.0402
 21
264.673
 31
0.0
  0
LINE
  5
8F5
330
1E
100
AcDbEntity
  8
0
100
AcDbLine
 10
15.7573
 20
263.993
 30
0.0
 11
16.0402
 21
264.673
 31
0.0
  0
LINE
  5
8F6
330
1E
100
AcDbEntity
  8
0
100
AcDbLine
 10
15.7573
 20
265.354
 30
0.0
 11
15.7573
 21
265.478556236568
 31
0.0
  0
LINE
  5
8F7
330
1E
100
AcDbEntity
  8
0
100
AcDbLine
 10
15.7573
 20
265.478556236568
 30
0.0
 11
15.7573
 21
265.354
 31
0.0
  0
LINE
  5
8F8
330
1E
100
AcDbEntity
  8
0
100
AcDbLine
 10
15.0502
 20
263.721
 30
0.0
 11
15.7573
 21
263.993
 31
0.0
  0
LINE
  5
8F9
330
1E
100
AcDbEntity
  8
0
100
AcDbLine
 10
15.0502
 20
265.6259999999999
 30
0.0
 11
15.7573
 21
265.354
 31
0.0
  0
LINE
  5
8FA
330
1E
100
AcDbEntity
  8
0
100
AcDbLine
 10
14.34309999999999
 20
263.993
 30
0.0
 11
15.0502
 21
263.721
 31
0.0
  0
LINE
  5
8FB
330
1E
100
AcDbEntity
  8
0
100
AcDbLine
 10
14.06029999999999
 20
264.673
 30
0.0
 11
14.34309999999999
 21
265.354
 31
0.0
  0
LINE
  5
8FC
330
1E
100
AcDbEntity
  8
0
100
AcDbLine
 10
14.06029999999999
 20
264.673
 30
0.0
 11
14.34309999999999
 21
263.993
 31
0.0
  0
LINE
  5
8FD
330
1E
100
AcDbEntity
  8
0
100
AcDbLine
 10
14.34309999999999
 20
265.354
 30
0.0
 11
15.0502
 21
265.6259999999999
 31
0.0
  0
LINE
  5
8FE
330
1E
100
AcDbEntity
  8
0
100
AcDbLine
 10
16.90189999999999
 20
268.827
 30
0.0
 11
17.6581
 21
268.914
 31
0.0
  0
LINE
  5
8FF
330
1E
100
AcDbEntity
  8
0
100
AcDbLine
 10
16.53589999999999
 20
267.512
 30
0.0
 11
17.1457
 21
267.0729999999999
 31
0.0
  0
LINE
  5
900
330
1E
100
AcDbEntity
  8
0
100
AcDbLine
 10
16.4457
 20
268.24
 30
0.0
 11
16.90189999999999
 21
268.827
 31
0.0
  0
LINE
  5
901
330
1E
100
AcDbEntity
  8
0
100
AcDbLine
 10
16.4457
 20
268.24
 30
0.0
 11
16.53589999999999
 21
267.512
 31
0.0
  0
LINE
  5
902
330
1E
100
AcDbEntity
  8
0
100
AcDbLine
 10
14.09579999999999
 20
271.6579999999999
 30
0.0
 11
14.20439999999999
 21
270.932
 31
0.0
  0
LINE
  5
903
330
1E
100
AcDbEntity
  8
0
100
AcDbLine
 10
14.20439999999999
 20
271.059375848123
 30
0.0
 11
14.20439999999999
 21
270.932
 31
0.0
  0
LINE
  5
904
330
1E
100
AcDbEntity
  8
0
100
AcDbLine
 10
14.20439999999999
 20
270.932
 30
0.0
 11
14.20439999999999
 21
271.059375848123
 31
0.0
  0
LINE
  5
905
330
1E
100
AcDbEntity
  8
0
100
AcDbLine
 10
16.90189999999999
 20
270.048
 30
0.0
 11
17.6581
 21
269.961
 31
0.0
  0
LINE
  5
906
330
1E
100
AcDbEntity
  8
0
100
AcDbLine
 10
16.53589999999999
 20
271.362
 30
0.0
 11
16.53589999999999
 21
271.4842609804449
 31
0.0
  0
LINE
  5
907
330
1E
100
AcDbEntity
  8
0
100
AcDbLine
 10
16.53589999999999
 20
271.362
 30
0.0
 11
17.1457
 21
271.802
 31
0.0
  0
LINE
  5
908
330
1E
100
AcDbEntity
  8
0
100
AcDbLine
 10
16.53589999999999
 20
271.4842609804449
 30
0.0
 11
16.53589999999999
 21
271.362
 31
0.0
  0
LINE
  5
909
330
1E
100
AcDbEntity
  8
0
100
AcDbLine
 10
16.4457
 20
270.635
 30
0.0
 11
16.90189999999999
 21
270.048
 31
0.0
  0
LINE
  5
90A
330
1E
100
AcDbEntity
  8
0
100
AcDbLine
 10
16.4457
 20
270.635
 30
0.0
 11
16.53589999999999
 21
271.362
 31
0.0
  0
LINE
  5
90B
330
1E
100
AcDbEntity
  8
0
100
AcDbLine
 10
19.29999999999999
 20
267.2239999999999
 30
0.0
 11
20.0
 21
267.512
 31
0.0
  0
LINE
  5
90C
330
1E
100
AcDbEntity
  8
0
100
AcDbLine
 10
19.29999999999999
 20
265.876
 30
0.0
 11
20.0
 21
265.5879999999999
 31
0.0
  0
LINE
  5
90D
330
1E
100
AcDbEntity
  8
0
100
AcDbLine
 10
19.0
 20
266.55
 30
0.0
 11
19.29999999999999
 21
267.2239999999999
 31
0.0
  0
LINE
  5
90E
330
1E
100
AcDbEntity
  8
0
100
AcDbLine
 10
19.0
 20
266.55
 30
0.0
 11
19.29999999999999
 21
265.876
 31
0.0
  0
LINE
  5
90F
330
1E
100
AcDbEntity
  8
0
100
AcDbLine
 10
18.26789999999999
 20
268.475
 30
0.0
 11
18.26789999999999
 21
268.6010029783789
 31
0.0
  0
LINE
  5
910
330
1E
100
AcDbEntity
  8
0
100
AcDbLine
 10
18.26789999999999
 20
268.475
 30
0.0
 11
18.3581
 21
267.747
 31
0.0
  0
LINE
  5
911
330
1E
100
AcDbEntity
  8
0
100
AcDbLine
 10
18.3581
 20
267.9817312288919
 30
0.0
 11
18.3581
 21
267.747
 31
0.0
  0
LINE
  5
912
330
1E
100
AcDbEntity
  8
0
100
AcDbLine
 10
18.3581
 20
267.747
 30
0.0
 11
18.3581
 21
267.9817312288919
 31
0.0
  0
LINE
  5
913
330
1E
100
AcDbEntity
  8
0
100
AcDbLine
 10
17.90189999999999
 20
267.16
 30
0.0
 11
18.3581
 21
267.747
 31
0.0
  0
LINE
  5
914
330
1E
100
AcDbEntity
  8
0
100
AcDbLine
 10
18.26789999999999
 20
268.6010029783789
 30
0.0
 11
18.26789999999999
 21
268.475
 31
0.0
  0
LINE
  5
915
330
1E
100
AcDbEntity
  8
0
100
AcDbLine
 10
21.6418
 20
267.747
 30
0.0
 11
21.6418
 21
267.981827475239
 31
0.0
  0
LINE
  5
916
330
1E
100
AcDbEntity
  8
0
100
AcDbLine
 10
21.6418
 20
267.981827475239
 30
0.0
 11
21.6418
 21
267.747
 31
0.0
  0
LINE
  5
917
330
1E
100
AcDbEntity
  8
0
100
AcDbLine
 10
20.7
 20
265.876
 30
0.0
 11
21.0
 21
266.55
 31
0.0
  0
LINE
  5
918
330
1E
100
AcDbEntity
  8
0
100
AcDbLine
 10
20.0
 20
267.512
 30
0.0
 11
20.7
 21
267.2239999999999
 31
0.0
  0
LINE
  5
919
330
1E
100
AcDbEntity
  8
0
100
AcDbLine
 10
20.7
 20
267.2239999999999
 30
0.0
 11
21.0
 21
266.55
 31
0.0
  0
LINE
  5
91A
330
1E
100
AcDbEntity
  8
0
100
AcDbLine
 10
20.0
 20
265.5879999999999
 30
0.0
 11
20.7
 21
265.876
 31
0.0
  0
LINE
  5
91B
330
1E
100
AcDbEntity
  8
0
100
AcDbLine
 10
19.29999999999999
 20
272.999
 30
0.0
 11
20.0
 21
273.287
 31
0.0
  0
LINE
  5
91C
330
1E
100
AcDbEntity
  8
0
100
AcDbLine
 10
19.29999999999999
 20
271.6509999999999
 30
0.0
 11
20.0
 21
271.362
 31
0.0
  0
LINE
  5
91D
330
1E
100
AcDbEntity
  8
0
100
AcDbLine
 10
19.0
 20
272.3249999999999
 30
0.0
 11
19.29999999999999
 21
271.6509999999999
 31
0.0
  0
LINE
  5
91E
330
1E
100
AcDbEntity
  8
0
100
AcDbLine
 10
19.0
 20
272.3249999999999
 30
0.0
 11
19.29999999999999
 21
272.999
 31
0.0
  0
LINE
  5
91F
330
1E
100
AcDbEntity
  8
0
100
AcDbLine
 10
18.26789999999999
 20
270.3999999999999
 30
0.0
 11
18.3581
 21
271.1279999999999
 31
0.0
  0
LINE
  5
920
330
1E
100
AcDbEntity
  8
0
100
AcDbLine
 10
17.90189999999999
 20
271.7149999999999
 30
0.0
 11
18.3581
 21
271.1279999999999
 31
0.0
  0
LINE
  5
921
330
1E
100
AcDbEntity
  8
0
100
AcDbLine
 10
20.7
 20
272.999
 30
0.0
 11
21.0
 21
272.3249999999999
 31
0.0
  0
LINE
  5
922
330
1E
100
AcDbEntity
  8
0
100
AcDbLine
 10
20.7
 20
271.6509999999999
 30
0.0
 11
21.0
 21
272.3249999999999
 31
0.0
  0
LINE
  5
923
330
1E
100
AcDbEntity
  8
0
100
AcDbLine
 10
20.0
 20
273.287
 30
0.0
 11
20.7
 21
272.999
 31
0.0
  0
LINE
  5
924
330
1E
100
AcDbEntity
  8
0
100
AcDbLine
 10
20.0
 20
271.362
 30
0.0
 11
20.7
 21
271.6509999999999
 31
0.0
  0
LINE
  5
925
330
1E
100
AcDbEntity
  8
0
100
AcDbLine
 10
15.60009999999999
 20
285.867
 30
0.0
 11
20.0
 21
286.424
 31
0.0
  0
LINE
  5
926
330
1E
100
AcDbEntity
  8
0
100
AcDbLine
 10
17.6933
 20
275.12
 30
0.0
 11
18.4471
 21
275.0159999999999
 31
0.0
  0
LINE
  5
927
330
1E
100
AcDbEntity
  8
0
100
AcDbLine
 10
17.33089999999999
 20
276.422
 30
0.0
 11
17.9294
 21
276.875
 31
0.0
  0
LINE
  5
928
330
1E
100
AcDbEntity
  8
0
100
AcDbLine
 10
16.71179999999999
 20
281.4959999999999
 30
0.0
 11
20.0
 21
281.9379999999999
 31
0.0
  0
LINE
  5
929
330
1E
100
AcDbEntity
  8
0
100
AcDbLine
 10
15.36599999999999
 20
279.0879999999999
 30
0.0
 11
15.45619999999999
 21
278.36
 31
0.0
  0
LINE
  5
92A
330
1E
100
AcDbEntity
  8
0
100
AcDbLine
 10
14.7562
 20
279.5269999999999
 30
0.0
 11
15.36599999999999
 21
279.0879999999999
 31
0.0
  0
LINE
  5
92B
330
1E
100
AcDbEntity
  8
0
100
AcDbLine
 10
15.0
 20
277.7729999999999
 30
0.0
 11
15.45619999999999
 21
278.36
 31
0.0
  0
LINE
  5
92C
330
1E
100
AcDbEntity
  8
0
100
AcDbLine
 10
14.24379999999999
 20
277.6859999999999
 30
0.0
 11
15.0
 21
277.7729999999999
 31
0.0
  0
LINE
  5
92D
330
1E
100
AcDbEntity
  8
0
100
AcDbLine
 10
14.0
 20
279.4399999999999
 30
0.0
 11
14.0
 21
279.5789516152469
 31
0.0
  0
LINE
  5
92E
330
1E
100
AcDbEntity
  8
0
100
AcDbLine
 10
14.0
 20
279.4399999999999
 30
0.0
 11
14.7562
 21
279.5269999999999
 31
0.0
  0
LINE
  5
92F
330
1E
100
AcDbEntity
  8
0
100
AcDbLine
 10
14.0
 20
279.5789516152469
 30
0.0
 11
14.0
 21
279.4399999999999
 31
0.0
  0
LINE
  5
930
330
1E
100
AcDbEntity
  8
0
100
AcDbLine
 10
17.2223
 20
275.6959999999999
 30
0.0
 11
17.6933
 21
275.12
 31
0.0
  0
LINE
  5
931
330
1E
100
AcDbEntity
  8
0
100
AcDbLine
 10
17.2223
 20
275.6959999999999
 30
0.0
 11
17.33089999999999
 21
276.422
 31
0.0
  0
LINE
  5
932
330
1E
100
AcDbEntity
  8
0
100
AcDbLine
 10
20.0
 20
280.987
 30
0.0
 11
20.7
 21
280.699
 31
0.0
  0
LINE
  5
933
330
1E
100
AcDbEntity
  8
0
100
AcDbLine
 10
19.29999999999999
 20
280.699
 30
0.0
 11
20.0
 21
280.987
 31
0.0
  0
LINE
  5
934
330
1E
100
AcDbEntity
  8
0
100
AcDbLine
 10
19.29999999999999
 20
279.3509999999999
 30
0.0
 11
20.0
 21
279.062
 31
0.0
  0
LINE
  5
935
330
1E
100
AcDbEntity
  8
0
100
AcDbLine
 10
19.0456
 20
275.469
 30
0.0
 11
19.1542
 21
276.194
 31
0.0
  0
LINE
  5
936
330
1E
100
AcDbEntity
  8
0
100
AcDbLine
 10
19.0
 20
280.0249999999999
 30
0.0
 11
19.29999999999999
 21
279.3509999999999
 31
0.0
  0
LINE
  5
937
330
1E
100
AcDbEntity
  8
0
100
AcDbLine
 10
19.0
 20
280.0249999999999
 30
0.0
 11
19.29999999999999
 21
280.699
 31
0.0
  0
LINE
  5
938
330
1E
100
AcDbEntity
  8
0
100
AcDbLine
 10
18.68319999999999
 20
276.7709999999999
 30
0.0
 11
19.1542
 21
276.194
 31
0.0
  0
LINE
  5
939
330
1E
100
AcDbEntity
  8
0
100
AcDbLine
 10
17.9294
 20
276.875
 30
0.0
 11
17.9294
 21
276.9881290864939
 31
0.0
  0
LINE
  5
93A
330
1E
100
AcDbEntity
  8
0
100
AcDbLine
 10
17.9294
 20
276.875
 30
0.0
 11
18.68319999999999
 21
276.7709999999999
 31
0.0
  0
LINE
  5
93B
330
1E
100
AcDbEntity
  8
0
100
AcDbLine
 10
17.9294
 20
276.9881290864939
 30
0.0
 11
17.9294
 21
276.875
 31
0.0
  0
LINE
  5
93C
330
1E
100
AcDbEntity
  8
0
100
AcDbLine
 10
18.4471
 20
275.0159999999999
 30
0.0
 11
19.0456
 21
275.469
 31
0.0
  0
LINE
  5
93D
330
1E
100
AcDbEntity
  8
0
100
AcDbLine
 10
20.7
 20
280.699
 30
0.0
 11
21.0
 21
280.0249999999999
 31
0.0
  0
LINE
  5
93E
330
1E
100
AcDbEntity
  8
0
100
AcDbLine
 10
20.84579999999999
 20
276.194
 30
0.0
 11
20.95439999999999
 21
275.469
 31
0.0
  0
LINE
  5
93F
330
1E
100
AcDbEntity
  8
0
100
AcDbLine
 10
20.84579999999999
 20
276.194
 30
0.0
 11
21.31669999999999
 21
276.7709999999999
 31
0.0
  0
LINE
  5
940
330
1E
100
AcDbEntity
  8
0
100
AcDbLine
 10
20.95439999999999
 20
275.469
 30
0.0
 11
21.5529
 21
275.0159999999999
 31
0.0
  0
LINE
  5
941
330
1E
100
AcDbEntity
  8
0
100
AcDbLine
 10
20.7
 20
279.3509999999999
 30
0.0
 11
21.0
 21
280.0249999999999
 31
0.0
  0
LINE
  5
942
330
1E
100
AcDbEntity
  8
0
100
AcDbLine
 10
20.0
 20
279.062
 30
0.0
 11
20.7
 21
279.3509999999999
 31
0.0
  0
LINE
  5
943
330
1E
100
AcDbEntity
  8
0
100
AcDbLine
 10
34.7224
 20
261.8809999999999
 30
0.0
 11
36.42069999999999
 21
265.8269999999999
 31
0.0
  0
LINE
  5
944
330
1E
100
AcDbEntity
  8
0
100
AcDbLine
 10
28.57
 20
263.897
 30
0.0
 11
29.0262
 21
263.31
 31
0.0
  0
LINE
  5
945
330
1E
100
AcDbEntity
  8
0
100
AcDbLine
 10
29.7825
 20
263.223
 30
0.0
 11
30.39229999999999
 21
263.663
 31
0.0
  0
LINE
  5
946
330
1E
100
AcDbEntity
  8
0
100
AcDbLine
 10
29.1764
 20
260.8709999999999
 30
0.0
 11
31.2411
 21
263.483
 31
0.0
  0
LINE
  5
947
330
1E
100
AcDbEntity
  8
0
100
AcDbLine
 10
29.0617
 20
260.887
 30
0.0
 11
31.0882
 21
263.4629999999999
 31
0.0
  0
LINE
  5
948
330
1E
100
AcDbEntity
  8
0
100
AcDbLine
 10
22.30669999999999
 20
263.755
 30
0.0
 11
22.7776
 21
263.179
 31
0.0
  0
LINE
  5
949
330
1E
100
AcDbEntity
  8
0
100
AcDbLine
 10
29.0262
 20
263.31
 30
0.0
 11
29.7825
 21
263.223
 31
0.0
  0
LINE
  5
94A
330
1E
100
AcDbEntity
  8
0
100
AcDbLine
 10
28.5
 20
255.892
 30
0.0
 11
32.0208
 21
258.492
 31
0.0
  0
LINE
  5
94B
330
1E
100
AcDbEntity
  8
0
100
AcDbLine
 10
29.0
 20
255.308
 30
0.0
 11
32.7279
 21
258.0609999999999
 31
0.0
  0
LINE
  5
94C
330
1E
100
AcDbEntity
  8
0
100
AcDbLine
 10
25.2438
 20
259.348
 30
0.0
 11
26.0
 21
259.4349999999999
 31
0.0
  0
LINE
  5
94D
330
1E
100
AcDbEntity
  8
0
100
AcDbLine
 10
25.0
 20
261.102
 30
0.0
 11
25.7562
 21
261.189
 31
0.0
  0
LINE
  5
94E
330
1E
100
AcDbEntity
  8
0
100
AcDbLine
 10
23.32649999999999
 20
257.6319999999999
 30
0.0
 11
26.46179999999999
 21
258.8829999999999
 31
0.0
  0
LINE
  5
94F
330
1E
100
AcDbEntity
  8
0
100
AcDbLine
 10
23.2882
 20
257.722
 30
0.0
 11
26.3853
 21
258.937
 31
0.0
  0
LINE
  5
950
330
1E
100
AcDbEntity
  8
0
100
AcDbLine
 10
24.65869999999999
 20
253.5769999999999
 30
0.0
 11
29.0
 21
255.308
 31
0.0
  0
LINE
  5
951
330
1E
100
AcDbEntity
  8
0
100
AcDbLine
 10
24.3999
 20
254.2569999999999
 30
0.0
 11
28.5
 21
255.892
 31
0.0
  0
LINE
  5
952
330
1E
100
AcDbEntity
  8
0
100
AcDbLine
 10
22.66899999999999
 20
262.4529999999999
 30
0.0
 11
22.7776
 21
263.179
 31
0.0
  0
LINE
  5
953
330
1E
100
AcDbEntity
  8
0
100
AcDbLine
 10
22.07049999999999
 20
262.0
 30
0.0
 11
22.66899999999999
 21
262.4529999999999
 31
0.0
  0
LINE
  5
954
330
1E
100
AcDbEntity
  8
0
100
AcDbLine
 10
24.63389999999999
 20
259.787
 30
0.0
 11
25.2438
 21
259.348
 31
0.0
  0
LINE
  5
955
330
1E
100
AcDbEntity
  8
0
100
AcDbLine
 10
24.5437
 20
260.515
 30
0.0
 11
24.63389999999999
 21
259.787
 31
0.0
  0
LINE
  5
956
330
1E
100
AcDbEntity
  8
0
100
AcDbLine
 10
24.5437
 20
260.515
 30
0.0
 11
25.0
 21
261.102
 31
0.0
  0
LINE
  5
957
330
1E
100
AcDbEntity
  8
0
100
AcDbLine
 10
26.46179999999999
 20
258.8829999999999
 30
0.0
 11
29.1764
 21
260.8709999999999
 31
0.0
  0
LINE
  5
958
330
1E
100
AcDbEntity
  8
0
100
AcDbLine
 10
26.3853
 20
258.937
 30
0.0
 11
29.0617
 21
260.887
 31
0.0
  0
LINE
  5
959
330
1E
100
AcDbEntity
  8
0
100
AcDbLine
 10
26.0
 20
259.4349999999999
 30
0.0
 11
26.45619999999999
 21
260.0219999999999
 31
0.0
  0
LINE
  5
95A
330
1E
100
AcDbEntity
  8
0
100
AcDbLine
 10
26.366
 20
260.7499999999999
 30
0.0
 11
26.45619999999999
 21
260.0219999999999
 31
0.0
  0
LINE
  5
95B
330
1E
100
AcDbEntity
  8
0
100
AcDbLine
 10
25.7562
 20
261.189
 30
0.0
 11
26.366
 21
260.7499999999999
 31
0.0
  0
LINE
  5
95C
330
1E
100
AcDbEntity
  8
0
100
AcDbLine
 10
32.0208
 20
258.492
 30
0.0
 11
34.7224
 21
261.8809999999999
 31
0.0
  0
LINE
  5
95D
330
1E
100
AcDbEntity
  8
0
100
AcDbLine
 10
32.7279
 20
258.0609999999999
 30
0.0
 11
35.5885
 21
261.649
 31
0.0
  0
LINE
  5
95E
330
1E
100
AcDbEntity
  8
0
100
AcDbLine
 10
32.0
 20
256.2359999999999
 30
0.0
 11
32.0
 21
257.5234564231869
 31
0.0
  0
LINE
  5
95F
330
1E
100
AcDbEntity
  8
0
100
AcDbLine
 10
32.0
 20
257.5234564231869
 30
0.0
 11
32.0
 21
256.2359999999999
 31
0.0
  0
LINE
  5
960
330
1E
100
AcDbEntity
  8
0
100
AcDbLine
 10
28.5
 20
284.232
 30
0.0
 11
32.0208
 21
281.632
 31
0.0
  0
LINE
  5
961
330
1E
100
AcDbEntity
  8
0
100
AcDbLine
 10
29.0
 20
285.3149999999999
 30
0.0
 11
32.7279
 21
282.562
 31
0.0
  0
LINE
  5
962
330
1E
100
AcDbEntity
  8
0
100
AcDbLine
 10
29.0617
 20
278.3309999999999
 30
0.0
 11
31.0882
 21
275.755
 31
0.0
  0
LINE
  5
963
330
1E
100
AcDbEntity
  8
0
100
AcDbLine
 10
29.0262
 20
275.565
 30
0.0
 11
29.7825
 21
275.652
 31
0.0
  0
LINE
  5
964
330
1E
100
AcDbEntity
  8
0
100
AcDbLine
 10
29.26999999999999
 20
273.8109999999999
 30
0.0
 11
30.0262
 21
273.8979999999999
 31
0.0
  0
LINE
  5
965
330
1E
100
AcDbEntity
  8
0
100
AcDbLine
 10
29.26999999999999
 20
265.064
 30
0.0
 11
30.0262
 21
264.977
 31
0.0
  0
LINE
  5
966
330
1E
100
AcDbEntity
  8
0
100
AcDbLine
 10
28.57
 20
274.978
 30
0.0
 11
29.0262
 21
275.565
 31
0.0
  0
LINE
  5
967
330
1E
100
AcDbEntity
  8
0
100
AcDbLine
 10
24.9497
 20
275.1539999999999
 30
0.0
 11
25.6568
 21
274.882
 31
0.0
  0
LINE
  5
968
330
1E
100
AcDbEntity
  8
0
100
AcDbLine
 10
24.24259999999999
 20
274.882
 30
0.0
 11
24.9497
 21
275.1539999999999
 31
0.0
  0
LINE
  5
969
330
1E
100
AcDbEntity
  8
0
100
AcDbLine
 10
24.9497
 20
273.249
 30
0.0
 11
25.6568
 21
273.5209999999999
 31
0.0
  0
LINE
  5
96A
330
1E
100
AcDbEntity
  8
0
100
AcDbLine
 10
23.4641
 20
267.512
 30
0.0
 11
23.55429999999999
 21
268.24
 31
0.0
  0
LINE
  5
96B
330
1E
100
AcDbEntity
  8
0
100
AcDbLine
 10
22.85429999999999
 20
267.0729999999999
 30
0.0
 11
23.4641
 21
267.512
 31
0.0
  0
LINE
  5
96C
330
1E
100
AcDbEntity
  8
0
100
AcDbLine
 10
23.098
 20
268.827
 30
0.0
 11
23.55429999999999
 21
268.24
 31
0.0
  0
LINE
  5
96D
330
1E
100
AcDbEntity
  8
0
100
AcDbLine
 10
22.34179999999999
 20
268.914
 30
0.0
 11
23.098
 21
268.827
 31
0.0
  0
LINE
  5
96E
330
1E
100
AcDbEntity
  8
0
100
AcDbLine
 10
22.09799999999999
 20
267.16
 30
0.0
 11
22.85429999999999
 21
267.0729999999999
 31
0.0
  0
LINE
  5
96F
330
1E
100
AcDbEntity
  8
0
100
AcDbLine
 10
21.732
 20
268.475
 30
0.0
 11
21.732
 21
268.6010584599919
 31
0.0
  0
LINE
  5
970
330
1E
100
AcDbEntity
  8
0
100
AcDbLine
 10
21.732
 20
268.475
 30
0.0
 11
22.34179999999999
 21
268.914
 31
0.0
  0
LINE
  5
971
330
1E
100
AcDbEntity
  8
0
100
AcDbLine
 10
21.732
 20
268.6010584599919
 30
0.0
 11
21.732
 21
268.475
 31
0.0
  0
LINE
  5
972
330
1E
100
AcDbEntity
  8
0
100
AcDbLine
 10
23.4641
 20
271.362
 30
0.0
 11
23.4641
 21
271.4842609804449
 31
0.0
  0
LINE
  5
973
330
1E
100
AcDbEntity
  8
0
100
AcDbLine
 10
23.4641
 20
271.362
 30
0.0
 11
23.55429999999999
 21
270.635
 31
0.0
  0
LINE
  5
974
330
1E
100
AcDbEntity
  8
0
100
AcDbLine
 10
23.4641
 20
271.4842609804449
 30
0.0
 11
23.4641
 21
271.362
 31
0.0
  0
LINE
  5
975
330
1E
100
AcDbEntity
  8
0
100
AcDbLine
 10
22.85429999999999
 20
271.802
 30
0.0
 11
23.4641
 21
271.362
 31
0.0
  0
LINE
  5
976
330
1E
100
AcDbEntity
  8
0
100
AcDbLine
 10
23.098
 20
270.048
 30
0.0
 11
23.55429999999999
 21
270.635
 31
0.0
  0
LINE
  5
977
330
1E
100
AcDbEntity
  8
0
100
AcDbLine
 10
22.09799999999999
 20
271.7149999999999
 30
0.0
 11
22.85429999999999
 21
271.802
 31
0.0
  0
LINE
  5
978
330
1E
100
AcDbEntity
  8
0
100
AcDbLine
 10
22.34179999999999
 20
269.961
 30
0.0
 11
23.098
 21
270.048
 31
0.0
  0
LINE
  5
979
330
1E
100
AcDbEntity
  8
0
100
AcDbLine
 10
21.732
 20
270.3999999999999
 30
0.0
 11
22.34179999999999
 21
269.961
 31
0.0
  0
LINE
  5
97A
330
1E
100
AcDbEntity
  8
0
100
AcDbLine
 10
24.24259999999999
 20
273.5209999999999
 30
0.0
 11
24.9497
 21
273.249
 31
0.0
  0
LINE
  5
97B
330
1E
100
AcDbEntity
  8
0
100
AcDbLine
 10
23.9598
 20
274.202
 30
0.0
 11
24.24259999999999
 21
274.882
 31
0.0
  0
LINE
  5
97C
330
1E
100
AcDbEntity
  8
0
100
AcDbLine
 10
23.9598
 20
274.202
 30
0.0
 11
24.24259999999999
 21
273.5209999999999
 31
0.0
  0
LINE
  5
97D
330
1E
100
AcDbEntity
  8
0
100
AcDbLine
 10
27.2564
 20
266.868
 30
0.0
 11
27.7274
 21
267.4449999999999
 31
0.0
  0
LINE
  5
97E
330
1E
100
AcDbEntity
  8
0
100
AcDbLine
 10
27.0203
 20
268.623
 30
0.0
 11
27.6188
 21
268.17
 31
0.0
  0
LINE
  5
97F
330
1E
100
AcDbEntity
  8
0
100
AcDbLine
 10
26.5026
 20
266.764
 30
0.0
 11
27.2564
 21
266.868
 31
0.0
  0
LINE
  5
980
330
1E
100
AcDbEntity
  8
0
100
AcDbLine
 10
26.2665
 20
268.5189999999999
 30
0.0
 11
27.0203
 21
268.623
 31
0.0
  0
LINE
  5
981
330
1E
100
AcDbEntity
  8
0
100
AcDbLine
 10
25.7955
 20
267.9429999999999
 30
0.0
 11
25.7955
 21
268.0651342541529
 31
0.0
  0
LINE
  5
982
330
1E
100
AcDbEntity
  8
0
100
AcDbLine
 10
25.7955
 20
267.9429999999999
 30
0.0
 11
25.9041
 21
267.2169999999999
 31
0.0
  0
LINE
  5
983
330
1E
100
AcDbEntity
  8
0
100
AcDbLine
 10
25.7955
 20
267.9429999999999
 30
0.0
 11
26.2665
 21
268.5189999999999
 31
0.0
  0
LINE
  5
984
330
1E
100
AcDbEntity
  8
0
100
AcDbLine
 10
25.9041
 20
267.2169999999999
 30
0.0
 11
26.5026
 21
266.764
 31
0.0
  0
LINE
  5
985
330
1E
100
AcDbEntity
  8
0
100
AcDbLine
 10
25.7955
 20
268.0651342541529
 30
0.0
 11
25.7955
 21
267.9429999999999
 31
0.0
  0
LINE
  5
986
330
1E
100
AcDbEntity
  8
0
100
AcDbLine
 10
28.6602
 20
264.625
 30
0.0
 11
28.6602
 21
264.7571813367339
 31
0.0
  0
LINE
  5
987
330
1E
100
AcDbEntity
  8
0
100
AcDbLine
 10
28.6602
 20
264.625
 30
0.0
 11
29.26999999999999
 21
265.064
 31
0.0
  0
LINE
  5
988
330
1E
100
AcDbEntity
  8
0
100
AcDbLine
 10
28.57
 20
263.897
 30
0.0
 11
28.6602
 21
264.625
 31
0.0
  0
LINE
  5
989
330
1E
100
AcDbEntity
  8
0
100
AcDbLine
 10
28.6602
 20
264.7571813367339
 30
0.0
 11
28.6602
 21
264.625
 31
0.0
  0
LINE
  5
98A
330
1E
100
AcDbEntity
  8
0
100
AcDbLine
 10
27.6188
 20
268.17
 30
0.0
 11
27.7274
 21
267.4449999999999
 31
0.0
  0
LINE
  5
98B
330
1E
100
AcDbEntity
  8
0
100
AcDbLine
 10
27.7274
 20
267.5661617868239
 30
0.0
 11
27.7274
 21
267.4449999999999
 31
0.0
  0
LINE
  5
98C
330
1E
100
AcDbEntity
  8
0
100
AcDbLine
 10
27.7274
 20
267.4449999999999
 30
0.0
 11
27.7274
 21
267.5661617868239
 31
0.0
  0
LINE
  5
98D
330
1E
100
AcDbEntity
  8
0
100
AcDbLine
 10
25.6568
 20
274.882
 30
0.0
 11
25.6568
 21
275.0071066055649
 31
0.0
  0
LINE
  5
98E
330
1E
100
AcDbEntity
  8
0
100
AcDbLine
 10
25.6568
 20
274.882
 30
0.0
 11
25.9397
 21
274.202
 31
0.0
  0
LINE
  5
98F
330
1E
100
AcDbEntity
  8
0
100
AcDbLine
 10
25.6568
 20
273.5209999999999
 30
0.0
 11
25.9397
 21
274.202
 31
0.0
  0
LINE
  5
990
330
1E
100
AcDbEntity
  8
0
100
AcDbLine
 10
25.6568
 20
275.0071066055649
 30
0.0
 11
25.6568
 21
274.882
 31
0.0
  0
LINE
  5
991
330
1E
100
AcDbEntity
  8
0
100
AcDbLine
 10
28.57
 20
274.978
 30
0.0
 11
28.6602
 21
274.25
 31
0.0
  0
LINE
  5
992
330
1E
100
AcDbEntity
  8
0
100
AcDbLine
 10
28.6602
 20
274.25
 30
0.0
 11
29.26999999999999
 21
273.8109999999999
 31
0.0
  0
LINE
  5
993
330
1E
100
AcDbEntity
  8
0
100
AcDbLine
 10
24.3999
 20
285.867
 30
0.0
 11
28.5
 21
284.232
 31
0.0
  0
LINE
  5
994
330
1E
100
AcDbEntity
  8
0
100
AcDbLine
 10
25.2438
 20
279.5269999999999
 30
0.0
 11
26.0
 21
279.4399999999999
 31
0.0
  0
LINE
  5
995
330
1E
100
AcDbEntity
  8
0
100
AcDbLine
 10
25.0
 20
277.7729999999999
 30
0.0
 11
25.7562
 21
277.6859999999999
 31
0.0
  0
LINE
  5
996
330
1E
100
AcDbEntity
  8
0
100
AcDbLine
 10
23.2882
 20
281.4959999999999
 30
0.0
 11
26.3853
 21
280.281
 31
0.0
  0
LINE
  5
997
330
1E
100
AcDbEntity
  8
0
100
AcDbLine
 10
22.66899999999999
 20
276.422
 30
0.0
 11
22.7776
 21
275.6959999999999
 31
0.0
  0
LINE
  5
998
330
1E
100
AcDbEntity
  8
0
100
AcDbLine
 10
22.07049999999999
 20
276.875
 30
0.0
 11
22.07049999999999
 21
276.987770440252
 31
0.0
  0
LINE
  5
999
330
1E
100
AcDbEntity
  8
0
100
AcDbLine
 10
22.07049999999999
 20
276.875
 30
0.0
 11
22.66899999999999
 21
276.422
 31
0.0
  0
LINE
  5
99A
330
1E
100
AcDbEntity
  8
0
100
AcDbLine
 10
22.07049999999999
 20
276.987770440252
 30
0.0
 11
22.07049999999999
 21
276.875
 31
0.0
  0
LINE
  5
99B
330
1E
100
AcDbEntity
  8
0
100
AcDbLine
 10
22.30669999999999
 20
275.12
 30
0.0
 11
22.7776
 21
275.6959999999999
 31
0.0
  0
LINE
  5
99C
330
1E
100
AcDbEntity
  8
0
100
AcDbLine
 10
24.63389999999999
 20
279.0879999999999
 30
0.0
 11
25.2438
 21
279.5269999999999
 31
0.0
  0
LINE
  5
99D
330
1E
100
AcDbEntity
  8
0
100
AcDbLine
 10
24.5437
 20
278.36
 30
0.0
 11
24.63389999999999
 21
279.0879999999999
 31
0.0
  0
LINE
  5
99E
330
1E
100
AcDbEntity
  8
0
100
AcDbLine
 10
24.5437
 20
278.36
 30
0.0
 11
25.0
 21
277.7729999999999
 31
0.0
  0
LINE
  5
99F
330
1E
100
AcDbEntity
  8
0
100
AcDbLine
 10
26.3853
 20
280.281
 30
0.0
 11
29.0617
 21
278.3309999999999
 31
0.0
  0
LINE
  5
9A0
330
1E
100
AcDbEntity
  8
0
100
AcDbLine
 10
26.366
 20
278.125
 30
0.0
 11
26.45619999999999
 21
278.853
 31
0.0
  0
LINE
  5
9A1
330
1E
100
AcDbEntity
  8
0
100
AcDbLine
 10
26.0
 20
279.5789516152469
 30
0.0
 11
26.0
 21
279.4399999999999
 31
0.0
  0
LINE
  5
9A2
330
1E
100
AcDbEntity
  8
0
100
AcDbLine
 10
26.0
 20
279.4399999999999
 30
0.0
 11
26.0
 21
279.5789516152469
 31
0.0
  0
LINE
  5
9A3
330
1E
100
AcDbEntity
  8
0
100
AcDbLine
 10
26.0
 20
279.4399999999999
 30
0.0
 11
26.45619999999999
 21
278.853
 31
0.0
  0
LINE
  5
9A4
330
1E
100
AcDbEntity
  8
0
100
AcDbLine
 10
25.7562
 20
277.6859999999999
 30
0.0
 11
26.366
 21
278.125
 31
0.0
  0
LINE
  5
9A5
330
1E
100
AcDbEntity
  8
0
100
AcDbLine
 10
34.7224
 20
278.243
 30
0.0
 11
36.42069999999999
 21
274.297
 31
0.0
  0
LINE
  5
9A6
330
1E
100
AcDbEntity
  8
0
100
AcDbLine
 10
31.0882
 20
275.755
 30
0.0
 11
32.35
 21
272.774
 31
0.0
  0
LINE
  5
9A7
330
1E
100
AcDbEntity
  8
0
100
AcDbLine
 10
30.39229999999999
 20
275.212
 30
0.0
 11
30.4825
 21
274.485
 31
0.0
  0
LINE
  5
9A8
330
1E
100
AcDbEntity
  8
0
100
AcDbLine
 10
32.5411
 20
266.5009999999999
 30
0.0
 11
33.0
 21
269.7029999999999
 31
0.0
  0
LINE
  5
9A9
330
1E
100
AcDbEntity
  8
0
100
AcDbLine
 10
32.35
 20
266.444
 30
0.0
 11
32.80879999999999
 21
269.609
 31
0.0
  0
LINE
  5
9AA
330
1E
100
AcDbEntity
  8
0
100
AcDbLine
 10
31.7
 20
268.764
 30
0.0
 11
32.0
 21
269.437
 31
0.0
  0
LINE
  5
9AB
330
1E
100
AcDbEntity
  8
0
100
AcDbLine
 10
30.0
 20
269.437
 30
0.0
 11
30.29999999999999
 21
268.764
 31
0.0
  0
LINE
  5
9AC
330
1E
100
AcDbEntity
  8
0
100
AcDbLine
 10
31.2411
 20
263.483
 30
0.0
 11
32.5411
 21
266.5009999999999
 31
0.0
  0
LINE
  5
9AD
330
1E
100
AcDbEntity
  8
0
100
AcDbLine
 10
31.0
 20
268.475
 30
0.0
 11
31.7
 21
268.764
 31
0.0
  0
LINE
  5
9AE
330
1E
100
AcDbEntity
  8
0
100
AcDbLine
 10
31.0882
 20
263.4629999999999
 30
0.0
 11
32.35
 21
266.444
 31
0.0
  0
LINE
  5
9AF
330
1E
100
AcDbEntity
  8
0
100
AcDbLine
 10
30.39229999999999
 20
263.663
 30
0.0
 11
30.4825
 21
264.3899999999999
 31
0.0
  0
LINE
  5
9B0
330
1E
100
AcDbEntity
  8
0
100
AcDbLine
 10
30.0262
 20
264.977
 30
0.0
 11
30.4825
 21
264.3899999999999
 31
0.0
  0
LINE
  5
9B1
330
1E
100
AcDbEntity
  8
0
100
AcDbLine
 10
30.29999999999999
 20
268.764
 30
0.0
 11
31.0
 21
268.475
 31
0.0
  0
LINE
  5
9B2
330
1E
100
AcDbEntity
  8
0
100
AcDbLine
 10
31.0
 20
270.3999999999999
 30
0.0
 11
31.7
 21
270.1109999999999
 31
0.0
  0
LINE
  5
9B3
330
1E
100
AcDbEntity
  8
0
100
AcDbLine
 10
30.0262
 20
273.8979999999999
 30
0.0
 11
30.4825
 21
274.485
 31
0.0
  0
LINE
  5
9B4
330
1E
100
AcDbEntity
  8
0
100
AcDbLine
 10
30.29999999999999
 20
270.1109999999999
 30
0.0
 11
31.0
 21
270.3999999999999
 31
0.0
  0
LINE
  5
9B5
330
1E
100
AcDbEntity
  8
0
100
AcDbLine
 10
30.0
 20
269.437
 30
0.0
 11
30.0
 21
269.562
 31
0.0
  0
LINE
  5
9B6
330
1E
100
AcDbEntity
  8
0
100
AcDbLine
 10
30.0
 20
269.437
 30
0.0
 11
30.29999999999999
 21
270.1109999999999
 31
0.0
  0
LINE
  5
9B7
330
1E
100
AcDbEntity
  8
0
100
AcDbLine
 10
30.0
 20
269.562
 30
0.0
 11
30.0
 21
269.437
 31
0.0
  0
LINE
  5
9B8
330
1E
100
AcDbEntity
  8
0
100
AcDbLine
 10
33.0
 20
269.7957209754139
 30
0.0
 11
33.0
 21
269.7029999999999
 31
0.0
  0
LINE
  5
9B9
330
1E
100
AcDbEntity
  8
0
100
AcDbLine
 10
33.0
 20
269.7029999999999
 30
0.0
 11
33.0
 21
269.7957209754139
 31
0.0
  0
LINE
  5
9BA
330
1E
100
AcDbEntity
  8
0
100
AcDbLine
 10
32.35
 20
272.774
 30
0.0
 11
32.80879999999999
 21
269.609
 31
0.0
  0
LINE
  5
9BB
330
1E
100
AcDbEntity
  8
0
100
AcDbLine
 10
32.0
 20
269.562
 30
0.0
 11
32.0
 21
269.437
 31
0.0
  0
LINE
  5
9BC
330
1E
100
AcDbEntity
  8
0
100
AcDbLine
 10
32.0
 20
269.437
 30
0.0
 11
32.0
 21
269.562
 31
0.0
  0
LINE
  5
9BD
330
1E
100
AcDbEntity
  8
0
100
AcDbLine
 10
31.7
 20
270.1109999999999
 30
0.0
 11
32.0
 21
269.437
 31
0.0
  0
LINE
  5
9BE
330
1E
100
AcDbEntity
  8
0
100
AcDbLine
 10
36.42069999999999
 20
265.8269999999999
 30
0.0
 11
37.0
 21
270.062
 31
0.0
  0
LINE
  5
9BF
330
1E
100
AcDbEntity
  8
0
100
AcDbLine
 10
36.42069999999999
 20
274.297
 30
0.0
 11
37.0
 21
270.062
 31
0.0
  0
LINE
  5
9C0
330
1E
100
AcDbEntity
  8
0
100
AcDbLine
 10
32.0208
 20
281.632
 30
0.0
 11
34.7224
 21
278.243
 31
0.0
  0
LINE
  5
9C1
330
1E
100
AcDbEntity
  8
0
100
AcDbLine
 10
32.7279
 20
282.562
 30
0.0
 11
35.5885
 21
278.974
 31
0.0
  0
LINE
  5
9C2
330
1E
100
AcDbEntity
  8
0
100
AcDbLine
 10
29.7825
 20
275.652
 30
0.0
 11
30.39229999999999
 21
275.212
 31
0.0
  0
LINE
  5
9C3
330
1E
100
AcDbEntity
  8
0
100
AcDbLine
 10
30.39229999999999
 20
275.212
 30
0.0
 11
30.39229999999999
 21
275.3287829413349
 31
0.0
  0
LINE
  5
9C4
330
1E
100
AcDbEntity
  8
0
100
AcDbLine
 10
30.39229999999999
 20
275.3287829413349
 30
0.0
 11
30.39229999999999
 21
275.212
 31
0.0
  0
LINE
  5
9C5
330
1E
100
AcDbEntity
  8
0
100
AcDbLine
 10
20.0
 20
295.8059999999999
 30
0.0
 11
25.1764
 21
295.151
 31
0.0
  0
LINE
  5
9C6
330
1E
100
AcDbEntity
  8
0
100
AcDbLine
 10
20.0
 20
287.637
 30
0.0
 11
24.65869999999999
 21
287.047
 31
0.0
  0
LINE
  5
9C7
330
1E
100
AcDbEntity
  8
0
100
AcDbLine
 10
10.0
 20
293.227
 30
0.0
 11
14.82359999999999
 21
295.151
 31
0.0
  0
LINE
  5
9C8
330
1E
100
AcDbEntity
  8
0
100
AcDbLine
 10
14.82359999999999
 20
295.151
 30
0.0
 11
20.0
 21
295.8059999999999
 31
0.0
  0
LINE
  5
9C9
330
1E
100
AcDbEntity
  8
0
100
AcDbLine
 10
15.3413
 20
287.047
 30
0.0
 11
20.0
 21
287.637
 31
0.0
  0
LINE
  5
9CA
330
1E
100
AcDbEntity
  8
0
100
AcDbLine
 10
25.1764
 20
295.151
 30
0.0
 11
30.0
 21
293.227
 31
0.0
  0
LINE
  5
9CB
330
1E
100
AcDbEntity
  8
0
100
AcDbLine
 10
30.0
 20
293.227
 30
0.0
 11
34.1421
 21
290.168
 31
0.0
  0
LINE
  5
9CC
330
1E
100
AcDbEntity
  8
0
100
AcDbLine
 10
39.3185
 20
271.574
 30
0.0
 11
40.0
 21
276.5559999999999
 31
0.0
  0
LINE
  5
9CD
330
1E
100
AcDbEntity
  8
0
100
AcDbLine
 10
37.38669999999999
 20
265.8269999999999
 30
0.0
 11
38.0
 21
270.312
 31
0.0
  0
LINE
  5
9CE
330
1E
100
AcDbEntity
  8
0
100
AcDbLine
 10
38.3526
 20
268.825
 30
0.0
 11
39.3185
 21
271.574
 31
0.0
  0
LINE
  5
9CF
330
1E
100
AcDbEntity
  8
0
100
AcDbLine
 10
37.38669999999999
 20
265.8269999999999
 30
0.0
 11
38.3526
 21
268.825
 31
0.0
  0
LINE
  5
9D0
330
1E
100
AcDbEntity
  8
0
100
AcDbLine
 10
37.38669999999999
 20
274.7959999999999
 30
0.0
 11
38.0
 21
270.312
 31
0.0
  0
LINE
  5
9D1
330
1E
100
AcDbEntity
  8
0
100
AcDbLine
 10
39.3185
 20
281.538
 30
0.0
 11
40.0
 21
276.5559999999999
 31
0.0
  0
LINE
  5
9D2
330
1E
100
AcDbEntity
  8
0
100
AcDbLine
 10
37.3205
 20
286.1809999999999
 30
0.0
 11
39.3185
 21
281.538
 31
0.0
  0
ENDSEC
  0
SECTION
  2
OBJECTS
  0
DICTIONARY
  5
C
330
0
100
AcDbDictionary
281
     1
  3
ACAD_GROUP
350
D
  3
ACAD_LAYOUT
350
19
  3
ACAD_MLINESTYLE
350
16
  3
ACAD_PLOTSETTINGS
350
18
  3
ACAD_PLOTSTYLENAME
350
E
  3
AcDbVariableDictionary
350
9D4
  0
DICTIONARY
  5
D
102
{ACAD_REACTORS
330
C
102
}
330
C
100
AcDbDictionary
281
     1
  0
DICTIONARY
  5
19
102
{ACAD_REACTORS
330
C
102
}
330
C
100
AcDbDictionary
281
     1
  3
Layout1
350
1D
  3
Model
350
21
  0
DICTIONARY
  5
16
102
{ACAD_REACTORS
330
C
102
}
330
C
100
AcDbDictionary
281
     1
  3
Standard
350
17
  0
DICTIONARY
  5
18
102
{ACAD_REACTORS
330
C
102
}
330
C
100
AcDbDictionary
281
     1
  0
ACDBDICTIONARYWDFLT
  5
E
102
{ACAD_REACTORS
330
C
102
}
330
C
100
AcDbDictionary
281
     1
  3
Normal
350
F
100
AcDbDictionaryWithDefault
340
F
  0
DICTIONARY
  5
9D4
102
{ACAD_REACTORS
330
C
102
}
330
C
100
AcDbDictionary
281
     1
  3
DIMASSOC
350
9D5
  0
LAYOUT
  5
1D
102
{ACAD_REACTORS
330
19
102
}
330
19
100
AcDbPlotSettings
  1

  2
C:\Programme\AutoCAD LT 2002 Deu\plotters\DWF ePlot (optimized for plotting).pc3
  4

  6

 40
0.0
 41
0.0
 42
0.0
 43
0.0
 44
0.0
 45
0.0
 46
0.0
 47
0.0
 48
0.0
 49
0.0
140
0.0
141
0.0
142
1.0
143
1.0
 70
   688
 72
     0
 73
     0
 74
     5
  7

 75
    16
147
1.0
148
0.0
149
0.0
100
AcDbLayout
  1
Layout1
 70
     1
 71
     1
 10
0.0
 20
0.0
 11
12.0
 21
9.0
 12
0.0
 22
0.0
 32
0.0
 14
1.000000000000000E+20
 24
1.000000000000000E+20
 34
1.000000000000000E+20
 15
-1.000000000000000E+20
 25
-1.000000000000000E+20
 35
-1.000000000000000E+20
146
0.0
 13
0.0
 23
0.0
 33
0.0
 16
1.0
 26
0.0
 36
0.0
 17
0.0
 27
1.0
 37
0.0
 76
     0
330
1A
  0
LAYOUT
  5
21
102
{ACAD_REACTORS
330
19
102
}
330
19
100
AcDbPlotSettings
  1

  2
C:\Programme\AutoCAD LT 2002 Deu\plotters\DWF ePlot (optimized for plotting).pc3
  4

  6

 40
0.0
 41
0.0
 42
0.0
 43
0.0
 44
0.0
 45
0.0
 46
0.0
 47
0.0
 48
0.0
 49
0.0
140
0.0
141
0.0
142
1.0
143
1.0
 70
  1712
 72
     0
 73
     0
 74
     0
  7

 75
     0
147
1.0
148
0.0
149
0.0
100
AcDbLayout
  1
Model
 70
     1
 71
     0
 10
0.0
 20
0.0
 11
12.0
 21
9.0
 12
0.0
 22
0.0
 32
0.0
 14
0.0
 24
0.0
 34
0.0
 15
0.0
 25
0.0
 35
0.0
146
0.0
 13
0.0
 23
0.0
 33
0.0
 16
1.0
 26
0.0
 36
0.0
 17
0.0
 27
1.0
 37
0.0
 76
     0
330
1E
  0
MLINESTYLE
  5
17
102
{ACAD_REACTORS
330
16
102
}
330
16
100
AcDbMlineStyle
  2
STANDARD
 70
     0
  3

 62
   256
 51
90.0
 52
90.0
 71
     2
 49
0.5
 62
   256
  6
BYLAYER
 49
-0.5
 62
   256
  6
BYLAYER
  0
ACDBPLACEHOLDER
  5
F
102
{ACAD_REACTORS
330
E
102
}
330
E
  0
DICTIONARYVAR
  5
9D5
102
{ACAD_REACTORS
330
9D4
102
}
330
9D4
100
DictionaryVariables
280
     0
  1
1
  0
ENDSEC
  0
EOF
