  0
SECTION
  2
HEADER
  9
$ACADVER
  1
AC1015
  9
$ACADMAINTVER
 70
    13
  9
$DWGCODEPAGE
  3
ANSI_1252
  9
$INSBASE
 10
0.0
 20
0.0
 30
0.0
  9
$EXTMIN
 10
0.0
 20
0.0075500000000058
 30
0.0
  9
$EXTMAX
 10
54.0
 20
54.06334075869683
 30
0.0
  9
$LIMMIN
 10
0.0
 20
0.0
  9
$LIMMAX
 10
12.0
 20
9.0
  9
$ORTHOMODE
 70
     0
  9
$REGENMODE
 70
     1
  9
$FILLMODE
 70
     1
  9
$QTEXTMODE
 70
     0
  9
$MIRRTEXT
 70
     1
  9
$LTSCALE
 40
1.0
  9
$ATTMODE
 70
     1
  9
$TEXTSIZE
 40
0.2
  9
$TRACEWID
 40
0.05
  9
$TEXTSTYLE
  7
Standard
  9
$CLAYER
  8
0
  9
$CELTYPE
  6
Continuous
  9
$CECOLOR
 62
   256
  9
$CELTSCALE
 40
1.0
  9
$DISPSILH
 70
     0
  9
$DIMSCALE
 40
1.0
  9
$DIMASZ
 40
0.18
  9
$DIMEXO
 40
0.0625
  9
$DIMDLI
 40
0.38
  9
$DIMRND
 40
0.0
  9
$DIMDLE
 40
0.0
  9
$DIMEXE
 40
0.18
  9
$DIMTP
 40
0.0
  9
$DIMTM
 40
0.0
  9
$DIMTXT
 40
0.18
  9
$DIMCEN
 40
0.09
  9
$DIMTSZ
 40
0.0
  9
$DIMTOL
 70
     0
  9
$DIMLIM
 70
     0
  9
$DIMTIH
 70
     1
  9
$DIMTOH
 70
     1
  9
$DIMSE1
 70
     0
  9
$DIMSE2
 70
     0
  9
$DIMTAD
 70
     0
  9
$DIMZIN
 70
     0
  9
$DIMBLK
  1

  9
$DIMASO
 70
     1
  9
$DIMSHO
 70
     1
  9
$DIMPOST
  1

  9
$DIMAPOST
  1

  9
$DIMALT
 70
     0
  9
$DIMALTD
 70
     2
  9
$DIMALTF
 40
25.4
  9
$DIMLFAC
 40
1.0
  9
$DIMTOFL
 70
     0
  9
$DIMTVP
 40
0.0
  9
$DIMTIX
 70
     0
  9
$DIMSOXD
 70
     0
  9
$DIMSAH
 70
     0
  9
$DIMBLK1
  1

  9
$DIMBLK2
  1

  9
$DIMSTYLE
  2
Standard
  9
$DIMCLRD
 70
     0
  9
$DIMCLRE
 70
     0
  9
$DIMCLRT
 70
     0
  9
$DIMTFAC
 40
1.0
  9
$DIMGAP
 40
0.09
  9
$DIMJUST
 70
     0
  9
$DIMSD1
 70
     0
  9
$DIMSD2
 70
     0
  9
$DIMTOLJ
 70
     1
  9
$DIMTZIN
 70
     0
  9
$DIMALTZ
 70
     0
  9
$DIMALTTZ
 70
     0
  9
$DIMUPT
 70
     0
  9
$DIMDEC
 70
     4
  9
$DIMTDEC
 70
     4
  9
$DIMALTU
 70
     2
  9
$DIMALTTD
 70
     2
  9
$DIMTXSTY
  7
Standard
  9
$DIMAUNIT
 70
     0
  9
$DIMADEC
 70
     0
  9
$DIMALTRND
 40
0.0
  9
$DIMAZIN
 70
     0
  9
$DIMDSEP
 70
    46
  9
$DIMATFIT
 70
     3
  9
$DIMFRAC
 70
     0
  9
$DIMLDRBLK
  1

  9
$DIMLUNIT
 70
     2
  9
$DIMLWD
 70
    -2
  9
$DIMLWE
 70
    -2
  9
$DIMTMOVE
 70
     0
  9
$LUNITS
 70
     2
  9
$LUPREC
 70
     4
  9
$SKETCHINC
 40
0.1
  9
$FILLETRAD
 40
0.0
  9
$AUNITS
 70
     0
  9
$AUPREC
 70
     0
  9
$MENU
  1
.
  9
$ELEVATION
 40
0.0
  9
$PELEVATION
 40
0.0
  9
$THICKNESS
 40
0.0
  9
$LIMCHECK
 70
     0
  9
$CHAMFERA
 40
0.0
  9
$CHAMFERB
 40
0.0
  9
$CHAMFERC
 40
0.0
  9
$CHAMFERD
 40
0.0
  9
$SKPOLY
 70
     0
  9
$TDCREATE
 40
2455651.997436516
  9
$TDUCREATE
 40
2455651.914103182
  9
$TDUPDATE
 40
2455652.001161377
  9
$TDUUPDATE
 40
2455651.917828043
  9
$TDINDWG
 40
0.0037248611
  9
$TDUSRTIMER
 40
0.0037248611
  9
$USRTIMER
 70
     1
  9
$ANGBASE
 50
0.0
  9
$ANGDIR
 70
     0
  9
$PDMODE
 70
     0
  9
$PDSIZE
 40
0.0
  9
$PLINEWID
 40
0.0
  9
$SPLFRAME
 70
     0
  9
$SPLINETYPE
 70
     6
  9
$SPLINESEGS
 70
     8
  9
$HANDSEED
  5
399
  9
$SURFTAB1
 70
     6
  9
$SURFTAB2
 70
     6
  9
$SURFTYPE
 70
     6
  9
$SURFU
 70
     6
  9
$SURFV
 70
     6
  9
$UCSBASE
  2

  9
$UCSNAME
  2

  9
$UCSORG
 10
0.0
 20
0.0
 30
0.0
  9
$UCSXDIR
 10
1.0
 20
0.0
 30
0.0
  9
$UCSYDIR
 10
0.0
 20
1.0
 30
0.0
  9
$UCSORTHOREF
  2

  9
$UCSORTHOVIEW
 70
     1
  9
$UCSORGTOP
 10
0.0
 20
0.0
 30
0.0
  9
$UCSORGBOTTOM
 10
0.0
 20
0.0
 30
0.0
  9
$UCSORGLEFT
 10
0.0
 20
0.0
 30
0.0
  9
$UCSORGRIGHT
 10
0.0
 20
0.0
 30
0.0
  9
$UCSORGFRONT
 10
0.0
 20
0.0
 30
0.0
  9
$UCSORGBACK
 10
0.0
 20
0.0
 30
0.0
  9
$PUCSBASE
  2

  9
$PUCSNAME
  2

  9
$PUCSORG
 10
0.0
 20
0.0
 30
0.0
  9
$PUCSXDIR
 10
1.0
 20
0.0
 30
0.0
  9
$PUCSYDIR
 10
0.0
 20
1.0
 30
0.0
  9
$PUCSORTHOREF
  2

  9
$PUCSORTHOVIEW
 70
     0
  9
$PUCSORGTOP
 10
0.0
 20
0.0
 30
0.0
  9
$PUCSORGBOTTOM
 10
0.0
 20
0.0
 30
0.0
  9
$PUCSORGLEFT
 10
0.0
 20
0.0
 30
0.0
  9
$PUCSORGRIGHT
 10
0.0
 20
0.0
 30
0.0
  9
$PUCSORGFRONT
 10
0.0
 20
0.0
 30
0.0
  9
$PUCSORGBACK
 10
0.0
 20
0.0
 30
0.0
  9
$USERI1
 70
     0
  9
$USERI2
 70
     0
  9
$USERI3
 70
     0
  9
$USERI4
 70
     0
  9
$USERI5
 70
     0
  9
$USERR1
 40
0.0
  9
$USERR2
 40
0.0
  9
$USERR3
 40
0.0
  9
$USERR4
 40
0.0
  9
$USERR5
 40
0.0
  9
$WORLDVIEW
 70
     1
  9
$SHADEDGE
 70
     3
  9
$SHADEDIF
 70
    70
  9
$TILEMODE
 70
     1
  9
$MAXACTVP
 70
    64
  9
$PINSBASE
 10
0.0
 20
0.0
 30
0.0
  9
$PLIMCHECK
 70
     0
  9
$PEXTMIN
 10
1.000000000000000E+20
 20
1.000000000000000E+20
 30
1.000000000000000E+20
  9
$PEXTMAX
 10
-1.000000000000000E+20
 20
-1.000000000000000E+20
 30
-1.000000000000000E+20
  9
$PLIMMIN
 10
0.0
 20
0.0
  9
$PLIMMAX
 10
12.0
 20
9.0
  9
$UNITMODE
 70
     0
  9
$VISRETAIN
 70
     1
  9
$PLINEGEN
 70
     0
  9
$PSLTSCALE
 70
     1
  9
$TREEDEPTH
 70
  3020
  9
$CMLSTYLE
  2
Standard
  9
$CMLJUST
 70
     0
  9
$CMLSCALE
 40
1.0
  9
$PROXYGRAPHICS
 70
     1
  9
$MEASUREMENT
 70
     0
  9
$CELWEIGHT
370
    -1
  9
$ENDCAPS
280
     0
  9
$JOINSTYLE
280
     0
  9
$LWDISPLAY
290
     0
  9
$INSUNITS
 70
     0
  9
$HYPERLINKBASE
  1

  9
$STYLESHEET
  1

  9
$XEDIT
290
     1
  9
$CEPSNTYPE
380
     0
  9
$PSTYLEMODE
290
     1
  9
$FINGERPRINTGUID
  2
{45411F18-02D5-4D10-8B18-5424B2C71D85}
  9
$VERSIONGUID
  2
{42CF1E8B-23DB-4372-B672-24E419843D1D}
  9
$EXTNAMES
290
     1
  9
$PSVPSCALE
 40
0.0
  9
$OLESTARTUP
290
     0
  0
ENDSEC
  0
SECTION
  2
CLASSES
  0
CLASS
  1
ACDBDICTIONARYWDFLT
  2
AcDbDictionaryWithDefault
  3
AutoCAD 2000
 90
        0
280
     0
281
     0
  0
CLASS
  1
ACDBPLACEHOLDER
  2
AcDbPlaceHolder
  3
AutoCAD 2000
 90
        0
280
     0
281
     0
  0
CLASS
  1
LAYOUT
  2
AcDbLayout
  3
AutoCAD 2000
 90
        0
280
     0
281
     0
  0
CLASS
  1
DICTIONARYVAR
  2
AcDbDictionaryVar
  3
AutoCAD 2000
 90
        0
280
     0
281
     0
  0
ENDSEC
  0
SECTION
  2
TABLES
  0
TABLE
  2
VPORT
  5
8
330
0
100
AcDbSymbolTable
 70
     3
  0
VPORT
  5
398
330
8
100
AcDbSymbolTableRecord
100
AcDbViewportTableRecord
  2
*Active
 70
     0
 10
0.0
 20
0.0
 11
1.0
 21
1.0
 12
27.0
 22
27.03544537934841
 13
0.0
 23
0.0
 14
1.0
 24
1.0
 15
0.0
 25
0.0
 16
0.0
 26
0.0
 36
1.0
 17
0.0
 27
0.0
 37
0.0
 40
54.42144436022125
 41
2.073363431151241
 42
50.0
 43
0.0
 44
0.0
 50
0.0
 51
0.0
 71
     0
 72
   100
 73
     1
 74
     3
 75
     0
 76
     0
 77
     0
 78
     0
281
     0
 65
     1
110
0.0
120
0.0
130
0.0
111
1.0
121
0.0
131
0.0
112
0.0
122
1.0
132
0.0
 79
     1
146
0.0
  0
ENDTAB
  0
TABLE
  2
LTYPE
  5
5
330
0
100
AcDbSymbolTable
 70
     1
  0
LTYPE
  5
13
330
5
100
AcDbSymbolTableRecord
100
AcDbLinetypeTableRecord
  2
ByBlock
 70
     0
  3

 72
    65
 73
     0
 40
0.0
  0
LTYPE
  5
14
330
5
100
AcDbSymbolTableRecord
100
AcDbLinetypeTableRecord
  2
ByLayer
 70
     0
  3

 72
    65
 73
     0
 40
0.0
  0
LTYPE
  5
15
330
5
100
AcDbSymbolTableRecord
100
AcDbLinetypeTableRecord
  2
Continuous
 70
     0
  3
Solid line
 72
    65
 73
     0
 40
0.0
  0
ENDTAB
  0
TABLE
  2
LAYER
  5
2
330
0
100
AcDbSymbolTable
 70
     1
  0
LAYER
  5
10
330
2
100
AcDbSymbolTableRecord
100
AcDbLayerTableRecord
  2
0
 70
     0
 62
     7
  6
Continuous
370
    -3
390
F
  0
ENDTAB
  0
TABLE
  2
STYLE
  5
3
330
0
100
AcDbSymbolTable
 70
     1
  0
STYLE
  5
11
330
3
100
AcDbSymbolTableRecord
100
AcDbTextStyleTableRecord
  2
Standard
 70
     0
 40
0.0
 41
1.0
 50
0.0
 71
     0
 42
0.2
  3
txt
  4

  0
ENDTAB
  0
TABLE
  2
VIEW
  5
6
330
0
100
AcDbSymbolTable
 70
     0
  0
ENDTAB
  0
TABLE
  2
UCS
  5
7
330
0
100
AcDbSymbolTable
 70
     0
  0
ENDTAB
  0
TABLE
  2
APPID
  5
9
330
0
100
AcDbSymbolTable
 70
     1
  0
APPID
  5
12
330
9
100
AcDbSymbolTableRecord
100
AcDbRegAppTableRecord
  2
ACAD
 70
     0
  0
ENDTAB
  0
TABLE
  2
DIMSTYLE
  5
A
330
0
100
AcDbSymbolTable
 70
     1
100
AcDbDimStyleTable
 71
     0
  0
DIMSTYLE
105
26C
330
A
100
AcDbSymbolTableRecord
100
AcDbDimStyleTableRecord
  2
Standard
 70
     0
340
11
  0
ENDTAB
  0
TABLE
  2
BLOCK_RECORD
  5
1
330
0
100
AcDbSymbolTable
 70
     0
  0
BLOCK_RECORD
  5
1E
330
1
100
AcDbSymbolTableRecord
100
AcDbBlockTableRecord
  2
*Model_Space
340
21
  0
BLOCK_RECORD
  5
1A
330
1
100
AcDbSymbolTableRecord
100
AcDbBlockTableRecord
  2
*Paper_Space
340
1D
  0
ENDTAB
  0
ENDSEC
  0
SECTION
  2
BLOCKS
  0
BLOCK
  5
1F
330
1E
100
AcDbEntity
  8
0
100
AcDbBlockBegin
  2
*Model_Space
 70
     0
 10
0.0
 20
0.0
 30
0.0
  3
*Model_Space
  1

  0
ENDBLK
  5
20
330
1E
100
AcDbEntity
  8
0
100
AcDbBlockEnd
  0
BLOCK
  5
1B
330
1A
100
AcDbEntity
 67
     1
  8
0
100
AcDbBlockBegin
  2
*Paper_Space
 70
     0
 10
0.0
 20
0.0
 30
0.0
  3
*Paper_Space
  1

  0
ENDBLK
  5
1C
330
1A
100
AcDbEntity
 67
     1
  8
0
100
AcDbBlockEnd
  0
ENDSEC
  0
SECTION
  2
ENTITIES
  0
LINE
  5
22
330
1E
100
AcDbEntity
  8
0
100
AcDbLine
 10
26.3518
 20
0.0075500000000058
 30
0.0
 11
27.0
 21
0.0226890000000058
 31
0.0
  0
LINE
  5
23
330
1E
100
AcDbEntity
  8
0
100
AcDbLine
 10
0.6081800000000001
 20
21.27185
 30
0.0
 11
1.273379999999999
 21
18.78915
 31
0.0
  0
LINE
  5
24
330
1E
100
AcDbEntity
  8
0
100
AcDbLine
 10
0.182054
 20
23.80665
 30
0.0
 11
0.6081800000000001
 21
21.27185
 31
0.0
  0
LINE
  5
25
330
1E
100
AcDbEntity
  8
0
100
AcDbLine
 10
0.061018
 20
28.93915
 30
0.0
 11
0.367109
 21
31.49185
 31
0.0
  0
LINE
  5
26
330
1E
100
AcDbEntity
  8
0
100
AcDbLine
 10
0.061018
 20
28.93915
 30
0.0
 11
0.367109
 21
31.49185
 31
0.0
  0
LINE
  5
27
330
1E
100
AcDbEntity
  8
0
100
AcDbLine
 10
0.367109
 20
31.49185
 30
0.0
 11
0.9132709999999999
 21
34.00265
 31
0.0
  0
LINE
  5
28
330
1E
100
AcDbEntity
  8
0
100
AcDbLine
 10
0.9132709999999999
 20
34.00265
 30
0.0
 11
1.696499999999999
 21
36.45134999999999
 31
0.0
  0
LINE
  5
29
330
1E
100
AcDbEntity
  8
0
100
AcDbLine
 10
0.0
 20
26.37035
 30
0.0
 11
0.061018
 21
28.93915
 31
0.0
  0
LINE
  5
2A
330
1E
100
AcDbEntity
  8
0
100
AcDbLine
 10
0.0
 20
26.37035
 30
0.0
 11
0.182054
 21
23.80665
 31
0.0
  0
LINE
  5
2B
330
1E
100
AcDbEntity
  8
0
100
AcDbLine
 10
14.0512
 20
3.305530000000009
 30
0.0
 11
16.3628
 21
2.18219000000001
 31
0.0
  0
LINE
  5
2C
330
1E
100
AcDbEntity
  8
0
100
AcDbLine
 10
18.7706
 20
1.28393000000001
 30
0.0
 11
21.2543
 21
0.6177310000000059
 31
0.0
  0
LINE
  5
2D
330
1E
100
AcDbEntity
  8
0
100
AcDbLine
 10
16.3628
 20
2.18219000000001
 30
0.0
 11
18.7706
 21
1.28393000000001
 31
0.0
  0
LINE
  5
2E
330
1E
100
AcDbEntity
  8
0
100
AcDbLine
 10
21.2543
 20
0.6177310000000059
 30
0.0
 11
23.788
 21
0.191605000000006
 31
0.0
  0
LINE
  5
2F
330
1E
100
AcDbEntity
  8
0
100
AcDbLine
 10
3.29298
 20
14.06875
 30
0.0
 11
4.63037
 21
11.87405
 31
0.0
  0
LINE
  5
30
330
1E
100
AcDbEntity
  8
0
100
AcDbLine
 10
2.17064
 20
16.38044999999999
 30
0.0
 11
3.29298
 21
14.06875
 31
0.0
  0
LINE
  5
31
330
1E
100
AcDbEntity
  8
0
100
AcDbLine
 10
1.273379999999999
 20
18.78915
 30
0.0
 11
2.17064
 21
16.38044999999999
 31
0.0
  0
LINE
  5
32
330
1E
100
AcDbEntity
  8
0
100
AcDbLine
 10
9.799899999999999
 20
6.184380000000009
 30
0.0
 11
11.8575
 21
4.643920000000009
 31
0.0
  0
LINE
  5
33
330
1E
100
AcDbEntity
  8
0
100
AcDbLine
 10
16.51679999999999
 20
20.54295
 30
0.0
 11
16.5998
 21
20.73595
 31
0.0
  0
LINE
  5
34
330
1E
100
AcDbEntity
  8
0
100
AcDbLine
 10
16.51679999999999
 20
20.54295
 30
0.0
 11
16.6250882562278
 21
20.8133023131673
 31
0.0
  0
LINE
  5
35
330
1E
100
AcDbEntity
  8
0
100
AcDbLine
 10
16.51679999999999
 20
20.54295
 30
0.0
 11
17.2278
 21
19.45095
 31
0.0
  0
LINE
  5
36
330
1E
100
AcDbEntity
  8
0
100
AcDbLine
 10
16.51679999999999
 20
20.54295
 30
0.0
 11
16.6250882562278
 21
20.8133023131673
 31
0.0
  0
LINE
  5
37
330
1E
100
AcDbEntity
  8
0
100
AcDbLine
 10
16.7352035087719
 20
21.1501254385965
 30
0.0
 11
16.7562237516869
 21
21.2208298920378
 31
0.0
  0
LINE
  5
38
330
1E
100
AcDbEntity
  8
0
100
AcDbLine
 10
16.5998
 20
20.73595
 30
0.0
 11
16.7528
 21
21.20394999999999
 31
0.0
  0
LINE
  5
39
330
1E
100
AcDbEntity
  8
0
100
AcDbLine
 10
17.2278
 20
19.45095
 30
0.0
 11
18.0468
 21
18.43695
 31
0.0
  0
LINE
  5
3A
330
1E
100
AcDbEntity
  8
0
100
AcDbLine
 10
19.0734864776445
 20
18.4210086150491
 30
0.0
 11
19.18853064372589
 21
18.4051282853753
 31
0.0
  0
LINE
  5
3B
330
1E
100
AcDbEntity
  8
0
100
AcDbLine
 10
21.99699199632919
 20
16.4166026170889
 30
0.0
 11
22.1949314750291
 21
16.0163086527293
 31
0.0
  0
LINE
  5
3C
330
1E
100
AcDbEntity
  8
0
100
AcDbLine
 10
21.99699199632919
 20
16.4166026170889
 30
0.0
 11
22.1949314750291
 21
16.0163086527293
 31
0.0
  0
LINE
  5
3D
330
1E
100
AcDbEntity
  8
0
100
AcDbLine
 10
21.7448740632318
 20
16.81690901639349
 30
0.0
 11
21.82348177339899
 21
16.6991591954023
 31
0.0
  0
LINE
  5
3E
330
1E
100
AcDbEntity
  8
0
100
AcDbLine
 10
21.7708
 20
16.78494999999999
 30
0.0
 11
22.0588
 21
16.31595
 31
0.0
  0
LINE
  5
3F
330
1E
100
AcDbEntity
  8
0
100
AcDbLine
 10
21.4528
 20
17.17695
 30
0.0
 11
21.7708
 21
16.78494999999999
 31
0.0
  0
LINE
  5
40
330
1E
100
AcDbEntity
  8
0
100
AcDbLine
 10
20.1823425662918
 20
18.0926603275593
 30
0.0
 11
20.7688
 21
17.76794999999999
 31
0.0
  0
LINE
  5
41
330
1E
100
AcDbEntity
  8
0
100
AcDbLine
 10
19.9838
 20
18.18394999999999
 30
0.0
 11
20.3818
 21
18.00094999999999
 31
0.0
  0
LINE
  5
42
330
1E
100
AcDbEntity
  8
0
100
AcDbLine
 10
21.08446421381469
 20
17.5236339291913
 30
0.0
 11
21.4074266386995
 21
17.2208063188254
 31
0.0
  0
LINE
  5
43
330
1E
100
AcDbEntity
  8
0
100
AcDbLine
 10
19.85151806733489
 20
18.22764493703419
 30
0.0
 11
20.0466861601085
 21
18.15503500678429
 31
0.0
  0
LINE
  5
44
330
1E
100
AcDbEntity
  8
0
100
AcDbLine
 10
19.2841846153846
 20
18.3851532967033
 30
0.0
 11
19.60696446143949
 21
18.30717077087069
 31
0.0
  0
LINE
  5
45
330
1E
100
AcDbEntity
  8
0
100
AcDbLine
 10
19.5418
 20
18.32995
 30
0.0
 11
19.9838
 21
18.18394999999999
 31
0.0
  0
LINE
  5
46
330
1E
100
AcDbEntity
  8
0
100
AcDbLine
 10
19.1638
 20
18.41095
 30
0.0
 11
19.5418
 21
18.32995
 31
0.0
  0
LINE
  5
47
330
1E
100
AcDbEntity
  8
0
100
AcDbLine
 10
18.7418
 20
18.45795
 30
0.0
 11
19.1638
 21
18.41095
 31
0.0
  0
LINE
  5
48
330
1E
100
AcDbEntity
  8
0
100
AcDbLine
 10
18.60851688942889
 20
18.4599694410693
 30
0.0
 11
18.81517211005339
 21
18.44977822470969
 31
0.0
  0
LINE
  5
49
330
1E
100
AcDbEntity
  8
0
100
AcDbLine
 10
19.7188
 20
20.93894999999999
 30
0.0
 11
20.5788
 21
19.95895
 31
0.0
  0
LINE
  5
4A
330
1E
100
AcDbEntity
  8
0
100
AcDbLine
 10
20.5788
 20
19.95895
 30
0.0
 11
21.5588
 21
19.09995
 31
0.0
  0
LINE
  5
4B
330
1E
100
AcDbEntity
  8
0
100
AcDbLine
 10
21.5588
 20
19.09995
 30
0.0
 11
22.6418
 21
18.37595
 31
0.0
  0
LINE
  5
4C
330
1E
100
AcDbEntity
  8
0
100
AcDbLine
 10
18.41179999999999
 20
18.46294999999999
 30
0.0
 11
18.7418
 21
18.45795
 31
0.0
  0
LINE
  5
4D
330
1E
100
AcDbEntity
  8
0
100
AcDbLine
 10
18.0468
 20
18.43695
 30
0.0
 11
18.41179999999999
 21
18.46294999999999
 31
0.0
  0
LINE
  5
4E
330
1E
100
AcDbEntity
  8
0
100
AcDbLine
 10
18.0468
 20
18.43695
 30
0.0
 11
18.47204999999999
 21
18.4608205821206
 31
0.0
  0
LINE
  5
4F
330
1E
100
AcDbEntity
  8
0
100
AcDbLine
 10
16.773732978466
 20
21.3071544519718
 30
0.0
 11
16.847692629212
 21
21.74148612645089
 31
0.0
  0
LINE
  5
50
330
1E
100
AcDbEntity
  8
0
100
AcDbLine
 10
16.7528
 20
21.20394999999999
 30
0.0
 11
16.8388
 21
21.62795
 31
0.0
  0
LINE
  5
51
330
1E
100
AcDbEntity
  8
0
100
AcDbLine
 10
18.9958
 20
22.02195
 30
0.0
 11
19.7188
 21
20.93894999999999
 31
0.0
  0
LINE
  5
52
330
1E
100
AcDbEntity
  8
0
100
AcDbLine
 10
16.8738752552363
 20
22.0757712819703
 30
0.0
 11
16.8794818181818
 21
22.2202227272727
 31
0.0
  0
LINE
  5
53
330
1E
100
AcDbEntity
  8
0
100
AcDbLine
 10
16.8388
 20
21.62795
 30
0.0
 11
16.8818
 21
22.17695
 31
0.0
  0
LINE
  5
54
330
1E
100
AcDbEntity
  8
0
100
AcDbLine
 10
18.4188
 20
23.19095
 30
0.0
 11
18.9958
 21
22.02195
 31
0.0
  0
LINE
  5
55
330
1E
100
AcDbEntity
  8
0
100
AcDbLine
 10
16.8548
 20
22.68095
 30
0.0
 11
16.8818
 21
22.17695
 31
0.0
  0
LINE
  5
56
330
1E
100
AcDbEntity
  8
0
100
AcDbLine
 10
16.7601130287648
 20
23.18493984771569
 30
0.0
 11
16.8482757630162
 21
22.7181959605027
 31
0.0
  0
LINE
  5
57
330
1E
100
AcDbEntity
  8
0
100
AcDbLine
 10
16.7601130287648
 20
23.18493984771569
 30
0.0
 11
16.8482757630162
 21
22.7181959605027
 31
0.0
  0
LINE
  5
58
330
1E
100
AcDbEntity
  8
0
100
AcDbLine
 10
16.1724146230008
 20
24.4790002665651
 30
0.0
 11
16.2954254873794
 21
24.2937429406936
 31
0.0
  0
LINE
  5
59
330
1E
100
AcDbEntity
  8
0
100
AcDbLine
 10
16.36284419889499
 20
24.17371243093919
 30
0.0
 11
16.6488
 21
23.56094999999999
 31
0.0
  0
LINE
  5
5A
330
1E
100
AcDbEntity
  8
0
100
AcDbLine
 10
17.9998
 20
24.42495
 30
0.0
 11
18.4188
 21
23.19095
 31
0.0
  0
LINE
  5
5B
330
1E
100
AcDbEntity
  8
0
100
AcDbLine
 10
16.2588
 20
24.35895
 30
0.0
 11
16.4728
 21
23.97794999999999
 31
0.0
  0
LINE
  5
5C
330
1E
100
AcDbEntity
  8
0
100
AcDbLine
 10
16.61740882647939
 20
23.6282168004012
 30
0.0
 11
16.7126642447419
 21
23.34521959847039
 31
0.0
  0
LINE
  5
5D
330
1E
100
AcDbEntity
  8
0
100
AcDbLine
 10
16.1724146230008
 20
24.4790002665651
 30
0.0
 11
16.2954254873794
 21
24.2937429406936
 31
0.0
  0
LINE
  5
5E
330
1E
100
AcDbEntity
  8
0
100
AcDbLine
 10
15.6611402813965
 20
25.0865763679
 30
0.0
 11
15.7513497780596
 21
24.9997781547241
 31
0.0
  0
LINE
  5
5F
330
1E
100
AcDbEntity
  8
0
100
AcDbLine
 10
15.8097842041312
 20
24.9345490279466
 30
0.0
 11
16.0369652694611
 21
24.66723502994009
 31
0.0
  0
LINE
  5
60
330
1E
100
AcDbEntity
  8
0
100
AcDbLine
 10
15.9868
 20
24.73695
 30
0.0
 11
16.2588
 21
24.35895
 31
0.0
  0
LINE
  5
61
330
1E
100
AcDbEntity
  8
0
100
AcDbLine
 10
15.7288
 20
25.02495
 30
0.0
 11
15.9868
 21
24.73695
 31
0.0
  0
LINE
  5
62
330
1E
100
AcDbEntity
  8
0
100
AcDbLine
 10
15.8097842041312
 20
24.9345490279466
 30
0.0
 11
16.0369652694611
 21
24.66723502994009
 31
0.0
  0
LINE
  5
63
330
1E
100
AcDbEntity
  8
0
100
AcDbLine
 10
15.6611402813965
 20
25.0865763679
 30
0.0
 11
15.7513497780596
 21
24.9997781547241
 31
0.0
  0
LINE
  5
64
330
1E
100
AcDbEntity
  8
0
100
AcDbLine
 10
15.41479999999999
 20
25.31095
 30
0.0
 11
15.7288
 21
25.02495
 31
0.0
  0
LINE
  5
65
330
1E
100
AcDbEntity
  8
0
100
AcDbLine
 10
15.3212375
 20
25.381121875
 30
0.0
 11
15.4652462330973
 21
25.2650021571153
 31
0.0
  0
LINE
  5
66
330
1E
100
AcDbEntity
  8
0
100
AcDbLine
 10
17.7458
 20
25.70394999999999
 30
0.0
 11
17.9998
 21
24.42495
 31
0.0
  0
LINE
  5
67
330
1E
100
AcDbEntity
  8
0
100
AcDbLine
 10
15.1508
 20
25.50895
 30
0.0
 11
15.41479999999999
 21
25.31095
 31
0.0
  0
LINE
  5
68
330
1E
100
AcDbEntity
  8
0
100
AcDbLine
 10
14.8398
 20
25.70295
 30
0.0
 11
15.1508
 21
25.50895
 31
0.0
  0
LINE
  5
69
330
1E
100
AcDbEntity
  8
0
100
AcDbLine
 10
14.8398
 20
25.70295
 30
0.0
 11
15.19371541609819
 21
25.475432946794
 31
0.0
  0
LINE
  5
6A
330
1E
100
AcDbEntity
  8
0
100
AcDbLine
 10
14.8398
 20
25.70295
 30
0.0
 11
15.19371541609819
 21
25.475432946794
 31
0.0
  0
LINE
  5
6B
330
1E
100
AcDbEntity
  8
0
100
AcDbLine
 10
19.7048
 20
25.86495
 30
0.0
 11
19.9478
 21
24.74994999999999
 31
0.0
  0
LINE
  5
6C
330
1E
100
AcDbEntity
  8
0
100
AcDbLine
 10
19.21079999999999
 20
25.79394999999999
 30
0.0
 11
19.4678
 21
24.60895
 31
0.0
  0
LINE
  5
6D
330
1E
100
AcDbEntity
  8
0
100
AcDbLine
 10
19.9478
 20
24.74994999999999
 30
0.0
 11
20.3468
 21
23.68094999999999
 31
0.0
  0
LINE
  5
6E
330
1E
100
AcDbEntity
  8
0
100
AcDbLine
 10
19.4678
 20
24.60895
 30
0.0
 11
19.8918
 21
23.47295
 31
0.0
  0
LINE
  5
6F
330
1E
100
AcDbEntity
  8
0
100
AcDbLine
 10
20.3468
 20
23.68094999999999
 30
0.0
 11
20.89379999999999
 21
22.67895
 31
0.0
  0
LINE
  5
70
330
1E
100
AcDbEntity
  8
0
100
AcDbLine
 10
19.8918
 20
23.47295
 30
0.0
 11
20.4728
 21
22.40895
 31
0.0
  0
LINE
  5
71
330
1E
100
AcDbEntity
  8
0
100
AcDbLine
 10
20.89379999999999
 20
22.67895
 30
0.0
 11
21.5778
 21
21.76495
 31
0.0
  0
LINE
  5
72
330
1E
100
AcDbEntity
  8
0
100
AcDbLine
 10
20.4728
 20
22.40895
 30
0.0
 11
21.19979999999999
 21
21.43795
 31
0.0
  0
LINE
  5
73
330
1E
100
AcDbEntity
  8
0
100
AcDbLine
 10
21.5778
 20
21.76495
 30
0.0
 11
22.3848
 21
20.95795
 31
0.0
  0
LINE
  5
74
330
1E
100
AcDbEntity
  8
0
100
AcDbLine
 10
21.19979999999999
 20
21.43795
 30
0.0
 11
22.0578
 21
20.57995
 31
0.0
  0
LINE
  5
75
330
1E
100
AcDbEntity
  8
0
100
AcDbLine
 10
22.36659305099669
 20
15.5219239012089
 30
0.0
 11
22.4358
 21
15.24795
 31
0.0
  0
LINE
  5
76
330
1E
100
AcDbEntity
  8
0
100
AcDbLine
 10
22.4358
 20
15.24795
 30
0.0
 11
23.65279999999999
 21
14.78295
 31
0.0
  0
LINE
  5
77
330
1E
100
AcDbEntity
  8
0
100
AcDbLine
 10
22.38879999999999
 20
15.45295
 30
0.0
 11
22.4358
 21
15.24795
 31
0.0
  0
LINE
  5
78
330
1E
100
AcDbEntity
  8
0
100
AcDbLine
 10
22.6418
 20
18.37595
 30
0.0
 11
23.8108
 21
17.79895
 31
0.0
  0
LINE
  5
79
330
1E
100
AcDbEntity
  8
0
100
AcDbLine
 10
22.23075448954489
 20
15.93745799507999
 30
0.0
 11
22.25365561936019
 21
15.872703076292
 31
0.0
  0
LINE
  5
7A
330
1E
100
AcDbEntity
  8
0
100
AcDbLine
 10
22.2378
 20
15.92195
 30
0.0
 11
22.38879999999999
 21
15.45295
 31
0.0
  0
LINE
  5
7B
330
1E
100
AcDbEntity
  8
0
100
AcDbLine
 10
22.0588
 20
16.31595
 30
0.0
 11
22.2378
 21
15.92195
 31
0.0
  0
LINE
  5
7C
330
1E
100
AcDbEntity
  8
0
100
AcDbLine
 10
22.3848
 20
20.95795
 30
0.0
 11
23.2988
 21
20.27394999999999
 31
0.0
  0
LINE
  5
7D
330
1E
100
AcDbEntity
  8
0
100
AcDbLine
 10
22.0578
 20
20.57995
 30
0.0
 11
23.0288
 21
19.85294999999999
 31
0.0
  0
LINE
  5
7E
330
1E
100
AcDbEntity
  8
0
100
AcDbLine
 10
7.898339999999999
 20
7.913890000000009
 30
0.0
 11
9.799899999999999
 21
6.184380000000009
 31
0.0
  0
LINE
  5
7F
330
1E
100
AcDbEntity
  8
0
100
AcDbLine
 10
6.17083
 20
9.816460000000009
 30
0.0
 11
7.898339999999999
 21
7.913890000000009
 31
0.0
  0
LINE
  5
80
330
1E
100
AcDbEntity
  8
0
100
AcDbLine
 10
11.8575
 20
4.643920000000009
 30
0.0
 11
14.0512
 21
3.305530000000009
 31
0.0
  0
LINE
  5
81
330
1E
100
AcDbEntity
  8
0
100
AcDbLine
 10
23.65279999999999
 20
14.78295
 30
0.0
 11
24.9108
 21
14.44395
 31
0.0
  0
LINE
  5
82
330
1E
100
AcDbEntity
  8
0
100
AcDbLine
 10
25.357750899368
 20
14.79654747204659
 30
0.0
 11
25.52166847599169
 21
14.9034969728601
 31
0.0
  0
LINE
  5
83
330
1E
100
AcDbEntity
  8
0
100
AcDbLine
 10
25.357750899368
 20
14.79654747204659
 30
0.0
 11
25.52166847599169
 21
14.9034969728601
 31
0.0
  0
LINE
  5
84
330
1E
100
AcDbEntity
  8
0
100
AcDbLine
 10
25.7734991150443
 20
15.0464278761062
 30
0.0
 11
25.8462728423273
 21
15.0854405958868
 31
0.0
  0
LINE
  5
85
330
1E
100
AcDbEntity
  8
0
100
AcDbLine
 10
26.1838
 20
15.23595
 30
0.0
 11
26.62679999999999
 21
15.37795
 31
0.0
  0
LINE
  5
86
330
1E
100
AcDbEntity
  8
0
100
AcDbLine
 10
25.8308
 20
15.07895
 30
0.0
 11
26.1838
 21
15.23595
 31
0.0
  0
LINE
  5
87
330
1E
100
AcDbEntity
  8
0
100
AcDbLine
 10
25.46079999999999
 20
14.86895
 30
0.0
 11
25.8308
 21
15.07895
 31
0.0
  0
LINE
  5
88
330
1E
100
AcDbEntity
  8
0
100
AcDbLine
 10
25.1918
 20
14.67995
 30
0.0
 11
25.46079999999999
 21
14.86895
 31
0.0
  0
LINE
  5
89
330
1E
100
AcDbEntity
  8
0
100
AcDbLine
 10
24.9108
 20
14.44395
 30
0.0
 11
25.1918
 21
14.67995
 31
0.0
  0
LINE
  5
8A
330
1E
100
AcDbEntity
  8
0
100
AcDbLine
 10
24.9108
 20
14.44395
 30
0.0
 11
25.2399369694678
 21
14.71236383873709
 31
0.0
  0
LINE
  5
8B
330
1E
100
AcDbEntity
  8
0
100
AcDbLine
 10
25.0448
 20
17.37995
 30
0.0
 11
26.3228
 21
17.12595
 31
0.0
  0
LINE
  5
8C
330
1E
100
AcDbEntity
  8
0
100
AcDbLine
 10
26.3228
 20
17.12595
 30
0.0
 11
27.0
 21
17.08170217157352
 31
0.0
  0
LINE
  5
8D
330
1E
100
AcDbEntity
  8
0
100
AcDbLine
 10
23.8108
 20
17.79895
 30
0.0
 11
25.0448
 21
17.37995
 31
0.0
  0
LINE
  5
8E
330
1E
100
AcDbEntity
  8
0
100
AcDbLine
 10
24.0928
 20
19.27195
 30
0.0
 11
25.2288
 21
18.84795
 31
0.0
  0
LINE
  5
8F
330
1E
100
AcDbEntity
  8
0
100
AcDbLine
 10
25.2288
 20
18.84795
 30
0.0
 11
26.41379999999999
 21
18.58995
 31
0.0
  0
LINE
  5
90
330
1E
100
AcDbEntity
  8
0
100
AcDbLine
 10
26.41379999999999
 20
18.58995
 30
0.0
 11
27.0
 21
18.54828275477312
 31
0.0
  0
LINE
  5
91
330
1E
100
AcDbEntity
  8
0
100
AcDbLine
 10
25.3698
 20
19.32795
 30
0.0
 11
26.4858
 21
19.08495
 31
0.0
  0
LINE
  5
92
330
1E
100
AcDbEntity
  8
0
100
AcDbLine
 10
26.4858
 20
19.08495
 30
0.0
 11
27.0
 21
19.04834731083574
 31
0.0
  0
LINE
  5
93
330
1E
100
AcDbEntity
  8
0
100
AcDbLine
 10
23.2988
 20
20.27394999999999
 30
0.0
 11
24.3008
 21
19.72694999999999
 31
0.0
  0
LINE
  5
94
330
1E
100
AcDbEntity
  8
0
100
AcDbLine
 10
23.0288
 20
19.85294999999999
 30
0.0
 11
24.0928
 21
19.27195
 31
0.0
  0
LINE
  5
95
330
1E
100
AcDbEntity
  8
0
100
AcDbLine
 10
24.3008
 20
19.72694999999999
 30
0.0
 11
25.3698
 21
19.32795
 31
0.0
  0
LINE
  5
97
330
1E
100
AcDbEntity
  8
0
100
AcDbLine
 10
26.62679999999999
 20
15.37795
 30
0.0
 11
27.0
 21
15.45172209302325
 31
0.0
  0
LINE
  5
9A
330
1E
100
AcDbEntity
  8
0
100
AcDbLine
 10
23.788
 20
0.191605000000006
 30
0.0
 11
26.3518
 21
0.0075500000000058
 31
0.0
  0
LINE
  5
9B
330
1E
100
AcDbEntity
  8
0
100
AcDbLine
 10
14.7738
 20
27.00395
 30
0.0
 11
14.8398
 21
28.30495
 31
0.0
  0
LINE
  5
9C
330
1E
100
AcDbEntity
  8
0
100
AcDbLine
 10
14.7738
 20
27.00395
 30
0.0
 11
14.8398
 21
25.70295
 31
0.0
  0
LINE
  5
9D
330
1E
100
AcDbEntity
  8
0
100
AcDbLine
 10
14.8398
 20
28.30495
 30
0.0
 11
15.0208
 21
28.41295
 31
0.0
  0
LINE
  5
9E
330
1E
100
AcDbEntity
  8
0
100
AcDbLine
 10
14.8398
 20
28.30495
 30
0.0
 11
15.0843505306511
 21
28.458980334231
 31
0.0
  0
LINE
  5
9F
330
1E
100
AcDbEntity
  8
0
100
AcDbLine
 10
15.0208
 20
28.41295
 30
0.0
 11
15.4198
 21
28.70195
 31
0.0
  0
LINE
  5
A0
330
1E
100
AcDbEntity
  8
0
100
AcDbLine
 10
15.4198
 20
28.70195
 30
0.0
 11
15.73879999999999
 21
28.99395
 31
0.0
  0
LINE
  5
A1
330
1E
100
AcDbEntity
  8
0
100
AcDbLine
 10
16.03235928119669
 20
29.3375291587191
 30
0.0
 11
16.1212382430483
 21
29.4506776525891
 31
0.0
  0
LINE
  5
A2
330
1E
100
AcDbEntity
  8
0
100
AcDbLine
 10
16.03235928119669
 20
29.3375291587191
 30
0.0
 11
16.1212382430483
 21
29.4506776525891
 31
0.0
  0
LINE
  5
A3
330
1E
100
AcDbEntity
  8
0
100
AcDbLine
 10
15.73879999999999
 20
28.99395
 30
0.0
 11
16.0968
 21
29.41295
 31
0.0
  0
LINE
  5
A4
330
1E
100
AcDbEntity
  8
0
100
AcDbLine
 10
16.0968
 20
29.41295
 30
0.0
 11
16.3708
 21
29.83595
 31
0.0
  0
LINE
  5
A5
330
1E
100
AcDbEntity
  8
0
100
AcDbLine
 10
16.3896960515713
 20
29.8745881950041
 30
0.0
 11
16.5919603353524
 21
30.3041837037186
 31
0.0
  0
LINE
  5
A6
330
1E
100
AcDbEntity
  8
0
100
AcDbLine
 10
16.51679999999999
 20
33.46495
 30
0.0
 11
16.67439379229449
 21
33.0582855589642
 31
0.0
  0
LINE
  5
A7
330
1E
100
AcDbEntity
  8
0
100
AcDbLine
 10
16.51679999999999
 20
33.46495
 30
0.0
 11
16.6538
 21
33.12495
 31
0.0
  0
LINE
  5
A8
330
1E
100
AcDbEntity
  8
0
100
AcDbLine
 10
16.51679999999999
 20
33.46495
 30
0.0
 11
17.2278
 21
34.55695
 31
0.0
  0
LINE
  5
A9
330
1E
100
AcDbEntity
  8
0
100
AcDbLine
 10
16.3896960515713
 20
29.8745881950041
 30
0.0
 11
16.5919603353524
 21
30.3041837037186
 31
0.0
  0
LINE
  5
AA
330
1E
100
AcDbEntity
  8
0
100
AcDbLine
 10
16.82331965993619
 20
32.4593139744953
 30
0.0
 11
16.8393452976704
 21
32.3695151423641
 31
0.0
  0
LINE
  5
AB
330
1E
100
AcDbEntity
  8
0
100
AcDbLine
 10
16.7208
 20
30.66995
 30
0.0
 11
16.8504839397281
 21
31.3375483094451
 31
0.0
  0
LINE
  5
AC
330
1E
100
AcDbEntity
  8
0
100
AcDbLine
 10
16.7508
 20
32.81095
 30
0.0
 11
16.8368
 21
32.39395
 31
0.0
  0
LINE
  5
AD
330
1E
100
AcDbEntity
  8
0
100
AcDbLine
 10
16.8238
 20
31.10995
 30
0.0
 11
16.8748
 21
31.54495
 31
0.0
  0
LINE
  5
AE
330
1E
100
AcDbEntity
  8
0
100
AcDbLine
 10
17.7458
 20
28.30395
 30
0.0
 11
17.9998
 21
29.58295
 31
0.0
  0
LINE
  5
AF
330
1E
100
AcDbEntity
  8
0
100
AcDbLine
 10
17.9998
 20
29.58295
 30
0.0
 11
18.4188
 21
30.81694999999999
 31
0.0
  0
LINE
  5
B0
330
1E
100
AcDbEntity
  8
0
100
AcDbLine
 10
18.4188
 20
30.81694999999999
 30
0.0
 11
18.9958
 21
31.98595
 31
0.0
  0
LINE
  5
B1
330
1E
100
AcDbEntity
  8
0
100
AcDbLine
 10
17.66079999999999
 20
27.00385
 30
0.0
 11
17.7458
 21
28.30395
 31
0.0
  0
LINE
  5
B2
330
1E
100
AcDbEntity
  8
0
100
AcDbLine
 10
17.66079999999999
 20
27.00385
 30
0.0
 11
17.7458
 21
25.70394999999999
 31
0.0
  0
LINE
  5
B3
330
1E
100
AcDbEntity
  8
0
100
AcDbLine
 10
16.8748
 20
31.54495
 30
0.0
 11
16.8768
 21
32.00995
 31
0.0
  0
LINE
  5
B4
330
1E
100
AcDbEntity
  8
0
100
AcDbLine
 10
16.86555768757689
 20
31.46611851168509
 30
0.0
 11
16.8754682625677
 21
31.7003210469952
 31
0.0
  0
LINE
  5
B5
330
1E
100
AcDbEntity
  8
0
100
AcDbLine
 10
16.8368
 20
32.39395
 30
0.0
 11
16.8768
 21
32.00995
 31
0.0
  0
LINE
  5
B6
330
1E
100
AcDbEntity
  8
0
100
AcDbLine
 10
16.8508284005979
 20
32.2592773542601
 30
0.0
 11
16.87641777484459
 21
31.9210826513777
 31
0.0
  0
LINE
  5
B7
330
1E
100
AcDbEntity
  8
0
100
AcDbLine
 10
16.82331965993619
 20
32.4593139744953
 30
0.0
 11
16.8393452976704
 21
32.3695151423641
 31
0.0
  0
LINE
  5
B8
330
1E
100
AcDbEntity
  8
0
100
AcDbLine
 10
17.2278
 20
34.55695
 30
0.0
 11
18.0468
 21
35.57095
 31
0.0
  0
LINE
  5
B9
330
1E
100
AcDbEntity
  8
0
100
AcDbLine
 10
18.0468
 20
35.57095
 30
0.0
 11
18.2558
 21
35.55194999999999
 31
0.0
  0
LINE
  5
BA
330
1E
100
AcDbEntity
  8
0
100
AcDbLine
 10
18.0468
 20
35.57095
 30
0.0
 11
18.32292065467339
 21
35.55207592993371
 31
0.0
  0
LINE
  5
BB
330
1E
100
AcDbEntity
  8
0
100
AcDbLine
 10
18.2558
 20
35.55194999999999
 30
0.0
 11
18.7488
 21
35.55095
 31
0.0
  0
LINE
  5
BC
330
1E
100
AcDbEntity
  8
0
100
AcDbLine
 10
16.6538
 20
33.12495
 30
0.0
 11
16.7508
 21
32.81095
 31
0.0
  0
LINE
  5
BD
330
1E
100
AcDbEntity
  8
0
100
AcDbLine
 10
16.71587999999999
 20
32.92399
 30
0.0
 11
16.76348852459019
 21
32.749425409836
 31
0.0
  0
LINE
  5
BE
330
1E
100
AcDbEntity
  8
0
100
AcDbLine
 10
16.71587999999999
 20
32.92399
 30
0.0
 11
16.76348852459019
 21
32.749425409836
 31
0.0
  0
LINE
  5
BF
330
1E
100
AcDbEntity
  8
0
100
AcDbLine
 10
16.644203581435
 20
30.45249842246319
 30
0.0
 11
16.73403059259909
 21
30.7380595999294
 31
0.0
  0
LINE
  5
C0
330
1E
100
AcDbEntity
  8
0
100
AcDbLine
 10
18.4995
 20
41.06175
 30
0.0
 11
18.5095420929556
 21
35.55242606396429
 31
0.0
  0
LINE
  5
C1
330
1E
100
AcDbEntity
  8
0
100
AcDbLine
 10
18.4995
 20
41.06175
 30
0.0
 11
18.66349999999999
 21
41.06175
 31
0.0
  0
LINE
  5
C2
330
1E
100
AcDbEntity
  8
0
100
AcDbLine
 10
2.7088
 20
38.81405
 30
0.0
 11
3.941169999999999
 21
41.06875
 31
0.0
  0
LINE
  5
C3
330
1E
100
AcDbEntity
  8
0
100
AcDbLine
 10
1.696499999999999
 20
36.45134999999999
 30
0.0
 11
2.7088
 21
38.81405
 31
0.0
  0
LINE
  5
C4
330
1E
100
AcDbEntity
  8
0
100
AcDbLine
 10
18.9958
 20
31.98595
 30
0.0
 11
19.7198
 21
33.06895
 31
0.0
  0
LINE
  5
C5
330
1E
100
AcDbEntity
  8
0
100
AcDbLine
 10
18.7488
 20
35.55095
 30
0.0
 11
19.1788
 21
35.59995
 31
0.0
  0
LINE
  5
C6
330
1E
100
AcDbEntity
  8
0
100
AcDbLine
 10
19.1788
 20
35.59995
 30
0.0
 11
19.71379999999999
 21
35.72795
 31
0.0
  0
LINE
  5
C7
330
1E
100
AcDbEntity
  8
0
100
AcDbLine
 10
19.6116681728678
 20
35.7035147217329
 30
0.0
 11
19.7556011081667
 21
35.74410244519389
 31
0.0
  0
LINE
  5
C8
330
1E
100
AcDbEntity
  8
0
100
AcDbLine
 10
19.4678
 20
29.39894999999999
 30
0.0
 11
19.8918
 21
30.53494999999999
 31
0.0
  0
LINE
  5
C9
330
1E
100
AcDbEntity
  8
0
100
AcDbLine
 10
19.21079999999999
 20
28.21395
 30
0.0
 11
19.4678
 21
29.39894999999999
 31
0.0
  0
LINE
  5
CA
330
1E
100
AcDbEntity
  8
0
100
AcDbLine
 10
19.7198
 20
33.06895
 30
0.0
 11
20.5788
 21
34.04894999999999
 31
0.0
  0
LINE
  5
CB
330
1E
100
AcDbEntity
  8
0
100
AcDbLine
 10
19.71379999999999
 20
35.72795
 30
0.0
 11
20.18479999999999
 21
35.90995
 31
0.0
  0
LINE
  5
CC
330
1E
100
AcDbEntity
  8
0
100
AcDbLine
 10
19.8918
 20
30.53494999999999
 30
0.0
 11
20.4728
 21
31.59895
 31
0.0
  0
LINE
  5
CD
330
1E
100
AcDbEntity
  8
0
100
AcDbLine
 10
20.231096465222
 20
35.93447337514229
 30
0.0
 11
20.62565951433669
 21
36.1505825970641
 31
0.0
  0
LINE
  5
CE
330
1E
100
AcDbEntity
  8
0
100
AcDbLine
 10
20.23109646522189
 20
35.93447337514229
 30
0.0
 11
20.62565951433669
 21
36.1505825970641
 31
0.0
  0
LINE
  5
CF
330
1E
100
AcDbEntity
  8
0
100
AcDbLine
 10
20.5788
 20
34.04894999999999
 30
0.0
 11
21.5588
 21
34.90795
 31
0.0
  0
LINE
  5
D0
330
1E
100
AcDbEntity
  8
0
100
AcDbLine
 10
20.4728
 20
31.59895
 30
0.0
 11
21.19979999999999
 21
32.56994999999999
 31
0.0
  0
LINE
  5
D1
330
1E
100
AcDbEntity
  8
0
100
AcDbLine
 10
20.3468
 20
30.32695
 30
0.0
 11
20.89379999999999
 21
31.32894999999999
 31
0.0
  0
LINE
  5
D2
330
1E
100
AcDbEntity
  8
0
100
AcDbLine
 10
19.9478
 20
29.25795
 30
0.0
 11
20.3468
 21
30.32695
 31
0.0
  0
LINE
  5
D3
330
1E
100
AcDbEntity
  8
0
100
AcDbLine
 10
19.7048
 20
28.14294999999999
 30
0.0
 11
19.9478
 21
29.25795
 31
0.0
  0
LINE
  5
D4
330
1E
100
AcDbEntity
  8
0
100
AcDbLine
 10
19.62379999999999
 20
27.00395
 30
0.0
 11
19.7048
 21
28.14294999999999
 31
0.0
  0
LINE
  5
D5
330
1E
100
AcDbEntity
  8
0
100
AcDbLine
 10
19.62379999999999
 20
27.00395
 30
0.0
 11
19.7048
 21
25.86495
 31
0.0
  0
LINE
  5
D6
330
1E
100
AcDbEntity
  8
0
100
AcDbLine
 10
19.12379999999999
 20
27.00385
 30
0.0
 11
19.21079999999999
 21
28.21395
 31
0.0
  0
LINE
  5
D7
330
1E
100
AcDbEntity
  8
0
100
AcDbLine
 10
19.12379999999999
 20
27.00385
 30
0.0
 11
19.21079999999999
 21
25.79394999999999
 31
0.0
  0
LINE
  5
D8
330
1E
100
AcDbEntity
  8
0
100
AcDbLine
 10
19.0807
 20
41.06175
 30
0.0
 11
19.7388
 21
41.06175
 31
0.0
  0
LINE
  5
D9
330
1E
100
AcDbEntity
  8
0
100
AcDbLine
 10
19.7388
 20
41.06175
 30
0.0
 11
20.6171
 21
41.06175
 31
0.0
  0
LINE
  5
DA
330
1E
100
AcDbEntity
  8
0
100
AcDbLine
 10
21.5778
 20
32.24295
 30
0.0
 11
22.3848
 21
33.04995
 31
0.0
  0
LINE
  5
DB
330
1E
100
AcDbEntity
  8
0
100
AcDbLine
 10
22.3848
 20
33.04995
 30
0.0
 11
23.2988
 21
33.73395
 31
0.0
  0
LINE
  5
DC
330
1E
100
AcDbEntity
  8
0
100
AcDbLine
 10
22.0578
 20
33.42795
 30
0.0
 11
23.0288
 21
34.15494999999999
 31
0.0
  0
LINE
  5
DD
330
1E
100
AcDbEntity
  8
0
100
AcDbLine
 10
21.19979999999999
 20
32.56994999999999
 30
0.0
 11
22.0578
 21
33.42795
 31
0.0
  0
LINE
  5
DE
330
1E
100
AcDbEntity
  8
0
100
AcDbLine
 10
20.89379999999999
 20
31.32894999999999
 30
0.0
 11
21.5778
 21
32.24295
 31
0.0
  0
LINE
  5
DF
330
1E
100
AcDbEntity
  8
0
100
AcDbLine
 10
21.2998
 20
36.67394999999999
 30
0.0
 11
21.5968
 21
36.99595
 31
0.0
  0
LINE
  5
E0
330
1E
100
AcDbEntity
  8
0
100
AcDbLine
 10
21.1850392121291
 20
36.5746248736556
 30
0.0
 11
21.42535407721819
 21
36.8100726022365
 31
0.0
  0
LINE
  5
E1
330
1E
100
AcDbEntity
  8
0
100
AcDbLine
 10
21.5588
 20
34.90795
 30
0.0
 11
22.6418
 21
35.63295
 31
0.0
  0
LINE
  5
E2
330
1E
100
AcDbEntity
  8
0
100
AcDbLine
 10
21.8245045769764
 20
37.3064562413315
 30
0.0
 11
21.98894063108689
 21
37.5726251071289
 31
0.0
  0
LINE
  5
E3
330
1E
100
AcDbEntity
  8
0
100
AcDbLine
 10
21.5968
 20
36.99595
 30
0.0
 11
21.8718
 21
37.37095
 31
0.0
  0
LINE
  5
E4
330
1E
100
AcDbEntity
  8
0
100
AcDbLine
 10
21.5486115932157
 20
36.94370533001839
 30
0.0
 11
21.6794561514196
 21
37.10866293375399
 31
0.0
  0
LINE
  5
E5
330
1E
100
AcDbEntity
  8
0
100
AcDbLine
 10
21.8718
 20
37.37095
 30
0.0
 11
22.0658
 21
37.70494999999999
 31
0.0
  0
LINE
  5
E6
330
1E
100
AcDbEntity
  8
0
100
AcDbLine
 10
21.8245045769764
 20
37.3064562413315
 30
0.0
 11
21.98894063108689
 21
37.5726251071289
 31
0.0
  0
LINE
  5
E7
330
1E
100
AcDbEntity
  8
0
100
AcDbLine
 10
22.0658
 20
37.70494999999999
 30
0.0
 11
22.2408
 21
38.09295
 31
0.0
  0
LINE
  5
E8
330
1E
100
AcDbEntity
  8
0
100
AcDbLine
 10
22.054256517413
 20
37.68507616915429
 30
0.0
 11
22.0971887222555
 21
37.7745432813436
 31
0.0
  0
LINE
  5
E9
330
1E
100
AcDbEntity
  8
0
100
AcDbLine
 10
22.2408
 20
38.09295
 30
0.0
 11
22.3468
 21
38.40395
 31
0.0
  0
LINE
  5
EA
330
1E
100
AcDbEntity
  8
0
100
AcDbLine
 10
22.210897455333
 20
38.0266517866811
 30
0.0
 11
22.2798448179272
 21
38.207506022409
 31
0.0
  0
LINE
  5
EB
330
1E
100
AcDbEntity
  8
0
100
AcDbLine
 10
22.6418
 20
35.63295
 30
0.0
 11
23.8108
 21
36.20895
 31
0.0
  0
LINE
  5
EC
330
1E
100
AcDbEntity
  8
0
100
AcDbLine
 10
22.3468
 20
38.40395
 30
0.0
 11
22.4358
 21
38.75995
 31
0.0
  0
LINE
  5
ED
330
1E
100
AcDbEntity
  8
0
100
AcDbLine
 10
22.32478761554339
 20
38.33936649466039
 30
0.0
 11
22.4358
 21
38.75995
 31
0.0
  0
LINE
  5
EE
330
1E
100
AcDbEntity
  8
0
100
AcDbLine
 10
22.4358
 20
38.75995
 30
0.0
 11
23.65279999999999
 21
39.22494999999999
 31
0.0
  0
LINE
  5
EF
330
1E
100
AcDbEntity
  8
0
100
AcDbLine
 10
23.8108
 20
36.20895
 30
0.0
 11
25.0448
 21
36.62795
 31
0.0
  0
LINE
  5
F0
330
1E
100
AcDbEntity
  8
0
100
AcDbLine
 10
23.65279999999999
 20
39.22494999999999
 30
0.0
 11
24.9108
 21
39.56395
 31
0.0
  0
LINE
  5
F1
330
1E
100
AcDbEntity
  8
0
100
AcDbLine
 10
23.0288
 20
34.15494999999999
 30
0.0
 11
24.0928
 21
34.73595
 31
0.0
  0
LINE
  5
F2
330
1E
100
AcDbEntity
  8
0
100
AcDbLine
 10
23.2988
 20
33.73395
 30
0.0
 11
24.3008
 21
34.28094999999999
 31
0.0
  0
LINE
  5
F3
330
1E
100
AcDbEntity
  8
0
100
AcDbLine
 10
25.3698
 20
34.67995
 30
0.0
 11
26.4858
 21
34.92295
 31
0.0
  0
LINE
  5
F4
330
1E
100
AcDbEntity
  8
0
100
AcDbLine
 10
24.3008
 20
34.28094999999999
 30
0.0
 11
25.3698
 21
34.67995
 31
0.0
  0
LINE
  5
F5
330
1E
100
AcDbEntity
  8
0
100
AcDbLine
 10
24.0928
 20
34.73595
 30
0.0
 11
25.2288
 21
35.15995
 31
0.0
  0
LINE
  5
F6
330
1E
100
AcDbEntity
  8
0
100
AcDbLine
 10
25.0448
 20
36.62795
 30
0.0
 11
26.3228
 21
36.88195
 31
0.0
  0
LINE
  5
F7
330
1E
100
AcDbEntity
  8
0
100
AcDbLine
 10
26.3228
 20
36.88195
 30
0.0
 11
27.0
 21
36.92618762680602
 31
0.0
  0
LINE
  5
F8
330
1E
100
AcDbEntity
  8
0
100
AcDbLine
 10
26.41379999999999
 20
35.41695
 30
0.0
 11
27.0
 21
35.45910174807835
 31
0.0
  0
LINE
  5
F9
330
1E
100
AcDbEntity
  8
0
100
AcDbLine
 10
25.2288
 20
35.15995
 30
0.0
 11
26.41379999999999
 21
35.41695
 31
0.0
  0
LINE
  5
FA
330
1E
100
AcDbEntity
  8
0
100
AcDbLine
 10
26.4858
 20
34.92295
 30
0.0
 11
27.00000000000002
 21
34.95955268916425
 31
0.0
  0
LINE
  5
FB
330
1E
100
AcDbEntity
  8
0
100
AcDbLine
 10
26.772356357388
 20
38.59895343642619
 30
0.0
 11
26.84779999999999
 21
38.57994999999999
 31
0.0
  0
LINE
  5
FC
330
1E
100
AcDbEntity
  8
0
100
AcDbLine
 10
26.772356357388
 20
38.59895343642619
 30
0.0
 11
26.84779999999999
 21
38.57994999999999
 31
0.0
  0
LINE
  5
FF
330
1E
100
AcDbEntity
  8
0
100
AcDbLine
 10
26.2504239452001
 20
38.75338879678349
 30
0.0
 11
26.4021898983831
 21
38.697765838214
 31
0.0
  0
LINE
  5
100
330
1E
100
AcDbEntity
  8
0
100
AcDbLine
 10
25.42155679906089
 20
39.1680298278224
 30
0.0
 11
25.4798654190911
 21
39.1280061409027
 31
0.0
  0
LINE
  5
101
330
1E
100
AcDbEntity
  8
0
100
AcDbLine
 10
24.9108
 20
39.56395
 30
0.0
 11
25.0688
 21
39.42595
 31
0.0
  0
LINE
  5
102
330
1E
100
AcDbEntity
  8
0
100
AcDbLine
 10
24.9108
 20
39.56395
 30
0.0
 11
25.1219395819285
 21
39.38753732299399
 31
0.0
  0
LINE
  5
103
330
1E
100
AcDbEntity
  8
0
100
AcDbLine
 10
25.0688
 20
39.42595
 30
0.0
 11
25.4668
 21
39.13495
 31
0.0
  0
LINE
  5
104
330
1E
100
AcDbEntity
  8
0
100
AcDbLine
 10
25.4668
 20
39.13495
 30
0.0
 11
25.8438
 21
38.92195
 31
0.0
  0
LINE
  5
105
330
1E
100
AcDbEntity
  8
0
100
AcDbLine
 10
25.8438
 20
38.92195
 30
0.0
 11
26.35279999999999
 21
38.71095
 31
0.0
  0
LINE
  5
106
330
1E
100
AcDbEntity
  8
0
100
AcDbLine
 10
26.35279999999999
 20
38.71095
 30
0.0
 11
26.8398
 21
38.58095
 31
0.0
  0
LINE
  5
107
330
1E
100
AcDbEntity
  8
0
100
AcDbLine
 10
24.28119999999999
 20
41.06175
 30
0.0
 11
25.7216
 21
41.06175
 31
0.0
  0
LINE
  5
109
330
1E
100
AcDbEntity
  8
0
100
AcDbLine
 10
26.84779999999999
 20
38.57994999999999
 30
0.0
 11
27.0
 21
38.56068064220183
 31
0.0
  0
LINE
  5
10C
330
1E
100
AcDbEntity
  8
0
100
AcDbLine
 10
25.7216
 20
41.06175
 30
0.0
 11
27.0
 21
41.06175
 31
0.0
  0
LINE
  5
10D
330
1E
100
AcDbEntity
  8
0
100
AcDbLine
 10
22.9238
 20
41.06175
 30
0.0
 11
24.28119999999999
 21
41.06175
 31
0.0
  0
LINE
  5
10E
330
1E
100
AcDbEntity
  8
0
100
AcDbLine
 10
20.6171
 20
41.06175
 30
0.0
 11
21.6894
 21
41.06175
 31
0.0
  0
LINE
  5
10F
330
1E
100
AcDbEntity
  8
0
100
AcDbLine
 10
21.6894
 20
41.06175
 30
0.0
 11
22.9238
 21
41.06175
 31
0.0
  0
LINE
  5
110
330
1E
100
AcDbEntity
  8
0
100
AcDbLine
 10
18.66349999999999
 20
41.06175
 30
0.0
 11
19.0807
 21
41.06175
 31
0.0
  0
LINE
  5
115
330
1E
100
AcDbEntity
  8
0
100
AcDbLine
 10
27.0
 20
0.0226890000000058
 30
0.0
 11
27.6482
 21
0.0075500000000058
 31
0.0
  0
LINE
  5
200
330
1E
100
AcDbEntity
  8
0
100
AcDbLine
 10
3.941169999999999
 20
41.06875
 30
0.0
 11
5.381599999999999
 21
43.19735
 31
0.0
  0
LINE
  5
201
330
1E
100
AcDbEntity
  8
0
100
AcDbLine
 10
16.63289999999999
 20
43.01225
 30
0.0
 11
16.97
 21
43.01225
 31
0.0
  0
LINE
  5
202
330
1E
100
AcDbEntity
  8
0
100
AcDbLine
 10
16.55089999999999
 20
43.01225
 30
0.0
 11
16.55089999999999
 21
49.31415
 31
0.0
  0
LINE
  5
203
330
1E
100
AcDbEntity
  8
0
100
AcDbLine
 10
16.55089999999999
 20
43.01225
 30
0.0
 11
16.63289999999999
 21
43.01225
 31
0.0
  0
LINE
  5
204
330
1E
100
AcDbEntity
  8
0
100
AcDbLine
 10
16.55089999999999
 20
43.01225
 30
0.0
 11
18.4995
 21
41.06175
 31
0.0
  0
LINE
  5
205
330
1E
100
AcDbEntity
  8
0
100
AcDbLine
 10
26.6989
 20
43.01225
 30
0.0
 11
27.0
 21
43.01225
 31
0.0
  0
LINE
  5
207
330
1E
100
AcDbEntity
  8
0
100
AcDbLine
 10
25.0684
 20
43.01225
 30
0.0
 11
26.6989
 21
43.01225
 31
0.0
  0
LINE
  5
209
330
1E
100
AcDbEntity
  8
0
100
AcDbLine
 10
23.485
 20
43.01225
 30
0.0
 11
25.0684
 21
43.01225
 31
0.0
  0
LINE
  5
20A
330
1E
100
AcDbEntity
  8
0
100
AcDbLine
 10
21.98849999999999
 20
43.01225
 30
0.0
 11
23.485
 21
43.01225
 31
0.0
  0
LINE
  5
20B
330
1E
100
AcDbEntity
  8
0
100
AcDbLine
 10
20.6151
 20
43.01225
 30
0.0
 11
21.98849999999999
 21
43.01225
 31
0.0
  0
LINE
  5
20C
330
1E
100
AcDbEntity
  8
0
100
AcDbLine
 10
19.3987
 20
43.01225
 30
0.0
 11
20.6151
 21
43.01225
 31
0.0
  0
LINE
  5
20D
330
1E
100
AcDbEntity
  8
0
100
AcDbLine
 10
18.3704
 20
43.01225
 30
0.0
 11
19.3987
 21
43.01225
 31
0.0
  0
LINE
  5
20E
330
1E
100
AcDbEntity
  8
0
100
AcDbLine
 10
17.5532
 20
43.01225
 30
0.0
 11
18.3704
 21
43.01225
 31
0.0
  0
LINE
  5
20F
330
1E
100
AcDbEntity
  8
0
100
AcDbLine
 10
16.97
 20
43.01225
 30
0.0
 11
17.5532
 21
43.01225
 31
0.0
  0
LINE
  5
217
330
1E
100
AcDbEntity
  8
0
100
AcDbLine
 10
8.836619999999999
 20
46.99645
 30
0.0
 11
10.8182
 21
48.63195000000001
 31
0.0
  0
LINE
  5
218
330
1E
100
AcDbEntity
  8
0
100
AcDbLine
 10
16.63289999999999
 20
49.31415
 30
0.0
 11
16.97
 21
49.31415
 31
0.0
  0
LINE
  5
219
330
1E
100
AcDbEntity
  8
0
100
AcDbLine
 10
16.55089999999999
 20
49.31415
 30
0.0
 11
16.55089999999999
 21
43.01225
 31
0.0
  0
LINE
  5
21A
330
1E
100
AcDbEntity
  8
0
100
AcDbLine
 10
16.55089999999999
 20
49.31415
 30
0.0
 11
16.63289999999999
 21
49.31415
 31
0.0
  0
LINE
  5
21B
330
1E
100
AcDbEntity
  8
0
100
AcDbLine
 10
10.8182
 20
48.63195000000001
 30
0.0
 11
12.9478
 21
50.07235
 31
0.0
  0
LINE
  5
21C
330
1E
100
AcDbEntity
  8
0
100
AcDbLine
 10
7.01908
 20
45.17895
 30
0.0
 11
8.836619999999999
 21
46.99645
 31
0.0
  0
LINE
  5
21D
330
1E
100
AcDbEntity
  8
0
100
AcDbLine
 10
5.381599999999999
 20
43.19735
 30
0.0
 11
7.01908
 21
45.17895
 31
0.0
  0
LINE
  5
21E
330
1E
100
AcDbEntity
  8
0
100
AcDbLine
 10
12.9478
 20
50.07235
 30
0.0
 11
15.2035
 21
51.30375
 31
0.0
  0
LINE
  5
21F
330
1E
100
AcDbEntity
  8
0
100
AcDbLine
 10
26.6989
 20
49.31415
 30
0.0
 11
27.0
 21
49.31415
 31
0.0
  0
LINE
  5
220
330
1E
100
AcDbEntity
  8
0
100
AcDbLine
 10
25.0684
 20
49.31415
 30
0.0
 11
26.6989
 21
49.31415
 31
0.0
  0
LINE
  5
221
330
1E
100
AcDbEntity
  8
0
100
AcDbLine
 10
23.485
 20
49.31415
 30
0.0
 11
25.0684
 21
49.31415
 31
0.0
  0
LINE
  5
222
330
1E
100
AcDbEntity
  8
0
100
AcDbLine
 10
21.98849999999999
 20
49.31415
 30
0.0
 11
23.485
 21
49.31415
 31
0.0
  0
LINE
  5
223
330
1E
100
AcDbEntity
  8
0
100
AcDbLine
 10
20.6151
 20
49.31415
 30
0.0
 11
21.98849999999999
 21
49.31415
 31
0.0
  0
LINE
  5
224
330
1E
100
AcDbEntity
  8
0
100
AcDbLine
 10
19.3987
 20
49.31415
 30
0.0
 11
20.6151
 21
49.31415
 31
0.0
  0
LINE
  5
225
330
1E
100
AcDbEntity
  8
0
100
AcDbLine
 10
18.3704
 20
49.31415
 30
0.0
 11
19.3987
 21
49.31415
 31
0.0
  0
LINE
  5
226
330
1E
100
AcDbEntity
  8
0
100
AcDbLine
 10
17.7763
 20
50.51455
 30
0.0
 11
18.0213
 21
50.51455
 31
0.0
  0
LINE
  5
227
330
1E
100
AcDbEntity
  8
0
100
AcDbLine
 10
19.2337
 20
50.51455
 30
0.0
 11
20.16799999999999
 21
50.51455
 31
0.0
  0
LINE
  5
228
330
1E
100
AcDbEntity
  8
0
100
AcDbLine
 10
18.5115
 20
50.51455
 30
0.0
 11
19.2337
 21
50.51455
 31
0.0
  0
LINE
  5
229
330
1E
100
AcDbEntity
  8
0
100
AcDbLine
 10
22.56369999999999
 20
50.51455
 30
0.0
 11
23.96109999999999
 21
50.51455
 31
0.0
  0
LINE
  5
22A
330
1E
100
AcDbEntity
  8
0
100
AcDbLine
 10
25.4405
 20
50.51455
 30
0.0
 11
26.963
 21
50.51455
 31
0.0
  0
LINE
  5
22B
330
1E
100
AcDbEntity
  8
0
100
AcDbLine
 10
23.96109999999999
 20
50.51455
 30
0.0
 11
25.4405
 21
50.51455
 31
0.0
  0
LINE
  5
22C
330
1E
100
AcDbEntity
  8
0
100
AcDbLine
 10
21.2883
 20
50.51455
 30
0.0
 11
22.56369999999999
 21
50.51455
 31
0.0
  0
LINE
  5
22D
330
1E
100
AcDbEntity
  8
0
100
AcDbLine
 10
20.16799999999999
 20
50.51455
 30
0.0
 11
21.2883
 21
50.51455
 31
0.0
  0
LINE
  5
22E
330
1E
100
AcDbEntity
  8
0
100
AcDbLine
 10
17.5532
 20
49.31415
 30
0.0
 11
18.3704
 21
49.31415
 31
0.0
  0
LINE
  5
22F
330
1E
100
AcDbEntity
  8
0
100
AcDbLine
 10
16.97
 20
49.31415
 30
0.0
 11
17.5532
 21
49.31415
 31
0.0
  0
LINE
  5
230
330
1E
100
AcDbEntity
  8
0
100
AcDbLine
 10
15.2035
 20
51.30375
 30
0.0
 11
17.5672
 21
52.31405
 31
0.0
  0
LINE
  5
231
330
1E
100
AcDbEntity
  8
0
100
AcDbLine
 10
17.5672
 20
52.31405
 30
0.0
 11
20.01489999999999
 21
53.09625
 31
0.0
  0
LINE
  5
232
330
1E
100
AcDbEntity
  8
0
100
AcDbLine
 10
22.5267
 20
53.64245
 30
0.0
 11
25.07839999999999
 21
53.94754999999999
 31
0.0
  0
LINE
  5
234
330
1E
100
AcDbEntity
  8
0
100
AcDbLine
 10
20.01489999999999
 20
53.09625
 30
0.0
 11
22.5267
 21
53.64245
 31
0.0
  0
LINE
  5
235
330
1E
100
AcDbEntity
  8
0
100
AcDbLine
 10
18.0213
 20
50.51455
 30
0.0
 11
18.5115
 21
50.51455
 31
0.0
  0
LINE
  5
23E
330
1E
100
AcDbEntity
  8
0
100
AcDbLine
 10
27.0
 20
49.31415
 30
0.0
 11
27.3011
 21
49.31415
 31
0.0
  0
LINE
  5
23F
330
1E
100
AcDbEntity
  8
0
100
AcDbLine
 10
27.0
 20
43.01225
 30
0.0
 11
27.3011
 21
43.01225
 31
0.0
  0
LINE
  5
270
330
1E
100
AcDbEntity
  8
0
100
AcDbLine
 10
4.63037
 20
11.87405
 30
0.0
 11
6.17083
 21
9.816460000000009
 31
0.0
  0
LINE
  5
271
330
1E
100
AcDbEntity
  8
0
100
AcDbLine
 10
16.55089999999999
 20
49.31415
 30
0.0
 11
17.7763
 21
50.51455
 31
0.0
  0
LINE
  5
272
330
1E
100
AcDbEntity
  8
0
100
AcDbLine
 10
20.62565951433669
 20
36.1505825970641
 30
0.0
 11
21.1850392121291
 21
36.5746248736556
 31
0.0
  0
LINE
  5
273
330
1E
100
AcDbEntity
  8
0
100
AcDbLine
 10
16.5919603353524
 20
30.3041837037186
 30
0.0
 11
16.644203581435
 21
30.45249842246319
 31
0.0
  0
LINE
  5
274
330
1E
100
AcDbEntity
  8
0
100
AcDbLine
 10
21.08446421381469
 20
17.5236339291913
 30
0.0
 11
20.7688
 21
17.76794999999999
 31
0.0
  0
LINE
  5
275
330
1E
100
AcDbEntity
  8
0
100
AcDbLine
 10
21.4528
 20
17.17695
 30
0.0
 11
21.4074266386995
 21
17.2208063188254
 31
0.0
  0
LINE
  5
276
330
1E
100
AcDbEntity
  8
0
100
AcDbLine
 10
27.51419999999999
 20
19.08495
 30
0.0
 11
27.0
 21
19.04834731083574
 31
0.0
  0
LINE
  5
277
330
1E
100
AcDbEntity
  8
0
100
AcDbLine
 10
27.6772
 20
17.12595
 30
0.0
 11
27.0
 21
17.08170217157352
 31
0.0
  0
LINE
  5
278
330
1E
100
AcDbEntity
  8
0
100
AcDbLine
 10
27.5862
 20
18.58995
 30
0.0
 11
27.0
 21
18.54828275477312
 31
0.0
  0
LINE
  5
279
330
1E
100
AcDbEntity
  8
0
100
AcDbLine
 10
27.3732
 20
15.37795
 30
0.0
 11
27.0
 21
15.45172209302325
 31
0.0
  0
LINE
  5
27B
330
1E
100
AcDbEntity
  8
0
100
AcDbLine
 10
27.0
 20
0.0226890000000058
 30
0.0
 11
26.3518
 21
0.0075500000000058
 31
0.0
  0
LINE
  5
27C
330
1E
100
AcDbEntity
  8
0
100
AcDbLine
 10
27.0
 20
43.01225
 30
0.0
 11
26.6989
 21
43.01225
 31
0.0
  0
LINE
  5
27D
330
1E
100
AcDbEntity
  8
0
100
AcDbLine
 10
27.0
 20
49.31415
 30
0.0
 11
26.6989
 21
49.31415
 31
0.0
  0
LINE
  5
27E
330
1E
100
AcDbEntity
  8
0
100
AcDbLine
 10
27.1522
 20
38.57994999999999
 30
0.0
 11
27.0
 21
38.56068064220183
 31
0.0
  0
LINE
  5
27F
330
1E
100
AcDbEntity
  8
0
100
AcDbLine
 10
27.51419999999999
 20
34.92295
 30
0.0
 11
27.0
 21
34.95955268916425
 31
0.0
  0
LINE
  5
280
330
1E
100
AcDbEntity
  8
0
100
AcDbLine
 10
27.5862
 20
35.41695
 30
0.0
 11
27.0
 21
35.45910174807835
 31
0.0
  0
LINE
  5
281
330
1E
100
AcDbEntity
  8
0
100
AcDbLine
 10
27.6772
 20
36.88195
 30
0.0
 11
27.0
 21
36.92618762680602
 31
0.0
  0
LINE
  5
282
330
1E
100
AcDbEntity
  8
0
100
AcDbLine
 10
34.87619999999999
 20
27.00385
 30
0.0
 11
34.7892
 21
25.79394999999999
 31
0.0
  0
LINE
  5
283
330
1E
100
AcDbEntity
  8
0
100
AcDbLine
 10
34.37619999999999
 20
27.00395
 30
0.0
 11
34.2952
 21
25.86495
 31
0.0
  0
LINE
  5
284
330
1E
100
AcDbEntity
  8
0
100
AcDbLine
 10
36.3392
 20
27.00385
 30
0.0
 11
36.2542
 21
25.70394999999999
 31
0.0
  0
LINE
  5
285
330
1E
100
AcDbEntity
  8
0
100
AcDbLine
 10
39.2262
 20
27.00395
 30
0.0
 11
39.1602
 21
25.70295
 31
0.0
  0
LINE
  5
286
330
1E
100
AcDbEntity
  8
0
100
AcDbLine
 10
54.0
 20
26.37035
 30
0.0
 11
53.938982
 21
28.93915
 31
0.0
  0
LINE
  5
287
330
1E
100
AcDbEntity
  8
0
100
AcDbLine
 10
44.2001
 20
6.184380000000009
 30
0.0
 11
42.14249999999999
 21
4.643920000000009
 31
0.0
  0
LINE
  5
288
330
1E
100
AcDbEntity
  8
0
100
AcDbLine
 10
49.36963
 20
11.87405
 30
0.0
 11
47.82917
 21
9.816460000000009
 31
0.0
  0
LINE
  5
289
330
1E
100
AcDbEntity
  8
0
100
AcDbLine
 10
46.10166
 20
7.913890000000009
 30
0.0
 11
44.2001
 21
6.184380000000009
 31
0.0
  0
LINE
  5
28A
330
1E
100
AcDbEntity
  8
0
100
AcDbLine
 10
47.82917
 20
9.816460000000009
 30
0.0
 11
46.10166
 21
7.913890000000009
 31
0.0
  0
LINE
  5
28B
330
1E
100
AcDbEntity
  8
0
100
AcDbLine
 10
52.72662
 20
18.78915
 30
0.0
 11
51.82936
 21
16.38044999999999
 31
0.0
  0
LINE
  5
28C
330
1E
100
AcDbEntity
  8
0
100
AcDbLine
 10
53.817946
 20
23.80665
 30
0.0
 11
53.39182
 21
21.27185
 31
0.0
  0
LINE
  5
28D
330
1E
100
AcDbEntity
  8
0
100
AcDbLine
 10
53.39182
 20
21.27185
 30
0.0
 11
52.72662
 21
18.78915
 31
0.0
  0
LINE
  5
28E
330
1E
100
AcDbEntity
  8
0
100
AcDbLine
 10
54.0
 20
26.37035
 30
0.0
 11
53.817946
 21
23.80665
 31
0.0
  0
LINE
  5
28F
330
1E
100
AcDbEntity
  8
0
100
AcDbLine
 10
51.82936
 20
16.38044999999999
 30
0.0
 11
50.70702
 21
14.06875
 31
0.0
  0
LINE
  5
290
330
1E
100
AcDbEntity
  8
0
100
AcDbLine
 10
50.70702
 20
14.06875
 30
0.0
 11
49.36963
 21
11.87405
 31
0.0
  0
LINE
  5
291
330
1E
100
AcDbEntity
  8
0
100
AcDbLine
 10
37.6372
 20
2.18219000000001
 30
0.0
 11
35.2294
 21
1.28393000000001
 31
0.0
  0
LINE
  5
292
330
1E
100
AcDbEntity
  8
0
100
AcDbLine
 10
39.9488
 20
3.305530000000009
 30
0.0
 11
37.6372
 21
2.18219000000001
 31
0.0
  0
LINE
  5
293
330
1E
100
AcDbEntity
  8
0
100
AcDbLine
 10
42.14249999999999
 20
4.643920000000009
 30
0.0
 11
39.9488
 21
3.305530000000009
 31
0.0
  0
LINE
  5
294
330
1E
100
AcDbEntity
  8
0
100
AcDbLine
 10
32.7457
 20
0.6177310000000059
 30
0.0
 11
30.212
 21
0.191605000000006
 31
0.0
  0
LINE
  5
295
330
1E
100
AcDbEntity
  8
0
100
AcDbLine
 10
35.2294
 20
1.28393000000001
 30
0.0
 11
32.7457
 21
0.6177310000000059
 31
0.0
  0
LINE
  5
296
330
1E
100
AcDbEntity
  8
0
100
AcDbLine
 10
30.212
 20
0.191605000000006
 30
0.0
 11
27.6482
 21
0.0075500000000058
 31
0.0
  0
LINE
  5
297
330
1E
100
AcDbEntity
  8
0
100
AcDbLine
 10
27.6482
 20
0.0075500000000058
 30
0.0
 11
27.0
 21
0.0226890000000058
 31
0.0
  0
LINE
  5
298
330
1E
100
AcDbEntity
  8
0
100
AcDbLine
 10
35.58119999999999
 20
23.19095
 30
0.0
 11
35.0042
 21
22.02195
 31
0.0
  0
LINE
  5
299
330
1E
100
AcDbEntity
  8
0
100
AcDbLine
 10
35.5882
 20
18.46294999999999
 30
0.0
 11
35.2582
 21
18.45795
 31
0.0
  0
LINE
  5
29A
330
1E
100
AcDbEntity
  8
0
100
AcDbLine
 10
36.7722
 20
19.45095
 30
0.0
 11
35.95319999999999
 21
18.43695
 31
0.0
  0
LINE
  5
29B
330
1E
100
AcDbEntity
  8
0
100
AcDbLine
 10
35.95319999999999
 20
18.43695
 30
0.0
 11
35.52795
 21
18.4608205821206
 31
0.0
  0
LINE
  5
29C
330
1E
100
AcDbEntity
  8
0
100
AcDbLine
 10
35.95319999999999
 20
18.43695
 30
0.0
 11
35.5882
 21
18.46294999999999
 31
0.0
  0
LINE
  5
29D
330
1E
100
AcDbEntity
  8
0
100
AcDbLine
 10
37.23988697123519
 20
23.18493984771569
 30
0.0
 11
37.15172423698379
 21
22.7181959605027
 31
0.0
  0
LINE
  5
29E
330
1E
100
AcDbEntity
  8
0
100
AcDbLine
 10
37.23988697123519
 20
23.18493984771569
 30
0.0
 11
37.15172423698379
 21
22.7181959605027
 31
0.0
  0
LINE
  5
29F
330
1E
100
AcDbEntity
  8
0
100
AcDbLine
 10
37.48319999999999
 20
20.54295
 30
0.0
 11
37.3749117437722
 21
20.8133023131673
 31
0.0
  0
LINE
  5
2A0
330
1E
100
AcDbEntity
  8
0
100
AcDbLine
 10
37.48319999999999
 20
20.54295
 30
0.0
 11
37.3749117437722
 21
20.8133023131673
 31
0.0
  0
LINE
  5
2A1
330
1E
100
AcDbEntity
  8
0
100
AcDbLine
 10
37.48319999999999
 20
20.54295
 30
0.0
 11
37.40019999999999
 21
20.73595
 31
0.0
  0
LINE
  5
2A2
330
1E
100
AcDbEntity
  8
0
100
AcDbLine
 10
37.48319999999999
 20
20.54295
 30
0.0
 11
36.7722
 21
19.45095
 31
0.0
  0
LINE
  5
2A3
330
1E
100
AcDbEntity
  8
0
100
AcDbLine
 10
37.1612
 20
21.62795
 30
0.0
 11
37.1182
 21
22.17695
 31
0.0
  0
LINE
  5
2A4
330
1E
100
AcDbEntity
  8
0
100
AcDbLine
 10
37.226267021534
 20
21.3071544519718
 30
0.0
 11
37.15230737078799
 21
21.74148612645089
 31
0.0
  0
LINE
  5
2A5
330
1E
100
AcDbEntity
  8
0
100
AcDbLine
 10
37.2647964912281
 20
21.1501254385965
 30
0.0
 11
37.24377624831309
 21
21.2208298920378
 31
0.0
  0
LINE
  5
2A6
330
1E
100
AcDbEntity
  8
0
100
AcDbLine
 10
37.40019999999999
 20
20.73595
 30
0.0
 11
37.2472
 21
21.20394999999999
 31
0.0
  0
LINE
  5
2A7
330
1E
100
AcDbEntity
  8
0
100
AcDbLine
 10
37.2472
 20
21.20394999999999
 30
0.0
 11
37.1612
 21
21.62795
 31
0.0
  0
LINE
  5
2A8
330
1E
100
AcDbEntity
  8
0
100
AcDbLine
 10
37.1452
 20
22.68095
 30
0.0
 11
37.1182
 21
22.17695
 31
0.0
  0
LINE
  5
2A9
330
1E
100
AcDbEntity
  8
0
100
AcDbLine
 10
37.1261247447637
 20
22.0757712819703
 30
0.0
 11
37.12051818181819
 21
22.2202227272727
 31
0.0
  0
LINE
  5
2AA
330
1E
100
AcDbEntity
  8
0
100
AcDbLine
 10
37.637155801105
 20
24.17371243093919
 30
0.0
 11
37.3512
 21
23.56094999999999
 31
0.0
  0
LINE
  5
2AB
330
1E
100
AcDbEntity
  8
0
100
AcDbLine
 10
37.74119999999999
 20
24.35895
 30
0.0
 11
37.5272
 21
23.97794999999999
 31
0.0
  0
LINE
  5
2AC
330
1E
100
AcDbEntity
  8
0
100
AcDbLine
 10
38.1902157958688
 20
24.9345490279466
 30
0.0
 11
37.9630347305389
 21
24.66723502994009
 31
0.0
  0
LINE
  5
2AD
330
1E
100
AcDbEntity
  8
0
100
AcDbLine
 10
38.2712
 20
25.02495
 30
0.0
 11
38.0132
 21
24.73695
 31
0.0
  0
LINE
  5
2AE
330
1E
100
AcDbEntity
  8
0
100
AcDbLine
 10
38.1902157958688
 20
24.9345490279466
 30
0.0
 11
37.9630347305389
 21
24.66723502994009
 31
0.0
  0
LINE
  5
2AF
330
1E
100
AcDbEntity
  8
0
100
AcDbLine
 10
37.82758537699919
 20
24.4790002665651
 30
0.0
 11
37.70457451262059
 21
24.2937429406936
 31
0.0
  0
LINE
  5
2B0
330
1E
100
AcDbEntity
  8
0
100
AcDbLine
 10
37.82758537699919
 20
24.4790002665651
 30
0.0
 11
37.70457451262059
 21
24.2937429406936
 31
0.0
  0
LINE
  5
2B1
330
1E
100
AcDbEntity
  8
0
100
AcDbLine
 10
38.0132
 20
24.73695
 30
0.0
 11
37.74119999999999
 21
24.35895
 31
0.0
  0
LINE
  5
2B2
330
1E
100
AcDbEntity
  8
0
100
AcDbLine
 10
38.84919999999999
 20
25.50895
 30
0.0
 11
38.5852
 21
25.31095
 31
0.0
  0
LINE
  5
2B3
330
1E
100
AcDbEntity
  8
0
100
AcDbLine
 10
38.6787625
 20
25.381121875
 30
0.0
 11
38.53475376690269
 21
25.2650021571153
 31
0.0
  0
LINE
  5
2B4
330
1E
100
AcDbEntity
  8
0
100
AcDbLine
 10
39.1602
 20
25.70295
 30
0.0
 11
38.8062845839018
 21
25.475432946794
 31
0.0
  0
LINE
  5
2B5
330
1E
100
AcDbEntity
  8
0
100
AcDbLine
 10
39.1602
 20
25.70295
 30
0.0
 11
38.8062845839018
 21
25.475432946794
 31
0.0
  0
LINE
  5
2B6
330
1E
100
AcDbEntity
  8
0
100
AcDbLine
 10
39.1602
 20
25.70295
 30
0.0
 11
38.84919999999999
 21
25.50895
 31
0.0
  0
LINE
  5
2B7
330
1E
100
AcDbEntity
  8
0
100
AcDbLine
 10
38.3388597186035
 20
25.0865763679
 30
0.0
 11
38.2486502219404
 21
24.9997781547241
 31
0.0
  0
LINE
  5
2B8
330
1E
100
AcDbEntity
  8
0
100
AcDbLine
 10
38.3388597186035
 20
25.0865763679
 30
0.0
 11
38.2486502219404
 21
24.9997781547241
 31
0.0
  0
LINE
  5
2B9
330
1E
100
AcDbEntity
  8
0
100
AcDbLine
 10
38.5852
 20
25.31095
 30
0.0
 11
38.2712
 21
25.02495
 31
0.0
  0
LINE
  5
2BA
330
1E
100
AcDbEntity
  8
0
100
AcDbLine
 10
36.2542
 20
25.70394999999999
 30
0.0
 11
36.0002
 21
24.42495
 31
0.0
  0
LINE
  5
2BB
330
1E
100
AcDbEntity
  8
0
100
AcDbLine
 10
37.3825911735206
 20
23.6282168004012
 30
0.0
 11
37.2873357552581
 21
23.34521959847039
 31
0.0
  0
LINE
  5
2BC
330
1E
100
AcDbEntity
  8
0
100
AcDbLine
 10
36.0002
 20
24.42495
 30
0.0
 11
35.58119999999999
 21
23.19095
 31
0.0
  0
LINE
  5
2BD
330
1E
100
AcDbEntity
  8
0
100
AcDbLine
 10
32.44119999999999
 20
19.09995
 30
0.0
 11
31.3582
 21
18.37595
 31
0.0
  0
LINE
  5
2BE
330
1E
100
AcDbEntity
  8
0
100
AcDbLine
 10
31.3582
 20
18.37595
 30
0.0
 11
30.1892
 21
17.79895
 31
0.0
  0
LINE
  5
2BF
330
1E
100
AcDbEntity
  8
0
100
AcDbLine
 10
31.5642
 20
15.24795
 30
0.0
 11
30.3472
 21
14.78295
 31
0.0
  0
LINE
  5
2C0
330
1E
100
AcDbEntity
  8
0
100
AcDbLine
 10
33.8176574337082
 20
18.0926603275593
 30
0.0
 11
33.2312
 21
17.76794999999999
 31
0.0
  0
LINE
  5
2C1
330
1E
100
AcDbEntity
  8
0
100
AcDbLine
 10
34.4582
 20
18.32995
 30
0.0
 11
34.01619999999999
 21
18.18394999999999
 31
0.0
  0
LINE
  5
2C2
330
1E
100
AcDbEntity
  8
0
100
AcDbLine
 10
35.2582
 20
18.45795
 30
0.0
 11
34.8362
 21
18.41095
 31
0.0
  0
LINE
  5
2C3
330
1E
100
AcDbEntity
  8
0
100
AcDbLine
 10
34.9265135223555
 20
18.4210086150491
 30
0.0
 11
34.8114693562741
 21
18.4051282853753
 31
0.0
  0
LINE
  5
2C4
330
1E
100
AcDbEntity
  8
0
100
AcDbLine
 10
35.3914831105711
 20
18.4599694410693
 30
0.0
 11
35.1848278899466
 21
18.44977822470969
 31
0.0
  0
LINE
  5
2C5
330
1E
100
AcDbEntity
  8
0
100
AcDbLine
 10
34.8362
 20
18.41095
 30
0.0
 11
34.4582
 21
18.32995
 31
0.0
  0
LINE
  5
2C6
330
1E
100
AcDbEntity
  8
0
100
AcDbLine
 10
34.71581538461539
 20
18.3851532967033
 30
0.0
 11
34.39303553856049
 21
18.30717077087069
 31
0.0
  0
LINE
  5
2C7
330
1E
100
AcDbEntity
  8
0
100
AcDbLine
 10
34.01619999999999
 20
18.18394999999999
 30
0.0
 11
33.6182
 21
18.00094999999999
 31
0.0
  0
LINE
  5
2C8
330
1E
100
AcDbEntity
  8
0
100
AcDbLine
 10
34.1484819326651
 20
18.22764493703419
 30
0.0
 11
33.9533138398915
 21
18.15503500678429
 31
0.0
  0
LINE
  5
2C9
330
1E
100
AcDbEntity
  8
0
100
AcDbLine
 10
32.2292
 20
16.78494999999999
 30
0.0
 11
31.94119999999999
 21
16.31595
 31
0.0
  0
LINE
  5
2CA
330
1E
100
AcDbEntity
  8
0
100
AcDbLine
 10
31.6112
 20
15.45295
 30
0.0
 11
31.5642
 21
15.24795
 31
0.0
  0
LINE
  5
2CB
330
1E
100
AcDbEntity
  8
0
100
AcDbLine
 10
31.6334069490033
 20
15.5219239012089
 30
0.0
 11
31.5642
 21
15.24795
 31
0.0
  0
LINE
  5
2CC
330
1E
100
AcDbEntity
  8
0
100
AcDbLine
 10
31.7622
 20
15.92195
 30
0.0
 11
31.6112
 21
15.45295
 31
0.0
  0
LINE
  5
2CD
330
1E
100
AcDbEntity
  8
0
100
AcDbLine
 10
31.7692455104551
 20
15.93745799507999
 30
0.0
 11
31.7463443806398
 21
15.872703076292
 31
0.0
  0
LINE
  5
2CE
330
1E
100
AcDbEntity
  8
0
100
AcDbLine
 10
31.94119999999999
 20
16.31595
 30
0.0
 11
31.7622
 21
15.92195
 31
0.0
  0
LINE
  5
2CF
330
1E
100
AcDbEntity
  8
0
100
AcDbLine
 10
32.0030080036708
 20
16.4166026170889
 30
0.0
 11
31.8050685249709
 21
16.0163086527293
 31
0.0
  0
LINE
  5
2D0
330
1E
100
AcDbEntity
  8
0
100
AcDbLine
 10
32.0030080036708
 20
16.4166026170889
 30
0.0
 11
31.8050685249709
 21
16.0163086527293
 31
0.0
  0
LINE
  5
2D1
330
1E
100
AcDbEntity
  8
0
100
AcDbLine
 10
32.5472
 20
17.17695
 30
0.0
 11
32.2292
 21
16.78494999999999
 31
0.0
  0
LINE
  5
2D2
330
1E
100
AcDbEntity
  8
0
100
AcDbLine
 10
32.9155357861853
 20
17.5236339291913
 30
0.0
 11
32.59257336130049
 21
17.2208063188254
 31
0.0
  0
LINE
  5
2D3
330
1E
100
AcDbEntity
  8
0
100
AcDbLine
 10
32.5472
 20
17.17695
 30
0.0
 11
32.59257336130049
 21
17.2208063188254
 31
0.0
  0
LINE
  5
2D4
330
1E
100
AcDbEntity
  8
0
100
AcDbLine
 10
32.9155357861853
 20
17.5236339291913
 30
0.0
 11
33.2312
 21
17.76794999999999
 31
0.0
  0
LINE
  5
2D5
330
1E
100
AcDbEntity
  8
0
100
AcDbLine
 10
32.25512593676819
 20
16.81690901639349
 30
0.0
 11
32.176518226601
 21
16.6991591954023
 31
0.0
  0
LINE
  5
2D6
330
1E
100
AcDbEntity
  8
0
100
AcDbLine
 10
30.1892
 20
17.79895
 30
0.0
 11
28.9552
 21
17.37995
 31
0.0
  0
LINE
  5
2D7
330
1E
100
AcDbEntity
  8
0
100
AcDbLine
 10
30.3472
 20
14.78295
 30
0.0
 11
29.0892
 21
14.44395
 31
0.0
  0
LINE
  5
2D8
330
1E
100
AcDbEntity
  8
0
100
AcDbLine
 10
28.1692
 20
15.07895
 30
0.0
 11
27.8162
 21
15.23595
 31
0.0
  0
LINE
  5
2D9
330
1E
100
AcDbEntity
  8
0
100
AcDbLine
 10
28.642249100632
 20
14.79654747204659
 30
0.0
 11
28.4783315240083
 21
14.9034969728601
 31
0.0
  0
LINE
  5
2DA
330
1E
100
AcDbEntity
  8
0
100
AcDbLine
 10
28.642249100632
 20
14.79654747204659
 30
0.0
 11
28.4783315240083
 21
14.9034969728601
 31
0.0
  0
LINE
  5
2DB
330
1E
100
AcDbEntity
  8
0
100
AcDbLine
 10
28.80819999999999
 20
14.67995
 30
0.0
 11
28.5392
 21
14.86895
 31
0.0
  0
LINE
  5
2DC
330
1E
100
AcDbEntity
  8
0
100
AcDbLine
 10
29.0892
 20
14.44395
 30
0.0
 11
28.80819999999999
 21
14.67995
 31
0.0
  0
LINE
  5
2DD
330
1E
100
AcDbEntity
  8
0
100
AcDbLine
 10
29.0892
 20
14.44395
 30
0.0
 11
28.7600630305322
 21
14.71236383873709
 31
0.0
  0
LINE
  5
2DE
330
1E
100
AcDbEntity
  8
0
100
AcDbLine
 10
28.22650088495569
 20
15.0464278761062
 30
0.0
 11
28.1537271576727
 21
15.0854405958868
 31
0.0
  0
LINE
  5
2DF
330
1E
100
AcDbEntity
  8
0
100
AcDbLine
 10
28.5392
 20
14.86895
 30
0.0
 11
28.1692
 21
15.07895
 31
0.0
  0
LINE
  5
2E0
330
1E
100
AcDbEntity
  8
0
100
AcDbLine
 10
27.8162
 20
15.23595
 30
0.0
 11
27.3732
 21
15.37795
 31
0.0
  0
LINE
  5
2E1
330
1E
100
AcDbEntity
  8
0
100
AcDbLine
 10
28.9552
 20
17.37995
 30
0.0
 11
27.6772
 21
17.12595
 31
0.0
  0
LINE
  5
2E2
330
1E
100
AcDbEntity
  8
0
100
AcDbLine
 10
31.9422
 20
20.57995
 30
0.0
 11
30.9712
 21
19.85294999999999
 31
0.0
  0
LINE
  5
2E3
330
1E
100
AcDbEntity
  8
0
100
AcDbLine
 10
31.6152
 20
20.95795
 30
0.0
 11
30.7012
 21
20.27394999999999
 31
0.0
  0
LINE
  5
2E4
330
1E
100
AcDbEntity
  8
0
100
AcDbLine
 10
34.10819999999999
 20
23.47295
 30
0.0
 11
33.5272
 21
22.40895
 31
0.0
  0
LINE
  5
2E5
330
1E
100
AcDbEntity
  8
0
100
AcDbLine
 10
33.6532
 20
23.68094999999999
 30
0.0
 11
33.1062
 21
22.67895
 31
0.0
  0
LINE
  5
2E6
330
1E
100
AcDbEntity
  8
0
100
AcDbLine
 10
33.5272
 20
22.40895
 30
0.0
 11
32.8002
 21
21.43795
 31
0.0
  0
LINE
  5
2E7
330
1E
100
AcDbEntity
  8
0
100
AcDbLine
 10
33.42119999999999
 20
19.95895
 30
0.0
 11
32.44119999999999
 21
19.09995
 31
0.0
  0
LINE
  5
2E8
330
1E
100
AcDbEntity
  8
0
100
AcDbLine
 10
34.28119999999999
 20
20.93894999999999
 30
0.0
 11
33.42119999999999
 21
19.95895
 31
0.0
  0
LINE
  5
2E9
330
1E
100
AcDbEntity
  8
0
100
AcDbLine
 10
35.0042
 20
22.02195
 30
0.0
 11
34.28119999999999
 21
20.93894999999999
 31
0.0
  0
LINE
  5
2EA
330
1E
100
AcDbEntity
  8
0
100
AcDbLine
 10
32.8002
 20
21.43795
 30
0.0
 11
31.9422
 21
20.57995
 31
0.0
  0
LINE
  5
2EB
330
1E
100
AcDbEntity
  8
0
100
AcDbLine
 10
32.4222
 20
21.76495
 30
0.0
 11
31.6152
 21
20.95795
 31
0.0
  0
LINE
  5
2EC
330
1E
100
AcDbEntity
  8
0
100
AcDbLine
 10
33.1062
 20
22.67895
 30
0.0
 11
32.4222
 21
21.76495
 31
0.0
  0
LINE
  5
2ED
330
1E
100
AcDbEntity
  8
0
100
AcDbLine
 10
34.7892
 20
25.79394999999999
 30
0.0
 11
34.5322
 21
24.60895
 31
0.0
  0
LINE
  5
2EE
330
1E
100
AcDbEntity
  8
0
100
AcDbLine
 10
34.2952
 20
25.86495
 30
0.0
 11
34.05219999999999
 21
24.74994999999999
 31
0.0
  0
LINE
  5
2EF
330
1E
100
AcDbEntity
  8
0
100
AcDbLine
 10
34.5322
 20
24.60895
 30
0.0
 11
34.10819999999999
 21
23.47295
 31
0.0
  0
LINE
  5
2F0
330
1E
100
AcDbEntity
  8
0
100
AcDbLine
 10
34.05219999999999
 20
24.74994999999999
 30
0.0
 11
33.6532
 21
23.68094999999999
 31
0.0
  0
LINE
  5
2F1
330
1E
100
AcDbEntity
  8
0
100
AcDbLine
 10
29.6992
 20
19.72694999999999
 30
0.0
 11
28.6302
 21
19.32795
 31
0.0
  0
LINE
  5
2F2
330
1E
100
AcDbEntity
  8
0
100
AcDbLine
 10
29.90719999999999
 20
19.27195
 30
0.0
 11
28.7712
 21
18.84795
 31
0.0
  0
LINE
  5
2F3
330
1E
100
AcDbEntity
  8
0
100
AcDbLine
 10
30.9712
 20
19.85294999999999
 30
0.0
 11
29.90719999999999
 21
19.27195
 31
0.0
  0
LINE
  5
2F4
330
1E
100
AcDbEntity
  8
0
100
AcDbLine
 10
30.7012
 20
20.27394999999999
 30
0.0
 11
29.6992
 21
19.72694999999999
 31
0.0
  0
LINE
  5
2F5
330
1E
100
AcDbEntity
  8
0
100
AcDbLine
 10
28.6302
 20
19.32795
 30
0.0
 11
27.51419999999999
 21
19.08495
 31
0.0
  0
LINE
  5
2F6
330
1E
100
AcDbEntity
  8
0
100
AcDbLine
 10
28.7712
 20
18.84795
 30
0.0
 11
27.5862
 21
18.58995
 31
0.0
  0
LINE
  5
2F7
330
1E
100
AcDbEntity
  8
0
100
AcDbLine
 10
45.16338
 20
46.99645
 30
0.0
 11
43.1818
 21
48.63195000000001
 31
0.0
  0
LINE
  5
2F8
330
1E
100
AcDbEntity
  8
0
100
AcDbLine
 10
48.6184
 20
43.19735
 30
0.0
 11
46.98091999999999
 21
45.17895
 31
0.0
  0
LINE
  5
2F9
330
1E
100
AcDbEntity
  8
0
100
AcDbLine
 10
53.086729
 20
34.00265
 30
0.0
 11
52.3035
 21
36.45134999999999
 31
0.0
  0
LINE
  5
2FA
330
1E
100
AcDbEntity
  8
0
100
AcDbLine
 10
53.938982
 20
28.93915
 30
0.0
 11
53.632891
 21
31.49185
 31
0.0
  0
LINE
  5
2FB
330
1E
100
AcDbEntity
  8
0
100
AcDbLine
 10
53.938982
 20
28.93915
 30
0.0
 11
53.632891
 21
31.49185
 31
0.0
  0
LINE
  5
2FC
330
1E
100
AcDbEntity
  8
0
100
AcDbLine
 10
53.632891
 20
31.49185
 30
0.0
 11
53.086729
 21
34.00265
 31
0.0
  0
LINE
  5
2FD
330
1E
100
AcDbEntity
  8
0
100
AcDbLine
 10
51.2912
 20
38.81405
 30
0.0
 11
50.05883
 21
41.06875
 31
0.0
  0
LINE
  5
2FE
330
1E
100
AcDbEntity
  8
0
100
AcDbLine
 10
52.3035
 20
36.45134999999999
 30
0.0
 11
51.2912
 21
38.81405
 31
0.0
  0
LINE
  5
2FF
330
1E
100
AcDbEntity
  8
0
100
AcDbLine
 10
50.05883
 20
41.06875
 30
0.0
 11
48.6184
 21
43.19735
 31
0.0
  0
LINE
  5
300
330
1E
100
AcDbEntity
  8
0
100
AcDbLine
 10
46.98091999999999
 20
45.17895
 30
0.0
 11
45.16338
 21
46.99645
 31
0.0
  0
LINE
  5
301
330
1E
100
AcDbEntity
  8
0
100
AcDbLine
 10
37.4491
 20
49.31415
 30
0.0
 11
37.4491
 21
43.01225
 31
0.0
  0
LINE
  5
302
330
1E
100
AcDbEntity
  8
0
100
AcDbLine
 10
37.4491
 20
43.01225
 30
0.0
 11
37.4491
 21
49.31415
 31
0.0
  0
LINE
  5
303
330
1E
100
AcDbEntity
  8
0
100
AcDbLine
 10
35.62959999999999
 20
43.01225
 30
0.0
 11
34.60129999999999
 21
43.01225
 31
0.0
  0
LINE
  5
304
330
1E
100
AcDbEntity
  8
0
100
AcDbLine
 10
35.5005
 20
41.06175
 30
0.0
 11
35.3365
 21
41.06175
 31
0.0
  0
LINE
  5
305
330
1E
100
AcDbEntity
  8
0
100
AcDbLine
 10
35.74419999999999
 20
35.55194999999999
 30
0.0
 11
35.25119999999999
 21
35.55095
 31
0.0
  0
LINE
  5
306
330
1E
100
AcDbEntity
  8
0
100
AcDbLine
 10
35.58119999999999
 20
30.81694999999999
 30
0.0
 11
35.0042
 21
31.98595
 31
0.0
  0
LINE
  5
307
330
1E
100
AcDbEntity
  8
0
100
AcDbLine
 10
36.7722
 20
34.55695
 30
0.0
 11
35.95319999999999
 21
35.57095
 31
0.0
  0
LINE
  5
308
330
1E
100
AcDbEntity
  8
0
100
AcDbLine
 10
37.1762
 20
31.10995
 30
0.0
 11
37.1252
 21
31.54495
 31
0.0
  0
LINE
  5
309
330
1E
100
AcDbEntity
  8
0
100
AcDbLine
 10
37.2792
 20
30.66995
 30
0.0
 11
37.1495160602719
 21
31.3375483094451
 31
0.0
  0
LINE
  5
30A
330
1E
100
AcDbEntity
  8
0
100
AcDbLine
 10
37.6103039484287
 20
29.8745881950041
 30
0.0
 11
37.4080396646476
 21
30.3041837037186
 31
0.0
  0
LINE
  5
30B
330
1E
100
AcDbEntity
  8
0
100
AcDbLine
 10
37.6103039484287
 20
29.8745881950041
 30
0.0
 11
37.4080396646476
 21
30.3041837037186
 31
0.0
  0
LINE
  5
30C
330
1E
100
AcDbEntity
  8
0
100
AcDbLine
 10
38.2612
 20
28.99395
 30
0.0
 11
37.90319999999999
 21
29.41295
 31
0.0
  0
LINE
  5
30D
330
1E
100
AcDbEntity
  8
0
100
AcDbLine
 10
38.9792
 20
28.41295
 30
0.0
 11
38.58019999999999
 21
28.70195
 31
0.0
  0
LINE
  5
30E
330
1E
100
AcDbEntity
  8
0
100
AcDbLine
 10
39.2262
 20
27.00395
 30
0.0
 11
39.1602
 21
28.30495
 31
0.0
  0
LINE
  5
30F
330
1E
100
AcDbEntity
  8
0
100
AcDbLine
 10
39.1602
 20
28.30495
 30
0.0
 11
38.9156494693489
 21
28.458980334231
 31
0.0
  0
LINE
  5
310
330
1E
100
AcDbEntity
  8
0
100
AcDbLine
 10
39.1602
 20
28.30495
 30
0.0
 11
38.9792
 21
28.41295
 31
0.0
  0
LINE
  5
311
330
1E
100
AcDbEntity
  8
0
100
AcDbLine
 10
38.58019999999999
 20
28.70195
 30
0.0
 11
38.2612
 21
28.99395
 31
0.0
  0
LINE
  5
312
330
1E
100
AcDbEntity
  8
0
100
AcDbLine
 10
37.90319999999999
 20
29.41295
 30
0.0
 11
37.62919999999999
 21
29.83595
 31
0.0
  0
LINE
  5
313
330
1E
100
AcDbEntity
  8
0
100
AcDbLine
 10
37.9676407188033
 20
29.3375291587191
 30
0.0
 11
37.8787617569517
 21
29.4506776525891
 31
0.0
  0
LINE
  5
314
330
1E
100
AcDbEntity
  8
0
100
AcDbLine
 10
37.9676407188033
 20
29.3375291587191
 30
0.0
 11
37.8787617569517
 21
29.4506776525891
 31
0.0
  0
LINE
  5
315
330
1E
100
AcDbEntity
  8
0
100
AcDbLine
 10
36.2542
 20
28.30395
 30
0.0
 11
36.0002
 21
29.58295
 31
0.0
  0
LINE
  5
316
330
1E
100
AcDbEntity
  8
0
100
AcDbLine
 10
36.3392
 20
27.00385
 30
0.0
 11
36.2542
 21
28.30395
 31
0.0
  0
LINE
  5
317
330
1E
100
AcDbEntity
  8
0
100
AcDbLine
 10
37.4080396646476
 20
30.3041837037186
 30
0.0
 11
37.35579641856499
 21
30.45249842246319
 31
0.0
  0
LINE
  5
318
330
1E
100
AcDbEntity
  8
0
100
AcDbLine
 10
37.35579641856499
 20
30.45249842246319
 30
0.0
 11
37.2659694074009
 21
30.7380595999294
 31
0.0
  0
LINE
  5
319
330
1E
100
AcDbEntity
  8
0
100
AcDbLine
 10
36.0002
 20
29.58295
 30
0.0
 11
35.58119999999999
 21
30.81694999999999
 31
0.0
  0
LINE
  5
31A
330
1E
100
AcDbEntity
  8
0
100
AcDbLine
 10
37.48319999999999
 20
33.46495
 30
0.0
 11
37.34619999999999
 21
33.12495
 31
0.0
  0
LINE
  5
31B
330
1E
100
AcDbEntity
  8
0
100
AcDbLine
 10
37.48319999999999
 20
33.46495
 30
0.0
 11
37.3256062077055
 21
33.0582855589642
 31
0.0
  0
LINE
  5
31C
330
1E
100
AcDbEntity
  8
0
100
AcDbLine
 10
37.1632
 20
32.39395
 30
0.0
 11
37.1232
 21
32.00995
 31
0.0
  0
LINE
  5
31D
330
1E
100
AcDbEntity
  8
0
100
AcDbLine
 10
37.14917159940209
 20
32.2592773542601
 30
0.0
 11
37.1235822251554
 21
31.9210826513777
 31
0.0
  0
LINE
  5
31E
330
1E
100
AcDbEntity
  8
0
100
AcDbLine
 10
37.1344423124231
 20
31.46611851168509
 30
0.0
 11
37.1245317374323
 21
31.7003210469952
 31
0.0
  0
LINE
  5
31F
330
1E
100
AcDbEntity
  8
0
100
AcDbLine
 10
37.1252
 20
31.54495
 30
0.0
 11
37.1232
 21
32.00995
 31
0.0
  0
LINE
  5
320
330
1E
100
AcDbEntity
  8
0
100
AcDbLine
 10
37.28412
 20
32.92399
 30
0.0
 11
37.2365114754098
 21
32.749425409836
 31
0.0
  0
LINE
  5
321
330
1E
100
AcDbEntity
  8
0
100
AcDbLine
 10
37.28412
 20
32.92399
 30
0.0
 11
37.2365114754098
 21
32.749425409836
 31
0.0
  0
LINE
  5
322
330
1E
100
AcDbEntity
  8
0
100
AcDbLine
 10
37.34619999999999
 20
33.12495
 30
0.0
 11
37.2492
 21
32.81095
 31
0.0
  0
LINE
  5
323
330
1E
100
AcDbEntity
  8
0
100
AcDbLine
 10
37.17668034006379
 20
32.4593139744953
 30
0.0
 11
37.16065470232959
 21
32.3695151423641
 31
0.0
  0
LINE
  5
324
330
1E
100
AcDbEntity
  8
0
100
AcDbLine
 10
37.2492
 20
32.81095
 30
0.0
 11
37.1632
 21
32.39395
 31
0.0
  0
LINE
  5
325
330
1E
100
AcDbEntity
  8
0
100
AcDbLine
 10
37.17668034006379
 20
32.4593139744953
 30
0.0
 11
37.16065470232959
 21
32.3695151423641
 31
0.0
  0
LINE
  5
326
330
1E
100
AcDbEntity
  8
0
100
AcDbLine
 10
37.48319999999999
 20
33.46495
 30
0.0
 11
36.7722
 21
34.55695
 31
0.0
  0
LINE
  5
327
330
1E
100
AcDbEntity
  8
0
100
AcDbLine
 10
35.5005
 20
41.06175
 30
0.0
 11
35.4904579070444
 21
35.55242606396429
 31
0.0
  0
LINE
  5
328
330
1E
100
AcDbEntity
  8
0
100
AcDbLine
 10
35.95319999999999
 20
35.57095
 30
0.0
 11
35.6770793453266
 21
35.55207592993371
 31
0.0
  0
LINE
  5
329
330
1E
100
AcDbEntity
  8
0
100
AcDbLine
 10
35.95319999999999
 20
35.57095
 30
0.0
 11
35.74419999999999
 21
35.55194999999999
 31
0.0
  0
LINE
  5
32A
330
1E
100
AcDbEntity
  8
0
100
AcDbLine
 10
37.4491
 20
43.01225
 30
0.0
 11
35.5005
 21
41.06175
 31
0.0
  0
LINE
  5
32B
330
1E
100
AcDbEntity
  8
0
100
AcDbLine
 10
37.03
 20
43.01225
 30
0.0
 11
36.44679999999999
 21
43.01225
 31
0.0
  0
LINE
  5
32C
330
1E
100
AcDbEntity
  8
0
100
AcDbLine
 10
37.4491
 20
43.01225
 30
0.0
 11
37.3671
 21
43.01225
 31
0.0
  0
LINE
  5
32D
330
1E
100
AcDbEntity
  8
0
100
AcDbLine
 10
37.3671
 20
43.01225
 30
0.0
 11
37.03
 21
43.01225
 31
0.0
  0
LINE
  5
32E
330
1E
100
AcDbEntity
  8
0
100
AcDbLine
 10
36.44679999999999
 20
43.01225
 30
0.0
 11
35.62959999999999
 21
43.01225
 31
0.0
  0
LINE
  5
32F
330
1E
100
AcDbEntity
  8
0
100
AcDbLine
 10
32.44119999999999
 20
34.90795
 30
0.0
 11
31.3582
 21
35.63295
 31
0.0
  0
LINE
  5
330
330
1E
100
AcDbEntity
  8
0
100
AcDbLine
 10
31.9422
 20
33.42795
 30
0.0
 11
30.9712
 21
34.15494999999999
 31
0.0
  0
LINE
  5
331
330
1E
100
AcDbEntity
  8
0
100
AcDbLine
 10
31.6152
 20
33.04995
 30
0.0
 11
30.7012
 21
33.73395
 31
0.0
  0
LINE
  5
332
330
1E
100
AcDbEntity
  8
0
100
AcDbLine
 10
33.6532
 20
30.32695
 30
0.0
 11
33.1062
 21
31.32894999999999
 31
0.0
  0
LINE
  5
333
330
1E
100
AcDbEntity
  8
0
100
AcDbLine
 10
34.10819999999999
 20
30.53494999999999
 30
0.0
 11
33.5272
 21
31.59895
 31
0.0
  0
LINE
  5
334
330
1E
100
AcDbEntity
  8
0
100
AcDbLine
 10
34.2952
 20
28.14294999999999
 30
0.0
 11
34.05219999999999
 21
29.25795
 31
0.0
  0
LINE
  5
335
330
1E
100
AcDbEntity
  8
0
100
AcDbLine
 10
34.7892
 20
28.21395
 30
0.0
 11
34.5322
 21
29.39894999999999
 31
0.0
  0
LINE
  5
336
330
1E
100
AcDbEntity
  8
0
100
AcDbLine
 10
34.87619999999999
 20
27.00385
 30
0.0
 11
34.7892
 21
28.21395
 31
0.0
  0
LINE
  5
337
330
1E
100
AcDbEntity
  8
0
100
AcDbLine
 10
34.37619999999999
 20
27.00395
 30
0.0
 11
34.2952
 21
28.14294999999999
 31
0.0
  0
LINE
  5
338
330
1E
100
AcDbEntity
  8
0
100
AcDbLine
 10
34.5322
 20
29.39894999999999
 30
0.0
 11
34.10819999999999
 21
30.53494999999999
 31
0.0
  0
LINE
  5
339
330
1E
100
AcDbEntity
  8
0
100
AcDbLine
 10
34.05219999999999
 20
29.25795
 30
0.0
 11
33.6532
 21
30.32695
 31
0.0
  0
LINE
  5
33A
330
1E
100
AcDbEntity
  8
0
100
AcDbLine
 10
33.5272
 20
31.59895
 30
0.0
 11
32.8002
 21
32.56994999999999
 31
0.0
  0
LINE
  5
33B
330
1E
100
AcDbEntity
  8
0
100
AcDbLine
 10
33.42119999999999
 20
34.04894999999999
 30
0.0
 11
32.44119999999999
 21
34.90795
 31
0.0
  0
LINE
  5
33C
330
1E
100
AcDbEntity
  8
0
100
AcDbLine
 10
34.2802
 20
33.06895
 30
0.0
 11
33.42119999999999
 21
34.04894999999999
 31
0.0
  0
LINE
  5
33D
330
1E
100
AcDbEntity
  8
0
100
AcDbLine
 10
35.0042
 20
31.98595
 30
0.0
 11
34.2802
 21
33.06895
 31
0.0
  0
LINE
  5
33E
330
1E
100
AcDbEntity
  8
0
100
AcDbLine
 10
32.8002
 20
32.56994999999999
 30
0.0
 11
31.9422
 21
33.42795
 31
0.0
  0
LINE
  5
33F
330
1E
100
AcDbEntity
  8
0
100
AcDbLine
 10
32.4222
 20
32.24295
 30
0.0
 11
31.6152
 21
33.04995
 31
0.0
  0
LINE
  5
340
330
1E
100
AcDbEntity
  8
0
100
AcDbLine
 10
33.1062
 20
31.32894999999999
 30
0.0
 11
32.4222
 21
32.24295
 31
0.0
  0
LINE
  5
341
330
1E
100
AcDbEntity
  8
0
100
AcDbLine
 10
29.90719999999999
 20
34.73595
 30
0.0
 11
28.7712
 21
35.15995
 31
0.0
  0
LINE
  5
342
330
1E
100
AcDbEntity
  8
0
100
AcDbLine
 10
29.6992
 20
34.28094999999999
 30
0.0
 11
28.6302
 21
34.67995
 31
0.0
  0
LINE
  5
343
330
1E
100
AcDbEntity
  8
0
100
AcDbLine
 10
30.7012
 20
33.73395
 30
0.0
 11
29.6992
 21
34.28094999999999
 31
0.0
  0
LINE
  5
344
330
1E
100
AcDbEntity
  8
0
100
AcDbLine
 10
30.9712
 20
34.15494999999999
 30
0.0
 11
29.90719999999999
 21
34.73595
 31
0.0
  0
LINE
  5
345
330
1E
100
AcDbEntity
  8
0
100
AcDbLine
 10
28.7712
 20
35.15995
 30
0.0
 11
27.5862
 21
35.41695
 31
0.0
  0
LINE
  5
346
330
1E
100
AcDbEntity
  8
0
100
AcDbLine
 10
28.6302
 20
34.67995
 30
0.0
 11
27.51419999999999
 21
34.92295
 31
0.0
  0
LINE
  5
347
330
1E
100
AcDbEntity
  8
0
100
AcDbLine
 10
32.0115
 20
43.01225
 30
0.0
 11
30.515
 21
43.01225
 31
0.0
  0
LINE
  5
348
330
1E
100
AcDbEntity
  8
0
100
AcDbLine
 10
32.3106
 20
41.06175
 30
0.0
 11
31.0762
 21
41.06175
 31
0.0
  0
LINE
  5
349
330
1E
100
AcDbEntity
  8
0
100
AcDbLine
 10
31.5642
 20
38.75995
 30
0.0
 11
30.3472
 21
39.22494999999999
 31
0.0
  0
LINE
  5
34A
330
1E
100
AcDbEntity
  8
0
100
AcDbLine
 10
31.3582
 20
35.63295
 30
0.0
 11
30.1892
 21
36.20895
 31
0.0
  0
LINE
  5
34B
330
1E
100
AcDbEntity
  8
0
100
AcDbLine
 10
33.3743404856633
 20
36.1505825970641
 30
0.0
 11
32.8149607878709
 21
36.5746248736556
 31
0.0
  0
LINE
  5
34C
330
1E
100
AcDbEntity
  8
0
100
AcDbLine
 10
34.38833182713219
 20
35.7035147217329
 30
0.0
 11
34.2443988918333
 21
35.74410244519389
 31
0.0
  0
LINE
  5
34D
330
1E
100
AcDbEntity
  8
0
100
AcDbLine
 10
34.8212
 20
35.59995
 30
0.0
 11
34.2862
 21
35.72795
 31
0.0
  0
LINE
  5
34E
330
1E
100
AcDbEntity
  8
0
100
AcDbLine
 10
35.25119999999999
 20
35.55095
 30
0.0
 11
34.8212
 21
35.59995
 31
0.0
  0
LINE
  5
34F
330
1E
100
AcDbEntity
  8
0
100
AcDbLine
 10
34.2862
 20
35.72795
 30
0.0
 11
33.8152
 21
35.90995
 31
0.0
  0
LINE
  5
350
330
1E
100
AcDbEntity
  8
0
100
AcDbLine
 10
33.7689035347781
 20
35.93447337514229
 30
0.0
 11
33.3743404856633
 21
36.1505825970641
 31
0.0
  0
LINE
  5
351
330
1E
100
AcDbEntity
  8
0
100
AcDbLine
 10
33.76890353477799
 20
35.93447337514229
 30
0.0
 11
33.3743404856633
 21
36.1505825970641
 31
0.0
  0
LINE
  5
352
330
1E
100
AcDbEntity
  8
0
100
AcDbLine
 10
32.1754954230236
 20
37.3064562413315
 30
0.0
 11
32.0110593689131
 21
37.5726251071289
 31
0.0
  0
LINE
  5
353
330
1E
100
AcDbEntity
  8
0
100
AcDbLine
 10
32.1282
 20
37.37095
 30
0.0
 11
31.9342
 21
37.70494999999999
 31
0.0
  0
LINE
  5
354
330
1E
100
AcDbEntity
  8
0
100
AcDbLine
 10
32.1754954230236
 20
37.3064562413315
 30
0.0
 11
32.0110593689131
 21
37.5726251071289
 31
0.0
  0
LINE
  5
355
330
1E
100
AcDbEntity
  8
0
100
AcDbLine
 10
32.4032
 20
36.99595
 30
0.0
 11
32.1282
 21
37.37095
 31
0.0
  0
LINE
  5
356
330
1E
100
AcDbEntity
  8
0
100
AcDbLine
 10
32.8149607878709
 20
36.5746248736556
 30
0.0
 11
32.57464592278179
 21
36.8100726022365
 31
0.0
  0
LINE
  5
357
330
1E
100
AcDbEntity
  8
0
100
AcDbLine
 10
32.4513884067843
 20
36.94370533001839
 30
0.0
 11
32.3205438485804
 21
37.10866293375399
 31
0.0
  0
LINE
  5
358
330
1E
100
AcDbEntity
  8
0
100
AcDbLine
 10
32.70019999999999
 20
36.67394999999999
 30
0.0
 11
32.4032
 21
36.99595
 31
0.0
  0
LINE
  5
359
330
1E
100
AcDbEntity
  8
0
100
AcDbLine
 10
31.6752123844566
 20
38.33936649466039
 30
0.0
 11
31.5642
 21
38.75995
 31
0.0
  0
LINE
  5
35A
330
1E
100
AcDbEntity
  8
0
100
AcDbLine
 10
31.65319999999999
 20
38.40395
 30
0.0
 11
31.5642
 21
38.75995
 31
0.0
  0
LINE
  5
35B
330
1E
100
AcDbEntity
  8
0
100
AcDbLine
 10
31.789102544667
 20
38.0266517866811
 30
0.0
 11
31.7201551820728
 21
38.207506022409
 31
0.0
  0
LINE
  5
35C
330
1E
100
AcDbEntity
  8
0
100
AcDbLine
 10
31.7592
 20
38.09295
 30
0.0
 11
31.65319999999999
 21
38.40395
 31
0.0
  0
LINE
  5
35D
330
1E
100
AcDbEntity
  8
0
100
AcDbLine
 10
31.94574348258699
 20
37.68507616915429
 30
0.0
 11
31.90281127774449
 21
37.7745432813436
 31
0.0
  0
LINE
  5
35E
330
1E
100
AcDbEntity
  8
0
100
AcDbLine
 10
31.9342
 20
37.70494999999999
 30
0.0
 11
31.7592
 21
38.09295
 31
0.0
  0
LINE
  5
35F
330
1E
100
AcDbEntity
  8
0
100
AcDbLine
 10
33.3849
 20
43.01225
 30
0.0
 11
32.0115
 21
43.01225
 31
0.0
  0
LINE
  5
360
330
1E
100
AcDbEntity
  8
0
100
AcDbLine
 10
33.3829
 20
41.06175
 30
0.0
 11
32.3106
 21
41.06175
 31
0.0
  0
LINE
  5
361
330
1E
100
AcDbEntity
  8
0
100
AcDbLine
 10
34.91929999999999
 20
41.06175
 30
0.0
 11
34.2612
 21
41.06175
 31
0.0
  0
LINE
  5
362
330
1E
100
AcDbEntity
  8
0
100
AcDbLine
 10
35.3365
 20
41.06175
 30
0.0
 11
34.91929999999999
 21
41.06175
 31
0.0
  0
LINE
  5
363
330
1E
100
AcDbEntity
  8
0
100
AcDbLine
 10
34.2612
 20
41.06175
 30
0.0
 11
33.3829
 21
41.06175
 31
0.0
  0
LINE
  5
364
330
1E
100
AcDbEntity
  8
0
100
AcDbLine
 10
34.60129999999999
 20
43.01225
 30
0.0
 11
33.3849
 21
43.01225
 31
0.0
  0
LINE
  5
365
330
1E
100
AcDbEntity
  8
0
100
AcDbLine
 10
30.3472
 20
39.22494999999999
 30
0.0
 11
29.0892
 21
39.56395
 31
0.0
  0
LINE
  5
366
330
1E
100
AcDbEntity
  8
0
100
AcDbLine
 10
30.1892
 20
36.20895
 30
0.0
 11
28.9552
 21
36.62795
 31
0.0
  0
LINE
  5
367
330
1E
100
AcDbEntity
  8
0
100
AcDbLine
 10
28.9552
 20
36.62795
 30
0.0
 11
27.6772
 21
36.88195
 31
0.0
  0
LINE
  5
368
330
1E
100
AcDbEntity
  8
0
100
AcDbLine
 10
28.1562
 20
38.92195
 30
0.0
 11
27.6472
 21
38.71095
 31
0.0
  0
LINE
  5
369
330
1E
100
AcDbEntity
  8
0
100
AcDbLine
 10
28.9312
 20
39.42595
 30
0.0
 11
28.5332
 21
39.13495
 31
0.0
  0
LINE
  5
36A
330
1E
100
AcDbEntity
  8
0
100
AcDbLine
 10
29.0892
 20
39.56395
 30
0.0
 11
28.8780604180715
 21
39.38753732299399
 31
0.0
  0
LINE
  5
36B
330
1E
100
AcDbEntity
  8
0
100
AcDbLine
 10
29.0892
 20
39.56395
 30
0.0
 11
28.9312
 21
39.42595
 31
0.0
  0
LINE
  5
36C
330
1E
100
AcDbEntity
  8
0
100
AcDbLine
 10
28.5332
 20
39.13495
 30
0.0
 11
28.1562
 21
38.92195
 31
0.0
  0
LINE
  5
36D
330
1E
100
AcDbEntity
  8
0
100
AcDbLine
 10
28.5784432009391
 20
39.1680298278224
 30
0.0
 11
28.5201345809089
 21
39.1280061409027
 31
0.0
  0
LINE
  5
36E
330
1E
100
AcDbEntity
  8
0
100
AcDbLine
 10
27.6472
 20
38.71095
 30
0.0
 11
27.1602
 21
38.58095
 31
0.0
  0
LINE
  5
36F
330
1E
100
AcDbEntity
  8
0
100
AcDbLine
 10
27.227643642612
 20
38.59895343642619
 30
0.0
 11
27.1522
 21
38.57994999999999
 31
0.0
  0
LINE
  5
370
330
1E
100
AcDbEntity
  8
0
100
AcDbLine
 10
27.227643642612
 20
38.59895343642619
 30
0.0
 11
27.1522
 21
38.57994999999999
 31
0.0
  0
LINE
  5
371
330
1E
100
AcDbEntity
  8
0
100
AcDbLine
 10
27.7495760547999
 20
38.75338879678349
 30
0.0
 11
27.59781010161689
 21
38.697765838214
 31
0.0
  0
LINE
  5
372
330
1E
100
AcDbEntity
  8
0
100
AcDbLine
 10
30.515
 20
43.01225
 30
0.0
 11
28.93159999999999
 21
43.01225
 31
0.0
  0
LINE
  5
373
330
1E
100
AcDbEntity
  8
0
100
AcDbLine
 10
29.7188
 20
41.06175
 30
0.0
 11
28.2784
 21
41.06175
 31
0.0
  0
LINE
  5
374
330
1E
100
AcDbEntity
  8
0
100
AcDbLine
 10
31.0762
 20
41.06175
 30
0.0
 11
29.7188
 21
41.06175
 31
0.0
  0
LINE
  5
375
330
1E
100
AcDbEntity
  8
0
100
AcDbLine
 10
28.2784
 20
41.06175
 30
0.0
 11
27.0
 21
41.06175
 31
0.0
  0
LINE
  5
376
330
1E
100
AcDbEntity
  8
0
100
AcDbLine
 10
28.93159999999999
 20
43.01225
 30
0.0
 11
27.3011
 21
43.01225
 31
0.0
  0
LINE
  5
377
330
1E
100
AcDbEntity
  8
0
100
AcDbLine
 10
27.3011
 20
43.01225
 30
0.0
 11
27.0
 21
43.01225
 31
0.0
  0
LINE
  5
378
330
1E
100
AcDbEntity
  8
0
100
AcDbLine
 10
36.4328
 20
52.31405
 30
0.0
 11
33.9851
 21
53.09625
 31
0.0
  0
LINE
  5
379
330
1E
100
AcDbEntity
  8
0
100
AcDbLine
 10
35.4885
 20
50.51455
 30
0.0
 11
34.7663
 21
50.51455
 31
0.0
  0
LINE
  5
37A
330
1E
100
AcDbEntity
  8
0
100
AcDbLine
 10
35.62959999999999
 20
49.31415
 30
0.0
 11
34.60129999999999
 21
49.31415
 31
0.0
  0
LINE
  5
37B
330
1E
100
AcDbEntity
  8
0
100
AcDbLine
 10
38.7965
 20
51.30375
 30
0.0
 11
36.4328
 21
52.31405
 31
0.0
  0
LINE
  5
37C
330
1E
100
AcDbEntity
  8
0
100
AcDbLine
 10
41.0522
 20
50.07235
 30
0.0
 11
38.7965
 21
51.30375
 31
0.0
  0
LINE
  5
37D
330
1E
100
AcDbEntity
  8
0
100
AcDbLine
 10
43.1818
 20
48.63195000000001
 30
0.0
 11
41.0522
 21
50.07235
 31
0.0
  0
LINE
  5
37E
330
1E
100
AcDbEntity
  8
0
100
AcDbLine
 10
37.4491
 20
49.31415
 30
0.0
 11
36.2237
 21
50.51455
 31
0.0
  0
LINE
  5
37F
330
1E
100
AcDbEntity
  8
0
100
AcDbLine
 10
37.03
 20
49.31415
 30
0.0
 11
36.44679999999999
 21
49.31415
 31
0.0
  0
LINE
  5
380
330
1E
100
AcDbEntity
  8
0
100
AcDbLine
 10
37.4491
 20
49.31415
 30
0.0
 11
37.3671
 21
49.31415
 31
0.0
  0
LINE
  5
381
330
1E
100
AcDbEntity
  8
0
100
AcDbLine
 10
37.3671
 20
49.31415
 30
0.0
 11
37.03
 21
49.31415
 31
0.0
  0
LINE
  5
382
330
1E
100
AcDbEntity
  8
0
100
AcDbLine
 10
36.44679999999999
 20
49.31415
 30
0.0
 11
35.62959999999999
 21
49.31415
 31
0.0
  0
LINE
  5
383
330
1E
100
AcDbEntity
  8
0
100
AcDbLine
 10
35.9787
 20
50.51455
 30
0.0
 11
35.4885
 21
50.51455
 31
0.0
  0
LINE
  5
384
330
1E
100
AcDbEntity
  8
0
100
AcDbLine
 10
36.2237
 20
50.51455
 30
0.0
 11
35.9787
 21
50.51455
 31
0.0
  0
LINE
  5
385
330
1E
100
AcDbEntity
  8
0
100
AcDbLine
 10
31.43629999999999
 20
50.51455
 30
0.0
 11
30.0389
 21
50.51455
 31
0.0
  0
LINE
  5
386
330
1E
100
AcDbEntity
  8
0
100
AcDbLine
 10
32.0115
 20
49.31415
 30
0.0
 11
30.515
 21
49.31415
 31
0.0
  0
LINE
  5
387
330
1E
100
AcDbEntity
  8
0
100
AcDbLine
 10
33.832
 20
50.51455
 30
0.0
 11
32.7117
 21
50.51455
 31
0.0
  0
LINE
  5
388
330
1E
100
AcDbEntity
  8
0
100
AcDbLine
 10
33.3849
 20
49.31415
 30
0.0
 11
32.0115
 21
49.31415
 31
0.0
  0
LINE
  5
389
330
1E
100
AcDbEntity
  8
0
100
AcDbLine
 10
34.60129999999999
 20
49.31415
 30
0.0
 11
33.3849
 21
49.31415
 31
0.0
  0
LINE
  5
38A
330
1E
100
AcDbEntity
  8
0
100
AcDbLine
 10
34.7663
 20
50.51455
 30
0.0
 11
33.832
 21
50.51455
 31
0.0
  0
LINE
  5
38B
330
1E
100
AcDbEntity
  8
0
100
AcDbLine
 10
32.7117
 20
50.51455
 30
0.0
 11
31.43629999999999
 21
50.51455
 31
0.0
  0
LINE
  5
38C
330
1E
100
AcDbEntity
  8
0
100
AcDbLine
 10
30.0389
 20
50.51455
 30
0.0
 11
28.55949999999999
 21
50.51455
 31
0.0
  0
LINE
  5
38D
330
1E
100
AcDbEntity
  8
0
100
AcDbLine
 10
30.515
 20
49.31415
 30
0.0
 11
28.93159999999999
 21
49.31415
 31
0.0
  0
LINE
  5
38E
330
1E
100
AcDbEntity
  8
0
100
AcDbLine
 10
28.93159999999999
 20
49.31415
 30
0.0
 11
27.3011
 21
49.31415
 31
0.0
  0
LINE
  5
38F
330
1E
100
AcDbEntity
  8
0
100
AcDbLine
 10
27.3011
 20
49.31415
 30
0.0
 11
27.0
 21
49.31415
 31
0.0
  0
LINE
  5
390
330
1E
100
AcDbEntity
  8
0
100
AcDbLine
 10
28.55949999999999
 20
50.51455
 30
0.0
 11
27.03699999999999
 21
50.51455
 31
0.0
  0
LINE
  5
391
330
1E
100
AcDbEntity
  8
0
100
AcDbLine
 10
31.4733
 20
53.64245
 30
0.0
 11
28.9216
 21
53.94754999999999
 31
0.0
  0
LINE
  5
392
330
1E
100
AcDbEntity
  8
0
100
AcDbLine
 10
33.9851
 20
53.09625
 30
0.0
 11
31.4733
 21
53.64245
 31
0.0
  0
LINE
  5
393
330
1E
100
AcDbEntity
  8
0
100
AcDbLine
 10
25.07839999999999
 20
53.94754999999999
 30
0.0
 11
27.16812374961526
 21
54.06334075869683
 31
0.0
  0
LINE
  5
394
330
1E
100
AcDbEntity
  8
0
100
AcDbLine
 10
27.16812374961526
 20
54.06334075869683
 30
0.0
 11
28.9216
 21
53.94754999999999
 31
0.0
  0
ENDSEC
  0
SECTION
  2
OBJECTS
  0
DICTIONARY
  5
C
330
0
100
AcDbDictionary
281
     1
  3
ACAD_GROUP
350
D
  3
ACAD_LAYOUT
350
19
  3
ACAD_MLINESTYLE
350
16
  3
ACAD_PLOTSETTINGS
350
18
  3
ACAD_PLOTSTYLENAME
350
E
  3
AcDbVariableDictionary
350
396
  0
DICTIONARY
  5
D
102
{ACAD_REACTORS
330
C
102
}
330
C
100
AcDbDictionary
281
     1
  0
DICTIONARY
  5
19
102
{ACAD_REACTORS
330
C
102
}
330
C
100
AcDbDictionary
281
     1
  3
Layout1
350
1D
  3
Model
350
21
  0
DICTIONARY
  5
16
102
{ACAD_REACTORS
330
C
102
}
330
C
100
AcDbDictionary
281
     1
  3
Standard
350
17
  0
DICTIONARY
  5
18
102
{ACAD_REACTORS
330
C
102
}
330
C
100
AcDbDictionary
281
     1
  0
ACDBDICTIONARYWDFLT
  5
E
102
{ACAD_REACTORS
330
C
102
}
330
C
100
AcDbDictionary
281
     1
  3
Normal
350
F
100
AcDbDictionaryWithDefault
340
F
  0
DICTIONARY
  5
396
102
{ACAD_REACTORS
330
C
102
}
330
C
100
AcDbDictionary
281
     1
  3
DIMASSOC
350
397
  0
LAYOUT
  5
1D
102
{ACAD_REACTORS
330
19
102
}
330
19
100
AcDbPlotSettings
  1

  2
C:\Programme\AutoCAD LT 2002 Deu\plotters\DWF ePlot (optimized for plotting).pc3
  4

  6

 40
0.0
 41
0.0
 42
0.0
 43
0.0
 44
0.0
 45
0.0
 46
0.0
 47
0.0
 48
0.0
 49
0.0
140
0.0
141
0.0
142
1.0
143
1.0
 70
   688
 72
     0
 73
     0
 74
     5
  7

 75
    16
147
1.0
148
0.0
149
0.0
100
AcDbLayout
  1
Layout1
 70
     1
 71
     1
 10
0.0
 20
0.0
 11
12.0
 21
9.0
 12
0.0
 22
0.0
 32
0.0
 14
1.000000000000000E+20
 24
1.000000000000000E+20
 34
1.000000000000000E+20
 15
-1.000000000000000E+20
 25
-1.000000000000000E+20
 35
-1.000000000000000E+20
146
0.0
 13
0.0
 23
0.0
 33
0.0
 16
1.0
 26
0.0
 36
0.0
 17
0.0
 27
1.0
 37
0.0
 76
     0
330
1A
  0
LAYOUT
  5
21
102
{ACAD_REACTORS
330
19
102
}
330
19
100
AcDbPlotSettings
  1

  2
C:\Programme\AutoCAD LT 2002 Deu\plotters\DWF ePlot (optimized for plotting).pc3
  4

  6

 40
0.0
 41
0.0
 42
0.0
 43
0.0
 44
0.0
 45
0.0
 46
0.0
 47
0.0
 48
0.0
 49
0.0
140
0.0
141
0.0
142
1.0
143
1.0
 70
  1712
 72
     0
 73
     0
 74
     0
  7

 75
     0
147
1.0
148
0.0
149
0.0
100
AcDbLayout
  1
Model
 70
     1
 71
     0
 10
0.0
 20
0.0
 11
12.0
 21
9.0
 12
0.0
 22
0.0
 32
0.0
 14
0.0
 24
0.0
 34
0.0
 15
0.0
 25
0.0
 35
0.0
146
0.0
 13
0.0
 23
0.0
 33
0.0
 16
1.0
 26
0.0
 36
0.0
 17
0.0
 27
1.0
 37
0.0
 76
     0
330
1E
  0
MLINESTYLE
  5
17
102
{ACAD_REACTORS
330
16
102
}
330
16
100
AcDbMlineStyle
  2
STANDARD
 70
     0
  3

 62
   256
 51
90.0
 52
90.0
 71
     2
 49
0.5
 62
   256
  6
BYLAYER
 49
-0.5
 62
   256
  6
BYLAYER
  0
ACDBPLACEHOLDER
  5
F
102
{ACAD_REACTORS
330
E
102
}
330
E
  0
DICTIONARYVAR
  5
397
102
{ACAD_REACTORS
330
396
102
}
330
396
100
DictionaryVariables
280
     0
  1
1
  0
ENDSEC
  0
EOF
