  0
SECTION
  2
HEADER
  9
$ACADVER
  1
AC1015
  9
$ACADMAINTVER
 70
    13
  9
$DWGCODEPAGE
  3
ANSI_1252
  9
$INSBASE
 10
0.0
 20
0.0
 30
0.0
  9
$EXTMIN
 10
0.0399999999999996
 20
-0.227454999999995
 30
0.0
  9
$EXTMAX
 10
110.9599999999999
 20
255.2274549999999
 30
0.0
  9
$LIMMIN
 10
0.0
 20
0.0
  9
$LIMMAX
 10
12.0
 20
9.0
  9
$ORTHOMODE
 70
     0
  9
$REGENMODE
 70
     1
  9
$FILLMODE
 70
     1
  9
$QTEXTMODE
 70
     0
  9
$MIRRTEXT
 70
     1
  9
$LTSCALE
 40
1.0
  9
$ATTMODE
 70
     1
  9
$TEXTSIZE
 40
0.2
  9
$TRACEWID
 40
0.05
  9
$TEXTSTYLE
  7
Standard
  9
$CLAYER
  8
0
  9
$CELTYPE
  6
Continuous
  9
$CECOLOR
 62
   256
  9
$CELTSCALE
 40
1.0
  9
$DISPSILH
 70
     0
  9
$DIMSCALE
 40
1.0
  9
$DIMASZ
 40
0.18
  9
$DIMEXO
 40
0.0625
  9
$DIMDLI
 40
0.38
  9
$DIMRND
 40
0.0
  9
$DIMDLE
 40
0.0
  9
$DIMEXE
 40
0.18
  9
$DIMTP
 40
0.0
  9
$DIMTM
 40
0.0
  9
$DIMTXT
 40
0.18
  9
$DIMCEN
 40
0.09
  9
$DIMTSZ
 40
0.0
  9
$DIMTOL
 70
     0
  9
$DIMLIM
 70
     0
  9
$DIMTIH
 70
     1
  9
$DIMTOH
 70
     1
  9
$DIMSE1
 70
     0
  9
$DIMSE2
 70
     0
  9
$DIMTAD
 70
     0
  9
$DIMZIN
 70
     0
  9
$DIMBLK
  1

  9
$DIMASO
 70
     1
  9
$DIMSHO
 70
     1
  9
$DIMPOST
  1

  9
$DIMAPOST
  1

  9
$DIMALT
 70
     0
  9
$DIMALTD
 70
     2
  9
$DIMALTF
 40
25.4
  9
$DIMLFAC
 40
1.0
  9
$DIMTOFL
 70
     0
  9
$DIMTVP
 40
0.0
  9
$DIMTIX
 70
     0
  9
$DIMSOXD
 70
     0
  9
$DIMSAH
 70
     0
  9
$DIMBLK1
  1

  9
$DIMBLK2
  1

  9
$DIMSTYLE
  2
Standard
  9
$DIMCLRD
 70
     0
  9
$DIMCLRE
 70
     0
  9
$DIMCLRT
 70
     0
  9
$DIMTFAC
 40
1.0
  9
$DIMGAP
 40
0.09
  9
$DIMJUST
 70
     0
  9
$DIMSD1
 70
     0
  9
$DIMSD2
 70
     0
  9
$DIMTOLJ
 70
     1
  9
$DIMTZIN
 70
     0
  9
$DIMALTZ
 70
     0
  9
$DIMALTTZ
 70
     0
  9
$DIMUPT
 70
     0
  9
$DIMDEC
 70
     4
  9
$DIMTDEC
 70
     4
  9
$DIMALTU
 70
     2
  9
$DIMALTTD
 70
     2
  9
$DIMTXSTY
  7
Standard
  9
$DIMAUNIT
 70
     0
  9
$DIMADEC
 70
     0
  9
$DIMALTRND
 40
0.0
  9
$DIMAZIN
 70
     0
  9
$DIMDSEP
 70
    46
  9
$DIMATFIT
 70
     3
  9
$DIMFRAC
 70
     0
  9
$DIMLDRBLK
  1

  9
$DIMLUNIT
 70
     2
  9
$DIMLWD
 70
    -2
  9
$DIMLWE
 70
    -2
  9
$DIMTMOVE
 70
     0
  9
$LUNITS
 70
     2
  9
$LUPREC
 70
     4
  9
$SKETCHINC
 40
0.1
  9
$FILLETRAD
 40
0.0
  9
$AUNITS
 70
     0
  9
$AUPREC
 70
     0
  9
$MENU
  1
.
  9
$ELEVATION
 40
0.0
  9
$PELEVATION
 40
0.0
  9
$THICKNESS
 40
0.0
  9
$LIMCHECK
 70
     0
  9
$CHAMFERA
 40
0.0
  9
$CHAMFERB
 40
0.0
  9
$CHAMFERC
 40
0.0
  9
$CHAMFERD
 40
0.0
  9
$SKPOLY
 70
     0
  9
$TDCREATE
 40
2455000.929087453
  9
$TDUCREATE
 40
2455000.845754120
  9
$TDUPDATE
 40
2455000.930057685
  9
$TDUUPDATE
 40
2455000.846724352
  9
$TDINDWG
 40
0.0009702315
  9
$TDUSRTIMER
 40
0.0009702315
  9
$USRTIMER
 70
     1
  9
$ANGBASE
 50
0.0
  9
$ANGDIR
 70
     0
  9
$PDMODE
 70
     0
  9
$PDSIZE
 40
0.0
  9
$PLINEWID
 40
0.0
  9
$SPLFRAME
 70
     0
  9
$SPLINETYPE
 70
     6
  9
$SPLINESEGS
 70
     8
  9
$HANDSEED
  5
196
  9
$SURFTAB1
 70
     6
  9
$SURFTAB2
 70
     6
  9
$SURFTYPE
 70
     6
  9
$SURFU
 70
     6
  9
$SURFV
 70
     6
  9
$UCSBASE
  2

  9
$UCSNAME
  2

  9
$UCSORG
 10
0.0
 20
0.0
 30
0.0
  9
$UCSXDIR
 10
1.0
 20
0.0
 30
0.0
  9
$UCSYDIR
 10
0.0
 20
1.0
 30
0.0
  9
$UCSORTHOREF
  2

  9
$UCSORTHOVIEW
 70
     1
  9
$UCSORGTOP
 10
0.0
 20
0.0
 30
0.0
  9
$UCSORGBOTTOM
 10
0.0
 20
0.0
 30
0.0
  9
$UCSORGLEFT
 10
0.0
 20
0.0
 30
0.0
  9
$UCSORGRIGHT
 10
0.0
 20
0.0
 30
0.0
  9
$UCSORGFRONT
 10
0.0
 20
0.0
 30
0.0
  9
$UCSORGBACK
 10
0.0
 20
0.0
 30
0.0
  9
$PUCSBASE
  2

  9
$PUCSNAME
  2

  9
$PUCSORG
 10
0.0
 20
0.0
 30
0.0
  9
$PUCSXDIR
 10
1.0
 20
0.0
 30
0.0
  9
$PUCSYDIR
 10
0.0
 20
1.0
 30
0.0
  9
$PUCSORTHOREF
  2

  9
$PUCSORTHOVIEW
 70
     0
  9
$PUCSORGTOP
 10
0.0
 20
0.0
 30
0.0
  9
$PUCSORGBOTTOM
 10
0.0
 20
0.0
 30
0.0
  9
$PUCSORGLEFT
 10
0.0
 20
0.0
 30
0.0
  9
$PUCSORGRIGHT
 10
0.0
 20
0.0
 30
0.0
  9
$PUCSORGFRONT
 10
0.0
 20
0.0
 30
0.0
  9
$PUCSORGBACK
 10
0.0
 20
0.0
 30
0.0
  9
$USERI1
 70
     0
  9
$USERI2
 70
     0
  9
$USERI3
 70
     0
  9
$USERI4
 70
     0
  9
$USERI5
 70
     0
  9
$USERR1
 40
0.0
  9
$USERR2
 40
0.0
  9
$USERR3
 40
0.0
  9
$USERR4
 40
0.0
  9
$USERR5
 40
0.0
  9
$WORLDVIEW
 70
     1
  9
$SHADEDGE
 70
     3
  9
$SHADEDIF
 70
    70
  9
$TILEMODE
 70
     1
  9
$MAXACTVP
 70
    64
  9
$PINSBASE
 10
0.0
 20
0.0
 30
0.0
  9
$PLIMCHECK
 70
     0
  9
$PEXTMIN
 10
1.000000000000000E+20
 20
1.000000000000000E+20
 30
1.000000000000000E+20
  9
$PEXTMAX
 10
-1.000000000000000E+20
 20
-1.000000000000000E+20
 30
-1.000000000000000E+20
  9
$PLIMMIN
 10
0.0
 20
0.0
  9
$PLIMMAX
 10
12.0
 20
9.0
  9
$UNITMODE
 70
     0
  9
$VISRETAIN
 70
     1
  9
$PLINEGEN
 70
     0
  9
$PSLTSCALE
 70
     1
  9
$TREEDEPTH
 70
  3020
  9
$CMLSTYLE
  2
Standard
  9
$CMLJUST
 70
     0
  9
$CMLSCALE
 40
1.0
  9
$PROXYGRAPHICS
 70
     1
  9
$MEASUREMENT
 70
     0
  9
$CELWEIGHT
370
    -1
  9
$ENDCAPS
280
     0
  9
$JOINSTYLE
280
     0
  9
$LWDISPLAY
290
     0
  9
$INSUNITS
 70
     0
  9
$HYPERLINKBASE
  1

  9
$STYLESHEET
  1

  9
$XEDIT
290
     1
  9
$CEPSNTYPE
380
     0
  9
$PSTYLEMODE
290
     1
  9
$FINGERPRINTGUID
  2
{6A7353F1-934A-4C1F-AFA1-A3EAE38BE831}
  9
$VERSIONGUID
  2
{928EE608-6B20-405B-917A-082F7CC3900D}
  9
$EXTNAMES
290
     1
  9
$PSVPSCALE
 40
0.0
  9
$OLESTARTUP
290
     0
  0
ENDSEC
  0
SECTION
  2
CLASSES
  0
CLASS
  1
ACDBDICTIONARYWDFLT
  2
AcDbDictionaryWithDefault
  3
AutoCAD 2000
 90
        0
280
     0
281
     0
  0
CLASS
  1
ACDBPLACEHOLDER
  2
AcDbPlaceHolder
  3
AutoCAD 2000
 90
        0
280
     0
281
     0
  0
CLASS
  1
LAYOUT
  2
AcDbLayout
  3
AutoCAD 2000
 90
        0
280
     0
281
     0
  0
CLASS
  1
DICTIONARYVAR
  2
AcDbDictionaryVar
  3
AutoCAD 2000
 90
        0
280
     0
281
     0
  0
ENDSEC
  0
SECTION
  2
TABLES
  0
TABLE
  2
VPORT
  5
8
330
0
100
AcDbSymbolTable
 70
     3
  0
VPORT
  5
195
330
8
100
AcDbSymbolTableRecord
100
AcDbViewportTableRecord
  2
*Active
 70
     0
 10
0.0
 20
0.0
 11
1.0
 21
1.0
 12
55.49999999999999
 22
127.5
 13
0.0
 23
0.0
 14
1.0
 24
1.0
 15
0.0
 25
0.0
 16
0.0
 26
0.0
 36
1.0
 17
0.0
 27
0.0
 37
0.0
 40
257.8129553230768
 41
2.385208012326656
 42
50.0
 43
0.0
 44
0.0
 50
0.0
 51
0.0
 71
     0
 72
   100
 73
     1
 74
     3
 75
     0
 76
     0
 77
     0
 78
     0
281
     0
 65
     1
110
0.0
120
0.0
130
0.0
111
1.0
121
0.0
131
0.0
112
0.0
122
1.0
132
0.0
 79
     1
146
0.0
  0
ENDTAB
  0
TABLE
  2
LTYPE
  5
5
330
0
100
AcDbSymbolTable
 70
     1
  0
LTYPE
  5
13
330
5
100
AcDbSymbolTableRecord
100
AcDbLinetypeTableRecord
  2
ByBlock
 70
     0
  3

 72
    65
 73
     0
 40
0.0
  0
LTYPE
  5
14
330
5
100
AcDbSymbolTableRecord
100
AcDbLinetypeTableRecord
  2
ByLayer
 70
     0
  3

 72
    65
 73
     0
 40
0.0
  0
LTYPE
  5
15
330
5
100
AcDbSymbolTableRecord
100
AcDbLinetypeTableRecord
  2
Continuous
 70
     0
  3
Solid line
 72
    65
 73
     0
 40
0.0
  0
ENDTAB
  0
TABLE
  2
LAYER
  5
2
330
0
100
AcDbSymbolTable
 70
     1
  0
LAYER
  5
10
330
2
100
AcDbSymbolTableRecord
100
AcDbLayerTableRecord
  2
0
 70
     0
 62
     7
  6
Continuous
370
    -3
390
F
  0
ENDTAB
  0
TABLE
  2
STYLE
  5
3
330
0
100
AcDbSymbolTable
 70
     1
  0
STYLE
  5
11
330
3
100
AcDbSymbolTableRecord
100
AcDbTextStyleTableRecord
  2
Standard
 70
     0
 40
0.0
 41
1.0
 50
0.0
 71
     0
 42
0.2
  3
txt
  4

  0
ENDTAB
  0
TABLE
  2
VIEW
  5
6
330
0
100
AcDbSymbolTable
 70
     0
  0
ENDTAB
  0
TABLE
  2
UCS
  5
7
330
0
100
AcDbSymbolTable
 70
     0
  0
ENDTAB
  0
TABLE
  2
APPID
  5
9
330
0
100
AcDbSymbolTable
 70
     1
  0
APPID
  5
12
330
9
100
AcDbSymbolTableRecord
100
AcDbRegAppTableRecord
  2
ACAD
 70
     0
  0
ENDTAB
  0
TABLE
  2
DIMSTYLE
  5
A
330
0
100
AcDbSymbolTable
 70
     1
100
AcDbDimStyleTable
 71
     0
  0
DIMSTYLE
105
18E
330
A
100
AcDbSymbolTableRecord
100
AcDbDimStyleTableRecord
  2
Standard
 70
     0
340
11
  0
ENDTAB
  0
TABLE
  2
BLOCK_RECORD
  5
1
330
0
100
AcDbSymbolTable
 70
     0
  0
BLOCK_RECORD
  5
1E
330
1
100
AcDbSymbolTableRecord
100
AcDbBlockTableRecord
  2
*Model_Space
340
21
  0
BLOCK_RECORD
  5
1A
330
1
100
AcDbSymbolTableRecord
100
AcDbBlockTableRecord
  2
*Paper_Space
340
1D
  0
ENDTAB
  0
ENDSEC
  0
SECTION
  2
BLOCKS
  0
BLOCK
  5
1F
330
1E
100
AcDbEntity
  8
0
100
AcDbBlockBegin
  2
*Model_Space
 70
     0
 10
0.0
 20
0.0
 30
0.0
  3
*Model_Space
  1

  0
ENDBLK
  5
20
330
1E
100
AcDbEntity
  8
0
100
AcDbBlockEnd
  0
BLOCK
  5
1B
330
1A
100
AcDbEntity
 67
     1
  8
0
100
AcDbBlockBegin
  2
*Paper_Space
 70
     0
 10
0.0
 20
0.0
 30
0.0
  3
*Paper_Space
  1

  0
ENDBLK
  5
1C
330
1A
100
AcDbEntity
 67
     1
  8
0
100
AcDbBlockEnd
  0
ENDSEC
  0
SECTION
  2
ENTITIES
  0
LINE
  5
22
330
1E
100
AcDbEntity
  8
0
100
AcDbLine
 10
7.687999999999999
 20
13.860365
 30
0.0
 11
9.416
 21
9.945114999999999
 31
0.0
  0
LINE
  5
23
330
1E
100
AcDbEntity
  8
0
100
AcDbLine
 10
7.687999999999999
 20
11.909815
 30
0.0
 11
9.416
 21
7.994566999999999
 31
0.0
  0
LINE
  5
24
330
1E
100
AcDbEntity
  8
0
100
AcDbLine
 10
7.687999999999999
 20
22.212855
 30
0.0
 11
9.416
 21
26.12815499999999
 31
0.0
  0
LINE
  5
25
330
1E
100
AcDbEntity
  8
0
100
AcDbLine
 10
7.04
 20
18.036625
 30
0.0
 11
7.04
 21
16.086085
 31
0.0
  0
LINE
  5
26
330
1E
100
AcDbEntity
  8
0
100
AcDbLine
 10
7.04
 20
18.036625
 30
0.0
 11
7.687999999999999
 21
13.860365
 31
0.0
  0
LINE
  5
27
330
1E
100
AcDbEntity
  8
0
100
AcDbLine
 10
7.04
 20
18.036625
 30
0.0
 11
7.687999999999999
 21
22.212855
 31
0.0
  0
LINE
  5
28
330
1E
100
AcDbEntity
  8
0
100
AcDbLine
 10
7.04
 20
16.086085
 30
0.0
 11
7.687999999999999
 21
11.909815
 31
0.0
  0
LINE
  5
29
330
1E
100
AcDbEntity
  8
0
100
AcDbLine
 10
7.04
 20
16.086085
 30
0.0
 11
7.04
 21
18.036625
 31
0.0
  0
LINE
  5
2A
330
1E
100
AcDbEntity
  8
0
100
AcDbLine
 10
9.416
 20
7.994566999999999
 30
0.0
 11
12.296
 21
4.536094999999999
 31
0.0
  0
LINE
  5
2B
330
1E
100
AcDbEntity
  8
0
100
AcDbLine
 10
9.416
 20
9.945114999999999
 30
0.0
 11
12.296
 21
6.486644999999999
 31
0.0
  0
LINE
  5
2C
330
1E
100
AcDbEntity
  8
0
100
AcDbLine
 10
10.2712
 20
10.414385
 30
0.0
 11
13.0337
 21
7.236575999999999
 31
0.0
  0
LINE
  5
2D
330
1E
100
AcDbEntity
  8
0
100
AcDbLine
 10
9.416
 20
26.12815499999999
 30
0.0
 11
11.22749999999999
 21
28.30352748263889
 31
0.0
  0
LINE
  5
2E
330
1E
100
AcDbEntity
  8
0
100
AcDbLine
 10
10.2712
 20
25.821655
 30
0.0
 11
11.22749999999999
 21
26.9217202090498
 31
0.0
  0
LINE
  5
2F
330
1E
100
AcDbEntity
  8
0
100
AcDbLine
 10
8.6775
 20
22.06605499999999
 30
0.0
 11
10.2712
 21
25.821655
 31
0.0
  0
LINE
  5
30
330
1E
100
AcDbEntity
  8
0
100
AcDbLine
 10
8.6775
 20
14.16995499999999
 30
0.0
 11
10.2712
 21
10.414385
 31
0.0
  0
LINE
  5
31
330
1E
100
AcDbEntity
  8
0
100
AcDbLine
 10
8.039999999999999
 20
18.117945
 30
0.0
 11
8.6775
 21
14.16995499999999
 31
0.0
  0
LINE
  5
32
330
1E
100
AcDbEntity
  8
0
100
AcDbLine
 10
8.039999999999999
 20
18.117945
 30
0.0
 11
8.6775
 21
22.06605499999999
 31
0.0
  0
LINE
  5
33
330
1E
100
AcDbEntity
  8
0
100
AcDbLine
 10
11.03999999999999
 20
74.20575500000001
 30
0.0
 11
11.03999999999999
 21
67.883255
 31
0.0
  0
LINE
  5
34
330
1E
100
AcDbEntity
  8
0
100
AcDbLine
 10
11.03999999999999
 20
74.20575500000001
 30
0.0
 11
11.03999999999999
 21
81.70915500000001
 31
0.0
  0
LINE
  5
35
330
1E
100
AcDbEntity
  8
0
100
AcDbLine
 10
11.03999999999999
 20
81.70915500000001
 30
0.0
 11
11.03999999999999
 21
90.26525500000001
 31
0.0
  0
LINE
  5
36
330
1E
100
AcDbEntity
  8
0
100
AcDbLine
 10
11.03999999999999
 20
81.70915500000001
 30
0.0
 11
11.03999999999999
 21
74.20575500000001
 31
0.0
  0
LINE
  5
37
330
1E
100
AcDbEntity
  8
0
100
AcDbLine
 10
11.03999999999999
 20
120.710455
 30
0.0
 11
11.03999999999999
 21
131.8714549999999
 31
0.0
  0
LINE
  5
38
330
1E
100
AcDbEntity
  8
0
100
AcDbLine
 10
11.03999999999999
 20
120.710455
 30
0.0
 11
11.03999999999999
 21
109.934455
 31
0.0
  0
LINE
  5
39
330
1E
100
AcDbEntity
  8
0
100
AcDbLine
 10
11.03999999999999
 20
131.8714549999999
 30
0.0
 11
11.03999999999999
 21
120.710455
 31
0.0
  0
LINE
  5
3A
330
1E
100
AcDbEntity
  8
0
100
AcDbLine
 10
11.03999999999999
 20
131.8714549999999
 30
0.0
 11
11.03999999999999
 21
143.2274549999999
 31
0.0
  0
LINE
  5
3B
330
1E
100
AcDbEntity
  8
0
100
AcDbLine
 10
11.03999999999999
 20
99.72745500000002
 30
0.0
 11
11.03999999999999
 21
109.934455
 31
0.0
  0
LINE
  5
3C
330
1E
100
AcDbEntity
  8
0
100
AcDbLine
 10
11.03999999999999
 20
99.72745500000002
 30
0.0
 11
11.03999999999999
 21
90.26525500000001
 31
0.0
  0
LINE
  5
3D
330
1E
100
AcDbEntity
  8
0
100
AcDbLine
 10
11.03999999999999
 20
109.934455
 30
0.0
 11
11.03999999999999
 21
99.72745500000002
 31
0.0
  0
LINE
  5
3E
330
1E
100
AcDbEntity
  8
0
100
AcDbLine
 10
11.03999999999999
 20
109.934455
 30
0.0
 11
11.03999999999999
 21
120.710455
 31
0.0
  0
LINE
  5
3F
330
1E
100
AcDbEntity
  8
0
100
AcDbLine
 10
11.03999999999999
 20
90.26525500000001
 30
0.0
 11
11.03999999999999
 21
81.70915500000001
 31
0.0
  0
LINE
  5
40
330
1E
100
AcDbEntity
  8
0
100
AcDbLine
 10
11.03999999999999
 20
90.26525500000001
 30
0.0
 11
11.03999999999999
 21
99.72745500000002
 31
0.0
  0
LINE
  5
41
330
1E
100
AcDbEntity
  8
0
100
AcDbLine
 10
11.03999999999999
 20
67.883255
 30
0.0
 11
11.03999999999999
 21
64.483355
 31
0.0
  0
LINE
  5
42
330
1E
100
AcDbEntity
  8
0
100
AcDbLine
 10
11.03999999999999
 20
67.883255
 30
0.0
 11
11.03999999999999
 21
74.20575500000001
 31
0.0
  0
LINE
  5
43
330
1E
100
AcDbEntity
  8
0
100
AcDbLine
 10
11.03999999999999
 20
186.7274549999999
 30
0.0
 11
11.03999999999999
 21
196.189455
 31
0.0
  0
LINE
  5
44
330
1E
100
AcDbEntity
  8
0
100
AcDbLine
 10
11.03999999999999
 20
186.7274549999999
 30
0.0
 11
11.03999999999999
 21
176.5204549999999
 31
0.0
  0
LINE
  5
45
330
1E
100
AcDbEntity
  8
0
100
AcDbLine
 10
11.03999999999999
 20
196.189455
 30
0.0
 11
11.03999999999999
 21
186.7274549999999
 31
0.0
  0
LINE
  5
46
330
1E
100
AcDbEntity
  8
0
100
AcDbLine
 10
11.03999999999999
 20
196.189455
 30
0.0
 11
11.03999999999999
 21
204.7454549999999
 31
0.0
  0
LINE
  5
47
330
1E
100
AcDbEntity
  8
0
100
AcDbLine
 10
11.03999999999999
 20
165.744455
 30
0.0
 11
11.03999999999999
 21
176.5204549999999
 31
0.0
  0
LINE
  5
48
330
1E
100
AcDbEntity
  8
0
100
AcDbLine
 10
11.03999999999999
 20
165.744455
 30
0.0
 11
11.03999999999999
 21
154.583455
 31
0.0
  0
LINE
  5
49
330
1E
100
AcDbEntity
  8
0
100
AcDbLine
 10
11.03999999999999
 20
176.5204549999999
 30
0.0
 11
11.03999999999999
 21
165.744455
 31
0.0
  0
LINE
  5
4A
330
1E
100
AcDbEntity
  8
0
100
AcDbLine
 10
11.03999999999999
 20
176.5204549999999
 30
0.0
 11
11.03999999999999
 21
186.7274549999999
 31
0.0
  0
LINE
  5
4B
330
1E
100
AcDbEntity
  8
0
100
AcDbLine
 10
11.03999999999999
 20
143.2274549999999
 30
0.0
 11
11.03999999999999
 21
154.583455
 31
0.0
  0
LINE
  5
4C
330
1E
100
AcDbEntity
  8
0
100
AcDbLine
 10
11.03999999999999
 20
143.2274549999999
 30
0.0
 11
11.03999999999999
 21
131.8714549999999
 31
0.0
  0
LINE
  5
4D
330
1E
100
AcDbEntity
  8
0
100
AcDbLine
 10
11.03999999999999
 20
154.583455
 30
0.0
 11
11.03999999999999
 21
143.2274549999999
 31
0.0
  0
LINE
  5
4E
330
1E
100
AcDbEntity
  8
0
100
AcDbLine
 10
11.03999999999999
 20
154.583455
 30
0.0
 11
11.03999999999999
 21
165.744455
 31
0.0
  0
LINE
  5
50
330
1E
100
AcDbEntity
  8
0
100
AcDbLine
 10
3.422349999999999
 20
217.8014549999999
 30
0.0
 11
7.392939999999999
 21
212.5804549999999
 31
0.0
  0
LINE
  5
52
330
1E
100
AcDbEntity
  8
0
100
AcDbLine
 10
7.392939999999999
 20
212.5804549999999
 30
0.0
 11
11.03999999999999
 21
209.8063320591659
 31
0.0
  0
LINE
  5
53
330
1E
100
AcDbEntity
  8
0
100
AcDbLine
 10
0.922353
 20
223.8304549999999
 30
0.0
 11
3.422349999999999
 21
217.8014549999999
 31
0.0
  0
LINE
  5
54
330
1E
100
AcDbEntity
  8
0
100
AcDbLine
 10
0.9223529999999989
 20
223.8304549999999
 30
0.0
 11
3.422349999999999
 21
217.8014549999999
 31
0.0
  0
LINE
  5
55
330
1E
100
AcDbEntity
  8
0
100
AcDbLine
 10
11.03999999999999
 20
227.2634549999999
 30
0.0
 11
11.03999999999999
 21
223.6054549999999
 31
0.0
  0
LINE
  5
56
330
1E
100
AcDbEntity
  8
0
100
AcDbLine
 10
11.03999999999999
 20
227.2634549999999
 30
0.0
 11
11.03999999999999
 21
229.483455
 31
0.0
  0
LINE
  5
57
330
1E
100
AcDbEntity
  8
0
100
AcDbLine
 10
0.9223529999999989
 20
236.6244549999999
 30
0.0
 11
3.422349999999999
 21
242.6534549999999
 31
0.0
  0
LINE
  5
59
330
1E
100
AcDbEntity
  8
0
100
AcDbLine
 10
3.422349999999999
 20
242.6534549999999
 30
0.0
 11
7.392939999999999
 21
247.874455
 31
0.0
  0
LINE
  5
5A
330
1E
100
AcDbEntity
  8
0
100
AcDbLine
 10
0.922353
 20
236.6244549999999
 30
0.0
 11
3.422349999999999
 21
242.6534549999999
 31
0.0
  0
LINE
  5
5C
330
1E
100
AcDbEntity
  8
0
100
AcDbLine
 10
7.392939999999999
 20
247.874455
 30
0.0
 11
12.6135
 21
251.8454549999999
 31
0.0
  0
LINE
  5
5D
330
1E
100
AcDbEntity
  8
0
100
AcDbLine
 10
0.0399999999999996
 20
230.2274549999999
 30
0.0
 11
0.922353
 21
223.8304549999999
 31
0.0
  0
LINE
  5
5E
330
1E
100
AcDbEntity
  8
0
100
AcDbLine
 10
0.0399999999999996
 20
230.2274549999999
 30
0.0
 11
0.922353
 21
236.6244549999999
 31
0.0
  0
LINE
  5
5F
330
1E
100
AcDbEntity
  8
0
100
AcDbLine
 10
11.03999999999999
 20
229.483455
 30
0.0
 11
11.03999999999999
 21
230.2274549999999
 31
0.0
  0
LINE
  5
60
330
1E
100
AcDbEntity
  8
0
100
AcDbLine
 10
11.03999999999999
 20
229.483455
 30
0.0
 11
11.03999999999999
 21
227.2634549999999
 31
0.0
  0
LINE
  5
61
330
1E
100
AcDbEntity
  8
0
100
AcDbLine
 10
11.03999999999999
 20
230.2274549999999
 30
0.0
 11
11.03999999999999
 21
229.483455
 31
0.0
  0
LINE
  5
62
330
1E
100
AcDbEntity
  8
0
100
AcDbLine
 10
11.03999999999999
 20
230.2274549999999
 30
0.0
 11
11.544
 21
233.8114549999999
 31
0.0
  0
LINE
  5
63
330
1E
100
AcDbEntity
  8
0
100
AcDbLine
 10
11.03999999999999
 20
218.5714549999999
 30
0.0
 11
11.03999999999999
 21
223.6054549999999
 31
0.0
  0
LINE
  5
64
330
1E
100
AcDbEntity
  8
0
100
AcDbLine
 10
11.03999999999999
 20
218.5714549999999
 30
0.0
 11
11.03999999999999
 21
212.2494549999999
 31
0.0
  0
LINE
  5
65
330
1E
100
AcDbEntity
  8
0
100
AcDbLine
 10
11.03999999999999
 20
223.6054549999999
 30
0.0
 11
11.03999999999999
 21
218.5714549999999
 31
0.0
  0
LINE
  5
66
330
1E
100
AcDbEntity
  8
0
100
AcDbLine
 10
11.03999999999999
 20
223.6054549999999
 30
0.0
 11
11.03999999999999
 21
227.2634549999999
 31
0.0
  0
LINE
  5
67
330
1E
100
AcDbEntity
  8
0
100
AcDbLine
 10
11.03999999999999
 20
204.7454549999999
 30
0.0
 11
11.03999999999999
 21
212.2494549999999
 31
0.0
  0
LINE
  5
68
330
1E
100
AcDbEntity
  8
0
100
AcDbLine
 10
11.03999999999999
 20
204.7454549999999
 30
0.0
 11
11.03999999999999
 21
196.189455
 31
0.0
  0
LINE
  5
69
330
1E
100
AcDbEntity
  8
0
100
AcDbLine
 10
11.03999999999999
 20
212.2494549999999
 30
0.0
 11
11.03999999999999
 21
204.7454549999999
 31
0.0
  0
LINE
  5
6A
330
1E
100
AcDbEntity
  8
0
100
AcDbLine
 10
11.03999999999999
 20
212.2494549999999
 30
0.0
 11
11.03999999999999
 21
218.5714549999999
 31
0.0
  0
LINE
  5
6B
330
1E
100
AcDbEntity
  8
0
100
AcDbLine
 10
11.03999999999999
 20
64.483355
 30
0.0
 11
11.03999999999999
 21
48.286255
 31
0.0
  0
LINE
  5
6C
330
1E
100
AcDbEntity
  8
0
100
AcDbLine
 10
11.03999999999999
 20
64.483355
 30
0.0
 11
11.03999999999999
 21
67.883255
 31
0.0
  0
LINE
  5
6D
330
1E
100
AcDbEntity
  8
0
100
AcDbLine
 10
16.112
 20
1.925934999999999
 30
0.0
 11
20.432
 21
0.359835000000005
 31
0.0
  0
LINE
  5
6E
330
1E
100
AcDbEntity
  8
0
100
AcDbLine
 10
16.112
 20
3.876475000000009
 30
0.0
 11
20.432
 21
2.310375000000009
 31
0.0
  0
LINE
  5
6F
330
1E
100
AcDbEntity
  8
0
100
AcDbLine
 10
12.296
 20
4.536094999999999
 30
0.0
 11
16.112
 21
1.925934999999999
 31
0.0
  0
LINE
  5
70
330
1E
100
AcDbEntity
  8
0
100
AcDbLine
 10
12.296
 20
6.486644999999999
 30
0.0
 11
16.112
 21
3.876475000000009
 31
0.0
  0
LINE
  5
71
330
1E
100
AcDbEntity
  8
0
100
AcDbLine
 10
20.432
 20
0.359835000000005
 30
0.0
 11
25.04
 21
-0.227454999999995
 31
0.0
  0
LINE
  5
72
330
1E
100
AcDbEntity
  8
0
100
AcDbLine
 10
20.432
 20
2.310375000000009
 30
0.0
 11
25.04
 21
1.72308500000001
 31
0.0
  0
LINE
  5
73
330
1E
100
AcDbEntity
  8
0
100
AcDbLine
 10
20.6837
 20
3.288425
 30
0.0
 11
25.04
 21
2.710665
 31
0.0
  0
LINE
  5
74
330
1E
100
AcDbEntity
  8
0
100
AcDbLine
 10
16.53999999999999
 20
4.732915
 30
0.0
 11
20.6837
 21
3.288425
 31
0.0
  0
LINE
  5
75
330
1E
100
AcDbEntity
  8
0
100
AcDbLine
 10
11.22749999999999
 20
20.24605499999999
 30
0.0
 11
11.22749999999999
 21
47.07784726190479
 31
0.0
  0
LINE
  5
76
330
1E
100
AcDbEntity
  8
0
100
AcDbLine
 10
13.0337
 20
7.236575999999999
 30
0.0
 11
16.53999999999999
 21
4.732915
 31
0.0
  0
LINE
  5
77
330
1E
100
AcDbEntity
  8
0
100
AcDbLine
 10
25.04
 20
-0.227454999999995
 30
0.0
 11
29.648
 21
0.359835000000005
 31
0.0
  0
LINE
  5
78
330
1E
100
AcDbEntity
  8
0
100
AcDbLine
 10
29.648
 20
0.359835000000005
 30
0.0
 11
33.968
 21
1.925934999999999
 31
0.0
  0
LINE
  5
79
330
1E
100
AcDbEntity
  8
0
100
AcDbLine
 10
33.968
 20
1.925934999999999
 30
0.0
 11
37.78399999999999
 21
4.536094999999999
 31
0.0
  0
LINE
  5
7A
330
1E
100
AcDbEntity
  8
0
100
AcDbLine
 10
25.04
 20
1.72308500000001
 30
0.0
 11
29.648
 21
2.310375000000009
 31
0.0
  0
LINE
  5
7B
330
1E
100
AcDbEntity
  8
0
100
AcDbLine
 10
25.04
 20
2.710665
 30
0.0
 11
29.3963
 21
3.288425
 31
0.0
  0
LINE
  5
7C
330
1E
100
AcDbEntity
  8
0
100
AcDbLine
 10
29.3963
 20
3.288425
 30
0.0
 11
33.54
 21
4.732915
 31
0.0
  0
LINE
  5
7D
330
1E
100
AcDbEntity
  8
0
100
AcDbLine
 10
33.54
 20
4.732915
 30
0.0
 11
37.0463
 21
7.236575999999999
 31
0.0
  0
LINE
  5
7E
330
1E
100
AcDbEntity
  8
0
100
AcDbLine
 10
29.648
 20
2.310375000000009
 30
0.0
 11
33.968
 21
3.876475000000009
 31
0.0
  0
LINE
  5
7F
330
1E
100
AcDbEntity
  8
0
100
AcDbLine
 10
37.78399999999999
 20
4.536094999999999
 30
0.0
 11
40.664
 21
7.994566999999999
 31
0.0
  0
LINE
  5
80
330
1E
100
AcDbEntity
  8
0
100
AcDbLine
 10
33.968
 20
3.876475000000009
 30
0.0
 11
37.78399999999999
 21
6.486644999999999
 31
0.0
  0
LINE
  5
81
330
1E
100
AcDbEntity
  8
0
100
AcDbLine
 10
37.0463
 20
7.236575999999999
 30
0.0
 11
39.80879999999999
 21
10.414385
 31
0.0
  0
LINE
  5
82
330
1E
100
AcDbEntity
  8
0
100
AcDbLine
 10
39.80879999999999
 20
10.414385
 30
0.0
 11
41.4025
 21
14.16995499999999
 31
0.0
  0
LINE
  5
83
330
1E
100
AcDbEntity
  8
0
100
AcDbLine
 10
40.664
 20
7.994566999999999
 30
0.0
 11
42.39199999999999
 21
11.909815
 31
0.0
  0
LINE
  5
84
330
1E
100
AcDbEntity
  8
0
100
AcDbLine
 10
37.78399999999999
 20
6.486644999999999
 30
0.0
 11
40.664
 21
9.945114999999999
 31
0.0
  0
LINE
  5
85
330
1E
100
AcDbEntity
  8
0
100
AcDbLine
 10
42.39199999999999
 20
11.909815
 30
0.0
 11
43.04
 21
16.086085
 31
0.0
  0
LINE
  5
86
330
1E
100
AcDbEntity
  8
0
100
AcDbLine
 10
40.664
 20
9.945114999999999
 30
0.0
 11
42.39199999999999
 21
13.860365
 31
0.0
  0
LINE
  5
87
330
1E
100
AcDbEntity
  8
0
100
AcDbLine
 10
25.04
 20
14.006965
 30
0.0
 11
25.552
 21
14.037395
 31
0.0
  0
LINE
  5
88
330
1E
100
AcDbEntity
  8
0
100
AcDbLine
 10
25.552
 20
14.037395
 30
0.0
 11
26.03199999999999
 21
14.118535
 31
0.0
  0
LINE
  5
89
330
1E
100
AcDbEntity
  8
0
100
AcDbLine
 10
26.03199999999999
 20
14.118535
 30
0.0
 11
26.45599999999999
 21
14.25377499999999
 31
0.0
  0
LINE
  5
8A
330
1E
100
AcDbEntity
  8
0
100
AcDbLine
 10
24.528
 20
14.037395
 30
0.0
 11
25.04
 21
14.006965
 31
0.0
  0
LINE
  5
8B
330
1E
100
AcDbEntity
  8
0
100
AcDbLine
 10
26.45599999999999
 20
14.25377499999999
 30
0.0
 11
26.77599999999999
 21
14.43296499999999
 31
0.0
  0
LINE
  5
8C
330
1E
100
AcDbEntity
  8
0
100
AcDbLine
 10
26.77599999999999
 20
14.43296499999999
 30
0.0
 11
26.968
 21
14.635825
 31
0.0
  0
LINE
  5
8D
330
1E
100
AcDbEntity
  8
0
100
AcDbLine
 10
24.048
 20
14.118535
 30
0.0
 11
24.528
 21
14.037395
 31
0.0
  0
LINE
  5
8E
330
1E
100
AcDbEntity
  8
0
100
AcDbLine
 10
23.624
 20
14.25377499999999
 30
0.0
 11
24.048
 21
14.118535
 31
0.0
  0
LINE
  5
8F
330
1E
100
AcDbEntity
  8
0
100
AcDbLine
 10
27.04
 20
14.852205
 30
0.0
 11
27.04
 21
30.06645499999999
 31
0.0
  0
LINE
  5
90
330
1E
100
AcDbEntity
  8
0
100
AcDbLine
 10
26.968
 20
14.635825
 30
0.0
 11
27.04
 21
14.852205
 31
0.0
  0
LINE
  5
91
330
1E
100
AcDbEntity
  8
0
100
AcDbLine
 10
23.304
 20
14.43296499999999
 30
0.0
 11
23.624
 21
14.25377499999999
 31
0.0
  0
LINE
  5
92
330
1E
100
AcDbEntity
  8
0
100
AcDbLine
 10
23.11199999999999
 20
14.635825
 30
0.0
 11
23.304
 21
14.43296499999999
 31
0.0
  0
LINE
  5
93
330
1E
100
AcDbEntity
  8
0
100
AcDbLine
 10
23.03999999999999
 20
14.852205
 30
0.0
 11
23.11199999999999
 21
14.635825
 31
0.0
  0
LINE
  5
94
330
1E
100
AcDbEntity
  8
0
100
AcDbLine
 10
23.03999999999999
 20
14.852205
 30
0.0
 11
23.03999999999999
 21
30.06645499999999
 31
0.0
  0
LINE
  5
95
330
1E
100
AcDbEntity
  8
0
100
AcDbLine
 10
39.80879999999999
 20
25.821655
 30
0.0
 11
41.4025
 21
22.06605499999999
 31
0.0
  0
LINE
  5
96
330
1E
100
AcDbEntity
  8
0
100
AcDbLine
 10
41.4025
 20
22.06605499999999
 30
0.0
 11
42.03999999999999
 21
18.117945
 31
0.0
  0
LINE
  5
97
330
1E
100
AcDbEntity
  8
0
100
AcDbLine
 10
41.4025
 20
14.16995499999999
 30
0.0
 11
42.03999999999999
 21
18.117945
 31
0.0
  0
LINE
  5
98
330
1E
100
AcDbEntity
  8
0
100
AcDbLine
 10
38.8525
 20
20.24605499999999
 30
0.0
 11
38.8525
 21
47.07784726190479
 31
0.0
  0
LINE
  5
99
330
1E
100
AcDbEntity
  8
0
100
AcDbLine
 10
25.04
 20
30.911655
 30
0.0
 11
25.552
 21
30.881255
 31
0.0
  0
LINE
  5
9A
330
1E
100
AcDbEntity
  8
0
100
AcDbLine
 10
24.528
 20
30.881255
 30
0.0
 11
25.04
 21
30.911655
 31
0.0
  0
LINE
  5
9B
330
1E
100
AcDbEntity
  8
0
100
AcDbLine
 10
24.048
 20
30.800155
 30
0.0
 11
24.528
 21
30.881255
 31
0.0
  0
LINE
  5
9C
330
1E
100
AcDbEntity
  8
0
100
AcDbLine
 10
23.624
 20
30.664855
 30
0.0
 11
24.048
 21
30.800155
 31
0.0
  0
LINE
  5
9D
330
1E
100
AcDbEntity
  8
0
100
AcDbLine
 10
23.304
 20
30.485655
 30
0.0
 11
23.624
 21
30.664855
 31
0.0
  0
LINE
  5
9E
330
1E
100
AcDbEntity
  8
0
100
AcDbLine
 10
23.11199999999999
 20
30.28285499999999
 30
0.0
 11
23.304
 21
30.485655
 31
0.0
  0
LINE
  5
9F
330
1E
100
AcDbEntity
  8
0
100
AcDbLine
 10
23.03999999999999
 20
30.06645499999999
 30
0.0
 11
23.11199999999999
 21
30.28285499999999
 31
0.0
  0
LINE
  5
A0
330
1E
100
AcDbEntity
  8
0
100
AcDbLine
 10
23.03999999999999
 20
30.06645499999999
 30
0.0
 11
23.03999999999999
 21
14.852205
 31
0.0
  0
LINE
  5
A2
330
1E
100
AcDbEntity
  8
0
100
AcDbLine
 10
25.552
 20
30.881255
 30
0.0
 11
26.03199999999999
 21
30.800155
 31
0.0
  0
LINE
  5
A3
330
1E
100
AcDbEntity
  8
0
100
AcDbLine
 10
26.03199999999999
 20
30.800155
 30
0.0
 11
26.45599999999999
 21
30.664855
 31
0.0
  0
LINE
  5
A4
330
1E
100
AcDbEntity
  8
0
100
AcDbLine
 10
26.45599999999999
 20
30.664855
 30
0.0
 11
26.77599999999999
 21
30.485655
 31
0.0
  0
LINE
  5
A5
330
1E
100
AcDbEntity
  8
0
100
AcDbLine
 10
26.77599999999999
 20
30.485655
 30
0.0
 11
26.968
 21
30.28285499999999
 31
0.0
  0
LINE
  5
A6
330
1E
100
AcDbEntity
  8
0
100
AcDbLine
 10
27.04
 20
30.06645499999999
 30
0.0
 11
27.04
 21
14.852205
 31
0.0
  0
LINE
  5
A7
330
1E
100
AcDbEntity
  8
0
100
AcDbLine
 10
26.968
 20
30.28285499999999
 30
0.0
 11
27.04
 21
30.06645499999999
 31
0.0
  0
LINE
  5
A8
330
1E
100
AcDbEntity
  8
0
100
AcDbLine
 10
38.8525
 20
26.9217202090498
 30
0.0
 11
39.80879999999999
 21
25.821655
 31
0.0
  0
LINE
  5
A9
330
1E
100
AcDbEntity
  8
0
100
AcDbLine
 10
25.04
 20
35.39245499999999
 30
0.0
 11
28.5463
 21
35.87385499999999
 31
0.0
  0
LINE
  5
AB
330
1E
100
AcDbEntity
  8
0
100
AcDbLine
 10
28.5463
 20
35.87385499999999
 30
0.0
 11
31.9463
 21
37.029455
 31
0.0
  0
LINE
  5
AC
330
1E
100
AcDbEntity
  8
0
100
AcDbLine
 10
38.8525
 20
28.30352748263889
 30
0.0
 11
40.664
 21
26.12815499999999
 31
0.0
  0
LINE
  5
AD
330
1E
100
AcDbEntity
  8
0
100
AcDbLine
 10
40.664
 20
26.12815499999999
 30
0.0
 11
42.39199999999999
 21
22.212855
 31
0.0
  0
LINE
  5
AE
330
1E
100
AcDbEntity
  8
0
100
AcDbLine
 10
43.04
 20
18.036625
 30
0.0
 11
43.04
 21
16.086085
 31
0.0
  0
LINE
  5
AF
330
1E
100
AcDbEntity
  8
0
100
AcDbLine
 10
43.04
 20
16.086085
 30
0.0
 11
43.04
 21
18.036625
 31
0.0
  0
LINE
  5
B0
330
1E
100
AcDbEntity
  8
0
100
AcDbLine
 10
42.39199999999999
 20
22.212855
 30
0.0
 11
43.04
 21
18.036625
 31
0.0
  0
LINE
  5
B1
330
1E
100
AcDbEntity
  8
0
100
AcDbLine
 10
42.39199999999999
 20
13.860365
 30
0.0
 11
43.04
 21
18.036625
 31
0.0
  0
LINE
  5
B2
330
1E
100
AcDbEntity
  8
0
100
AcDbLine
 10
21.5337
 20
35.87385499999999
 30
0.0
 11
25.04
 21
35.39245499999999
 31
0.0
  0
LINE
  5
B3
330
1E
100
AcDbEntity
  8
0
100
AcDbLine
 10
15.265
 20
39.051555
 30
0.0
 11
18.1338
 21
37.029455
 31
0.0
  0
LINE
  5
B4
330
1E
100
AcDbEntity
  8
0
100
AcDbLine
 10
11.22749999999999
 20
47.07784726190479
 30
0.0
 11
11.22749999999999
 21
20.24605499999999
 31
0.0
  0
LINE
  5
B5
330
1E
100
AcDbEntity
  8
0
100
AcDbLine
 10
12.6135
 20
251.8454549999999
 30
0.0
 11
18.6429
 21
254.3454549999999
 31
0.0
  0
LINE
  5
B6
330
1E
100
AcDbEntity
  8
0
100
AcDbLine
 10
11.544
 20
233.8114549999999
 30
0.0
 11
12.888
 21
237.1714549999999
 31
0.0
  0
LINE
  5
B7
330
1E
100
AcDbEntity
  8
0
100
AcDbLine
 10
12.888
 20
237.1714549999999
 30
0.0
 11
15.128
 21
240.1394549999999
 31
0.0
  0
LINE
  5
B8
330
1E
100
AcDbEntity
  8
0
100
AcDbLine
 10
11.544
 20
45.038055
 30
0.0
 11
12.888
 21
41.992855
 31
0.0
  0
LINE
  5
B9
330
1E
100
AcDbEntity
  8
0
100
AcDbLine
 10
13.0337
 20
41.651555
 30
0.0
 11
15.265
 21
39.051555
 31
0.0
  0
LINE
  5
BA
330
1E
100
AcDbEntity
  8
0
100
AcDbLine
 10
12.8969121466478
 20
41.98215246674879
 30
0.0
 11
13.0337
 21
41.651555
 31
0.0
  0
LINE
  5
BB
330
1E
100
AcDbEntity
  8
0
100
AcDbLine
 10
15.128
 20
240.1394549999999
 30
0.0
 11
18.096
 21
242.3794549999999
 31
0.0
  0
LINE
  5
BC
330
1E
100
AcDbEntity
  8
0
100
AcDbLine
 10
18.096
 20
242.3794549999999
 30
0.0
 11
21.45599999999999
 21
243.7234549999999
 31
0.0
  0
LINE
  5
BF
330
1E
100
AcDbEntity
  8
0
100
AcDbLine
 10
18.1338
 20
37.029455
 30
0.0
 11
21.5337
 21
35.87385499999999
 31
0.0
  0
LINE
  5
C1
330
1E
100
AcDbEntity
  8
0
100
AcDbLine
 10
31.9463
 20
37.029455
 30
0.0
 11
34.815
 21
39.051555
 31
0.0
  0
LINE
  5
C3
330
1E
100
AcDbEntity
  8
0
100
AcDbLine
 10
34.815
 20
39.051555
 30
0.0
 11
37.0463
 21
41.651555
 31
0.0
  0
LINE
  5
C4
330
1E
100
AcDbEntity
  8
0
100
AcDbLine
 10
38.536
 20
45.038055
 30
0.0
 11
39.03999999999999
 21
48.286255
 31
0.0
  0
LINE
  5
C5
330
1E
100
AcDbEntity
  8
0
100
AcDbLine
 10
37.192
 20
41.992855
 30
0.0
 11
38.536
 21
45.038055
 31
0.0
  0
LINE
  5
C6
330
1E
100
AcDbEntity
  8
0
100
AcDbLine
 10
37.0463
 20
41.651555
 30
0.0
 11
37.1830878533522
 21
41.9821524667489
 31
0.0
  0
LINE
  5
C7
330
1E
100
AcDbEntity
  8
0
100
AcDbLine
 10
39.03999999999999
 20
48.286255
 30
0.0
 11
39.03999999999999
 21
64.483355
 31
0.0
  0
LINE
  5
C8
330
1E
100
AcDbEntity
  8
0
100
AcDbLine
 10
38.8525
 20
47.07784726190479
 30
0.0
 11
38.8525
 21
20.24605499999999
 31
0.0
  0
LINE
  5
C9
330
1E
100
AcDbEntity
  8
0
100
AcDbLine
 10
39.03999999999999
 20
81.70915500000001
 30
0.0
 11
39.03999999999999
 21
74.20575500000001
 31
0.0
  0
LINE
  5
CA
330
1E
100
AcDbEntity
  8
0
100
AcDbLine
 10
39.03999999999999
 20
81.70915500000001
 30
0.0
 11
39.03999999999999
 21
90.26525500000001
 31
0.0
  0
LINE
  5
CB
330
1E
100
AcDbEntity
  8
0
100
AcDbLine
 10
39.03999999999999
 20
74.20575500000001
 30
0.0
 11
39.03999999999999
 21
81.70915500000001
 31
0.0
  0
LINE
  5
CC
330
1E
100
AcDbEntity
  8
0
100
AcDbLine
 10
39.03999999999999
 20
74.20575500000001
 30
0.0
 11
39.03999999999999
 21
67.883255
 31
0.0
  0
LINE
  5
CD
330
1E
100
AcDbEntity
  8
0
100
AcDbLine
 10
39.03999999999999
 20
67.883255
 30
0.0
 11
39.03999999999999
 21
64.483355
 31
0.0
  0
LINE
  5
CE
330
1E
100
AcDbEntity
  8
0
100
AcDbLine
 10
39.03999999999999
 20
67.883255
 30
0.0
 11
39.03999999999999
 21
74.20575500000001
 31
0.0
  0
LINE
  5
CF
330
1E
100
AcDbEntity
  8
0
100
AcDbLine
 10
39.03999999999999
 20
64.483355
 30
0.0
 11
39.03999999999999
 21
67.883255
 31
0.0
  0
LINE
  5
D0
330
1E
100
AcDbEntity
  8
0
100
AcDbLine
 10
39.03999999999999
 20
64.483355
 30
0.0
 11
39.03999999999999
 21
48.286255
 31
0.0
  0
LINE
  5
D1
330
1E
100
AcDbEntity
  8
0
100
AcDbLine
 10
39.03999999999999
 20
99.72745500000002
 30
0.0
 11
39.03999999999999
 21
90.26525500000001
 31
0.0
  0
LINE
  5
D2
330
1E
100
AcDbEntity
  8
0
100
AcDbLine
 10
39.03999999999999
 20
99.72745500000002
 30
0.0
 11
39.03999999999999
 21
109.934455
 31
0.0
  0
LINE
  5
D3
330
1E
100
AcDbEntity
  8
0
100
AcDbLine
 10
39.03999999999999
 20
90.26525500000001
 30
0.0
 11
39.03999999999999
 21
99.72745500000002
 31
0.0
  0
LINE
  5
D4
330
1E
100
AcDbEntity
  8
0
100
AcDbLine
 10
39.03999999999999
 20
90.26525500000001
 30
0.0
 11
39.03999999999999
 21
81.70915500000001
 31
0.0
  0
LINE
  5
D5
330
1E
100
AcDbEntity
  8
0
100
AcDbLine
 10
39.03999999999999
 20
165.744455
 30
0.0
 11
39.03999999999999
 21
154.583455
 31
0.0
  0
LINE
  5
D6
330
1E
100
AcDbEntity
  8
0
100
AcDbLine
 10
39.03999999999999
 20
165.744455
 30
0.0
 11
39.03999999999999
 21
176.5204549999999
 31
0.0
  0
LINE
  5
D7
330
1E
100
AcDbEntity
  8
0
100
AcDbLine
 10
39.03999999999999
 20
154.583455
 30
0.0
 11
39.03999999999999
 21
165.744455
 31
0.0
  0
LINE
  5
D8
330
1E
100
AcDbEntity
  8
0
100
AcDbLine
 10
39.03999999999999
 20
154.583455
 30
0.0
 11
39.03999999999999
 21
143.2274549999999
 31
0.0
  0
LINE
  5
D9
330
1E
100
AcDbEntity
  8
0
100
AcDbLine
 10
39.03999999999999
 20
186.7274549999999
 30
0.0
 11
39.03999999999999
 21
176.5204549999999
 31
0.0
  0
LINE
  5
DA
330
1E
100
AcDbEntity
  8
0
100
AcDbLine
 10
39.03999999999999
 20
186.7274549999999
 30
0.0
 11
39.03999999999999
 21
196.189455
 31
0.0
  0
LINE
  5
DB
330
1E
100
AcDbEntity
  8
0
100
AcDbLine
 10
39.03999999999999
 20
176.5204549999999
 30
0.0
 11
39.03999999999999
 21
186.7274549999999
 31
0.0
  0
LINE
  5
DC
330
1E
100
AcDbEntity
  8
0
100
AcDbLine
 10
39.03999999999999
 20
176.5204549999999
 30
0.0
 11
39.03999999999999
 21
165.744455
 31
0.0
  0
LINE
  5
DE
330
1E
100
AcDbEntity
  8
0
100
AcDbLine
 10
39.03999999999999
 20
209.806322888748
 30
0.0
 11
42.6871
 21
212.5804549999999
 31
0.0
  0
LINE
  5
DF
330
1E
100
AcDbEntity
  8
0
100
AcDbLine
 10
39.03999999999999
 20
206.227455
 30
0.0
 11
67.48090000000001
 21
206.227455
 31
0.0
  0
LINE
  5
E0
330
1E
100
AcDbEntity
  8
0
100
AcDbLine
 10
39.03999999999999
 20
218.5714549999999
 30
0.0
 11
39.03999999999999
 21
212.2494549999999
 31
0.0
  0
LINE
  5
E1
330
1E
100
AcDbEntity
  8
0
100
AcDbLine
 10
39.03999999999999
 20
218.5714549999999
 30
0.0
 11
39.03999999999999
 21
223.6054549999999
 31
0.0
  0
LINE
  5
E2
330
1E
100
AcDbEntity
  8
0
100
AcDbLine
 10
39.03999999999999
 20
212.2494549999999
 30
0.0
 11
39.03999999999999
 21
218.5714549999999
 31
0.0
  0
LINE
  5
E3
330
1E
100
AcDbEntity
  8
0
100
AcDbLine
 10
39.03999999999999
 20
212.2494549999999
 30
0.0
 11
39.03999999999999
 21
204.7454549999999
 31
0.0
  0
LINE
  5
E4
330
1E
100
AcDbEntity
  8
0
100
AcDbLine
 10
39.03999999999999
 20
227.2634549999999
 30
0.0
 11
39.03999999999999
 21
223.6054549999999
 31
0.0
  0
LINE
  5
E5
330
1E
100
AcDbEntity
  8
0
100
AcDbLine
 10
39.03999999999999
 20
227.2634549999999
 30
0.0
 11
39.03999999999999
 21
229.483455
 31
0.0
  0
LINE
  5
E6
330
1E
100
AcDbEntity
  8
0
100
AcDbLine
 10
39.03999999999999
 20
223.6054549999999
 30
0.0
 11
39.03999999999999
 21
227.2634549999999
 31
0.0
  0
LINE
  5
E7
330
1E
100
AcDbEntity
  8
0
100
AcDbLine
 10
39.03999999999999
 20
223.6054549999999
 30
0.0
 11
39.03999999999999
 21
218.5714549999999
 31
0.0
  0
LINE
  5
E8
330
1E
100
AcDbEntity
  8
0
100
AcDbLine
 10
39.03999999999999
 20
230.2274549999999
 30
0.0
 11
39.03999999999999
 21
229.483455
 31
0.0
  0
LINE
  5
E9
330
1E
100
AcDbEntity
  8
0
100
AcDbLine
 10
39.03999999999999
 20
229.483455
 30
0.0
 11
39.03999999999999
 21
230.2274549999999
 31
0.0
  0
LINE
  5
EA
330
1E
100
AcDbEntity
  8
0
100
AcDbLine
 10
39.03999999999999
 20
229.483455
 30
0.0
 11
39.03999999999999
 21
227.2634549999999
 31
0.0
  0
LINE
  5
EB
330
1E
100
AcDbEntity
  8
0
100
AcDbLine
 10
39.03999999999999
 20
204.7454549999999
 30
0.0
 11
39.03999999999999
 21
196.189455
 31
0.0
  0
LINE
  5
EC
330
1E
100
AcDbEntity
  8
0
100
AcDbLine
 10
39.03999999999999
 20
204.7454549999999
 30
0.0
 11
39.03999999999999
 21
212.2494549999999
 31
0.0
  0
LINE
  5
ED
330
1E
100
AcDbEntity
  8
0
100
AcDbLine
 10
39.03999999999999
 20
196.189455
 30
0.0
 11
39.03999999999999
 21
204.7454549999999
 31
0.0
  0
LINE
  5
EE
330
1E
100
AcDbEntity
  8
0
100
AcDbLine
 10
39.03999999999999
 20
196.189455
 30
0.0
 11
39.03999999999999
 21
186.7274549999999
 31
0.0
  0
LINE
  5
EF
330
1E
100
AcDbEntity
  8
0
100
AcDbLine
 10
39.03999999999999
 20
143.2274549999999
 30
0.0
 11
39.03999999999999
 21
131.8714549999999
 31
0.0
  0
LINE
  5
F0
330
1E
100
AcDbEntity
  8
0
100
AcDbLine
 10
39.03999999999999
 20
143.2274549999999
 30
0.0
 11
39.03999999999999
 21
154.583455
 31
0.0
  0
LINE
  5
F1
330
1E
100
AcDbEntity
  8
0
100
AcDbLine
 10
39.03999999999999
 20
131.8714549999999
 30
0.0
 11
39.03999999999999
 21
143.2274549999999
 31
0.0
  0
LINE
  5
F2
330
1E
100
AcDbEntity
  8
0
100
AcDbLine
 10
39.03999999999999
 20
131.8714549999999
 30
0.0
 11
39.03999999999999
 21
120.710455
 31
0.0
  0
LINE
  5
F4
330
1E
100
AcDbEntity
  8
0
100
AcDbLine
 10
42.6871
 20
212.5804549999999
 30
0.0
 11
46.6576
 21
217.8014549999999
 31
0.0
  0
LINE
  5
F5
330
1E
100
AcDbEntity
  8
0
100
AcDbLine
 10
46.6576
 20
217.8014549999999
 30
0.0
 11
49.1576
 21
223.8304549999999
 31
0.0
  0
LINE
  5
F6
330
1E
100
AcDbEntity
  8
0
100
AcDbLine
 10
49.1576
 20
223.8304549999999
 30
0.0
 11
50.04
 21
230.2274549999999
 31
0.0
  0
LINE
  5
F7
330
1E
100
AcDbEntity
  8
0
100
AcDbLine
 10
62.74
 20
218.4394549999999
 30
0.0
 11
63.7083
 21
213.4984549999999
 31
0.0
  0
LINE
  5
F8
330
1E
100
AcDbEntity
  8
0
100
AcDbLine
 10
63.7083
 20
213.4984549999999
 30
0.0
 11
64.98709999999999
 21
209.7564549999999
 31
0.0
  0
LINE
  5
F9
330
1E
100
AcDbEntity
  8
0
100
AcDbLine
 10
64.98709999999999
 20
209.7564549999999
 30
0.0
 11
66.467
 21
207.427455
 31
0.0
  0
LINE
  5
FA
330
1E
100
AcDbEntity
  8
0
100
AcDbLine
 10
66.467
 20
207.427455
 30
0.0
 11
68.0382
 21
206.580455
 31
0.0
  0
LINE
  5
FB
330
1E
100
AcDbEntity
  8
0
100
AcDbLine
 10
65.8433
 20
218.298455
 30
0.0
 11
66.8299
 21
213.2864549999999
 31
0.0
  0
LINE
  5
FC
330
1E
100
AcDbEntity
  8
0
100
AcDbLine
 10
62.13709999999999
 20
224.156455
 30
0.0
 11
62.74
 21
218.4394549999999
 31
0.0
  0
LINE
  5
FD
330
1E
100
AcDbEntity
  8
0
100
AcDbLine
 10
61.9178
 20
230.2274549999999
 30
0.0
 11
62.13709999999999
 21
236.2984549999999
 31
0.0
  0
LINE
  5
FE
330
1E
100
AcDbEntity
  8
0
100
AcDbLine
 10
61.9178
 20
230.2274549999999
 30
0.0
 11
62.13709999999999
 21
224.156455
 31
0.0
  0
LINE
  5
FF
330
1E
100
AcDbEntity
  8
0
100
AcDbLine
 10
65.2221
 20
224.0864549999999
 30
0.0
 11
65.8433
 21
218.298455
 31
0.0
  0
LINE
  5
100
330
1E
100
AcDbEntity
  8
0
100
AcDbLine
 10
66.8299
 20
213.2864549999999
 30
0.0
 11
68.12699999999999
 21
209.474455
 31
0.0
  0
LINE
  5
101
330
1E
100
AcDbEntity
  8
0
100
AcDbLine
 10
65.00289999999999
 20
230.2274549999999
 30
0.0
 11
65.2221
 21
236.3684549999999
 31
0.0
  0
LINE
  5
102
330
1E
100
AcDbEntity
  8
0
100
AcDbLine
 10
65.00289999999999
 20
230.2274549999999
 30
0.0
 11
65.2221
 21
224.0864549999999
 31
0.0
  0
LINE
  5
103
330
1E
100
AcDbEntity
  8
0
100
AcDbLine
 10
69.6251
 20
207.074455
 30
0.0
 11
71.2146
 21
206.227455
 31
0.0
  0
LINE
  5
104
330
1E
100
AcDbEntity
  8
0
100
AcDbLine
 10
68.12699999999999
 20
209.474455
 30
0.0
 11
69.6251
 21
207.074455
 31
0.0
  0
LINE
  5
106
330
1E
100
AcDbEntity
  8
0
100
AcDbLine
 10
69.0703
 20
207.074455
 30
0.0
 11
69.46410912060621
 21
207.332367095685
 31
0.0
  0
LINE
  5
107
330
1E
100
AcDbEntity
  8
0
100
AcDbLine
 10
68.0382
 20
206.580455
 30
0.0
 11
69.4562564633806
 21
207.344947282148
 31
0.0
  0
LINE
  5
108
330
1E
100
AcDbEntity
  8
0
100
AcDbLine
 10
67.48090000000001
 20
206.227455
 30
0.0
 11
69.0703
 21
207.074455
 31
0.0
  0
LINE
  5
109
330
1E
100
AcDbEntity
  8
0
100
AcDbLine
 10
101.692
 20
209.7564549999999
 30
0.0
 11
103.172
 21
207.427455
 31
0.0
  0
LINE
  5
10A
330
1E
100
AcDbEntity
  8
0
100
AcDbLine
 10
103.172
 20
207.427455
 30
0.0
 11
104.7429999999999
 21
206.580455
 31
0.0
  0
LINE
  5
10B
330
1E
100
AcDbEntity
  8
0
100
AcDbLine
 10
91.865
 20
228.3214549999999
 30
0.0
 11
92.46500000000001
 21
227.5214549999999
 31
0.0
  0
LINE
  5
10D
330
1E
100
AcDbEntity
  8
0
100
AcDbLine
 10
92.46500000000001
 20
227.5214549999999
 30
0.0
 11
93.26500000000001
 21
226.921455
 31
0.0
  0
LINE
  5
10E
330
1E
100
AcDbEntity
  8
0
100
AcDbLine
 10
93.26500000000001
 20
226.921455
 30
0.0
 11
94.18269999999999
 21
226.5454549999999
 31
0.0
  0
LINE
  5
111
330
1E
100
AcDbEntity
  8
0
100
AcDbLine
 10
94.18269999999999
 20
226.5454549999999
 30
0.0
 11
95.17090000000001
 21
226.4034549999999
 31
0.0
  0
LINE
  5
113
330
1E
100
AcDbEntity
  8
0
100
AcDbLine
 10
95.17090000000001
 20
226.4034549999999
 30
0.0
 11
96.1592
 21
226.5454549999999
 31
0.0
  0
LINE
  5
114
330
1E
100
AcDbEntity
  8
0
100
AcDbLine
 10
97.07680000000001
 20
226.921455
 30
0.0
 11
97.87680000000001
 21
227.5214549999999
 31
0.0
  0
LINE
  5
115
330
1E
100
AcDbEntity
  8
0
100
AcDbLine
 10
96.1592
 20
226.5454549999999
 30
0.0
 11
97.07680000000001
 21
226.921455
 31
0.0
  0
LINE
  5
116
330
1E
100
AcDbEntity
  8
0
100
AcDbLine
 10
97.87680000000001
 20
227.5214549999999
 30
0.0
 11
98.4768
 21
228.3214549999999
 31
0.0
  0
LINE
  5
118
330
1E
100
AcDbEntity
  8
0
100
AcDbLine
 10
98.4768
 20
228.3214549999999
 30
0.0
 11
98.85330000000001
 21
229.239455
 31
0.0
  0
LINE
  5
11D
330
1E
100
AcDbEntity
  8
0
100
AcDbLine
 10
91.4886
 20
229.239455
 30
0.0
 11
91.865
 21
228.3214549999999
 31
0.0
  0
LINE
  5
11F
330
1E
100
AcDbEntity
  8
0
100
AcDbLine
 10
91.4886
 20
231.2154549999999
 30
0.0
 11
91.865
 21
232.1334549999999
 31
0.0
  0
LINE
  5
120
330
1E
100
AcDbEntity
  8
0
100
AcDbLine
 10
91.34739999999998
 20
230.2274549999999
 30
0.0
 11
91.4886
 21
231.2154549999999
 31
0.0
  0
LINE
  5
121
330
1E
100
AcDbEntity
  8
0
100
AcDbLine
 10
91.34739999999998
 20
230.2274549999999
 30
0.0
 11
91.4886
 21
229.239455
 31
0.0
  0
LINE
  5
125
330
1E
100
AcDbEntity
  8
0
100
AcDbLine
 10
91.865
 20
232.1334549999999
 30
0.0
 11
92.46500000000001
 21
232.933455
 31
0.0
  0
LINE
  5
126
330
1E
100
AcDbEntity
  8
0
100
AcDbLine
 10
92.46500000000001
 20
232.933455
 30
0.0
 11
93.26500000000001
 21
233.5334549999999
 31
0.0
  0
LINE
  5
12C
330
1E
100
AcDbEntity
  8
0
100
AcDbLine
 10
97.87680000000001
 20
232.933455
 30
0.0
 11
98.4768
 21
232.1334549999999
 31
0.0
  0
LINE
  5
12D
330
1E
100
AcDbEntity
  8
0
100
AcDbLine
 10
98.4768
 20
232.1334549999999
 30
0.0
 11
98.85330000000001
 21
231.2154549999999
 31
0.0
  0
LINE
  5
131
330
1E
100
AcDbEntity
  8
0
100
AcDbLine
 10
93.26500000000001
 20
233.5334549999999
 30
0.0
 11
94.18269999999999
 21
233.9094549999999
 31
0.0
  0
LINE
  5
132
330
1E
100
AcDbEntity
  8
0
100
AcDbLine
 10
94.18269999999999
 20
233.9094549999999
 30
0.0
 11
95.17090000000001
 21
234.0514549999999
 31
0.0
  0
LINE
  5
137
330
1E
100
AcDbEntity
  8
0
100
AcDbLine
 10
95.17090000000001
 20
234.0514549999999
 30
0.0
 11
96.1592
 21
233.9094549999999
 31
0.0
  0
LINE
  5
139
330
1E
100
AcDbEntity
  8
0
100
AcDbLine
 10
97.07680000000001
 20
233.5334549999999
 30
0.0
 11
97.87680000000001
 21
232.933455
 31
0.0
  0
LINE
  5
13A
330
1E
100
AcDbEntity
  8
0
100
AcDbLine
 10
96.1592
 20
233.9094549999999
 30
0.0
 11
97.07680000000001
 21
233.5334549999999
 31
0.0
  0
LINE
  5
142
330
1E
100
AcDbEntity
  8
0
100
AcDbLine
 10
98.68960406375711
 20
228.383618834613
 30
0.0
 11
98.8423
 21
224.156455
 31
0.0
  0
LINE
  5
143
330
1E
100
AcDbEntity
  8
0
100
AcDbLine
 10
98.85330000000001
 20
229.239455
 30
0.0
 11
98.99450000000001
 21
230.2274549999999
 31
0.0
  0
LINE
  5
145
330
1E
100
AcDbEntity
  8
0
100
AcDbLine
 10
98.85330000000001
 20
231.2154549999999
 30
0.0
 11
98.99450000000001
 21
230.2274549999999
 31
0.0
  0
LINE
  5
148
330
1E
100
AcDbEntity
  8
0
100
AcDbLine
 10
99.4452
 20
218.4394549999999
 30
0.0
 11
100.4129999999999
 21
213.4984549999999
 31
0.0
  0
LINE
  5
149
330
1E
100
AcDbEntity
  8
0
100
AcDbLine
 10
98.8423
 20
224.156455
 30
0.0
 11
99.4452
 21
218.4394549999999
 31
0.0
  0
LINE
  5
14A
330
1E
100
AcDbEntity
  8
0
100
AcDbLine
 10
100.4129999999999
 20
213.4984549999999
 30
0.0
 11
101.692
 21
209.7564549999999
 31
0.0
  0
LINE
  5
14B
330
1E
100
AcDbEntity
  8
0
100
AcDbLine
 10
98.68960406375711
 20
232.071291165387
 30
0.0
 11
98.8423
 21
236.2984549999999
 31
0.0
  0
LINE
  5
14C
330
1E
100
AcDbEntity
  8
0
100
AcDbLine
 10
109.2239999999999
 20
213.9924549999999
 30
0.0
 11
110.156
 21
218.7924549999999
 31
0.0
  0
LINE
  5
14D
330
1E
100
AcDbEntity
  8
0
100
AcDbLine
 10
110.156
 20
218.7924549999999
 30
0.0
 11
110.7399999999999
 21
224.298455
 31
0.0
  0
LINE
  5
14E
330
1E
100
AcDbEntity
  8
0
100
AcDbLine
 10
110.7399999999999
 20
224.298455
 30
0.0
 11
110.9599999999999
 21
230.2274549999999
 31
0.0
  0
LINE
  5
14F
330
1E
100
AcDbEntity
  8
0
100
AcDbLine
 10
109.0729999999999
 20
213.4984549999999
 30
0.0
 11
109.2239999999999
 21
213.9924549999999
 31
0.0
  0
LINE
  5
150
330
1E
100
AcDbEntity
  8
0
100
AcDbLine
 10
109.0729999999999
 20
213.4984549999999
 30
0.0
 11
109.0985934180209
 21
213.6289576609299
 31
0.0
  0
LINE
  5
151
330
1E
100
AcDbEntity
  8
0
100
AcDbLine
 10
107.7939999999999
 20
209.7564549999999
 30
0.0
 11
109.0729999999999
 21
213.4984549999999
 31
0.0
  0
LINE
  5
152
330
1E
100
AcDbEntity
  8
0
100
AcDbLine
 10
106.315
 20
207.427455
 30
0.0
 11
107.7939999999999
 21
209.7564549999999
 31
0.0
  0
LINE
  5
153
330
1E
100
AcDbEntity
  8
0
100
AcDbLine
 10
105.776
 20
207.074455
 30
0.0
 11
106.315
 21
207.427455
 31
0.0
  0
LINE
  5
154
330
1E
100
AcDbEntity
  8
0
100
AcDbLine
 10
104.7429999999999
 20
206.580455
 30
0.0
 11
106.315
 21
207.427455
 31
0.0
  0
LINE
  5
155
330
1E
100
AcDbEntity
  8
0
100
AcDbLine
 10
104.186
 20
206.227455
 30
0.0
 11
105.776
 21
207.074455
 31
0.0
  0
LINE
  5
156
330
1E
100
AcDbEntity
  8
0
100
AcDbLine
 10
71.2146
 20
206.227455
 30
0.0
 11
104.186
 21
206.227455
 31
0.0
  0
LINE
  5
157
330
1E
100
AcDbEntity
  8
0
100
AcDbLine
 10
49.1576
 20
236.6244549999999
 30
0.0
 11
50.04
 21
230.2274549999999
 31
0.0
  0
LINE
  5
158
330
1E
100
AcDbEntity
  8
0
100
AcDbLine
 10
62.13709999999999
 20
236.2984549999999
 30
0.0
 11
62.74
 21
242.0154549999999
 31
0.0
  0
LINE
  5
159
330
1E
100
AcDbEntity
  8
0
100
AcDbLine
 10
98.8423
 20
236.2984549999999
 30
0.0
 11
99.4452
 21
242.0154549999999
 31
0.0
  0
LINE
  5
15A
330
1E
100
AcDbEntity
  8
0
100
AcDbLine
 10
65.2221
 20
236.3684549999999
 30
0.0
 11
65.8433
 21
242.1564549999999
 31
0.0
  0
LINE
  5
15B
330
1E
100
AcDbEntity
  8
0
100
AcDbLine
 10
110.7399999999999
 20
236.156455
 30
0.0
 11
110.9599999999999
 21
230.2274549999999
 31
0.0
  0
LINE
  5
15C
330
1E
100
AcDbEntity
  8
0
100
AcDbLine
 10
39.03999999999999
 20
120.710455
 30
0.0
 11
39.03999999999999
 21
109.934455
 31
0.0
  0
LINE
  5
15D
330
1E
100
AcDbEntity
  8
0
100
AcDbLine
 10
39.03999999999999
 20
120.710455
 30
0.0
 11
39.03999999999999
 21
131.8714549999999
 31
0.0
  0
LINE
  5
15E
330
1E
100
AcDbEntity
  8
0
100
AcDbLine
 10
39.03999999999999
 20
109.934455
 30
0.0
 11
39.03999999999999
 21
120.710455
 31
0.0
  0
LINE
  5
15F
330
1E
100
AcDbEntity
  8
0
100
AcDbLine
 10
39.03999999999999
 20
109.934455
 30
0.0
 11
39.03999999999999
 21
99.72745500000002
 31
0.0
  0
LINE
  5
160
330
1E
100
AcDbEntity
  8
0
100
AcDbLine
 10
38.536
 20
233.8114549999999
 30
0.0
 11
39.03999999999999
 21
230.2274549999999
 31
0.0
  0
LINE
  5
161
330
1E
100
AcDbEntity
  8
0
100
AcDbLine
 10
62.74
 20
242.0154549999999
 30
0.0
 11
63.7083
 21
246.9564549999999
 31
0.0
  0
LINE
  5
162
330
1E
100
AcDbEntity
  8
0
100
AcDbLine
 10
99.4452
 20
242.0154549999999
 30
0.0
 11
100.4129999999999
 21
246.9564549999999
 31
0.0
  0
LINE
  5
163
330
1E
100
AcDbEntity
  8
0
100
AcDbLine
 10
65.8433
 20
242.1564549999999
 30
0.0
 11
66.8299
 21
247.1684549999999
 31
0.0
  0
LINE
  5
164
330
1E
100
AcDbEntity
  8
0
100
AcDbLine
 10
110.156
 20
241.6624549999999
 30
0.0
 11
110.7399999999999
 21
236.156455
 31
0.0
  0
LINE
  5
165
330
1E
100
AcDbEntity
  8
0
100
AcDbLine
 10
37.192
 20
237.1714549999999
 30
0.0
 11
38.536
 21
233.8114549999999
 31
0.0
  0
LINE
  5
166
330
1E
100
AcDbEntity
  8
0
100
AcDbLine
 10
34.952
 20
240.1394549999999
 30
0.0
 11
37.192
 21
237.1714549999999
 31
0.0
  0
LINE
  5
167
330
1E
100
AcDbEntity
  8
0
100
AcDbLine
 10
46.6576
 20
242.6534549999999
 30
0.0
 11
49.1576
 21
236.6244549999999
 31
0.0
  0
LINE
  5
168
330
1E
100
AcDbEntity
  8
0
100
AcDbLine
 10
31.984
 20
242.3794549999999
 30
0.0
 11
34.952
 21
240.1394549999999
 31
0.0
  0
LINE
  5
169
330
1E
100
AcDbEntity
  8
0
100
AcDbLine
 10
28.624
 20
243.7234549999999
 30
0.0
 11
31.984
 21
242.3794549999999
 31
0.0
  0
LINE
  5
16A
330
1E
100
AcDbEntity
  8
0
100
AcDbLine
 10
25.04
 20
255.2274549999999
 30
0.0
 11
31.4371
 21
254.3454549999999
 31
0.0
  0
LINE
  5
16B
330
1E
100
AcDbEntity
  8
0
100
AcDbLine
 10
18.6429
 20
254.3454549999999
 30
0.0
 11
25.04
 21
255.2274549999999
 31
0.0
  0
LINE
  5
16C
330
1E
100
AcDbEntity
  8
0
100
AcDbLine
 10
63.7083
 20
246.9564549999999
 30
0.0
 11
64.98709999999999
 21
250.6984549999999
 31
0.0
  0
LINE
  5
16D
330
1E
100
AcDbEntity
  8
0
100
AcDbLine
 10
100.4129999999999
 20
246.9564549999999
 30
0.0
 11
101.692
 21
250.6984549999999
 31
0.0
  0
LINE
  5
16E
330
1E
100
AcDbEntity
  8
0
100
AcDbLine
 10
109.2239999999999
 20
246.4624549999999
 30
0.0
 11
110.156
 21
241.6624549999999
 31
0.0
  0
LINE
  5
170
330
1E
100
AcDbEntity
  8
0
100
AcDbLine
 10
42.6871
 20
247.874455
 30
0.0
 11
46.6576
 21
242.6534549999999
 31
0.0
  0
LINE
  5
172
330
1E
100
AcDbEntity
  8
0
100
AcDbLine
 10
37.4665
 20
251.8454549999999
 30
0.0
 11
42.6871
 21
247.874455
 31
0.0
  0
LINE
  5
173
330
1E
100
AcDbEntity
  8
0
100
AcDbLine
 10
64.98709999999999
 20
250.6984549999999
 30
0.0
 11
66.467
 21
253.0274549999999
 31
0.0
  0
LINE
  5
174
330
1E
100
AcDbEntity
  8
0
100
AcDbLine
 10
66.467
 20
253.0274549999999
 30
0.0
 11
68.0382
 21
253.874455
 31
0.0
  0
LINE
  5
175
330
1E
100
AcDbEntity
  8
0
100
AcDbLine
 10
66.8299
 20
247.1684549999999
 30
0.0
 11
68.12699999999999
 21
250.9804549999999
 31
0.0
  0
LINE
  5
176
330
1E
100
AcDbEntity
  8
0
100
AcDbLine
 10
31.72168768
 20
254.227455
 30
0.0
 11
67.48090000000001
 21
254.227455
 31
0.0
  0
LINE
  5
177
330
1E
100
AcDbEntity
  8
0
100
AcDbLine
 10
68.12699999999999
 20
250.9804549999999
 30
0.0
 11
69.6251
 21
253.3804549999999
 31
0.0
  0
LINE
  5
178
330
1E
100
AcDbEntity
  8
0
100
AcDbLine
 10
68.3168
 20
252.227455
 30
0.0
 11
68.9053877916667
 21
252.227455
 31
0.0
  0
LINE
  5
179
330
1E
100
AcDbEntity
  8
0
100
AcDbLine
 10
101.692
 20
250.6984549999999
 30
0.0
 11
103.172
 21
253.0274549999999
 31
0.0
  0
LINE
  5
17A
330
1E
100
AcDbEntity
  8
0
100
AcDbLine
 10
103.172
 20
253.0274549999999
 30
0.0
 11
104.7429999999999
 21
253.874455
 31
0.0
  0
LINE
  5
17B
330
1E
100
AcDbEntity
  8
0
100
AcDbLine
 10
69.6251
 20
253.3804549999999
 30
0.0
 11
71.2146
 21
254.227455
 31
0.0
  0
LINE
  5
17C
330
1E
100
AcDbEntity
  8
0
100
AcDbLine
 10
69.0703
 20
253.3804549999999
 30
0.0
 11
69.46410912060621
 21
253.1225429043149
 31
0.0
  0
LINE
  5
17D
330
1E
100
AcDbEntity
  8
0
100
AcDbLine
 10
68.0382
 20
253.874455
 30
0.0
 11
69.4562564633806
 21
253.1099627178519
 31
0.0
  0
LINE
  5
17E
330
1E
100
AcDbEntity
  8
0
100
AcDbLine
 10
67.48090000000001
 20
254.227455
 30
0.0
 11
69.0703
 21
253.3804549999999
 31
0.0
  0
LINE
  5
17F
330
1E
100
AcDbEntity
  8
0
100
AcDbLine
 10
31.4371
 20
254.3454549999999
 30
0.0
 11
37.4665
 21
251.8454549999999
 31
0.0
  0
LINE
  5
180
330
1E
100
AcDbEntity
  8
0
100
AcDbLine
 10
71.2146
 20
254.227455
 30
0.0
 11
104.186
 21
254.227455
 31
0.0
  0
LINE
  5
181
330
1E
100
AcDbEntity
  8
0
100
AcDbLine
 10
107.7939999999999
 20
250.6984549999999
 30
0.0
 11
109.0729999999999
 21
246.9564549999999
 31
0.0
  0
LINE
  5
182
330
1E
100
AcDbEntity
  8
0
100
AcDbLine
 10
106.315
 20
253.0274549999999
 30
0.0
 11
107.7939999999999
 21
250.6984549999999
 31
0.0
  0
LINE
  5
183
330
1E
100
AcDbEntity
  8
0
100
AcDbLine
 10
105.776
 20
253.3804549999999
 30
0.0
 11
106.315
 21
253.0274549999999
 31
0.0
  0
LINE
  5
184
330
1E
100
AcDbEntity
  8
0
100
AcDbLine
 10
104.7429999999999
 20
253.874455
 30
0.0
 11
106.315
 21
253.0274549999999
 31
0.0
  0
LINE
  5
185
330
1E
100
AcDbEntity
  8
0
100
AcDbLine
 10
104.186
 20
254.227455
 30
0.0
 11
105.776
 21
253.3804549999999
 31
0.0
  0
LINE
  5
186
330
1E
100
AcDbEntity
  8
0
100
AcDbLine
 10
109.0729999999999
 20
246.9564549999999
 30
0.0
 11
109.0985934180209
 21
246.82595233907
 31
0.0
  0
LINE
  5
187
330
1E
100
AcDbEntity
  8
0
100
AcDbLine
 10
109.0729999999999
 20
246.9564549999999
 30
0.0
 11
109.2239999999999
 21
246.4624549999999
 31
0.0
  0
LINE
  5
188
330
1E
100
AcDbEntity
  8
0
100
AcDbLine
 10
25.04
 20
244.227455
 30
0.0
 11
28.624
 21
243.7234549999999
 31
0.0
  0
LINE
  5
189
330
1E
100
AcDbEntity
  8
0
100
AcDbLine
 10
21.45599999999999
 20
243.7234549999999
 30
0.0
 11
25.04
 21
244.227455
 31
0.0
  0
LINE
  5
18C
330
1E
100
AcDbEntity
  8
0
100
AcDbLine
 10
11.03999999999999
 20
48.286255
 30
0.0
 11
11.03999999999999
 21
64.483355
 31
0.0
  0
LINE
  5
18D
330
1E
100
AcDbEntity
  8
0
100
AcDbLine
 10
11.03999999999999
 20
48.286255
 30
0.0
 11
11.544
 21
45.038055
 31
0.0
  0
ENDSEC
  0
SECTION
  2
OBJECTS
  0
DICTIONARY
  5
C
330
0
100
AcDbDictionary
281
     1
  3
ACAD_GROUP
350
D
  3
ACAD_LAYOUT
350
19
  3
ACAD_MLINESTYLE
350
16
  3
ACAD_PLOTSETTINGS
350
18
  3
ACAD_PLOTSTYLENAME
350
E
  3
AcDbVariableDictionary
350
193
  0
DICTIONARY
  5
D
102
{ACAD_REACTORS
330
C
102
}
330
C
100
AcDbDictionary
281
     1
  0
DICTIONARY
  5
19
102
{ACAD_REACTORS
330
C
102
}
330
C
100
AcDbDictionary
281
     1
  3
Layout1
350
1D
  3
Model
350
21
  0
DICTIONARY
  5
16
102
{ACAD_REACTORS
330
C
102
}
330
C
100
AcDbDictionary
281
     1
  3
Standard
350
17
  0
DICTIONARY
  5
18
102
{ACAD_REACTORS
330
C
102
}
330
C
100
AcDbDictionary
281
     1
  0
ACDBDICTIONARYWDFLT
  5
E
102
{ACAD_REACTORS
330
C
102
}
330
C
100
AcDbDictionary
281
     1
  3
Normal
350
F
100
AcDbDictionaryWithDefault
340
F
  0
DICTIONARY
  5
193
102
{ACAD_REACTORS
330
C
102
}
330
C
100
AcDbDictionary
281
     1
  3
DIMASSOC
350
194
  0
LAYOUT
  5
1D
102
{ACAD_REACTORS
330
19
102
}
330
19
100
AcDbPlotSettings
  1

  2
hp deskjet 980c series
  4

  6

 40
0.0
 41
0.0
 42
0.0
 43
0.0
 44
0.0
 45
0.0
 46
0.0
 47
0.0
 48
0.0
 49
0.0
140
0.0
141
0.0
142
1.0
143
1.0
 70
   688
 72
     0
 73
     0
 74
     5
  7

 75
    16
147
1.0
148
0.0
149
0.0
100
AcDbLayout
  1
Layout1
 70
     1
 71
     1
 10
0.0
 20
0.0
 11
12.0
 21
9.0
 12
0.0
 22
0.0
 32
0.0
 14
1.000000000000000E+20
 24
1.000000000000000E+20
 34
1.000000000000000E+20
 15
-1.000000000000000E+20
 25
-1.000000000000000E+20
 35
-1.000000000000000E+20
146
0.0
 13
0.0
 23
0.0
 33
0.0
 16
1.0
 26
0.0
 36
0.0
 17
0.0
 27
1.0
 37
0.0
 76
     0
330
1A
  0
LAYOUT
  5
21
102
{ACAD_REACTORS
330
19
102
}
330
19
100
AcDbPlotSettings
  1

  2
hp deskjet 980c series
  4

  6

 40
0.0
 41
0.0
 42
0.0
 43
0.0
 44
0.0
 45
0.0
 46
0.0
 47
0.0
 48
0.0
 49
0.0
140
0.0
141
0.0
142
1.0
143
1.0
 70
  1712
 72
     0
 73
     0
 74
     0
  7

 75
     0
147
1.0
148
0.0
149
0.0
100
AcDbLayout
  1
Model
 70
     1
 71
     0
 10
0.0
 20
0.0
 11
12.0
 21
9.0
 12
0.0
 22
0.0
 32
0.0
 14
0.0
 24
0.0
 34
0.0
 15
0.0
 25
0.0
 35
0.0
146
0.0
 13
0.0
 23
0.0
 33
0.0
 16
1.0
 26
0.0
 36
0.0
 17
0.0
 27
1.0
 37
0.0
 76
     0
330
1E
  0
MLINESTYLE
  5
17
102
{ACAD_REACTORS
330
16
102
}
330
16
100
AcDbMlineStyle
  2
STANDARD
 70
     0
  3

 62
   256
 51
90.0
 52
90.0
 71
     2
 49
0.5
 62
   256
  6
BYLAYER
 49
-0.5
 62
   256
  6
BYLAYER
  0
ACDBPLACEHOLDER
  5
F
102
{ACAD_REACTORS
330
E
102
}
330
E
  0
DICTIONARYVAR
  5
194
102
{ACAD_REACTORS
330
193
102
}
330
193
100
DictionaryVariables
280
     0
  1
1
  0
ENDSEC
  0
EOF
