  0
SECTION
  2
HEADER
  9
$ACADVER
  1
AC1015
  9
$ACADMAINTVER
 70
    13
  9
$DWGCODEPAGE
  3
ANSI_1252
  9
$INSBASE
 10
0.0
 20
0.0
 30
0.0
  9
$EXTMIN
 10
0.0399999999999996
 20
0.238840000000009
 30
0.0
  9
$EXTMAX
 10
110.9599999999999
 20
242.76116
 30
0.0
  9
$LIMMIN
 10
0.0
 20
0.0
  9
$LIMMAX
 10
12.0
 20
9.0
  9
$ORTHOMODE
 70
     0
  9
$REGENMODE
 70
     1
  9
$FILLMODE
 70
     1
  9
$QTEXTMODE
 70
     0
  9
$MIRRTEXT
 70
     1
  9
$LTSCALE
 40
1.0
  9
$ATTMODE
 70
     1
  9
$TEXTSIZE
 40
0.2
  9
$TRACEWID
 40
0.05
  9
$TEXTSTYLE
  7
Standard
  9
$CLAYER
  8
0
  9
$CELTYPE
  6
Continuous
  9
$CECOLOR
 62
   256
  9
$CELTSCALE
 40
1.0
  9
$DISPSILH
 70
     0
  9
$DIMSCALE
 40
1.0
  9
$DIMASZ
 40
0.18
  9
$DIMEXO
 40
0.0625
  9
$DIMDLI
 40
0.38
  9
$DIMRND
 40
0.0
  9
$DIMDLE
 40
0.0
  9
$DIMEXE
 40
0.18
  9
$DIMTP
 40
0.0
  9
$DIMTM
 40
0.0
  9
$DIMTXT
 40
0.18
  9
$DIMCEN
 40
0.09
  9
$DIMTSZ
 40
0.0
  9
$DIMTOL
 70
     0
  9
$DIMLIM
 70
     0
  9
$DIMTIH
 70
     1
  9
$DIMTOH
 70
     1
  9
$DIMSE1
 70
     0
  9
$DIMSE2
 70
     0
  9
$DIMTAD
 70
     0
  9
$DIMZIN
 70
     0
  9
$DIMBLK
  1

  9
$DIMASO
 70
     1
  9
$DIMSHO
 70
     1
  9
$DIMPOST
  1

  9
$DIMAPOST
  1

  9
$DIMALT
 70
     0
  9
$DIMALTD
 70
     2
  9
$DIMALTF
 40
25.4
  9
$DIMLFAC
 40
1.0
  9
$DIMTOFL
 70
     0
  9
$DIMTVP
 40
0.0
  9
$DIMTIX
 70
     0
  9
$DIMSOXD
 70
     0
  9
$DIMSAH
 70
     0
  9
$DIMBLK1
  1

  9
$DIMBLK2
  1

  9
$DIMSTYLE
  2
Standard
  9
$DIMCLRD
 70
     0
  9
$DIMCLRE
 70
     0
  9
$DIMCLRT
 70
     0
  9
$DIMTFAC
 40
1.0
  9
$DIMGAP
 40
0.09
  9
$DIMJUST
 70
     0
  9
$DIMSD1
 70
     0
  9
$DIMSD2
 70
     0
  9
$DIMTOLJ
 70
     1
  9
$DIMTZIN
 70
     0
  9
$DIMALTZ
 70
     0
  9
$DIMALTTZ
 70
     0
  9
$DIMUPT
 70
     0
  9
$DIMDEC
 70
     4
  9
$DIMTDEC
 70
     4
  9
$DIMALTU
 70
     2
  9
$DIMALTTD
 70
     2
  9
$DIMTXSTY
  7
Standard
  9
$DIMAUNIT
 70
     0
  9
$DIMADEC
 70
     0
  9
$DIMALTRND
 40
0.0
  9
$DIMAZIN
 70
     0
  9
$DIMDSEP
 70
    46
  9
$DIMATFIT
 70
     3
  9
$DIMFRAC
 70
     0
  9
$DIMLDRBLK
  1

  9
$DIMLUNIT
 70
     2
  9
$DIMLWD
 70
    -2
  9
$DIMLWE
 70
    -2
  9
$DIMTMOVE
 70
     0
  9
$LUNITS
 70
     2
  9
$LUPREC
 70
     4
  9
$SKETCHINC
 40
0.1
  9
$FILLETRAD
 40
0.0
  9
$AUNITS
 70
     0
  9
$AUPREC
 70
     0
  9
$MENU
  1
.
  9
$ELEVATION
 40
0.0
  9
$PELEVATION
 40
0.0
  9
$THICKNESS
 40
0.0
  9
$LIMCHECK
 70
     0
  9
$CHAMFERA
 40
0.0
  9
$CHAMFERB
 40
0.0
  9
$CHAMFERC
 40
0.0
  9
$CHAMFERD
 40
0.0
  9
$SKPOLY
 70
     0
  9
$TDCREATE
 40
2455001.704880277
  9
$TDUCREATE
 40
2455001.621546944
  9
$TDUPDATE
 40
2455001.714502129
  9
$TDUUPDATE
 40
2455001.631168796
  9
$TDINDWG
 40
0.0096218519
  9
$TDUSRTIMER
 40
0.0096218519
  9
$USRTIMER
 70
     1
  9
$ANGBASE
 50
0.0
  9
$ANGDIR
 70
     0
  9
$PDMODE
 70
     0
  9
$PDSIZE
 40
0.0
  9
$PLINEWID
 40
0.0
  9
$SPLFRAME
 70
     0
  9
$SPLINETYPE
 70
     6
  9
$SPLINESEGS
 70
     8
  9
$HANDSEED
  5
186
  9
$SURFTAB1
 70
     6
  9
$SURFTAB2
 70
     6
  9
$SURFTYPE
 70
     6
  9
$SURFU
 70
     6
  9
$SURFV
 70
     6
  9
$UCSBASE
  2

  9
$UCSNAME
  2

  9
$UCSORG
 10
0.0
 20
0.0
 30
0.0
  9
$UCSXDIR
 10
1.0
 20
0.0
 30
0.0
  9
$UCSYDIR
 10
0.0
 20
1.0
 30
0.0
  9
$UCSORTHOREF
  2

  9
$UCSORTHOVIEW
 70
     1
  9
$UCSORGTOP
 10
0.0
 20
0.0
 30
0.0
  9
$UCSORGBOTTOM
 10
0.0
 20
0.0
 30
0.0
  9
$UCSORGLEFT
 10
0.0
 20
0.0
 30
0.0
  9
$UCSORGRIGHT
 10
0.0
 20
0.0
 30
0.0
  9
$UCSORGFRONT
 10
0.0
 20
0.0
 30
0.0
  9
$UCSORGBACK
 10
0.0
 20
0.0
 30
0.0
  9
$PUCSBASE
  2

  9
$PUCSNAME
  2

  9
$PUCSORG
 10
0.0
 20
0.0
 30
0.0
  9
$PUCSXDIR
 10
1.0
 20
0.0
 30
0.0
  9
$PUCSYDIR
 10
0.0
 20
1.0
 30
0.0
  9
$PUCSORTHOREF
  2

  9
$PUCSORTHOVIEW
 70
     0
  9
$PUCSORGTOP
 10
0.0
 20
0.0
 30
0.0
  9
$PUCSORGBOTTOM
 10
0.0
 20
0.0
 30
0.0
  9
$PUCSORGLEFT
 10
0.0
 20
0.0
 30
0.0
  9
$PUCSORGRIGHT
 10
0.0
 20
0.0
 30
0.0
  9
$PUCSORGFRONT
 10
0.0
 20
0.0
 30
0.0
  9
$PUCSORGBACK
 10
0.0
 20
0.0
 30
0.0
  9
$USERI1
 70
     0
  9
$USERI2
 70
     0
  9
$USERI3
 70
     0
  9
$USERI4
 70
     0
  9
$USERI5
 70
     0
  9
$USERR1
 40
0.0
  9
$USERR2
 40
0.0
  9
$USERR3
 40
0.0
  9
$USERR4
 40
0.0
  9
$USERR5
 40
0.0
  9
$WORLDVIEW
 70
     1
  9
$SHADEDGE
 70
     3
  9
$SHADEDIF
 70
    70
  9
$TILEMODE
 70
     1
  9
$MAXACTVP
 70
    64
  9
$PINSBASE
 10
0.0
 20
0.0
 30
0.0
  9
$PLIMCHECK
 70
     0
  9
$PEXTMIN
 10
1.000000000000000E+20
 20
1.000000000000000E+20
 30
1.000000000000000E+20
  9
$PEXTMAX
 10
-1.000000000000000E+20
 20
-1.000000000000000E+20
 30
-1.000000000000000E+20
  9
$PLIMMIN
 10
0.0
 20
0.0
  9
$PLIMMAX
 10
12.0
 20
9.0
  9
$UNITMODE
 70
     0
  9
$VISRETAIN
 70
     1
  9
$PLINEGEN
 70
     0
  9
$PSLTSCALE
 70
     1
  9
$TREEDEPTH
 70
  3020
  9
$CMLSTYLE
  2
Standard
  9
$CMLJUST
 70
     0
  9
$CMLSCALE
 40
1.0
  9
$PROXYGRAPHICS
 70
     1
  9
$MEASUREMENT
 70
     0
  9
$CELWEIGHT
370
    -1
  9
$ENDCAPS
280
     0
  9
$JOINSTYLE
280
     0
  9
$LWDISPLAY
290
     0
  9
$INSUNITS
 70
     0
  9
$HYPERLINKBASE
  1

  9
$STYLESHEET
  1

  9
$XEDIT
290
     1
  9
$CEPSNTYPE
380
     0
  9
$PSTYLEMODE
290
     1
  9
$FINGERPRINTGUID
  2
{C538C586-03E0-4E45-915B-DF9FD7243833}
  9
$VERSIONGUID
  2
{E7F66442-D83A-447F-8939-43DD62B827D9}
  9
$EXTNAMES
290
     1
  9
$PSVPSCALE
 40
0.0
  9
$OLESTARTUP
290
     0
  0
ENDSEC
  0
SECTION
  2
CLASSES
  0
CLASS
  1
ACDBDICTIONARYWDFLT
  2
AcDbDictionaryWithDefault
  3
AutoCAD 2000
 90
        0
280
     0
281
     0
  0
CLASS
  1
ACDBPLACEHOLDER
  2
AcDbPlaceHolder
  3
AutoCAD 2000
 90
        0
280
     0
281
     0
  0
CLASS
  1
LAYOUT
  2
AcDbLayout
  3
AutoCAD 2000
 90
        0
280
     0
281
     0
  0
CLASS
  1
DICTIONARYVAR
  2
AcDbDictionaryVar
  3
AutoCAD 2000
 90
        0
280
     0
281
     0
  0
ENDSEC
  0
SECTION
  2
TABLES
  0
TABLE
  2
VPORT
  5
8
330
0
100
AcDbSymbolTable
 70
     3
  0
VPORT
  5
185
330
8
100
AcDbSymbolTableRecord
100
AcDbViewportTableRecord
  2
*Active
 70
     0
 10
0.0
 20
0.0
 11
1.0
 21
1.0
 12
55.49999999999999
 22
121.5
 13
0.0
 23
0.0
 14
1.0
 24
1.0
 15
0.0
 25
0.0
 16
0.0
 26
0.0
 36
1.0
 17
0.0
 27
0.0
 37
0.0
 40
244.0540399157894
 41
1.968387776606954
 42
50.0
 43
0.0
 44
0.0
 50
0.0
 51
0.0
 71
     0
 72
   100
 73
     1
 74
     3
 75
     0
 76
     0
 77
     0
 78
     0
281
     0
 65
     1
110
0.0
120
0.0
130
0.0
111
1.0
121
0.0
131
0.0
112
0.0
122
1.0
132
0.0
 79
     1
146
0.0
  0
ENDTAB
  0
TABLE
  2
LTYPE
  5
5
330
0
100
AcDbSymbolTable
 70
     1
  0
LTYPE
  5
13
330
5
100
AcDbSymbolTableRecord
100
AcDbLinetypeTableRecord
  2
ByBlock
 70
     0
  3

 72
    65
 73
     0
 40
0.0
  0
LTYPE
  5
14
330
5
100
AcDbSymbolTableRecord
100
AcDbLinetypeTableRecord
  2
ByLayer
 70
     0
  3

 72
    65
 73
     0
 40
0.0
  0
LTYPE
  5
15
330
5
100
AcDbSymbolTableRecord
100
AcDbLinetypeTableRecord
  2
Continuous
 70
     0
  3
Solid line
 72
    65
 73
     0
 40
0.0
  0
ENDTAB
  0
TABLE
  2
LAYER
  5
2
330
0
100
AcDbSymbolTable
 70
     1
  0
LAYER
  5
10
330
2
100
AcDbSymbolTableRecord
100
AcDbLayerTableRecord
  2
0
 70
     0
 62
     7
  6
Continuous
370
    -3
390
F
  0
ENDTAB
  0
TABLE
  2
STYLE
  5
3
330
0
100
AcDbSymbolTable
 70
     1
  0
STYLE
  5
11
330
3
100
AcDbSymbolTableRecord
100
AcDbTextStyleTableRecord
  2
Standard
 70
     0
 40
0.0
 41
1.0
 50
0.0
 71
     0
 42
0.2
  3
txt
  4

  0
ENDTAB
  0
TABLE
  2
VIEW
  5
6
330
0
100
AcDbSymbolTable
 70
     0
  0
ENDTAB
  0
TABLE
  2
UCS
  5
7
330
0
100
AcDbSymbolTable
 70
     0
  0
ENDTAB
  0
TABLE
  2
APPID
  5
9
330
0
100
AcDbSymbolTable
 70
     1
  0
APPID
  5
12
330
9
100
AcDbSymbolTableRecord
100
AcDbRegAppTableRecord
  2
ACAD
 70
     0
  0
ENDTAB
  0
TABLE
  2
DIMSTYLE
  5
A
330
0
100
AcDbSymbolTable
 70
     1
100
AcDbDimStyleTable
 71
     0
  0
DIMSTYLE
105
17E
330
A
100
AcDbSymbolTableRecord
100
AcDbDimStyleTableRecord
  2
Standard
 70
     0
340
11
  0
ENDTAB
  0
TABLE
  2
BLOCK_RECORD
  5
1
330
0
100
AcDbSymbolTable
 70
     0
  0
BLOCK_RECORD
  5
1E
330
1
100
AcDbSymbolTableRecord
100
AcDbBlockTableRecord
  2
*Model_Space
340
21
  0
BLOCK_RECORD
  5
1A
330
1
100
AcDbSymbolTableRecord
100
AcDbBlockTableRecord
  2
*Paper_Space
340
1D
  0
ENDTAB
  0
ENDSEC
  0
SECTION
  2
BLOCKS
  0
BLOCK
  5
1F
330
1E
100
AcDbEntity
  8
0
100
AcDbBlockBegin
  2
*Model_Space
 70
     0
 10
0.0
 20
0.0
 30
0.0
  3
*Model_Space
  1

  0
ENDBLK
  5
20
330
1E
100
AcDbEntity
  8
0
100
AcDbBlockEnd
  0
BLOCK
  5
1B
330
1A
100
AcDbEntity
 67
     1
  8
0
100
AcDbBlockBegin
  2
*Paper_Space
 70
     0
 10
0.0
 20
0.0
 30
0.0
  3
*Paper_Space
  1

  0
ENDBLK
  5
1C
330
1A
100
AcDbEntity
 67
     1
  8
0
100
AcDbBlockEnd
  0
ENDSEC
  0
SECTION
  2
ENTITIES
  0
LINE
  5
22
330
1E
100
AcDbEntity
  8
0
100
AcDbLine
 10
9.539999999999999
 20
16.15466
 30
0.0
 11
9.539999999999999
 21
14.28656
 31
0.0
  0
LINE
  5
23
330
1E
100
AcDbEntity
  8
0
100
AcDbLine
 10
9.539999999999999
 20
16.15466
 30
0.0
 11
10.098
 21
12.55846
 31
0.0
  0
LINE
  5
24
330
1E
100
AcDbEntity
  8
0
100
AcDbLine
 10
9.539999999999999
 20
16.15466
 30
0.0
 11
10.098
 21
19.75095999999999
 31
0.0
  0
LINE
  5
25
330
1E
100
AcDbEntity
  8
0
100
AcDbLine
 10
9.912
 20
16.27716
 30
0.0
 11
10.47
 21
12.73716
 31
0.0
  0
LINE
  5
26
330
1E
100
AcDbEntity
  8
0
100
AcDbLine
 10
9.912
 20
16.27716
 30
0.0
 11
10.47
 21
19.81726
 31
0.0
  0
LINE
  5
27
330
1E
100
AcDbEntity
  8
0
100
AcDbLine
 10
10.098
 20
19.75095999999999
 30
0.0
 11
11.03999999999999
 21
21.8852737096774
 31
0.0
  0
LINE
  5
28
330
1E
100
AcDbEntity
  8
0
100
AcDbLine
 10
11.03999999999999
 20
34.97446
 30
0.0
 11
11.03999999999999
 21
16.27716
 31
0.0
  0
LINE
  5
29
330
1E
100
AcDbEntity
  8
0
100
AcDbLine
 10
11.03999999999999
 20
34.97446
 30
0.0
 11
11.105595098824
 21
35.39721
 31
0.0
  0
LINE
  5
2A
330
1E
100
AcDbEntity
  8
0
100
AcDbLine
 10
11.03999999999999
 20
16.27716
 30
0.0
 11
11.544
 21
13.02896
 31
0.0
  0
LINE
  5
2B
330
1E
100
AcDbEntity
  8
0
100
AcDbLine
 10
11.03999999999999
 20
16.27716
 30
0.0
 11
11.03999999999999
 21
34.97446
 31
0.0
  0
LINE
  5
2C
330
1E
100
AcDbEntity
  8
0
100
AcDbLine
 10
10.47
 20
19.81726
 30
0.0
 11
11.03999999999999
 21
21.0657055645161
 31
0.0
  0
LINE
  5
2D
330
1E
100
AcDbEntity
  8
0
100
AcDbLine
 10
10.47
 20
12.73716
 30
0.0
 11
11.95799999999999
 21
9.478060000000009
 31
0.0
  0
LINE
  5
2E
330
1E
100
AcDbEntity
  8
0
100
AcDbLine
 10
10.098
 20
12.55846
 30
0.0
 11
11.58599999999999
 21
9.186960000000009
 31
0.0
  0
LINE
  5
2F
330
1E
100
AcDbEntity
  8
0
100
AcDbLine
 10
10.098
 20
10.69036
 30
0.0
 11
11.58599999999999
 21
7.318960000000009
 31
0.0
  0
LINE
  5
30
330
1E
100
AcDbEntity
  8
0
100
AcDbLine
 10
9.539999999999999
 20
14.28656
 30
0.0
 11
10.098
 21
10.69036
 31
0.0
  0
LINE
  5
31
330
1E
100
AcDbEntity
  8
0
100
AcDbLine
 10
9.539999999999999
 20
14.28656
 30
0.0
 11
9.539999999999999
 21
16.15466
 31
0.0
  0
LINE
  5
32
330
1E
100
AcDbEntity
  8
0
100
AcDbLine
 10
11.03999999999999
 20
61.73946
 30
0.0
 11
11.03999999999999
 21
55.41695999999999
 31
0.0
  0
LINE
  5
33
330
1E
100
AcDbEntity
  8
0
100
AcDbLine
 10
11.03999999999999
 20
61.73946
 30
0.0
 11
11.03999999999999
 21
69.24285999999999
 31
0.0
  0
LINE
  5
34
330
1E
100
AcDbEntity
  8
0
100
AcDbLine
 10
11.03999999999999
 20
69.24285999999999
 30
0.0
 11
11.03999999999999
 21
77.79895999999999
 31
0.0
  0
LINE
  5
35
330
1E
100
AcDbEntity
  8
0
100
AcDbLine
 10
11.03999999999999
 20
69.24285999999999
 30
0.0
 11
11.03999999999999
 21
61.73946
 31
0.0
  0
LINE
  5
36
330
1E
100
AcDbEntity
  8
0
100
AcDbLine
 10
11.03999999999999
 20
108.24416
 30
0.0
 11
11.03999999999999
 21
119.40516
 31
0.0
  0
LINE
  5
37
330
1E
100
AcDbEntity
  8
0
100
AcDbLine
 10
11.03999999999999
 20
108.24416
 30
0.0
 11
11.03999999999999
 21
97.46816
 31
0.0
  0
LINE
  5
38
330
1E
100
AcDbEntity
  8
0
100
AcDbLine
 10
11.03999999999999
 20
119.40516
 30
0.0
 11
11.03999999999999
 21
108.24416
 31
0.0
  0
LINE
  5
39
330
1E
100
AcDbEntity
  8
0
100
AcDbLine
 10
11.03999999999999
 20
119.40516
 30
0.0
 11
11.03999999999999
 21
130.76116
 31
0.0
  0
LINE
  5
3A
330
1E
100
AcDbEntity
  8
0
100
AcDbLine
 10
11.03999999999999
 20
87.26116000000001
 30
0.0
 11
11.03999999999999
 21
97.46816
 31
0.0
  0
LINE
  5
3B
330
1E
100
AcDbEntity
  8
0
100
AcDbLine
 10
11.03999999999999
 20
87.26116000000001
 30
0.0
 11
11.03999999999999
 21
77.79895999999999
 31
0.0
  0
LINE
  5
3C
330
1E
100
AcDbEntity
  8
0
100
AcDbLine
 10
11.03999999999999
 20
97.46816
 30
0.0
 11
11.03999999999999
 21
87.26116000000001
 31
0.0
  0
LINE
  5
3D
330
1E
100
AcDbEntity
  8
0
100
AcDbLine
 10
11.03999999999999
 20
97.46816
 30
0.0
 11
11.03999999999999
 21
108.24416
 31
0.0
  0
LINE
  5
3E
330
1E
100
AcDbEntity
  8
0
100
AcDbLine
 10
11.03999999999999
 20
77.79895999999999
 30
0.0
 11
11.03999999999999
 21
69.24285999999999
 31
0.0
  0
LINE
  5
3F
330
1E
100
AcDbEntity
  8
0
100
AcDbLine
 10
11.03999999999999
 20
77.79895999999999
 30
0.0
 11
11.03999999999999
 21
87.26116000000001
 31
0.0
  0
LINE
  5
40
330
1E
100
AcDbEntity
  8
0
100
AcDbLine
 10
11.03999999999999
 20
55.41695999999999
 30
0.0
 11
11.03999999999999
 21
52.01706
 31
0.0
  0
LINE
  5
41
330
1E
100
AcDbEntity
  8
0
100
AcDbLine
 10
11.03999999999999
 20
55.41695999999999
 30
0.0
 11
11.03999999999999
 21
61.73946
 31
0.0
  0
LINE
  5
42
330
1E
100
AcDbEntity
  8
0
100
AcDbLine
 10
11.03999999999999
 20
174.26116
 30
0.0
 11
11.03999999999999
 21
183.72316
 31
0.0
  0
LINE
  5
43
330
1E
100
AcDbEntity
  8
0
100
AcDbLine
 10
11.03999999999999
 20
174.26116
 30
0.0
 11
11.03999999999999
 21
164.0541599999999
 31
0.0
  0
LINE
  5
44
330
1E
100
AcDbEntity
  8
0
100
AcDbLine
 10
11.03999999999999
 20
183.72316
 30
0.0
 11
11.03999999999999
 21
174.26116
 31
0.0
  0
LINE
  5
45
330
1E
100
AcDbEntity
  8
0
100
AcDbLine
 10
11.03999999999999
 20
183.72316
 30
0.0
 11
11.03999999999999
 21
192.27916
 31
0.0
  0
LINE
  5
46
330
1E
100
AcDbEntity
  8
0
100
AcDbLine
 10
11.03999999999999
 20
153.27816
 30
0.0
 11
11.03999999999999
 21
164.0541599999999
 31
0.0
  0
LINE
  5
47
330
1E
100
AcDbEntity
  8
0
100
AcDbLine
 10
11.03999999999999
 20
153.27816
 30
0.0
 11
11.03999999999999
 21
142.11716
 31
0.0
  0
LINE
  5
48
330
1E
100
AcDbEntity
  8
0
100
AcDbLine
 10
11.03999999999999
 20
164.0541599999999
 30
0.0
 11
11.03999999999999
 21
153.27816
 31
0.0
  0
LINE
  5
49
330
1E
100
AcDbEntity
  8
0
100
AcDbLine
 10
11.03999999999999
 20
164.0541599999999
 30
0.0
 11
11.03999999999999
 21
174.26116
 31
0.0
  0
LINE
  5
4A
330
1E
100
AcDbEntity
  8
0
100
AcDbLine
 10
11.03999999999999
 20
130.76116
 30
0.0
 11
11.03999999999999
 21
142.11716
 31
0.0
  0
LINE
  5
4B
330
1E
100
AcDbEntity
  8
0
100
AcDbLine
 10
11.03999999999999
 20
130.76116
 30
0.0
 11
11.03999999999999
 21
119.40516
 31
0.0
  0
LINE
  5
4C
330
1E
100
AcDbEntity
  8
0
100
AcDbLine
 10
11.03999999999999
 20
142.11716
 30
0.0
 11
11.03999999999999
 21
130.76116
 31
0.0
  0
LINE
  5
4D
330
1E
100
AcDbEntity
  8
0
100
AcDbLine
 10
11.03999999999999
 20
142.11716
 30
0.0
 11
11.03999999999999
 21
153.27816
 31
0.0
  0
LINE
  5
4E
330
1E
100
AcDbEntity
  8
0
100
AcDbLine
 10
3.422349999999999
 20
205.33516
 30
0.0
 11
7.392939999999999
 21
200.1141599999999
 31
0.0
  0
LINE
  5
50
330
1E
100
AcDbEntity
  8
0
100
AcDbLine
 10
3.422349999999999
 20
205.33516
 30
0.0
 11
7.392939999999999
 21
200.1141599999999
 31
0.0
  0
LINE
  5
52
330
1E
100
AcDbEntity
  8
0
100
AcDbLine
 10
7.392939999999999
 20
200.1141599999999
 30
0.0
 11
11.03999999999999
 21
197.3400370591659
 31
0.0
  0
LINE
  5
53
330
1E
100
AcDbEntity
  8
0
100
AcDbLine
 10
0.922353
 20
211.36416
 30
0.0
 11
3.422349999999999
 21
205.33516
 31
0.0
  0
LINE
  5
54
330
1E
100
AcDbEntity
  8
0
100
AcDbLine
 10
0.9223529999999989
 20
211.36416
 30
0.0
 11
3.422349999999999
 21
205.33516
 31
0.0
  0
LINE
  5
55
330
1E
100
AcDbEntity
  8
0
100
AcDbLine
 10
11.03999999999999
 20
214.79716
 30
0.0
 11
11.03999999999999
 21
211.13916
 31
0.0
  0
LINE
  5
56
330
1E
100
AcDbEntity
  8
0
100
AcDbLine
 10
11.03999999999999
 20
214.79716
 30
0.0
 11
11.03999999999999
 21
217.01716
 31
0.0
  0
LINE
  5
57
330
1E
100
AcDbEntity
  8
0
100
AcDbLine
 10
0.9223529999999989
 20
224.1581599999999
 30
0.0
 11
3.422349999999999
 21
230.18716
 31
0.0
  0
LINE
  5
59
330
1E
100
AcDbEntity
  8
0
100
AcDbLine
 10
0.922353
 20
224.1581599999999
 30
0.0
 11
3.422349999999999
 21
230.18716
 31
0.0
  0
LINE
  5
5A
330
1E
100
AcDbEntity
  8
0
100
AcDbLine
 10
3.422349999999999
 20
230.18716
 30
0.0
 11
7.392939999999999
 21
235.40816
 31
0.0
  0
LINE
  5
5C
330
1E
100
AcDbEntity
  8
0
100
AcDbLine
 10
7.392939999999999
 20
235.40816
 30
0.0
 11
12.6135
 21
239.37916
 31
0.0
  0
LINE
  5
5D
330
1E
100
AcDbEntity
  8
0
100
AcDbLine
 10
0.0399999999999996
 20
217.76116
 30
0.0
 11
0.922353
 21
211.36416
 31
0.0
  0
LINE
  5
5E
330
1E
100
AcDbEntity
  8
0
100
AcDbLine
 10
0.0399999999999996
 20
217.76116
 30
0.0
 11
0.922353
 21
224.1581599999999
 31
0.0
  0
LINE
  5
5F
330
1E
100
AcDbEntity
  8
0
100
AcDbLine
 10
11.03999999999999
 20
217.01716
 30
0.0
 11
11.03999999999999
 21
217.76116
 31
0.0
  0
LINE
  5
60
330
1E
100
AcDbEntity
  8
0
100
AcDbLine
 10
11.03999999999999
 20
217.01716
 30
0.0
 11
11.03999999999999
 21
214.79716
 31
0.0
  0
LINE
  5
61
330
1E
100
AcDbEntity
  8
0
100
AcDbLine
 10
11.03999999999999
 20
217.76116
 30
0.0
 11
11.03999999999999
 21
217.01716
 31
0.0
  0
LINE
  5
62
330
1E
100
AcDbEntity
  8
0
100
AcDbLine
 10
11.03999999999999
 20
217.76116
 30
0.0
 11
11.544
 21
221.34516
 31
0.0
  0
LINE
  5
63
330
1E
100
AcDbEntity
  8
0
100
AcDbLine
 10
11.03999999999999
 20
206.10516
 30
0.0
 11
11.03999999999999
 21
211.13916
 31
0.0
  0
LINE
  5
64
330
1E
100
AcDbEntity
  8
0
100
AcDbLine
 10
11.03999999999999
 20
206.10516
 30
0.0
 11
11.03999999999999
 21
199.7831599999999
 31
0.0
  0
LINE
  5
65
330
1E
100
AcDbEntity
  8
0
100
AcDbLine
 10
11.03999999999999
 20
211.13916
 30
0.0
 11
11.03999999999999
 21
206.10516
 31
0.0
  0
LINE
  5
66
330
1E
100
AcDbEntity
  8
0
100
AcDbLine
 10
11.03999999999999
 20
211.13916
 30
0.0
 11
11.03999999999999
 21
214.79716
 31
0.0
  0
LINE
  5
67
330
1E
100
AcDbEntity
  8
0
100
AcDbLine
 10
11.03999999999999
 20
192.27916
 30
0.0
 11
11.03999999999999
 21
199.7831599999999
 31
0.0
  0
LINE
  5
68
330
1E
100
AcDbEntity
  8
0
100
AcDbLine
 10
11.03999999999999
 20
192.27916
 30
0.0
 11
11.03999999999999
 21
183.72316
 31
0.0
  0
LINE
  5
69
330
1E
100
AcDbEntity
  8
0
100
AcDbLine
 10
11.03999999999999
 20
199.7831599999999
 30
0.0
 11
11.03999999999999
 21
192.27916
 31
0.0
  0
LINE
  5
6A
330
1E
100
AcDbEntity
  8
0
100
AcDbLine
 10
11.03999999999999
 20
199.7831599999999
 30
0.0
 11
11.03999999999999
 21
206.10516
 31
0.0
  0
LINE
  5
6B
330
1E
100
AcDbEntity
  8
0
100
AcDbLine
 10
11.03999999999999
 20
52.01706
 30
0.0
 11
11.03999999999999
 21
35.81995999999999
 31
0.0
  0
LINE
  5
6C
330
1E
100
AcDbEntity
  8
0
100
AcDbLine
 10
11.03999999999999
 20
52.01706
 30
0.0
 11
11.03999999999999
 21
55.41695999999999
 31
0.0
  0
LINE
  5
6D
330
1E
100
AcDbEntity
  8
0
100
AcDbLine
 10
21.072
 20
0.7445600000000092
 30
0.0
 11
25.04
 21
0.238840000000009
 31
0.0
  0
LINE
  5
6E
330
1E
100
AcDbEntity
  8
0
100
AcDbLine
 10
17.352
 20
2.09314000000001
 30
0.0
 11
21.072
 21
0.7445600000000092
 31
0.0
  0
LINE
  5
6F
330
1E
100
AcDbEntity
  8
0
100
AcDbLine
 10
25.04
 20
0.238840000000009
 30
0.0
 11
29.008
 21
0.7445600000000092
 31
0.0
  0
LINE
  5
70
330
1E
100
AcDbEntity
  8
0
100
AcDbLine
 10
25.04
 20
3.588890000000009
 30
0.0
 11
28.624
 21
4.045670000000009
 31
0.0
  0
LINE
  5
71
330
1E
100
AcDbEntity
  8
0
100
AcDbLine
 10
21.13399999999999
 20
3.072290000000009
 30
0.0
 11
25.04
 21
2.566570000000009
 31
0.0
  0
LINE
  5
72
330
1E
100
AcDbEntity
  8
0
100
AcDbLine
 10
21.072
 20
2.612650000000009
 30
0.0
 11
25.04
 21
2.106930000000009
 31
0.0
  0
LINE
  5
73
330
1E
100
AcDbEntity
  8
0
100
AcDbLine
 10
21.45599999999999
 20
4.045670000000009
 30
0.0
 11
25.04
 21
3.588890000000009
 31
0.0
  0
LINE
  5
74
330
1E
100
AcDbEntity
  8
0
100
AcDbLine
 10
18.096
 20
5.263750000000009
 30
0.0
 11
21.45599999999999
 21
4.045670000000009
 31
0.0
  0
LINE
  5
75
330
1E
100
AcDbEntity
  8
0
100
AcDbLine
 10
17.538
 20
4.420880000000009
 30
0.0
 11
21.13399999999999
 21
3.072290000000009
 31
0.0
  0
LINE
  5
76
330
1E
100
AcDbEntity
  8
0
100
AcDbLine
 10
17.352
 20
3.961230000000009
 30
0.0
 11
21.072
 21
2.612650000000009
 31
0.0
  0
LINE
  5
77
330
1E
100
AcDbEntity
  8
0
100
AcDbLine
 10
14.066
 20
4.340790000000009
 30
0.0
 11
17.352
 21
2.09314000000001
 31
0.0
  0
LINE
  5
78
330
1E
100
AcDbEntity
  8
0
100
AcDbLine
 10
15.128
 20
7.293860000000009
 30
0.0
 11
18.096
 21
5.263750000000009
 31
0.0
  0
LINE
  5
79
330
1E
100
AcDbEntity
  8
0
100
AcDbLine
 10
14.37599999999999
 20
6.612360000000009
 30
0.0
 11
17.538
 21
4.420880000000009
 31
0.0
  0
LINE
  5
7A
330
1E
100
AcDbEntity
  8
0
100
AcDbLine
 10
14.066
 20
6.208860000000009
 30
0.0
 11
17.352
 21
3.961230000000009
 31
0.0
  0
LINE
  5
7B
330
1E
100
AcDbEntity
  8
0
100
AcDbLine
 10
11.58599999999999
 20
7.318960000000009
 30
0.0
 11
14.066
 21
4.340790000000009
 31
0.0
  0
LINE
  5
7C
330
1E
100
AcDbEntity
  8
0
100
AcDbLine
 10
11.544
 20
13.02896
 30
0.0
 11
12.888
 21
9.983760000000009
 31
0.0
  0
LINE
  5
7D
330
1E
100
AcDbEntity
  8
0
100
AcDbLine
 10
12.888
 20
9.983760000000009
 30
0.0
 11
15.128
 21
7.293860000000009
 31
0.0
  0
LINE
  5
7E
330
1E
100
AcDbEntity
  8
0
100
AcDbLine
 10
21.51199999999999
 20
23.36796
 30
0.0
 11
25.04
 21
22.91126
 31
0.0
  0
LINE
  5
7F
330
1E
100
AcDbEntity
  8
0
100
AcDbLine
 10
25.04
 20
22.91126
 30
0.0
 11
28.568
 21
23.36796
 31
0.0
  0
LINE
  5
80
330
1E
100
AcDbEntity
  8
0
100
AcDbLine
 10
11.95799999999999
 20
9.478060000000009
 30
0.0
 11
14.37599999999999
 21
6.612360000000009
 31
0.0
  0
LINE
  5
81
330
1E
100
AcDbEntity
  8
0
100
AcDbLine
 10
11.58599999999999
 20
9.186960000000009
 30
0.0
 11
14.066
 21
6.208860000000009
 31
0.0
  0
LINE
  5
82
330
1E
100
AcDbEntity
  8
0
100
AcDbLine
 10
25.04
 20
2.566570000000009
 30
0.0
 11
28.946
 21
3.072290000000009
 31
0.0
  0
LINE
  5
83
330
1E
100
AcDbEntity
  8
0
100
AcDbLine
 10
25.04
 20
2.106930000000009
 30
0.0
 11
29.008
 21
2.612650000000009
 31
0.0
  0
LINE
  5
84
330
1E
100
AcDbEntity
  8
0
100
AcDbLine
 10
29.008
 20
0.7445600000000092
 30
0.0
 11
32.728
 21
2.09314000000001
 31
0.0
  0
LINE
  5
85
330
1E
100
AcDbEntity
  8
0
100
AcDbLine
 10
32.728
 20
2.09314000000001
 30
0.0
 11
36.014
 21
4.340790000000009
 31
0.0
  0
LINE
  5
86
330
1E
100
AcDbEntity
  8
0
100
AcDbLine
 10
29.008
 20
2.612650000000009
 30
0.0
 11
32.728
 21
3.961230000000009
 31
0.0
  0
LINE
  5
87
330
1E
100
AcDbEntity
  8
0
100
AcDbLine
 10
28.624
 20
4.045670000000009
 30
0.0
 11
31.984
 21
5.263750000000009
 31
0.0
  0
LINE
  5
88
330
1E
100
AcDbEntity
  8
0
100
AcDbLine
 10
28.946
 20
3.072290000000009
 30
0.0
 11
32.542
 21
4.420880000000009
 31
0.0
  0
LINE
  5
89
330
1E
100
AcDbEntity
  8
0
100
AcDbLine
 10
36.014
 20
4.340790000000009
 30
0.0
 11
38.494
 21
7.318960000000009
 31
0.0
  0
LINE
  5
8A
330
1E
100
AcDbEntity
  8
0
100
AcDbLine
 10
32.728
 20
3.961230000000009
 30
0.0
 11
36.014
 21
6.208860000000009
 31
0.0
  0
LINE
  5
8B
330
1E
100
AcDbEntity
  8
0
100
AcDbLine
 10
31.984
 20
5.263750000000009
 30
0.0
 11
34.952
 21
7.293860000000009
 31
0.0
  0
LINE
  5
8C
330
1E
100
AcDbEntity
  8
0
100
AcDbLine
 10
32.542
 20
4.420880000000009
 30
0.0
 11
35.704
 21
6.612360000000009
 31
0.0
  0
LINE
  5
8D
330
1E
100
AcDbEntity
  8
0
100
AcDbLine
 10
36.014
 20
6.208860000000009
 30
0.0
 11
38.494
 21
9.186960000000009
 31
0.0
  0
LINE
  5
8E
330
1E
100
AcDbEntity
  8
0
100
AcDbLine
 10
34.952
 20
7.293860000000009
 30
0.0
 11
37.192
 21
9.983760000000009
 31
0.0
  0
LINE
  5
8F
330
1E
100
AcDbEntity
  8
0
100
AcDbLine
 10
38.494
 20
7.318960000000009
 30
0.0
 11
39.982
 21
10.69036
 31
0.0
  0
LINE
  5
90
330
1E
100
AcDbEntity
  8
0
100
AcDbLine
 10
35.704
 20
6.612360000000009
 30
0.0
 11
38.122
 21
9.478060000000009
 31
0.0
  0
LINE
  5
91
330
1E
100
AcDbEntity
  8
0
100
AcDbLine
 10
38.494
 20
9.186960000000009
 30
0.0
 11
39.982
 21
12.55846
 31
0.0
  0
LINE
  5
92
330
1E
100
AcDbEntity
  8
0
100
AcDbLine
 10
37.192
 20
9.983760000000009
 30
0.0
 11
38.536
 21
13.02896
 31
0.0
  0
LINE
  5
93
330
1E
100
AcDbEntity
  8
0
100
AcDbLine
 10
39.03999999999999
 20
16.27716
 30
0.0
 11
39.03999999999999
 21
34.97446
 31
0.0
  0
LINE
  5
94
330
1E
100
AcDbEntity
  8
0
100
AcDbLine
 10
38.536
 20
13.02896
 30
0.0
 11
39.03999999999999
 21
16.27716
 31
0.0
  0
LINE
  5
95
330
1E
100
AcDbEntity
  8
0
100
AcDbLine
 10
28.568
 20
23.36796
 30
0.0
 11
31.81599999999999
 21
24.58606
 31
0.0
  0
LINE
  5
96
330
1E
100
AcDbEntity
  8
0
100
AcDbLine
 10
39.03999999999999
 20
21.8852737096774
 30
0.0
 11
39.982
 21
19.75095999999999
 31
0.0
  0
LINE
  5
97
330
1E
100
AcDbEntity
  8
0
100
AcDbLine
 10
39.03999999999999
 20
21.0657055645161
 30
0.0
 11
39.61
 21
19.81726
 31
0.0
  0
LINE
  5
98
330
1E
100
AcDbEntity
  8
0
100
AcDbLine
 10
39.61
 20
19.81726
 30
0.0
 11
40.16799999999999
 21
16.27716
 31
0.0
  0
LINE
  5
99
330
1E
100
AcDbEntity
  8
0
100
AcDbLine
 10
38.122
 20
9.478060000000009
 30
0.0
 11
39.61
 21
12.73716
 31
0.0
  0
LINE
  5
9A
330
1E
100
AcDbEntity
  8
0
100
AcDbLine
 10
39.982
 20
10.69036
 30
0.0
 11
40.54
 21
14.28656
 31
0.0
  0
LINE
  5
9B
330
1E
100
AcDbEntity
  8
0
100
AcDbLine
 10
40.54
 20
16.15466
 30
0.0
 11
40.54
 21
14.28656
 31
0.0
  0
LINE
  5
9C
330
1E
100
AcDbEntity
  8
0
100
AcDbLine
 10
40.54
 20
14.28656
 30
0.0
 11
40.54
 21
16.15466
 31
0.0
  0
LINE
  5
9D
330
1E
100
AcDbEntity
  8
0
100
AcDbLine
 10
39.982
 20
19.75095999999999
 30
0.0
 11
40.54
 21
16.15466
 31
0.0
  0
LINE
  5
9E
330
1E
100
AcDbEntity
  8
0
100
AcDbLine
 10
39.982
 20
12.55846
 30
0.0
 11
40.54
 21
16.15466
 31
0.0
  0
LINE
  5
9F
330
1E
100
AcDbEntity
  8
0
100
AcDbLine
 10
39.61
 20
12.73716
 30
0.0
 11
40.16799999999999
 21
16.27716
 31
0.0
  0
LINE
  5
A2
330
1E
100
AcDbEntity
  8
0
100
AcDbLine
 10
15.40799999999999
 20
26.56546
 30
0.0
 11
18.26399999999999
 21
24.58606
 31
0.0
  0
LINE
  5
A3
330
1E
100
AcDbEntity
  8
0
100
AcDbLine
 10
15.128
 20
26.83656
 30
0.0
 11
15.40799999999999
 21
26.56546
 31
0.0
  0
LINE
  5
A4
330
1E
100
AcDbEntity
  8
0
100
AcDbLine
 10
12.6135
 20
239.37916
 30
0.0
 11
18.6429
 21
241.87916
 31
0.0
  0
LINE
  5
A5
330
1E
100
AcDbEntity
  8
0
100
AcDbLine
 10
11.544
 20
221.34516
 30
0.0
 11
12.888
 21
224.70516
 31
0.0
  0
LINE
  5
A6
330
1E
100
AcDbEntity
  8
0
100
AcDbLine
 10
12.888
 20
224.70516
 30
0.0
 11
15.128
 21
227.67316
 31
0.0
  0
LINE
  5
A7
330
1E
100
AcDbEntity
  8
0
100
AcDbLine
 10
11.544
 20
32.57175999999999
 30
0.0
 11
12.888
 21
29.52655999999999
 31
0.0
  0
LINE
  5
A8
330
1E
100
AcDbEntity
  8
0
100
AcDbLine
 10
15.128
 20
227.67316
 30
0.0
 11
18.096
 21
229.9131599999999
 31
0.0
  0
LINE
  5
A9
330
1E
100
AcDbEntity
  8
0
100
AcDbLine
 10
18.096
 20
229.9131599999999
 30
0.0
 11
21.45599999999999
 21
231.25716
 31
0.0
  0
LINE
  5
AA
330
1E
100
AcDbEntity
  8
0
100
AcDbLine
 10
12.888
 20
29.52655999999999
 30
0.0
 11
15.128
 21
26.83656
 31
0.0
  0
LINE
  5
AC
330
1E
100
AcDbEntity
  8
0
100
AcDbLine
 10
18.26399999999999
 20
24.58606
 30
0.0
 11
21.51199999999999
 21
23.36796
 31
0.0
  0
LINE
  5
AD
330
1E
100
AcDbEntity
  8
0
100
AcDbLine
 10
31.81599999999999
 20
24.58606
 30
0.0
 11
34.672
 21
26.56546
 31
0.0
  0
LINE
  5
AE
330
1E
100
AcDbEntity
  8
0
100
AcDbLine
 10
34.672
 20
26.56546
 30
0.0
 11
34.952
 21
26.83656
 31
0.0
  0
LINE
  5
AF
330
1E
100
AcDbEntity
  8
0
100
AcDbLine
 10
34.952
 20
26.83656
 30
0.0
 11
37.192
 21
29.52655999999999
 31
0.0
  0
LINE
  5
B1
330
1E
100
AcDbEntity
  8
0
100
AcDbLine
 10
38.974404901176
 20
35.39721
 30
0.0
 11
39.03999999999999
 21
34.97446
 31
0.0
  0
LINE
  5
B2
330
1E
100
AcDbEntity
  8
0
100
AcDbLine
 10
38.536
 20
32.57175999999999
 30
0.0
 11
39.03999999999999
 21
35.81995999999999
 31
0.0
  0
LINE
  5
B3
330
1E
100
AcDbEntity
  8
0
100
AcDbLine
 10
37.192
 20
29.52655999999999
 30
0.0
 11
38.536
 21
32.57175999999999
 31
0.0
  0
LINE
  5
B4
330
1E
100
AcDbEntity
  8
0
100
AcDbLine
 10
38.536
 20
221.34516
 30
0.0
 11
39.03999999999999
 21
217.76116
 31
0.0
  0
LINE
  5
B5
330
1E
100
AcDbEntity
  8
0
100
AcDbLine
 10
39.03999999999999
 20
34.97446
 30
0.0
 11
39.03999999999999
 21
16.27716
 31
0.0
  0
LINE
  5
B6
330
1E
100
AcDbEntity
  8
0
100
AcDbLine
 10
39.03999999999999
 20
35.81995999999999
 30
0.0
 11
39.03999999999999
 21
52.01706
 31
0.0
  0
LINE
  5
B7
330
1E
100
AcDbEntity
  8
0
100
AcDbLine
 10
39.03999999999999
 20
69.24285999999999
 30
0.0
 11
39.03999999999999
 21
61.73946
 31
0.0
  0
LINE
  5
B8
330
1E
100
AcDbEntity
  8
0
100
AcDbLine
 10
39.03999999999999
 20
69.24285999999999
 30
0.0
 11
39.03999999999999
 21
77.79895999999999
 31
0.0
  0
LINE
  5
B9
330
1E
100
AcDbEntity
  8
0
100
AcDbLine
 10
39.03999999999999
 20
61.73946
 30
0.0
 11
39.03999999999999
 21
69.24285999999999
 31
0.0
  0
LINE
  5
BA
330
1E
100
AcDbEntity
  8
0
100
AcDbLine
 10
39.03999999999999
 20
61.73946
 30
0.0
 11
39.03999999999999
 21
55.41695999999999
 31
0.0
  0
LINE
  5
BB
330
1E
100
AcDbEntity
  8
0
100
AcDbLine
 10
39.03999999999999
 20
55.41695999999999
 30
0.0
 11
39.03999999999999
 21
52.01706
 31
0.0
  0
LINE
  5
BC
330
1E
100
AcDbEntity
  8
0
100
AcDbLine
 10
39.03999999999999
 20
55.41695999999999
 30
0.0
 11
39.03999999999999
 21
61.73946
 31
0.0
  0
LINE
  5
BD
330
1E
100
AcDbEntity
  8
0
100
AcDbLine
 10
39.03999999999999
 20
52.01706
 30
0.0
 11
39.03999999999999
 21
55.41695999999999
 31
0.0
  0
LINE
  5
BE
330
1E
100
AcDbEntity
  8
0
100
AcDbLine
 10
39.03999999999999
 20
52.01706
 30
0.0
 11
39.03999999999999
 21
35.81995999999999
 31
0.0
  0
LINE
  5
BF
330
1E
100
AcDbEntity
  8
0
100
AcDbLine
 10
39.03999999999999
 20
87.26116000000001
 30
0.0
 11
39.03999999999999
 21
77.79895999999999
 31
0.0
  0
LINE
  5
C0
330
1E
100
AcDbEntity
  8
0
100
AcDbLine
 10
39.03999999999999
 20
87.26116000000001
 30
0.0
 11
39.03999999999999
 21
97.46816
 31
0.0
  0
LINE
  5
C1
330
1E
100
AcDbEntity
  8
0
100
AcDbLine
 10
39.03999999999999
 20
77.79895999999999
 30
0.0
 11
39.03999999999999
 21
87.26116000000001
 31
0.0
  0
LINE
  5
C2
330
1E
100
AcDbEntity
  8
0
100
AcDbLine
 10
39.03999999999999
 20
77.79895999999999
 30
0.0
 11
39.03999999999999
 21
69.24285999999999
 31
0.0
  0
LINE
  5
C3
330
1E
100
AcDbEntity
  8
0
100
AcDbLine
 10
39.03999999999999
 20
153.27816
 30
0.0
 11
39.03999999999999
 21
142.11716
 31
0.0
  0
LINE
  5
C4
330
1E
100
AcDbEntity
  8
0
100
AcDbLine
 10
39.03999999999999
 20
153.27816
 30
0.0
 11
39.03999999999999
 21
164.0541599999999
 31
0.0
  0
LINE
  5
C5
330
1E
100
AcDbEntity
  8
0
100
AcDbLine
 10
39.03999999999999
 20
142.11716
 30
0.0
 11
39.03999999999999
 21
153.27816
 31
0.0
  0
LINE
  5
C6
330
1E
100
AcDbEntity
  8
0
100
AcDbLine
 10
39.03999999999999
 20
142.11716
 30
0.0
 11
39.03999999999999
 21
130.76116
 31
0.0
  0
LINE
  5
C7
330
1E
100
AcDbEntity
  8
0
100
AcDbLine
 10
39.03999999999999
 20
174.26116
 30
0.0
 11
39.03999999999999
 21
164.0541599999999
 31
0.0
  0
LINE
  5
C8
330
1E
100
AcDbEntity
  8
0
100
AcDbLine
 10
39.03999999999999
 20
174.26116
 30
0.0
 11
39.03999999999999
 21
183.72316
 31
0.0
  0
LINE
  5
C9
330
1E
100
AcDbEntity
  8
0
100
AcDbLine
 10
39.03999999999999
 20
164.0541599999999
 30
0.0
 11
39.03999999999999
 21
174.26116
 31
0.0
  0
LINE
  5
CA
330
1E
100
AcDbEntity
  8
0
100
AcDbLine
 10
39.03999999999999
 20
164.0541599999999
 30
0.0
 11
39.03999999999999
 21
153.27816
 31
0.0
  0
LINE
  5
CC
330
1E
100
AcDbEntity
  8
0
100
AcDbLine
 10
39.03999999999999
 20
197.340027888748
 30
0.0
 11
42.6871
 21
200.1141599999999
 31
0.0
  0
LINE
  5
CD
330
1E
100
AcDbEntity
  8
0
100
AcDbLine
 10
39.03999999999999
 20
193.76116
 30
0.0
 11
67.48090000000001
 21
193.76116
 31
0.0
  0
LINE
  5
CE
330
1E
100
AcDbEntity
  8
0
100
AcDbLine
 10
39.03999999999999
 20
206.10516
 30
0.0
 11
39.03999999999999
 21
199.7831599999999
 31
0.0
  0
LINE
  5
CF
330
1E
100
AcDbEntity
  8
0
100
AcDbLine
 10
39.03999999999999
 20
206.10516
 30
0.0
 11
39.03999999999999
 21
211.13916
 31
0.0
  0
LINE
  5
D0
330
1E
100
AcDbEntity
  8
0
100
AcDbLine
 10
39.03999999999999
 20
199.7831599999999
 30
0.0
 11
39.03999999999999
 21
206.10516
 31
0.0
  0
LINE
  5
D1
330
1E
100
AcDbEntity
  8
0
100
AcDbLine
 10
39.03999999999999
 20
199.7831599999999
 30
0.0
 11
39.03999999999999
 21
192.27916
 31
0.0
  0
LINE
  5
D2
330
1E
100
AcDbEntity
  8
0
100
AcDbLine
 10
39.03999999999999
 20
214.79716
 30
0.0
 11
39.03999999999999
 21
211.13916
 31
0.0
  0
LINE
  5
D3
330
1E
100
AcDbEntity
  8
0
100
AcDbLine
 10
39.03999999999999
 20
214.79716
 30
0.0
 11
39.03999999999999
 21
217.01716
 31
0.0
  0
LINE
  5
D4
330
1E
100
AcDbEntity
  8
0
100
AcDbLine
 10
39.03999999999999
 20
211.13916
 30
0.0
 11
39.03999999999999
 21
214.79716
 31
0.0
  0
LINE
  5
D5
330
1E
100
AcDbEntity
  8
0
100
AcDbLine
 10
39.03999999999999
 20
211.13916
 30
0.0
 11
39.03999999999999
 21
206.10516
 31
0.0
  0
LINE
  5
D6
330
1E
100
AcDbEntity
  8
0
100
AcDbLine
 10
39.03999999999999
 20
217.76116
 30
0.0
 11
39.03999999999999
 21
217.01716
 31
0.0
  0
LINE
  5
D7
330
1E
100
AcDbEntity
  8
0
100
AcDbLine
 10
39.03999999999999
 20
217.01716
 30
0.0
 11
39.03999999999999
 21
217.76116
 31
0.0
  0
LINE
  5
D8
330
1E
100
AcDbEntity
  8
0
100
AcDbLine
 10
39.03999999999999
 20
217.01716
 30
0.0
 11
39.03999999999999
 21
214.79716
 31
0.0
  0
LINE
  5
D9
330
1E
100
AcDbEntity
  8
0
100
AcDbLine
 10
39.03999999999999
 20
192.27916
 30
0.0
 11
39.03999999999999
 21
183.72316
 31
0.0
  0
LINE
  5
DA
330
1E
100
AcDbEntity
  8
0
100
AcDbLine
 10
39.03999999999999
 20
192.27916
 30
0.0
 11
39.03999999999999
 21
199.7831599999999
 31
0.0
  0
LINE
  5
DB
330
1E
100
AcDbEntity
  8
0
100
AcDbLine
 10
39.03999999999999
 20
183.72316
 30
0.0
 11
39.03999999999999
 21
192.27916
 31
0.0
  0
LINE
  5
DC
330
1E
100
AcDbEntity
  8
0
100
AcDbLine
 10
39.03999999999999
 20
183.72316
 30
0.0
 11
39.03999999999999
 21
174.26116
 31
0.0
  0
LINE
  5
DD
330
1E
100
AcDbEntity
  8
0
100
AcDbLine
 10
39.03999999999999
 20
130.76116
 30
0.0
 11
39.03999999999999
 21
119.40516
 31
0.0
  0
LINE
  5
DE
330
1E
100
AcDbEntity
  8
0
100
AcDbLine
 10
39.03999999999999
 20
130.76116
 30
0.0
 11
39.03999999999999
 21
142.11716
 31
0.0
  0
LINE
  5
DF
330
1E
100
AcDbEntity
  8
0
100
AcDbLine
 10
39.03999999999999
 20
119.40516
 30
0.0
 11
39.03999999999999
 21
130.76116
 31
0.0
  0
LINE
  5
E0
330
1E
100
AcDbEntity
  8
0
100
AcDbLine
 10
39.03999999999999
 20
119.40516
 30
0.0
 11
39.03999999999999
 21
108.24416
 31
0.0
  0
LINE
  5
E1
330
1E
100
AcDbEntity
  8
0
100
AcDbLine
 10
39.03999999999999
 20
193.76116
 30
0.0
 11
67.48090000000001
 21
193.76116
 31
0.0
  0
LINE
  5
E2
330
1E
100
AcDbEntity
  8
0
100
AcDbLine
 10
67.48090000000001
 20
193.76116
 30
0.0
 11
69.0703
 21
194.60816
 31
0.0
  0
LINE
  5
E3
330
1E
100
AcDbEntity
  8
0
100
AcDbLine
 10
104.186
 20
193.76116
 30
0.0
 11
105.776
 21
194.60816
 31
0.0
  0
LINE
  5
E4
330
1E
100
AcDbEntity
  8
0
100
AcDbLine
 10
66.467
 20
194.96116
 30
0.0
 11
68.0382
 21
194.11416
 31
0.0
  0
LINE
  5
E5
330
1E
100
AcDbEntity
  8
0
100
AcDbLine
 10
64.98709999999999
 20
197.29016
 30
0.0
 11
66.467
 21
194.96116
 31
0.0
  0
LINE
  5
E7
330
1E
100
AcDbEntity
  8
0
100
AcDbLine
 10
42.6871
 20
200.1141599999999
 30
0.0
 11
46.6576
 21
205.33516
 31
0.0
  0
LINE
  5
E8
330
1E
100
AcDbEntity
  8
0
100
AcDbLine
 10
46.6576
 20
205.33516
 30
0.0
 11
49.1576
 21
211.36416
 31
0.0
  0
LINE
  5
E9
330
1E
100
AcDbEntity
  8
0
100
AcDbLine
 10
49.1576
 20
211.36416
 30
0.0
 11
50.04
 21
217.76116
 31
0.0
  0
LINE
  5
EA
330
1E
100
AcDbEntity
  8
0
100
AcDbLine
 10
62.74
 20
205.97316
 30
0.0
 11
63.7083
 21
201.03216
 31
0.0
  0
LINE
  5
EB
330
1E
100
AcDbEntity
  8
0
100
AcDbLine
 10
62.13709999999999
 20
211.69016
 30
0.0
 11
62.74
 21
205.97316
 31
0.0
  0
LINE
  5
EC
330
1E
100
AcDbEntity
  8
0
100
AcDbLine
 10
63.7083
 20
201.03216
 30
0.0
 11
64.98709999999999
 21
197.29016
 31
0.0
  0
LINE
  5
ED
330
1E
100
AcDbEntity
  8
0
100
AcDbLine
 10
61.9178
 20
217.76116
 30
0.0
 11
62.13709999999999
 21
223.83216
 31
0.0
  0
LINE
  5
EE
330
1E
100
AcDbEntity
  8
0
100
AcDbLine
 10
61.9178
 20
217.76116
 30
0.0
 11
62.13709999999999
 21
211.69016
 31
0.0
  0
LINE
  5
EF
330
1E
100
AcDbEntity
  8
0
100
AcDbLine
 10
65.8433
 20
205.83216
 30
0.0
 11
66.8299
 21
200.82016
 31
0.0
  0
LINE
  5
F0
330
1E
100
AcDbEntity
  8
0
100
AcDbLine
 10
65.2221
 20
211.62016
 30
0.0
 11
65.8433
 21
205.83216
 31
0.0
  0
LINE
  5
F1
330
1E
100
AcDbEntity
  8
0
100
AcDbLine
 10
66.8299
 20
200.82016
 30
0.0
 11
68.12699999999999
 21
197.00816
 31
0.0
  0
LINE
  5
F2
330
1E
100
AcDbEntity
  8
0
100
AcDbLine
 10
68.12699999999999
 20
197.00816
 30
0.0
 11
69.6251
 21
194.60816
 31
0.0
  0
LINE
  5
F3
330
1E
100
AcDbEntity
  8
0
100
AcDbLine
 10
65.00289999999999
 20
217.76116
 30
0.0
 11
65.2221
 21
223.90216
 31
0.0
  0
LINE
  5
F4
330
1E
100
AcDbEntity
  8
0
100
AcDbLine
 10
65.00289999999999
 20
217.76116
 30
0.0
 11
65.2221
 21
211.62016
 31
0.0
  0
LINE
  5
F6
330
1E
100
AcDbEntity
  8
0
100
AcDbLine
 10
101.692
 20
197.29016
 30
0.0
 11
103.172
 21
194.96116
 31
0.0
  0
LINE
  5
F7
330
1E
100
AcDbEntity
  8
0
100
AcDbLine
 10
103.172
 20
194.96116
 30
0.0
 11
104.7429999999999
 21
194.11416
 31
0.0
  0
LINE
  5
F8
330
1E
100
AcDbEntity
  8
0
100
AcDbLine
 10
69.6251
 20
194.60816
 30
0.0
 11
71.2146
 21
193.76116
 31
0.0
  0
LINE
  5
F9
330
1E
100
AcDbEntity
  8
0
100
AcDbLine
 10
91.865
 20
215.85516
 30
0.0
 11
92.46500000000001
 21
215.05516
 31
0.0
  0
LINE
  5
FB
330
1E
100
AcDbEntity
  8
0
100
AcDbLine
 10
92.46500000000001
 20
215.05516
 30
0.0
 11
93.26500000000001
 21
214.45516
 31
0.0
  0
LINE
  5
FC
330
1E
100
AcDbEntity
  8
0
100
AcDbLine
 10
93.26500000000001
 20
214.45516
 30
0.0
 11
94.18269999999999
 21
214.07916
 31
0.0
  0
LINE
  5
FF
330
1E
100
AcDbEntity
  8
0
100
AcDbLine
 10
94.18269999999999
 20
214.07916
 30
0.0
 11
95.17090000000001
 21
213.93716
 31
0.0
  0
LINE
  5
101
330
1E
100
AcDbEntity
  8
0
100
AcDbLine
 10
95.17090000000001
 20
213.93716
 30
0.0
 11
96.1592
 21
214.07916
 31
0.0
  0
LINE
  5
102
330
1E
100
AcDbEntity
  8
0
100
AcDbLine
 10
97.07680000000001
 20
214.45516
 30
0.0
 11
97.87680000000001
 21
215.05516
 31
0.0
  0
LINE
  5
103
330
1E
100
AcDbEntity
  8
0
100
AcDbLine
 10
96.1592
 20
214.07916
 30
0.0
 11
97.07680000000001
 21
214.45516
 31
0.0
  0
LINE
  5
104
330
1E
100
AcDbEntity
  8
0
100
AcDbLine
 10
97.87680000000001
 20
215.05516
 30
0.0
 11
98.4768
 21
215.85516
 31
0.0
  0
LINE
  5
106
330
1E
100
AcDbEntity
  8
0
100
AcDbLine
 10
98.4768
 20
215.85516
 30
0.0
 11
98.85330000000001
 21
216.77316
 31
0.0
  0
LINE
  5
10C
330
1E
100
AcDbEntity
  8
0
100
AcDbLine
 10
91.4886
 20
216.77316
 30
0.0
 11
91.865
 21
215.85516
 31
0.0
  0
LINE
  5
10D
330
1E
100
AcDbEntity
  8
0
100
AcDbLine
 10
91.4886
 20
218.74916
 30
0.0
 11
91.865
 21
219.66716
 31
0.0
  0
LINE
  5
10E
330
1E
100
AcDbEntity
  8
0
100
AcDbLine
 10
91.34739999999998
 20
217.76116
 30
0.0
 11
91.4886
 21
218.74916
 31
0.0
  0
LINE
  5
10F
330
1E
100
AcDbEntity
  8
0
100
AcDbLine
 10
91.34739999999998
 20
217.76116
 30
0.0
 11
91.4886
 21
216.77316
 31
0.0
  0
LINE
  5
113
330
1E
100
AcDbEntity
  8
0
100
AcDbLine
 10
91.865
 20
219.66716
 30
0.0
 11
92.46500000000001
 21
220.46716
 31
0.0
  0
LINE
  5
114
330
1E
100
AcDbEntity
  8
0
100
AcDbLine
 10
92.46500000000001
 20
220.46716
 30
0.0
 11
93.26500000000001
 21
221.0671599999999
 31
0.0
  0
LINE
  5
11A
330
1E
100
AcDbEntity
  8
0
100
AcDbLine
 10
97.87680000000001
 20
220.46716
 30
0.0
 11
98.4768
 21
219.66716
 31
0.0
  0
LINE
  5
11B
330
1E
100
AcDbEntity
  8
0
100
AcDbLine
 10
98.4768
 20
219.66716
 30
0.0
 11
98.85330000000001
 21
218.74916
 31
0.0
  0
LINE
  5
11F
330
1E
100
AcDbEntity
  8
0
100
AcDbLine
 10
93.26500000000001
 20
221.0671599999999
 30
0.0
 11
94.18269999999999
 21
221.44316
 31
0.0
  0
LINE
  5
121
330
1E
100
AcDbEntity
  8
0
100
AcDbLine
 10
97.07680000000001
 20
221.0671599999999
 30
0.0
 11
97.87680000000001
 21
220.46716
 31
0.0
  0
LINE
  5
127
330
1E
100
AcDbEntity
  8
0
100
AcDbLine
 10
98.68960406375711
 20
215.9173238346129
 30
0.0
 11
98.8423
 21
211.69016
 31
0.0
  0
LINE
  5
128
330
1E
100
AcDbEntity
  8
0
100
AcDbLine
 10
98.85330000000001
 20
216.77316
 30
0.0
 11
98.99450000000001
 21
217.76116
 31
0.0
  0
LINE
  5
12A
330
1E
100
AcDbEntity
  8
0
100
AcDbLine
 10
98.85330000000001
 20
218.74916
 30
0.0
 11
98.99450000000001
 21
217.76116
 31
0.0
  0
LINE
  5
12D
330
1E
100
AcDbEntity
  8
0
100
AcDbLine
 10
99.4452
 20
205.97316
 30
0.0
 11
100.4129999999999
 21
201.03216
 31
0.0
  0
LINE
  5
12E
330
1E
100
AcDbEntity
  8
0
100
AcDbLine
 10
98.8423
 20
211.69016
 30
0.0
 11
99.4452
 21
205.97316
 31
0.0
  0
LINE
  5
12F
330
1E
100
AcDbEntity
  8
0
100
AcDbLine
 10
100.4129999999999
 20
201.03216
 30
0.0
 11
101.692
 21
197.29016
 31
0.0
  0
LINE
  5
130
330
1E
100
AcDbEntity
  8
0
100
AcDbLine
 10
98.68960406375711
 20
219.604996165387
 30
0.0
 11
98.8423
 21
223.83216
 31
0.0
  0
LINE
  5
131
330
1E
100
AcDbEntity
  8
0
100
AcDbLine
 10
69.0703
 20
194.60816
 30
0.0
 11
69.46410912060621
 21
194.866072095685
 31
0.0
  0
LINE
  5
132
330
1E
100
AcDbEntity
  8
0
100
AcDbLine
 10
68.0382
 20
194.11416
 30
0.0
 11
69.4562564633806
 21
194.878652282148
 31
0.0
  0
LINE
  5
133
330
1E
100
AcDbEntity
  8
0
100
AcDbLine
 10
109.2239999999999
 20
201.52616
 30
0.0
 11
110.156
 21
206.32616
 31
0.0
  0
LINE
  5
134
330
1E
100
AcDbEntity
  8
0
100
AcDbLine
 10
110.156
 20
206.32616
 30
0.0
 11
110.7399999999999
 21
211.83216
 31
0.0
  0
LINE
  5
135
330
1E
100
AcDbEntity
  8
0
100
AcDbLine
 10
110.7399999999999
 20
211.83216
 30
0.0
 11
110.9599999999999
 21
217.76116
 31
0.0
  0
LINE
  5
136
330
1E
100
AcDbEntity
  8
0
100
AcDbLine
 10
109.0729999999999
 20
201.03216
 30
0.0
 11
109.2239999999999
 21
201.52616
 31
0.0
  0
LINE
  5
137
330
1E
100
AcDbEntity
  8
0
100
AcDbLine
 10
109.0729999999999
 20
201.03216
 30
0.0
 11
109.0985934180209
 21
201.16266266093
 31
0.0
  0
LINE
  5
138
330
1E
100
AcDbEntity
  8
0
100
AcDbLine
 10
107.7939999999999
 20
197.29016
 30
0.0
 11
109.0729999999999
 21
201.03216
 31
0.0
  0
LINE
  5
139
330
1E
100
AcDbEntity
  8
0
100
AcDbLine
 10
106.315
 20
194.96116
 30
0.0
 11
107.7939999999999
 21
197.29016
 31
0.0
  0
LINE
  5
13A
330
1E
100
AcDbEntity
  8
0
100
AcDbLine
 10
105.776
 20
194.60816
 30
0.0
 11
106.315
 21
194.96116
 31
0.0
  0
LINE
  5
13B
330
1E
100
AcDbEntity
  8
0
100
AcDbLine
 10
104.7429999999999
 20
194.11416
 30
0.0
 11
106.315
 21
194.96116
 31
0.0
  0
LINE
  5
13C
330
1E
100
AcDbEntity
  8
0
100
AcDbLine
 10
71.2146
 20
193.76116
 30
0.0
 11
104.186
 21
193.76116
 31
0.0
  0
LINE
  5
13D
330
1E
100
AcDbEntity
  8
0
100
AcDbLine
 10
39.03999999999999
 20
108.24416
 30
0.0
 11
39.03999999999999
 21
97.46816
 31
0.0
  0
LINE
  5
13E
330
1E
100
AcDbEntity
  8
0
100
AcDbLine
 10
39.03999999999999
 20
108.24416
 30
0.0
 11
39.03999999999999
 21
119.40516
 31
0.0
  0
LINE
  5
13F
330
1E
100
AcDbEntity
  8
0
100
AcDbLine
 10
39.03999999999999
 20
97.46816
 30
0.0
 11
39.03999999999999
 21
108.24416
 31
0.0
  0
LINE
  5
140
330
1E
100
AcDbEntity
  8
0
100
AcDbLine
 10
39.03999999999999
 20
97.46816
 30
0.0
 11
39.03999999999999
 21
87.26116000000001
 31
0.0
  0
LINE
  5
141
330
1E
100
AcDbEntity
  8
0
100
AcDbLine
 10
94.18269999999999
 20
221.44316
 30
0.0
 11
95.17090000000001
 21
221.58516
 31
0.0
  0
LINE
  5
144
330
1E
100
AcDbEntity
  8
0
100
AcDbLine
 10
95.17090000000001
 20
221.58516
 30
0.0
 11
96.1592
 21
221.44316
 31
0.0
  0
LINE
  5
146
330
1E
100
AcDbEntity
  8
0
100
AcDbLine
 10
96.1592
 20
221.44316
 30
0.0
 11
97.07680000000001
 21
221.0671599999999
 31
0.0
  0
LINE
  5
14A
330
1E
100
AcDbEntity
  8
0
100
AcDbLine
 10
62.13709999999999
 20
223.83216
 30
0.0
 11
62.74
 21
229.54916
 31
0.0
  0
LINE
  5
14B
330
1E
100
AcDbEntity
  8
0
100
AcDbLine
 10
98.8423
 20
223.83216
 30
0.0
 11
99.4452
 21
229.54916
 31
0.0
  0
LINE
  5
14C
330
1E
100
AcDbEntity
  8
0
100
AcDbLine
 10
49.1576
 20
224.1581599999999
 30
0.0
 11
50.04
 21
217.76116
 31
0.0
  0
LINE
  5
14D
330
1E
100
AcDbEntity
  8
0
100
AcDbLine
 10
62.74
 20
229.54916
 30
0.0
 11
63.7083
 21
234.49016
 31
0.0
  0
LINE
  5
14E
330
1E
100
AcDbEntity
  8
0
100
AcDbLine
 10
99.4452
 20
229.54916
 30
0.0
 11
100.4129999999999
 21
234.49016
 31
0.0
  0
LINE
  5
14F
330
1E
100
AcDbEntity
  8
0
100
AcDbLine
 10
65.8433
 20
229.69016
 30
0.0
 11
66.8299
 21
234.70216
 31
0.0
  0
LINE
  5
150
330
1E
100
AcDbEntity
  8
0
100
AcDbLine
 10
65.2221
 20
223.90216
 30
0.0
 11
65.8433
 21
229.69016
 31
0.0
  0
LINE
  5
151
330
1E
100
AcDbEntity
  8
0
100
AcDbLine
 10
110.156
 20
229.19616
 30
0.0
 11
110.7399999999999
 21
223.69016
 31
0.0
  0
LINE
  5
152
330
1E
100
AcDbEntity
  8
0
100
AcDbLine
 10
110.7399999999999
 20
223.69016
 30
0.0
 11
110.9599999999999
 21
217.76116
 31
0.0
  0
LINE
  5
153
330
1E
100
AcDbEntity
  8
0
100
AcDbLine
 10
37.192
 20
224.70516
 30
0.0
 11
38.536
 21
221.34516
 31
0.0
  0
LINE
  5
154
330
1E
100
AcDbEntity
  8
0
100
AcDbLine
 10
34.952
 20
227.67316
 30
0.0
 11
37.192
 21
224.70516
 31
0.0
  0
LINE
  5
155
330
1E
100
AcDbEntity
  8
0
100
AcDbLine
 10
46.6576
 20
230.18716
 30
0.0
 11
49.1576
 21
224.1581599999999
 31
0.0
  0
LINE
  5
156
330
1E
100
AcDbEntity
  8
0
100
AcDbLine
 10
31.984
 20
229.9131599999999
 30
0.0
 11
34.952
 21
227.67316
 31
0.0
  0
LINE
  5
157
330
1E
100
AcDbEntity
  8
0
100
AcDbLine
 10
28.624
 20
231.25716
 30
0.0
 11
31.984
 21
229.9131599999999
 31
0.0
  0
LINE
  5
158
330
1E
100
AcDbEntity
  8
0
100
AcDbLine
 10
25.04
 20
242.76116
 30
0.0
 11
31.4371
 21
241.87916
 31
0.0
  0
LINE
  5
159
330
1E
100
AcDbEntity
  8
0
100
AcDbLine
 10
18.6429
 20
241.87916
 30
0.0
 11
25.04
 21
242.76116
 31
0.0
  0
LINE
  5
15A
330
1E
100
AcDbEntity
  8
0
100
AcDbLine
 10
63.7083
 20
234.49016
 30
0.0
 11
64.98709999999999
 21
238.23216
 31
0.0
  0
LINE
  5
15B
330
1E
100
AcDbEntity
  8
0
100
AcDbLine
 10
100.4129999999999
 20
234.49016
 30
0.0
 11
101.692
 21
238.23216
 31
0.0
  0
LINE
  5
15C
330
1E
100
AcDbEntity
  8
0
100
AcDbLine
 10
109.2239999999999
 20
233.99616
 30
0.0
 11
110.156
 21
229.19616
 31
0.0
  0
LINE
  5
15E
330
1E
100
AcDbEntity
  8
0
100
AcDbLine
 10
42.6871
 20
235.40816
 30
0.0
 11
46.6576
 21
230.18716
 31
0.0
  0
LINE
  5
160
330
1E
100
AcDbEntity
  8
0
100
AcDbLine
 10
37.4665
 20
239.37916
 30
0.0
 11
42.6871
 21
235.40816
 31
0.0
  0
LINE
  5
161
330
1E
100
AcDbEntity
  8
0
100
AcDbLine
 10
64.98709999999999
 20
238.23216
 30
0.0
 11
66.467
 21
240.5611599999999
 31
0.0
  0
LINE
  5
162
330
1E
100
AcDbEntity
  8
0
100
AcDbLine
 10
66.467
 20
240.5611599999999
 30
0.0
 11
68.0382
 21
241.40816
 31
0.0
  0
LINE
  5
163
330
1E
100
AcDbEntity
  8
0
100
AcDbLine
 10
31.72168768
 20
241.76116
 30
0.0
 11
67.48090000000001
 21
241.76116
 31
0.0
  0
LINE
  5
164
330
1E
100
AcDbEntity
  8
0
100
AcDbLine
 10
66.8299
 20
234.70216
 30
0.0
 11
68.12699999999999
 21
238.51416
 31
0.0
  0
LINE
  5
165
330
1E
100
AcDbEntity
  8
0
100
AcDbLine
 10
31.72168768
 20
241.76116
 30
0.0
 11
67.48090000000001
 21
241.76116
 31
0.0
  0
LINE
  5
166
330
1E
100
AcDbEntity
  8
0
100
AcDbLine
 10
68.12699999999999
 20
238.51416
 30
0.0
 11
69.6251
 21
240.91416
 31
0.0
  0
LINE
  5
168
330
1E
100
AcDbEntity
  8
0
100
AcDbLine
 10
101.692
 20
238.23216
 30
0.0
 11
103.172
 21
240.5611599999999
 31
0.0
  0
LINE
  5
169
330
1E
100
AcDbEntity
  8
0
100
AcDbLine
 10
103.172
 20
240.5611599999999
 30
0.0
 11
104.7429999999999
 21
241.40816
 31
0.0
  0
LINE
  5
16A
330
1E
100
AcDbEntity
  8
0
100
AcDbLine
 10
69.6251
 20
240.91416
 30
0.0
 11
71.2146
 21
241.76116
 31
0.0
  0
LINE
  5
16B
330
1E
100
AcDbEntity
  8
0
100
AcDbLine
 10
69.0703
 20
240.91416
 30
0.0
 11
69.46410912060621
 21
240.656247904315
 31
0.0
  0
LINE
  5
16C
330
1E
100
AcDbEntity
  8
0
100
AcDbLine
 10
68.0382
 20
241.40816
 30
0.0
 11
69.4562564633806
 21
240.6436677178519
 31
0.0
  0
LINE
  5
16D
330
1E
100
AcDbEntity
  8
0
100
AcDbLine
 10
67.48090000000001
 20
241.76116
 30
0.0
 11
69.0703
 21
240.91416
 31
0.0
  0
LINE
  5
16E
330
1E
100
AcDbEntity
  8
0
100
AcDbLine
 10
31.4371
 20
241.87916
 30
0.0
 11
37.4665
 21
239.37916
 31
0.0
  0
LINE
  5
16F
330
1E
100
AcDbEntity
  8
0
100
AcDbLine
 10
71.2146
 20
241.76116
 30
0.0
 11
104.186
 21
241.76116
 31
0.0
  0
LINE
  5
170
330
1E
100
AcDbEntity
  8
0
100
AcDbLine
 10
107.7939999999999
 20
238.23216
 30
0.0
 11
109.0729999999999
 21
234.49016
 31
0.0
  0
LINE
  5
171
330
1E
100
AcDbEntity
  8
0
100
AcDbLine
 10
106.315
 20
240.5611599999999
 30
0.0
 11
107.7939999999999
 21
238.23216
 31
0.0
  0
LINE
  5
172
330
1E
100
AcDbEntity
  8
0
100
AcDbLine
 10
105.776
 20
240.91416
 30
0.0
 11
106.315
 21
240.5611599999999
 31
0.0
  0
LINE
  5
173
330
1E
100
AcDbEntity
  8
0
100
AcDbLine
 10
104.7429999999999
 20
241.40816
 30
0.0
 11
106.315
 21
240.5611599999999
 31
0.0
  0
LINE
  5
174
330
1E
100
AcDbEntity
  8
0
100
AcDbLine
 10
104.186
 20
241.76116
 30
0.0
 11
105.776
 21
240.91416
 31
0.0
  0
LINE
  5
175
330
1E
100
AcDbEntity
  8
0
100
AcDbLine
 10
109.0729999999999
 20
234.49016
 30
0.0
 11
109.0985934180209
 21
234.35965733907
 31
0.0
  0
LINE
  5
176
330
1E
100
AcDbEntity
  8
0
100
AcDbLine
 10
109.0729999999999
 20
234.49016
 30
0.0
 11
109.2239999999999
 21
233.99616
 31
0.0
  0
LINE
  5
177
330
1E
100
AcDbEntity
  8
0
100
AcDbLine
 10
109.0729999999999
 20
234.49016
 30
0.0
 11
109.0985934180209
 21
234.35965733907
 31
0.0
  0
LINE
  5
178
330
1E
100
AcDbEntity
  8
0
100
AcDbLine
 10
25.04
 20
231.76116
 30
0.0
 11
28.624
 21
231.25716
 31
0.0
  0
LINE
  5
179
330
1E
100
AcDbEntity
  8
0
100
AcDbLine
 10
21.45599999999999
 20
231.25716
 30
0.0
 11
25.04
 21
231.76116
 31
0.0
  0
LINE
  5
17C
330
1E
100
AcDbEntity
  8
0
100
AcDbLine
 10
11.03999999999999
 20
35.81995999999999
 30
0.0
 11
11.03999999999999
 21
52.01706
 31
0.0
  0
LINE
  5
17D
330
1E
100
AcDbEntity
  8
0
100
AcDbLine
 10
11.03999999999999
 20
35.81995999999999
 30
0.0
 11
11.544
 21
32.57175999999999
 31
0.0
  0
ENDSEC
  0
SECTION
  2
OBJECTS
  0
DICTIONARY
  5
C
330
0
100
AcDbDictionary
281
     1
  3
ACAD_GROUP
350
D
  3
ACAD_LAYOUT
350
19
  3
ACAD_MLINESTYLE
350
16
  3
ACAD_PLOTSETTINGS
350
18
  3
ACAD_PLOTSTYLENAME
350
E
  3
AcDbVariableDictionary
350
183
  0
DICTIONARY
  5
D
102
{ACAD_REACTORS
330
C
102
}
330
C
100
AcDbDictionary
281
     1
  0
DICTIONARY
  5
19
102
{ACAD_REACTORS
330
C
102
}
330
C
100
AcDbDictionary
281
     1
  3
Layout1
350
1D
  3
Model
350
21
  0
DICTIONARY
  5
16
102
{ACAD_REACTORS
330
C
102
}
330
C
100
AcDbDictionary
281
     1
  3
Standard
350
17
  0
DICTIONARY
  5
18
102
{ACAD_REACTORS
330
C
102
}
330
C
100
AcDbDictionary
281
     1
  0
ACDBDICTIONARYWDFLT
  5
E
102
{ACAD_REACTORS
330
C
102
}
330
C
100
AcDbDictionary
281
     1
  3
Normal
350
F
100
AcDbDictionaryWithDefault
340
F
  0
DICTIONARY
  5
183
102
{ACAD_REACTORS
330
C
102
}
330
C
100
AcDbDictionary
281
     1
  3
DIMASSOC
350
184
  0
LAYOUT
  5
1D
102
{ACAD_REACTORS
330
19
102
}
330
19
100
AcDbPlotSettings
  1

  2
hp deskjet 980c series
  4

  6

 40
0.0
 41
0.0
 42
0.0
 43
0.0
 44
0.0
 45
0.0
 46
0.0
 47
0.0
 48
0.0
 49
0.0
140
0.0
141
0.0
142
1.0
143
1.0
 70
   688
 72
     0
 73
     0
 74
     5
  7

 75
    16
147
1.0
148
0.0
149
0.0
100
AcDbLayout
  1
Layout1
 70
     1
 71
     1
 10
0.0
 20
0.0
 11
12.0
 21
9.0
 12
0.0
 22
0.0
 32
0.0
 14
1.000000000000000E+20
 24
1.000000000000000E+20
 34
1.000000000000000E+20
 15
-1.000000000000000E+20
 25
-1.000000000000000E+20
 35
-1.000000000000000E+20
146
0.0
 13
0.0
 23
0.0
 33
0.0
 16
1.0
 26
0.0
 36
0.0
 17
0.0
 27
1.0
 37
0.0
 76
     0
330
1A
  0
LAYOUT
  5
21
102
{ACAD_REACTORS
330
19
102
}
330
19
100
AcDbPlotSettings
  1

  2
hp deskjet 980c series
  4

  6

 40
0.0
 41
0.0
 42
0.0
 43
0.0
 44
0.0
 45
0.0
 46
0.0
 47
0.0
 48
0.0
 49
0.0
140
0.0
141
0.0
142
1.0
143
1.0
 70
  1712
 72
     0
 73
     0
 74
     0
  7

 75
     0
147
1.0
148
0.0
149
0.0
100
AcDbLayout
  1
Model
 70
     1
 71
     0
 10
0.0
 20
0.0
 11
12.0
 21
9.0
 12
0.0
 22
0.0
 32
0.0
 14
0.0
 24
0.0
 34
0.0
 15
0.0
 25
0.0
 35
0.0
146
0.0
 13
0.0
 23
0.0
 33
0.0
 16
1.0
 26
0.0
 36
0.0
 17
0.0
 27
1.0
 37
0.0
 76
     0
330
1E
  0
MLINESTYLE
  5
17
102
{ACAD_REACTORS
330
16
102
}
330
16
100
AcDbMlineStyle
  2
STANDARD
 70
     0
  3

 62
   256
 51
90.0
 52
90.0
 71
     2
 49
0.5
 62
   256
  6
BYLAYER
 49
-0.5
 62
   256
  6
BYLAYER
  0
ACDBPLACEHOLDER
  5
F
102
{ACAD_REACTORS
330
E
102
}
330
E
  0
DICTIONARYVAR
  5
184
102
{ACAD_REACTORS
330
183
102
}
330
183
100
DictionaryVariables
280
     0
  1
1
  0
ENDSEC
  0
EOF
