  0
SECTION
  2
HEADER
  9
$ACADVER
  1
AC1015
  9
$ACADMAINTVER
 70
    13
  9
$DWGCODEPAGE
  3
ANSI_1252
  9
$INSBASE
 10
0.0
 20
0.0
 30
0.0
  9
$EXTMIN
 10
0.0
 20
-0.219668999999987
 30
0.0
  9
$EXTMAX
 10
101.0
 20
191.2196689999999
 30
0.0
  9
$LIMMIN
 10
0.0
 20
0.0
  9
$LIMMAX
 10
12.0
 20
9.0
  9
$ORTHOMODE
 70
     0
  9
$REGENMODE
 70
     1
  9
$FILLMODE
 70
     1
  9
$QTEXTMODE
 70
     0
  9
$MIRRTEXT
 70
     1
  9
$LTSCALE
 40
1.0
  9
$ATTMODE
 70
     1
  9
$TEXTSIZE
 40
0.2
  9
$TRACEWID
 40
0.05
  9
$TEXTSTYLE
  7
Standard
  9
$CLAYER
  8
0
  9
$CELTYPE
  6
Continuous
  9
$CECOLOR
 62
   256
  9
$CELTSCALE
 40
1.0
  9
$DISPSILH
 70
     0
  9
$DIMSCALE
 40
1.0
  9
$DIMASZ
 40
0.18
  9
$DIMEXO
 40
0.0625
  9
$DIMDLI
 40
0.38
  9
$DIMRND
 40
0.0
  9
$DIMDLE
 40
0.0
  9
$DIMEXE
 40
0.18
  9
$DIMTP
 40
0.0
  9
$DIMTM
 40
0.0
  9
$DIMTXT
 40
0.18
  9
$DIMCEN
 40
0.09
  9
$DIMTSZ
 40
0.0
  9
$DIMTOL
 70
     0
  9
$DIMLIM
 70
     0
  9
$DIMTIH
 70
     1
  9
$DIMTOH
 70
     1
  9
$DIMSE1
 70
     0
  9
$DIMSE2
 70
     0
  9
$DIMTAD
 70
     0
  9
$DIMZIN
 70
     0
  9
$DIMBLK
  1

  9
$DIMASO
 70
     1
  9
$DIMSHO
 70
     1
  9
$DIMPOST
  1

  9
$DIMAPOST
  1

  9
$DIMALT
 70
     0
  9
$DIMALTD
 70
     2
  9
$DIMALTF
 40
25.4
  9
$DIMLFAC
 40
1.0
  9
$DIMTOFL
 70
     0
  9
$DIMTVP
 40
0.0
  9
$DIMTIX
 70
     0
  9
$DIMSOXD
 70
     0
  9
$DIMSAH
 70
     0
  9
$DIMBLK1
  1

  9
$DIMBLK2
  1

  9
$DIMSTYLE
  2
Standard
  9
$DIMCLRD
 70
     0
  9
$DIMCLRE
 70
     0
  9
$DIMCLRT
 70
     0
  9
$DIMTFAC
 40
1.0
  9
$DIMGAP
 40
0.09
  9
$DIMJUST
 70
     0
  9
$DIMSD1
 70
     0
  9
$DIMSD2
 70
     0
  9
$DIMTOLJ
 70
     1
  9
$DIMTZIN
 70
     0
  9
$DIMALTZ
 70
     0
  9
$DIMALTTZ
 70
     0
  9
$DIMUPT
 70
     0
  9
$DIMDEC
 70
     4
  9
$DIMTDEC
 70
     4
  9
$DIMALTU
 70
     2
  9
$DIMALTTD
 70
     2
  9
$DIMTXSTY
  7
Standard
  9
$DIMAUNIT
 70
     0
  9
$DIMADEC
 70
     0
  9
$DIMALTRND
 40
0.0
  9
$DIMAZIN
 70
     0
  9
$DIMDSEP
 70
    46
  9
$DIMATFIT
 70
     3
  9
$DIMFRAC
 70
     0
  9
$DIMLDRBLK
  1

  9
$DIMLUNIT
 70
     2
  9
$DIMLWD
 70
    -2
  9
$DIMLWE
 70
    -2
  9
$DIMTMOVE
 70
     0
  9
$LUNITS
 70
     2
  9
$LUPREC
 70
     4
  9
$SKETCHINC
 40
0.1
  9
$FILLETRAD
 40
0.0
  9
$AUNITS
 70
     0
  9
$AUPREC
 70
     0
  9
$MENU
  1
.
  9
$ELEVATION
 40
0.0
  9
$PELEVATION
 40
0.0
  9
$THICKNESS
 40
0.0
  9
$LIMCHECK
 70
     0
  9
$CHAMFERA
 40
0.0
  9
$CHAMFERB
 40
0.0
  9
$CHAMFERC
 40
0.0
  9
$CHAMFERD
 40
0.0
  9
$SKPOLY
 70
     0
  9
$TDCREATE
 40
2455652.985766053
  9
$TDUCREATE
 40
2455652.902432719
  9
$TDUPDATE
 40
2455652.989302118
  9
$TDUUPDATE
 40
2455652.905968785
  9
$TDINDWG
 40
0.0035362384
  9
$TDUSRTIMER
 40
0.0035362384
  9
$USRTIMER
 70
     1
  9
$ANGBASE
 50
0.0
  9
$ANGDIR
 70
     0
  9
$PDMODE
 70
     0
  9
$PDSIZE
 40
0.0
  9
$PLINEWID
 40
0.0
  9
$SPLFRAME
 70
     0
  9
$SPLINETYPE
 70
     6
  9
$SPLINESEGS
 70
     8
  9
$HANDSEED
  5
16D
  9
$SURFTAB1
 70
     6
  9
$SURFTAB2
 70
     6
  9
$SURFTYPE
 70
     6
  9
$SURFU
 70
     6
  9
$SURFV
 70
     6
  9
$UCSBASE
  2

  9
$UCSNAME
  2

  9
$UCSORG
 10
0.0
 20
0.0
 30
0.0
  9
$UCSXDIR
 10
1.0
 20
0.0
 30
0.0
  9
$UCSYDIR
 10
0.0
 20
1.0
 30
0.0
  9
$UCSORTHOREF
  2

  9
$UCSORTHOVIEW
 70
     1
  9
$UCSORGTOP
 10
0.0
 20
0.0
 30
0.0
  9
$UCSORGBOTTOM
 10
0.0
 20
0.0
 30
0.0
  9
$UCSORGLEFT
 10
0.0
 20
0.0
 30
0.0
  9
$UCSORGRIGHT
 10
0.0
 20
0.0
 30
0.0
  9
$UCSORGFRONT
 10
0.0
 20
0.0
 30
0.0
  9
$UCSORGBACK
 10
0.0
 20
0.0
 30
0.0
  9
$PUCSBASE
  2

  9
$PUCSNAME
  2

  9
$PUCSORG
 10
0.0
 20
0.0
 30
0.0
  9
$PUCSXDIR
 10
1.0
 20
0.0
 30
0.0
  9
$PUCSYDIR
 10
0.0
 20
1.0
 30
0.0
  9
$PUCSORTHOREF
  2

  9
$PUCSORTHOVIEW
 70
     0
  9
$PUCSORGTOP
 10
0.0
 20
0.0
 30
0.0
  9
$PUCSORGBOTTOM
 10
0.0
 20
0.0
 30
0.0
  9
$PUCSORGLEFT
 10
0.0
 20
0.0
 30
0.0
  9
$PUCSORGRIGHT
 10
0.0
 20
0.0
 30
0.0
  9
$PUCSORGFRONT
 10
0.0
 20
0.0
 30
0.0
  9
$PUCSORGBACK
 10
0.0
 20
0.0
 30
0.0
  9
$USERI1
 70
     0
  9
$USERI2
 70
     0
  9
$USERI3
 70
     0
  9
$USERI4
 70
     0
  9
$USERI5
 70
     0
  9
$USERR1
 40
0.0
  9
$USERR2
 40
0.0
  9
$USERR3
 40
0.0
  9
$USERR4
 40
0.0
  9
$USERR5
 40
0.0
  9
$WORLDVIEW
 70
     1
  9
$SHADEDGE
 70
     3
  9
$SHADEDIF
 70
    70
  9
$TILEMODE
 70
     1
  9
$MAXACTVP
 70
    64
  9
$PINSBASE
 10
0.0
 20
0.0
 30
0.0
  9
$PLIMCHECK
 70
     0
  9
$PEXTMIN
 10
1.000000000000000E+20
 20
1.000000000000000E+20
 30
1.000000000000000E+20
  9
$PEXTMAX
 10
-1.000000000000000E+20
 20
-1.000000000000000E+20
 30
-1.000000000000000E+20
  9
$PLIMMIN
 10
0.0
 20
0.0
  9
$PLIMMAX
 10
12.0
 20
9.0
  9
$UNITMODE
 70
     0
  9
$VISRETAIN
 70
     1
  9
$PLINEGEN
 70
     0
  9
$PSLTSCALE
 70
     1
  9
$TREEDEPTH
 70
  3020
  9
$CMLSTYLE
  2
Standard
  9
$CMLJUST
 70
     0
  9
$CMLSCALE
 40
1.0
  9
$PROXYGRAPHICS
 70
     1
  9
$MEASUREMENT
 70
     0
  9
$CELWEIGHT
370
    -1
  9
$ENDCAPS
280
     0
  9
$JOINSTYLE
280
     0
  9
$LWDISPLAY
290
     0
  9
$INSUNITS
 70
     0
  9
$HYPERLINKBASE
  1

  9
$STYLESHEET
  1

  9
$XEDIT
290
     1
  9
$CEPSNTYPE
380
     0
  9
$PSTYLEMODE
290
     1
  9
$FINGERPRINTGUID
  2
{B3C80099-9669-427F-9344-B04BF181A3BE}
  9
$VERSIONGUID
  2
{E7E4BDED-0464-4DC3-BBED-4174697165DC}
  9
$EXTNAMES
290
     1
  9
$PSVPSCALE
 40
0.0
  9
$OLESTARTUP
290
     0
  0
ENDSEC
  0
SECTION
  2
CLASSES
  0
CLASS
  1
ACDBDICTIONARYWDFLT
  2
AcDbDictionaryWithDefault
  3
AutoCAD 2000
 90
        0
280
     0
281
     0
  0
CLASS
  1
ACDBPLACEHOLDER
  2
AcDbPlaceHolder
  3
AutoCAD 2000
 90
        0
280
     0
281
     0
  0
CLASS
  1
LAYOUT
  2
AcDbLayout
  3
AutoCAD 2000
 90
        0
280
     0
281
     0
  0
CLASS
  1
DICTIONARYVAR
  2
AcDbDictionaryVar
  3
AutoCAD 2000
 90
        0
280
     0
281
     0
  0
ENDSEC
  0
SECTION
  2
TABLES
  0
TABLE
  2
VPORT
  5
8
330
0
100
AcDbSymbolTable
 70
     3
  0
VPORT
  5
16C
330
8
100
AcDbSymbolTableRecord
100
AcDbViewportTableRecord
  2
*Active
 70
     0
 10
0.0
 20
0.0
 11
1.0
 21
1.0
 12
50.5
 22
95.5
 13
0.0
 23
0.0
 14
1.0
 24
1.0
 15
0.0
 25
0.0
 16
0.0
 26
0.0
 36
1.0
 17
0.0
 27
0.0
 37
0.0
 40
192.7343053370912
 41
2.073363431151241
 42
50.0
 43
0.0
 44
0.0
 50
0.0
 51
0.0
 71
     0
 72
   100
 73
     1
 74
     3
 75
     0
 76
     0
 77
     0
 78
     0
281
     0
 65
     1
110
0.0
120
0.0
130
0.0
111
1.0
121
0.0
131
0.0
112
0.0
122
1.0
132
0.0
 79
     1
146
0.0
  0
ENDTAB
  0
TABLE
  2
LTYPE
  5
5
330
0
100
AcDbSymbolTable
 70
     1
  0
LTYPE
  5
13
330
5
100
AcDbSymbolTableRecord
100
AcDbLinetypeTableRecord
  2
ByBlock
 70
     0
  3

 72
    65
 73
     0
 40
0.0
  0
LTYPE
  5
14
330
5
100
AcDbSymbolTableRecord
100
AcDbLinetypeTableRecord
  2
ByLayer
 70
     0
  3

 72
    65
 73
     0
 40
0.0
  0
LTYPE
  5
15
330
5
100
AcDbSymbolTableRecord
100
AcDbLinetypeTableRecord
  2
Continuous
 70
     0
  3
Solid line
 72
    65
 73
     0
 40
0.0
  0
ENDTAB
  0
TABLE
  2
LAYER
  5
2
330
0
100
AcDbSymbolTable
 70
     1
  0
LAYER
  5
10
330
2
100
AcDbSymbolTableRecord
100
AcDbLayerTableRecord
  2
0
 70
     0
 62
     7
  6
Continuous
370
    -3
390
F
  0
ENDTAB
  0
TABLE
  2
STYLE
  5
3
330
0
100
AcDbSymbolTable
 70
     1
  0
STYLE
  5
11
330
3
100
AcDbSymbolTableRecord
100
AcDbTextStyleTableRecord
  2
Standard
 70
     0
 40
0.0
 41
1.0
 50
0.0
 71
     0
 42
0.2
  3
txt
  4

  0
ENDTAB
  0
TABLE
  2
VIEW
  5
6
330
0
100
AcDbSymbolTable
 70
     0
  0
ENDTAB
  0
TABLE
  2
UCS
  5
7
330
0
100
AcDbSymbolTable
 70
     0
  0
ENDTAB
  0
TABLE
  2
APPID
  5
9
330
0
100
AcDbSymbolTable
 70
     1
  0
APPID
  5
12
330
9
100
AcDbSymbolTableRecord
100
AcDbRegAppTableRecord
  2
ACAD
 70
     0
  0
ENDTAB
  0
TABLE
  2
DIMSTYLE
  5
A
330
0
100
AcDbSymbolTable
 70
     1
100
AcDbDimStyleTable
 71
     0
  0
DIMSTYLE
105
165
330
A
100
AcDbSymbolTableRecord
100
AcDbDimStyleTableRecord
  2
Standard
 70
     0
340
11
  0
ENDTAB
  0
TABLE
  2
BLOCK_RECORD
  5
1
330
0
100
AcDbSymbolTable
 70
     0
  0
BLOCK_RECORD
  5
1E
330
1
100
AcDbSymbolTableRecord
100
AcDbBlockTableRecord
  2
*Model_Space
340
21
  0
BLOCK_RECORD
  5
1A
330
1
100
AcDbSymbolTableRecord
100
AcDbBlockTableRecord
  2
*Paper_Space
340
1D
  0
ENDTAB
  0
ENDSEC
  0
SECTION
  2
BLOCKS
  0
BLOCK
  5
1F
330
1E
100
AcDbEntity
  8
0
100
AcDbBlockBegin
  2
*Model_Space
 70
     0
 10
0.0
 20
0.0
 30
0.0
  3
*Model_Space
  1

  0
ENDBLK
  5
20
330
1E
100
AcDbEntity
  8
0
100
AcDbBlockEnd
  0
BLOCK
  5
1B
330
1A
100
AcDbEntity
 67
     1
  8
0
100
AcDbBlockBegin
  2
*Paper_Space
 70
     0
 10
0.0
 20
0.0
 30
0.0
  3
*Paper_Space
  1

  0
ENDBLK
  5
1C
330
1A
100
AcDbEntity
 67
     1
  8
0
100
AcDbBlockEnd
  0
ENDSEC
  0
SECTION
  2
ENTITIES
  0
LINE
  5
22
330
1E
100
AcDbEntity
  8
0
100
AcDbLine
 10
14.504
 20
3.029639000000009
 30
0.0
 11
17.04799999999999
 21
1.249199000000009
 31
0.0
  0
LINE
  5
23
330
1E
100
AcDbEntity
  8
0
100
AcDbLine
 10
17.04799999999999
 20
1.249199000000009
 30
0.0
 11
19.928
 21
0.180930000000013
 31
0.0
  0
LINE
  5
24
330
1E
100
AcDbEntity
  8
0
100
AcDbLine
 10
17.04799999999999
 20
4.704149000000009
 30
0.0
 11
19.928
 21
3.635889000000009
 31
0.0
  0
LINE
  5
25
330
1E
100
AcDbEntity
  8
0
100
AcDbLine
 10
19.928
 20
0.180930000000013
 30
0.0
 11
23.0
 21
-0.219668999999987
 31
0.0
  0
LINE
  5
26
330
1E
100
AcDbEntity
  8
0
100
AcDbLine
 10
19.928
 20
3.635889000000009
 30
0.0
 11
23.0
 21
3.235289000000009
 31
0.0
  0
LINE
  5
27
330
1E
100
AcDbEntity
  8
0
100
AcDbLine
 10
11.43199999999999
 20
8.059379000000008
 30
0.0
 11
12.584
 21
5.388719000000009
 31
0.0
  0
LINE
  5
28
330
1E
100
AcDbEntity
  8
0
100
AcDbLine
 10
12.584
 20
5.388719000000009
 30
0.0
 11
14.504
 21
3.029639000000009
 31
0.0
  0
LINE
  5
29
330
1E
100
AcDbEntity
  8
0
100
AcDbLine
 10
12.584
 20
8.843679000000008
 30
0.0
 11
14.504
 21
6.484599000000009
 31
0.0
  0
LINE
  5
2A
330
1E
100
AcDbEntity
  8
0
100
AcDbLine
 10
14.504
 20
6.484599000000009
 30
0.0
 11
17.04799999999999
 21
4.704149000000009
 31
0.0
  0
LINE
  5
2B
330
1E
100
AcDbEntity
  8
0
100
AcDbLine
 10
11.43199999999999
 20
11.51436899999999
 30
0.0
 11
12.584
 21
8.843679000000008
 31
0.0
  0
LINE
  5
2C
330
1E
100
AcDbEntity
  8
0
100
AcDbLine
 10
11.0
 20
10.908069
 30
0.0
 11
11.0
 21
14.36306899999999
 31
0.0
  0
LINE
  5
2D
330
1E
100
AcDbEntity
  8
0
100
AcDbLine
 10
11.0
 20
10.908069
 30
0.0
 11
11.43199999999999
 21
8.059379000000008
 31
0.0
  0
LINE
  5
2E
330
1E
100
AcDbEntity
  8
0
100
AcDbLine
 10
11.0
 20
14.36306899999999
 30
0.0
 11
11.02182974690209
 21
14.507019
 31
0.0
  0
LINE
  5
2F
330
1E
100
AcDbEntity
  8
0
100
AcDbLine
 10
11.0
 20
14.36306899999999
 30
0.0
 11
11.0
 21
10.908069
 31
0.0
  0
LINE
  5
30
330
1E
100
AcDbEntity
  8
0
100
AcDbLine
 10
11.0
 20
14.36306899999999
 30
0.0
 11
11.43199999999999
 21
11.51436899999999
 31
0.0
  0
LINE
  5
31
330
1E
100
AcDbEntity
  8
0
100
AcDbLine
 10
11.43199999999999
 20
11.802269
 30
0.0
 11
12.584
 21
9.131579000000009
 31
0.0
  0
LINE
  5
32
330
1E
100
AcDbEntity
  8
0
100
AcDbLine
 10
12.584
 20
9.131579000000009
 30
0.0
 11
14.504
 21
6.772499000000009
 31
0.0
  0
LINE
  5
33
330
1E
100
AcDbEntity
  8
0
100
AcDbLine
 10
14.504
 20
6.772499000000009
 30
0.0
 11
17.04799999999999
 21
4.992059000000019
 31
0.0
  0
LINE
  5
34
330
1E
100
AcDbEntity
  8
0
100
AcDbLine
 10
17.04799999999999
 20
4.992059000000019
 30
0.0
 11
19.928
 21
3.923789000000009
 31
0.0
  0
LINE
  5
35
330
1E
100
AcDbEntity
  8
0
100
AcDbLine
 10
23.0
 20
-0.219668999999987
 30
0.0
 11
26.072
 21
0.180930000000013
 31
0.0
  0
LINE
  5
36
330
1E
100
AcDbEntity
  8
0
100
AcDbLine
 10
31.49599999999999
 20
3.029639000000009
 30
0.0
 11
33.41599999999999
 21
5.388719000000009
 31
0.0
  0
LINE
  5
37
330
1E
100
AcDbEntity
  8
0
100
AcDbLine
 10
28.95199999999999
 20
1.249199000000009
 30
0.0
 11
31.49599999999999
 21
3.029639000000009
 31
0.0
  0
LINE
  5
38
330
1E
100
AcDbEntity
  8
0
100
AcDbLine
 10
26.072
 20
0.180930000000013
 30
0.0
 11
28.95199999999999
 21
1.249199000000009
 31
0.0
  0
LINE
  5
39
330
1E
100
AcDbEntity
  8
0
100
AcDbLine
 10
23.0
 20
3.235289000000009
 30
0.0
 11
26.072
 21
3.635889000000009
 31
0.0
  0
LINE
  5
3A
330
1E
100
AcDbEntity
  8
0
100
AcDbLine
 10
26.072
 20
3.635889000000009
 30
0.0
 11
28.95199999999999
 21
4.704149000000009
 31
0.0
  0
LINE
  5
3B
330
1E
100
AcDbEntity
  8
0
100
AcDbLine
 10
28.95199999999999
 20
4.704149000000009
 30
0.0
 11
31.49599999999999
 21
6.484599000000009
 31
0.0
  0
LINE
  5
3C
330
1E
100
AcDbEntity
  8
0
100
AcDbLine
 10
31.49599999999999
 20
6.484599000000009
 30
0.0
 11
33.41599999999999
 21
8.843679000000008
 31
0.0
  0
LINE
  5
3D
330
1E
100
AcDbEntity
  8
0
100
AcDbLine
 10
33.41599999999999
 20
8.843679000000008
 30
0.0
 11
34.568
 21
11.51436899999999
 31
0.0
  0
LINE
  5
3E
330
1E
100
AcDbEntity
  8
0
100
AcDbLine
 10
34.568
 20
8.059379000000008
 30
0.0
 11
35.0
 21
10.908069
 31
0.0
  0
LINE
  5
3F
330
1E
100
AcDbEntity
  8
0
100
AcDbLine
 10
33.41599999999999
 20
5.388719000000009
 30
0.0
 11
34.568
 21
8.059379000000008
 31
0.0
  0
LINE
  5
40
330
1E
100
AcDbEntity
  8
0
100
AcDbLine
 10
34.568
 20
11.51436899999999
 30
0.0
 11
35.0
 21
14.36306899999999
 31
0.0
  0
LINE
  5
41
330
1E
100
AcDbEntity
  8
0
100
AcDbLine
 10
35.0
 20
10.908069
 30
0.0
 11
35.0
 21
14.36306899999999
 31
0.0
  0
LINE
  5
42
330
1E
100
AcDbEntity
  8
0
100
AcDbLine
 10
35.0
 20
14.36306899999999
 30
0.0
 11
35.0
 21
10.908069
 31
0.0
  0
LINE
  5
43
330
1E
100
AcDbEntity
  8
0
100
AcDbLine
 10
34.97817025309789
 20
14.507019
 30
0.0
 11
35.0
 21
14.36306899999999
 31
0.0
  0
LINE
  5
44
330
1E
100
AcDbEntity
  8
0
100
AcDbLine
 10
35.0
 20
14.65096899999999
 30
0.0
 11
35.0
 21
18.157069
 31
0.0
  0
LINE
  5
45
330
1E
100
AcDbEntity
  8
0
100
AcDbLine
 10
34.568
 20
11.802269
 30
0.0
 11
35.0
 21
14.65096899999999
 31
0.0
  0
LINE
  5
46
330
1E
100
AcDbEntity
  8
0
100
AcDbLine
 10
33.41599999999999
 20
9.131579000000009
 30
0.0
 11
34.568
 21
11.802269
 31
0.0
  0
LINE
  5
47
330
1E
100
AcDbEntity
  8
0
100
AcDbLine
 10
31.49599999999999
 20
6.772499000000009
 30
0.0
 11
33.41599999999999
 21
9.131579000000009
 31
0.0
  0
LINE
  5
48
330
1E
100
AcDbEntity
  8
0
100
AcDbLine
 10
28.95199999999999
 20
4.992059000000019
 30
0.0
 11
31.49599999999999
 21
6.772499000000009
 31
0.0
  0
LINE
  5
49
330
1E
100
AcDbEntity
  8
0
100
AcDbLine
 10
26.072
 20
3.923789000000009
 30
0.0
 11
28.95199999999999
 21
4.992059000000019
 31
0.0
  0
LINE
  5
4A
330
1E
100
AcDbEntity
  8
0
100
AcDbLine
 10
23.0
 20
3.523189000000009
 30
0.0
 11
26.072
 21
3.923789000000009
 31
0.0
  0
LINE
  5
4B
330
1E
100
AcDbEntity
  8
0
100
AcDbLine
 10
19.928
 20
3.923789000000009
 30
0.0
 11
23.0
 21
3.523189000000009
 31
0.0
  0
LINE
  5
4C
330
1E
100
AcDbEntity
  8
0
100
AcDbLine
 10
11.0
 20
22.66966899999999
 30
0.0
 11
11.0
 21
28.338069
 31
0.0
  0
LINE
  5
4D
330
1E
100
AcDbEntity
  8
0
100
AcDbLine
 10
11.0
 20
22.66966899999999
 30
0.0
 11
11.0
 21
18.157069
 31
0.0
  0
LINE
  5
4E
330
1E
100
AcDbEntity
  8
0
100
AcDbLine
 10
11.0
 20
28.338069
 30
0.0
 11
11.0
 21
35.06536899999999
 31
0.0
  0
LINE
  5
4F
330
1E
100
AcDbEntity
  8
0
100
AcDbLine
 10
11.0
 20
28.338069
 30
0.0
 11
11.0
 21
22.66966899999999
 31
0.0
  0
LINE
  5
50
330
1E
100
AcDbEntity
  8
0
100
AcDbLine
 10
11.0
 20
35.06536899999999
 30
0.0
 11
11.0
 21
42.736269
 31
0.0
  0
LINE
  5
51
330
1E
100
AcDbEntity
  8
0
100
AcDbLine
 10
11.0
 20
35.06536899999999
 30
0.0
 11
11.0
 21
28.338069
 31
0.0
  0
LINE
  5
52
330
1E
100
AcDbEntity
  8
0
100
AcDbLine
 10
11.0
 20
42.736269
 30
0.0
 11
11.0
 21
51.219669
 31
0.0
  0
LINE
  5
53
330
1E
100
AcDbEntity
  8
0
100
AcDbLine
 10
11.0
 20
42.736269
 30
0.0
 11
11.0
 21
35.06536899999999
 31
0.0
  0
LINE
  5
54
330
1E
100
AcDbEntity
  8
0
100
AcDbLine
 10
11.0
 20
51.219669
 30
0.0
 11
11.0
 21
60.370369
 31
0.0
  0
LINE
  5
55
330
1E
100
AcDbEntity
  8
0
100
AcDbLine
 10
11.0
 20
51.219669
 30
0.0
 11
11.0
 21
42.736269
 31
0.0
  0
LINE
  5
56
330
1E
100
AcDbEntity
  8
0
100
AcDbLine
 10
11.0
 20
80.038669
 30
0.0
 11
11.0
 21
70.03176899999999
 31
0.0
  0
LINE
  5
57
330
1E
100
AcDbEntity
  8
0
100
AcDbLine
 10
11.0
 20
80.038669
 30
0.0
 11
11.0
 21
90.219669
 31
0.0
  0
LINE
  5
58
330
1E
100
AcDbEntity
  8
0
100
AcDbLine
 10
11.0
 20
60.370369
 30
0.0
 11
11.0
 21
70.03176899999999
 31
0.0
  0
LINE
  5
59
330
1E
100
AcDbEntity
  8
0
100
AcDbLine
 10
11.0
 20
60.370369
 30
0.0
 11
11.0
 21
51.219669
 31
0.0
  0
LINE
  5
5A
330
1E
100
AcDbEntity
  8
0
100
AcDbLine
 10
11.0
 20
70.03176899999999
 30
0.0
 11
11.0
 21
60.370369
 31
0.0
  0
LINE
  5
5B
330
1E
100
AcDbEntity
  8
0
100
AcDbLine
 10
11.0
 20
70.03176899999999
 30
0.0
 11
11.0
 21
80.038669
 31
0.0
  0
LINE
  5
5C
330
1E
100
AcDbEntity
  8
0
100
AcDbLine
 10
11.0
 20
120.0686689999999
 30
0.0
 11
11.0
 21
129.2196689999999
 31
0.0
  0
LINE
  5
5D
330
1E
100
AcDbEntity
  8
0
100
AcDbLine
 10
11.0
 20
120.0686689999999
 30
0.0
 11
11.0
 21
110.407669
 31
0.0
  0
LINE
  5
5E
330
1E
100
AcDbEntity
  8
0
100
AcDbLine
 10
11.0
 20
129.2196689999999
 30
0.0
 11
11.0
 21
137.7026689999999
 31
0.0
  0
LINE
  5
5F
330
1E
100
AcDbEntity
  8
0
100
AcDbLine
 10
11.0
 20
129.2196689999999
 30
0.0
 11
11.0
 21
120.0686689999999
 31
0.0
  0
LINE
  5
60
330
1E
100
AcDbEntity
  8
0
100
AcDbLine
 10
11.0
 20
137.7026689999999
 30
0.0
 11
11.0
 21
145.373669
 31
0.0
  0
LINE
  5
61
330
1E
100
AcDbEntity
  8
0
100
AcDbLine
 10
11.0
 20
137.7026689999999
 30
0.0
 11
11.0
 21
129.2196689999999
 31
0.0
  0
LINE
  5
62
330
1E
100
AcDbEntity
  8
0
100
AcDbLine
 10
11.0
 20
110.407669
 30
0.0
 11
11.0
 21
100.4006689999999
 31
0.0
  0
LINE
  5
63
330
1E
100
AcDbEntity
  8
0
100
AcDbLine
 10
11.0
 20
110.407669
 30
0.0
 11
11.0
 21
120.0686689999999
 31
0.0
  0
LINE
  5
64
330
1E
100
AcDbEntity
  8
0
100
AcDbLine
 10
11.0
 20
90.219669
 30
0.0
 11
11.0
 21
100.4006689999999
 31
0.0
  0
LINE
  5
65
330
1E
100
AcDbEntity
  8
0
100
AcDbLine
 10
11.0
 20
90.219669
 30
0.0
 11
11.0
 21
80.038669
 31
0.0
  0
LINE
  5
66
330
1E
100
AcDbEntity
  8
0
100
AcDbLine
 10
11.0
 20
100.4006689999999
 30
0.0
 11
11.0
 21
90.219669
 31
0.0
  0
LINE
  5
67
330
1E
100
AcDbEntity
  8
0
100
AcDbLine
 10
11.0
 20
100.4006689999999
 30
0.0
 11
11.0
 21
110.407669
 31
0.0
  0
LINE
  5
68
330
1E
100
AcDbEntity
  8
0
100
AcDbLine
 10
11.0
 20
145.373669
 30
0.0
 11
11.0
 21
152.1016689999999
 31
0.0
  0
LINE
  5
69
330
1E
100
AcDbEntity
  8
0
100
AcDbLine
 10
11.0
 20
145.373669
 30
0.0
 11
11.0
 21
137.7026689999999
 31
0.0
  0
LINE
  5
6A
330
1E
100
AcDbEntity
  8
0
100
AcDbLine
 10
35.0
 20
60.370369
 30
0.0
 11
35.0
 21
51.219669
 31
0.0
  0
LINE
  5
6B
330
1E
100
AcDbEntity
  8
0
100
AcDbLine
 10
35.0
 20
60.370369
 30
0.0
 11
35.0
 21
70.03176899999999
 31
0.0
  0
LINE
  5
6C
330
1E
100
AcDbEntity
  8
0
100
AcDbLine
 10
35.0
 20
51.219669
 30
0.0
 11
35.0
 21
42.736269
 31
0.0
  0
LINE
  5
6D
330
1E
100
AcDbEntity
  8
0
100
AcDbLine
 10
35.0
 20
51.219669
 30
0.0
 11
35.0
 21
60.370369
 31
0.0
  0
LINE
  5
6E
330
1E
100
AcDbEntity
  8
0
100
AcDbLine
 10
35.0
 20
42.736269
 30
0.0
 11
35.0
 21
35.06536899999999
 31
0.0
  0
LINE
  5
6F
330
1E
100
AcDbEntity
  8
0
100
AcDbLine
 10
35.0
 20
42.736269
 30
0.0
 11
35.0
 21
51.219669
 31
0.0
  0
LINE
  5
70
330
1E
100
AcDbEntity
  8
0
100
AcDbLine
 10
35.0
 20
70.03176899999999
 30
0.0
 11
35.0
 21
80.038669
 31
0.0
  0
LINE
  5
71
330
1E
100
AcDbEntity
  8
0
100
AcDbLine
 10
35.0
 20
70.03176899999999
 30
0.0
 11
35.0
 21
60.370369
 31
0.0
  0
LINE
  5
72
330
1E
100
AcDbEntity
  8
0
100
AcDbLine
 10
35.0
 20
100.4006689999999
 30
0.0
 11
35.0
 21
110.407669
 31
0.0
  0
LINE
  5
73
330
1E
100
AcDbEntity
  8
0
100
AcDbLine
 10
35.0
 20
100.4006689999999
 30
0.0
 11
35.0
 21
90.219669
 31
0.0
  0
LINE
  5
74
330
1E
100
AcDbEntity
  8
0
100
AcDbLine
 10
35.0
 20
145.373669
 30
0.0
 11
35.0
 21
137.7026689999999
 31
0.0
  0
LINE
  5
75
330
1E
100
AcDbEntity
  8
0
100
AcDbLine
 10
35.0
 20
145.373669
 30
0.0
 11
35.0
 21
152.1016689999999
 31
0.0
  0
LINE
  5
76
330
1E
100
AcDbEntity
  8
0
100
AcDbLine
 10
35.0
 20
137.7026689999999
 30
0.0
 11
35.0
 21
129.2196689999999
 31
0.0
  0
LINE
  5
77
330
1E
100
AcDbEntity
  8
0
100
AcDbLine
 10
35.0
 20
137.7026689999999
 30
0.0
 11
35.0
 21
145.373669
 31
0.0
  0
LINE
  5
78
330
1E
100
AcDbEntity
  8
0
100
AcDbLine
 10
35.0
 20
129.2196689999999
 30
0.0
 11
35.0
 21
120.0686689999999
 31
0.0
  0
LINE
  5
79
330
1E
100
AcDbEntity
  8
0
100
AcDbLine
 10
35.0
 20
129.2196689999999
 30
0.0
 11
35.0
 21
137.7026689999999
 31
0.0
  0
LINE
  5
7A
330
1E
100
AcDbEntity
  8
0
100
AcDbLine
 10
35.0
 20
120.0686689999999
 30
0.0
 11
35.0
 21
110.407669
 31
0.0
  0
LINE
  5
7B
330
1E
100
AcDbEntity
  8
0
100
AcDbLine
 10
35.0
 20
120.0686689999999
 30
0.0
 11
35.0
 21
129.2196689999999
 31
0.0
  0
LINE
  5
7C
330
1E
100
AcDbEntity
  8
0
100
AcDbLine
 10
35.0
 20
110.407669
 30
0.0
 11
35.0
 21
120.0686689999999
 31
0.0
  0
LINE
  5
7D
330
1E
100
AcDbEntity
  8
0
100
AcDbLine
 10
35.0
 20
110.407669
 30
0.0
 11
35.0
 21
100.4006689999999
 31
0.0
  0
LINE
  5
7E
330
1E
100
AcDbEntity
  8
0
100
AcDbLine
 10
35.0
 20
90.219669
 30
0.0
 11
35.0
 21
80.038669
 31
0.0
  0
LINE
  5
7F
330
1E
100
AcDbEntity
  8
0
100
AcDbLine
 10
35.0
 20
90.219669
 30
0.0
 11
35.0
 21
100.4006689999999
 31
0.0
  0
LINE
  5
80
330
1E
100
AcDbEntity
  8
0
100
AcDbLine
 10
35.0
 20
80.038669
 30
0.0
 11
35.0
 21
90.219669
 31
0.0
  0
LINE
  5
81
330
1E
100
AcDbEntity
  8
0
100
AcDbLine
 10
35.0
 20
80.038669
 30
0.0
 11
35.0
 21
70.03176899999999
 31
0.0
  0
LINE
  5
82
330
1E
100
AcDbEntity
  8
0
100
AcDbLine
 10
35.0
 20
35.06536899999999
 30
0.0
 11
35.0
 21
28.338069
 31
0.0
  0
LINE
  5
83
330
1E
100
AcDbEntity
  8
0
100
AcDbLine
 10
35.0
 20
35.06536899999999
 30
0.0
 11
35.0
 21
42.736269
 31
0.0
  0
LINE
  5
84
330
1E
100
AcDbEntity
  8
0
100
AcDbLine
 10
35.0
 20
28.338069
 30
0.0
 11
35.0
 21
22.66966899999999
 31
0.0
  0
LINE
  5
85
330
1E
100
AcDbEntity
  8
0
100
AcDbLine
 10
35.0
 20
28.338069
 30
0.0
 11
35.0
 21
35.06536899999999
 31
0.0
  0
LINE
  5
86
330
1E
100
AcDbEntity
  8
0
100
AcDbLine
 10
35.0
 20
22.66966899999999
 30
0.0
 11
35.0
 21
18.157069
 31
0.0
  0
LINE
  5
87
330
1E
100
AcDbEntity
  8
0
100
AcDbLine
 10
35.0
 20
22.66966899999999
 30
0.0
 11
35.0
 21
28.338069
 31
0.0
  0
LINE
  5
88
330
1E
100
AcDbEntity
  8
0
100
AcDbLine
 10
35.0
 20
18.157069
 30
0.0
 11
35.0
 21
14.65096899999999
 31
0.0
  0
LINE
  5
89
330
1E
100
AcDbEntity
  8
0
100
AcDbLine
 10
35.0
 20
18.157069
 30
0.0
 11
35.0
 21
22.66966899999999
 31
0.0
  0
LINE
  5
8A
330
1E
100
AcDbEntity
  8
0
100
AcDbLine
 10
11.0
 20
18.157069
 30
0.0
 11
11.0
 21
14.65096899999999
 31
0.0
  0
LINE
  5
8B
330
1E
100
AcDbEntity
  8
0
100
AcDbLine
 10
11.0
 20
18.157069
 30
0.0
 11
11.0
 21
22.66966899999999
 31
0.0
  0
LINE
  5
8C
330
1E
100
AcDbEntity
  8
0
100
AcDbLine
 10
11.0
 20
14.65096899999999
 30
0.0
 11
11.0
 21
18.157069
 31
0.0
  0
LINE
  5
8D
330
1E
100
AcDbEntity
  8
0
100
AcDbLine
 10
11.0
 20
14.65096899999999
 30
0.0
 11
11.43199999999999
 21
11.802269
 31
0.0
  0
LINE
  5
8E
330
1E
100
AcDbEntity
  8
0
100
AcDbLine
 10
35.0
 20
151.2196689999999
 30
0.0
 11
66.23359999999999
 21
151.2196689999999
 31
0.0
  0
LINE
  5
8F
330
1E
100
AcDbEntity
  8
0
100
AcDbLine
 10
35.0
 20
152.1016689999999
 30
0.0
 11
35.0
 21
145.373669
 31
0.0
  0
LINE
  5
90
330
1E
100
AcDbEntity
  8
0
100
AcDbLine
 10
35.0
 20
152.1016689999999
 30
0.0
 11
35.0
 21
157.7696689999999
 31
0.0
  0
LINE
  5
91
330
1E
100
AcDbEntity
  8
0
100
AcDbLine
 10
11.0
 20
152.1016689999999
 30
0.0
 11
11.0
 21
145.373669
 31
0.0
  0
LINE
  5
92
330
1E
100
AcDbEntity
  8
0
100
AcDbLine
 10
11.0
 20
152.1016689999999
 30
0.0
 11
11.0
 21
157.7696689999999
 31
0.0
  0
LINE
  5
93
330
1E
100
AcDbEntity
  8
0
100
AcDbLine
 10
35.0
 20
154.976750808024
 30
0.0
 11
35.7059
 21
155.5136689999999
 31
0.0
  0
LINE
  5
94
330
1E
100
AcDbEntity
  8
0
100
AcDbLine
 10
10.2941
 20
155.5136689999999
 30
0.0
 11
11.0
 21
154.976750808024
 31
0.0
  0
LINE
  5
95
330
1E
100
AcDbEntity
  8
0
100
AcDbLine
 10
3.111759999999999
 20
156.787669
 30
0.0
 11
6.76471
 21
151.984669
 31
0.0
  0
LINE
  5
96
330
1E
100
AcDbEntity
  8
0
100
AcDbLine
 10
11.0
 20
162.282669
 30
0.0
 11
11.0
 21
157.7696689999999
 31
0.0
  0
LINE
  5
97
330
1E
100
AcDbEntity
  8
0
100
AcDbLine
 10
11.0
 20
162.282669
 30
0.0
 11
11.0
 21
165.561669
 31
0.0
  0
LINE
  5
98
330
1E
100
AcDbEntity
  8
0
100
AcDbLine
 10
11.0
 20
157.7696689999999
 30
0.0
 11
11.0
 21
152.1016689999999
 31
0.0
  0
LINE
  5
99
330
1E
100
AcDbEntity
  8
0
100
AcDbLine
 10
11.0
 20
157.7696689999999
 30
0.0
 11
11.0
 21
162.282669
 31
0.0
  0
LINE
  5
9A
330
1E
100
AcDbEntity
  8
0
100
AcDbLine
 10
7.435289999999999
 20
159.272669
 30
0.0
 11
10.2941
 21
155.5136689999999
 31
0.0
  0
LINE
  5
9B
330
1E
100
AcDbEntity
  8
0
100
AcDbLine
 10
11.0
 20
165.561669
 30
0.0
 11
11.0
 21
167.5526689999999
 31
0.0
  0
LINE
  5
9C
330
1E
100
AcDbEntity
  8
0
100
AcDbLine
 10
11.0
 20
165.561669
 30
0.0
 11
11.0
 21
162.282669
 31
0.0
  0
LINE
  5
9D
330
1E
100
AcDbEntity
  8
0
100
AcDbLine
 10
11.0
 20
167.5526689999999
 30
0.0
 11
11.0
 21
168.2196689999999
 31
0.0
  0
LINE
  5
9E
330
1E
100
AcDbEntity
  8
0
100
AcDbLine
 10
11.0
 20
167.5526689999999
 30
0.0
 11
11.0
 21
165.561669
 31
0.0
  0
LINE
  5
9F
330
1E
100
AcDbEntity
  8
0
100
AcDbLine
 10
5.63529
 20
163.6136689999999
 30
0.0
 11
7.435289999999999
 21
159.272669
 31
0.0
  0
LINE
  5
A0
330
1E
100
AcDbEntity
  8
0
100
AcDbLine
 10
5.0
 20
168.2196689999999
 30
0.0
 11
5.63529
 21
172.825669
 31
0.0
  0
LINE
  5
A1
330
1E
100
AcDbEntity
  8
0
100
AcDbLine
 10
5.0
 20
168.2196689999999
 30
0.0
 11
5.63529
 21
163.6136689999999
 31
0.0
  0
LINE
  5
A2
330
1E
100
AcDbEntity
  8
0
100
AcDbLine
 10
5.63529
 20
172.825669
 30
0.0
 11
7.435289999999999
 21
177.1666689999999
 31
0.0
  0
LINE
  5
A3
330
1E
100
AcDbEntity
  8
0
100
AcDbLine
 10
11.0
 20
168.2196689999999
 30
0.0
 11
11.4235
 21
171.290669
 31
0.0
  0
LINE
  5
A4
330
1E
100
AcDbEntity
  8
0
100
AcDbLine
 10
11.0
 20
168.2196689999999
 30
0.0
 11
11.0
 21
167.5526689999999
 31
0.0
  0
LINE
  5
A5
330
1E
100
AcDbEntity
  8
0
100
AcDbLine
 10
35.0
 20
162.282669
 30
0.0
 11
35.0
 21
157.7696689999999
 31
0.0
  0
LINE
  5
A6
330
1E
100
AcDbEntity
  8
0
100
AcDbLine
 10
35.0
 20
162.282669
 30
0.0
 11
35.0
 21
165.561669
 31
0.0
  0
LINE
  5
A7
330
1E
100
AcDbEntity
  8
0
100
AcDbLine
 10
35.0
 20
165.561669
 30
0.0
 11
35.0
 21
167.5526689999999
 31
0.0
  0
LINE
  5
A8
330
1E
100
AcDbEntity
  8
0
100
AcDbLine
 10
35.0
 20
165.561669
 30
0.0
 11
35.0
 21
162.282669
 31
0.0
  0
LINE
  5
A9
330
1E
100
AcDbEntity
  8
0
100
AcDbLine
 10
35.0
 20
168.2196689999999
 30
0.0
 11
35.0
 21
167.5526689999999
 31
0.0
  0
LINE
  5
AA
330
1E
100
AcDbEntity
  8
0
100
AcDbLine
 10
35.0
 20
167.5526689999999
 30
0.0
 11
35.0
 21
168.2196689999999
 31
0.0
  0
LINE
  5
AB
330
1E
100
AcDbEntity
  8
0
100
AcDbLine
 10
35.0
 20
167.5526689999999
 30
0.0
 11
35.0
 21
165.561669
 31
0.0
  0
LINE
  5
AC
330
1E
100
AcDbEntity
  8
0
100
AcDbLine
 10
34.5765
 20
171.290669
 30
0.0
 11
35.0
 21
168.2196689999999
 31
0.0
  0
LINE
  5
AD
330
1E
100
AcDbEntity
  8
0
100
AcDbLine
 10
35.0
 20
157.7696689999999
 30
0.0
 11
35.0
 21
152.1016689999999
 31
0.0
  0
LINE
  5
AE
330
1E
100
AcDbEntity
  8
0
100
AcDbLine
 10
35.0
 20
157.7696689999999
 30
0.0
 11
35.0
 21
162.282669
 31
0.0
  0
LINE
  5
AF
330
1E
100
AcDbEntity
  8
0
100
AcDbLine
 10
11.4235
 20
171.290669
 30
0.0
 11
12.6235
 21
174.1846689999999
 31
0.0
  0
LINE
  5
B0
330
1E
100
AcDbEntity
  8
0
100
AcDbLine
 10
3.111759999999999
 20
156.787669
 30
0.0
 11
6.76471
 21
151.984669
 31
0.0
  0
LINE
  5
B1
330
1E
100
AcDbEntity
  8
0
100
AcDbLine
 10
0.8117649999999999
 20
162.3346689999999
 30
0.0
 11
3.111759999999999
 21
156.787669
 31
0.0
  0
LINE
  5
B2
330
1E
100
AcDbEntity
  8
0
100
AcDbLine
 10
6.76471
 20
151.984669
 30
0.0
 11
11.0
 21
148.763376326214
 31
0.0
  0
LINE
  5
B3
330
1E
100
AcDbEntity
  8
0
100
AcDbLine
 10
66.23359999999999
 20
151.2196689999999
 30
0.0
 11
67.3843
 21
151.807669
 31
0.0
  0
LINE
  5
B4
330
1E
100
AcDbEntity
  8
0
100
AcDbLine
 10
35.0
 20
151.2196689999999
 30
0.0
 11
66.23359999999999
 21
151.2196689999999
 31
0.0
  0
LINE
  5
B5
330
1E
100
AcDbEntity
  8
0
100
AcDbLine
 10
65.08289999999999
 20
151.807669
 30
0.0
 11
66.23359999999999
 21
151.2196689999999
 31
0.0
  0
LINE
  5
B6
330
1E
100
AcDbEntity
  8
0
100
AcDbLine
 10
68.7722
 20
151.2196689999999
 30
0.0
 11
95.3349
 21
151.2196689999999
 31
0.0
  0
LINE
  5
B7
330
1E
100
AcDbEntity
  8
0
100
AcDbLine
 10
95.3349
 20
151.2196689999999
 30
0.0
 11
96.5423
 21
151.5536689999999
 31
0.0
  0
LINE
  5
B8
330
1E
100
AcDbEntity
  8
0
100
AcDbLine
 10
96.5423
 20
151.5536689999999
 30
0.0
 11
97.64660000000001
 21
152.153669
 31
0.0
  0
LINE
  5
B9
330
1E
100
AcDbEntity
  8
0
100
AcDbLine
 10
67.63349999999999
 20
151.819669
 30
0.0
 11
68.7722
 21
151.2196689999999
 31
0.0
  0
LINE
  5
BA
330
1E
100
AcDbEntity
  8
0
100
AcDbLine
 10
66.88039999999999
 20
152.485669
 30
0.0
 11
67.63349999999999
 21
151.819669
 31
0.0
  0
LINE
  5
BB
330
1E
100
AcDbEntity
  8
0
100
AcDbLine
 10
95.43799999999999
 20
152.153669
 30
0.0
 11
96.5423
 21
151.5536689999999
 31
0.0
  0
LINE
  5
BC
330
1E
100
AcDbEntity
  8
0
100
AcDbLine
 10
97.64660000000001
 20
152.153669
 30
0.0
 11
98.6822
 21
153.819669
 31
0.0
  0
LINE
  5
BD
330
1E
100
AcDbEntity
  8
0
100
AcDbLine
 10
67.3843
 20
151.807669
 30
0.0
 11
67.47599252941171
 21
151.9586689999999
 31
0.0
  0
LINE
  5
BF
330
1E
100
AcDbEntity
  8
0
100
AcDbLine
 10
35.7059
 20
155.5136689999999
 30
0.0
 11
38.5647
 21
159.272669
 31
0.0
  0
LINE
  5
C0
330
1E
100
AcDbEntity
  8
0
100
AcDbLine
 10
64.05070000000001
 20
153.5076689999999
 30
0.0
 11
65.08289999999999
 21
151.807669
 31
0.0
  0
LINE
  5
C1
330
1E
100
AcDbEntity
  8
0
100
AcDbLine
 10
63.1198
 20
156.188669
 30
0.0
 11
64.05070000000001
 21
153.5076689999999
 31
0.0
  0
LINE
  5
C2
330
1E
100
AcDbEntity
  8
0
100
AcDbLine
 10
38.5647
 20
159.272669
 30
0.0
 11
40.3647
 21
163.6136689999999
 31
0.0
  0
LINE
  5
C3
330
1E
100
AcDbEntity
  8
0
100
AcDbLine
 10
40.3647
 20
163.6136689999999
 30
0.0
 11
41.0
 21
168.2196689999999
 31
0.0
  0
LINE
  5
C4
330
1E
100
AcDbEntity
  8
0
100
AcDbLine
 10
62.42589999999999
 20
159.784669
 30
0.0
 11
63.1198
 21
156.188669
 31
0.0
  0
LINE
  5
C5
330
1E
100
AcDbEntity
  8
0
100
AcDbLine
 10
61.986
 20
163.8386689999999
 30
0.0
 11
62.42589999999999
 21
159.784669
 31
0.0
  0
LINE
  5
CF
330
1E
100
AcDbEntity
  8
0
100
AcDbLine
 10
61.8337
 20
168.2196689999999
 30
0.0
 11
61.986
 21
163.8386689999999
 31
0.0
  0
LINE
  5
D0
330
1E
100
AcDbEntity
  8
0
100
AcDbLine
 10
61.8337
 20
168.2196689999999
 30
0.0
 11
61.986
 21
172.6006689999999
 31
0.0
  0
LINE
  5
D4
330
1E
100
AcDbEntity
  8
0
100
AcDbLine
 10
40.3647
 20
172.825669
 30
0.0
 11
41.0
 21
168.2196689999999
 31
0.0
  0
LINE
  5
D5
330
1E
100
AcDbEntity
  8
0
100
AcDbLine
 10
61.986
 20
172.6006689999999
 30
0.0
 11
62.42589999999999
 21
176.654669
 31
0.0
  0
LINE
  5
DF
330
1E
100
AcDbEntity
  8
0
100
AcDbLine
 10
64.30939999999999
 20
160.086669
 30
0.0
 11
64.98229999999999
 21
156.6866689999999
 31
0.0
  0
LINE
  5
E0
330
1E
100
AcDbEntity
  8
0
100
AcDbLine
 10
63.8953
 20
164.0196689999999
 30
0.0
 11
64.30939999999999
 21
160.086669
 31
0.0
  0
LINE
  5
E1
330
1E
100
AcDbEntity
  8
0
100
AcDbLine
 10
63.74
 20
168.2196689999999
 30
0.0
 11
63.8953
 21
164.0196689999999
 31
0.0
  0
LINE
  5
E2
330
1E
100
AcDbEntity
  8
0
100
AcDbLine
 10
63.74
 20
168.2196689999999
 30
0.0
 11
63.8953
 21
172.419669
 31
0.0
  0
LINE
  5
E3
330
1E
100
AcDbEntity
  8
0
100
AcDbLine
 10
64.52760000000001
 20
163.819669
 30
0.0
 11
64.959
 21
159.752669
 31
0.0
  0
LINE
  5
E4
330
1E
100
AcDbEntity
  8
0
100
AcDbLine
 10
63.8953
 20
172.419669
 30
0.0
 11
64.30939999999999
 21
176.3526689999999
 31
0.0
  0
LINE
  5
E5
330
1E
100
AcDbEntity
  8
0
100
AcDbLine
 10
64.52760000000001
 20
172.6196689999999
 30
0.0
 11
64.959
 21
176.686669
 31
0.0
  0
LINE
  5
E6
330
1E
100
AcDbEntity
  8
0
100
AcDbLine
 10
64.3724
 20
168.2196689999999
 30
0.0
 11
64.52760000000001
 21
163.819669
 31
0.0
  0
LINE
  5
E7
330
1E
100
AcDbEntity
  8
0
100
AcDbLine
 10
64.3724
 20
168.2196689999999
 30
0.0
 11
64.52760000000001
 21
172.6196689999999
 31
0.0
  0
LINE
  5
EA
330
1E
100
AcDbEntity
  8
0
100
AcDbLine
 10
66.58100000000001
 20
153.486669
 30
0.0
 11
67.63349999999999
 21
151.819669
 31
0.0
  0
LINE
  5
EB
330
1E
100
AcDbEntity
  8
0
100
AcDbLine
 10
94.40269999999999
 20
153.819669
 30
0.0
 11
95.43799999999999
 21
152.153669
 31
0.0
  0
LINE
  5
EC
330
1E
100
AcDbEntity
  8
0
100
AcDbLine
 10
65.8623
 20
154.086669
 30
0.0
 11
66.88039999999999
 21
152.485669
 31
0.0
  0
LINE
  5
ED
330
1E
100
AcDbEntity
  8
0
100
AcDbLine
 10
64.98229999999999
 20
156.6866689999999
 30
0.0
 11
65.8623
 21
154.086669
 31
0.0
  0
LINE
  5
EE
330
1E
100
AcDbEntity
  8
0
100
AcDbLine
 10
65.66639999999999
 20
156.2196689999999
 30
0.0
 11
66.58100000000001
 21
153.486669
 31
0.0
  0
LINE
  5
EF
330
1E
100
AcDbEntity
  8
0
100
AcDbLine
 10
93.48820000000001
 20
156.4196689999999
 30
0.0
 11
94.40269999999999
 21
153.819669
 31
0.0
  0
LINE
  5
F0
330
1E
100
AcDbEntity
  8
0
100
AcDbLine
 10
98.6822
 20
153.819669
 30
0.0
 11
99.5967
 21
156.4196689999999
 31
0.0
  0
LINE
  5
F1
330
1E
100
AcDbEntity
  8
0
100
AcDbLine
 10
99.5967
 20
156.4196689999999
 30
0.0
 11
99.80920000000001
 21
157.1526689999999
 31
0.0
  0
LINE
  5
F2
330
1E
100
AcDbEntity
  8
0
100
AcDbLine
 10
64.959
 20
159.752669
 30
0.0
 11
65.66639999999999
 21
156.2196689999999
 31
0.0
  0
LINE
  5
F3
330
1E
100
AcDbEntity
  8
0
100
AcDbLine
 10
92.8153
 20
159.9526689999999
 30
0.0
 11
93.48820000000001
 21
156.4196689999999
 31
0.0
  0
LINE
  5
F4
330
1E
100
AcDbEntity
  8
0
100
AcDbLine
 10
92.3839
 20
163.9536689999999
 30
0.0
 11
92.8153
 21
159.9526689999999
 31
0.0
  0
LINE
  5
F5
330
1E
100
AcDbEntity
  8
0
100
AcDbLine
 10
99.80920000000001
 20
157.1526689999999
 30
0.0
 11
100.4639999999999
 21
160.419669
 31
0.0
  0
LINE
  5
F6
330
1E
100
AcDbEntity
  8
0
100
AcDbLine
 10
100.4639999999999
 20
160.419669
 30
0.0
 11
100.844
 21
164.2196689999999
 31
0.0
  0
LINE
  5
F7
330
1E
100
AcDbEntity
  8
0
100
AcDbLine
 10
87.1151
 20
166.254669
 30
0.0
 11
87.7387
 21
165.4316689999999
 31
0.0
  0
LINE
  5
F8
330
1E
100
AcDbEntity
  8
0
100
AcDbLine
 10
86.72690000000001
 20
167.2076689999999
 30
0.0
 11
87.1151
 21
166.254669
 31
0.0
  0
LINE
  5
F9
330
1E
100
AcDbEntity
  8
0
100
AcDbLine
 10
87.7387
 20
165.4316689999999
 30
0.0
 11
88.5622
 21
164.807669
 31
0.0
  0
LINE
  5
FA
330
1E
100
AcDbEntity
  8
0
100
AcDbLine
 10
86.5857
 20
168.2196689999999
 30
0.0
 11
86.72690000000001
 21
169.231669
 31
0.0
  0
LINE
  5
FB
330
1E
100
AcDbEntity
  8
0
100
AcDbLine
 10
86.5857
 20
168.2196689999999
 30
0.0
 11
86.72690000000001
 21
167.2076689999999
 31
0.0
  0
LINE
  5
FC
330
1E
100
AcDbEntity
  8
0
100
AcDbLine
 10
87.1151
 20
170.1846689999999
 30
0.0
 11
87.7387
 21
171.0076689999999
 31
0.0
  0
LINE
  5
FD
330
1E
100
AcDbEntity
  8
0
100
AcDbLine
 10
86.72690000000001
 20
169.231669
 30
0.0
 11
87.1151
 21
170.1846689999999
 31
0.0
  0
LINE
  5
101
330
1E
100
AcDbEntity
  8
0
100
AcDbLine
 10
87.7387
 20
171.0076689999999
 30
0.0
 11
88.5622
 21
171.631669
 31
0.0
  0
LINE
  5
103
330
1E
100
AcDbEntity
  8
0
100
AcDbLine
 10
88.5622
 20
164.807669
 30
0.0
 11
89.5151
 21
164.419669
 31
0.0
  0
LINE
  5
104
330
1E
100
AcDbEntity
  8
0
100
AcDbLine
 10
91.53870000000001
 20
164.419669
 30
0.0
 11
92.49160000000001
 21
164.807669
 31
0.0
  0
LINE
  5
105
330
1E
100
AcDbEntity
  8
0
100
AcDbLine
 10
90.5269
 20
164.278669
 30
0.0
 11
91.53870000000001
 21
164.419669
 31
0.0
  0
LINE
  5
106
330
1E
100
AcDbEntity
  8
0
100
AcDbLine
 10
89.5151
 20
164.419669
 30
0.0
 11
90.5269
 21
164.278669
 31
0.0
  0
LINE
  5
107
330
1E
100
AcDbEntity
  8
0
100
AcDbLine
 10
88.5622
 20
171.631669
 30
0.0
 11
89.5151
 21
172.0196689999999
 31
0.0
  0
LINE
  5
109
330
1E
100
AcDbEntity
  8
0
100
AcDbLine
 10
89.5151
 20
172.0196689999999
 30
0.0
 11
90.5269
 21
172.1606689999999
 31
0.0
  0
LINE
  5
10B
330
1E
100
AcDbEntity
  8
0
100
AcDbLine
 10
91.53870000000001
 20
172.0196689999999
 30
0.0
 11
92.49160000000001
 21
171.631669
 31
0.0
  0
LINE
  5
10C
330
1E
100
AcDbEntity
  8
0
100
AcDbLine
 10
90.5269
 20
172.1606689999999
 30
0.0
 11
91.53870000000001
 21
172.0196689999999
 31
0.0
  0
LINE
  5
10F
330
1E
100
AcDbEntity
  8
0
100
AcDbLine
 10
92.35690967222929
 20
171.7442605114629
 30
0.0
 11
92.3839
 21
172.485669
 31
0.0
  0
LINE
  5
110
330
1E
100
AcDbEntity
  8
0
100
AcDbLine
 10
93.31509999999999
 20
165.4316689999999
 30
0.0
 11
93.93869999999999
 21
166.254669
 31
0.0
  0
LINE
  5
111
330
1E
100
AcDbEntity
  8
0
100
AcDbLine
 10
93.93869999999999
 20
166.254669
 30
0.0
 11
94.32689999999999
 21
167.2076689999999
 31
0.0
  0
LINE
  5
112
330
1E
100
AcDbEntity
  8
0
100
AcDbLine
 10
94.32689999999999
 20
167.2076689999999
 30
0.0
 11
94.46810000000001
 21
168.2196689999999
 31
0.0
  0
LINE
  5
113
330
1E
100
AcDbEntity
  8
0
100
AcDbLine
 10
92.49160000000001
 20
164.807669
 30
0.0
 11
93.31509999999999
 21
165.4316689999999
 31
0.0
  0
LINE
  5
114
330
1E
100
AcDbEntity
  8
0
100
AcDbLine
 10
94.32689999999999
 20
169.231669
 30
0.0
 11
94.46810000000001
 21
168.2196689999999
 31
0.0
  0
LINE
  5
115
330
1E
100
AcDbEntity
  8
0
100
AcDbLine
 10
93.31509999999999
 20
171.0076689999999
 30
0.0
 11
93.93869999999999
 21
170.1846689999999
 31
0.0
  0
LINE
  5
116
330
1E
100
AcDbEntity
  8
0
100
AcDbLine
 10
93.93869999999999
 20
170.1846689999999
 30
0.0
 11
94.32689999999999
 21
169.231669
 31
0.0
  0
LINE
  5
117
330
1E
100
AcDbEntity
  8
0
100
AcDbLine
 10
92.49160000000001
 20
171.631669
 30
0.0
 11
93.31509999999999
 21
171.0076689999999
 31
0.0
  0
LINE
  5
11C
330
1E
100
AcDbEntity
  8
0
100
AcDbLine
 10
100.844
 20
172.2196689999999
 30
0.0
 11
101.0
 21
168.2196689999999
 31
0.0
  0
LINE
  5
11D
330
1E
100
AcDbEntity
  8
0
100
AcDbLine
 10
92.3839
 20
172.485669
 30
0.0
 11
92.8153
 21
176.486669
 31
0.0
  0
LINE
  5
11E
330
1E
100
AcDbEntity
  8
0
100
AcDbLine
 10
92.35690967222929
 20
164.695077488537
 30
0.0
 11
92.3839
 21
163.9536689999999
 31
0.0
  0
LINE
  5
11F
330
1E
100
AcDbEntity
  8
0
100
AcDbLine
 10
100.844
 20
164.2196689999999
 30
0.0
 11
101.0
 21
168.2196689999999
 31
0.0
  0
LINE
  5
122
330
1E
100
AcDbEntity
  8
0
100
AcDbLine
 10
35.0
 20
148.763375427367
 30
0.0
 11
38.2294914864495
 21
151.2196689999999
 31
0.0
  0
LINE
  5
123
330
1E
100
AcDbEntity
  8
0
100
AcDbLine
 10
33.3765
 20
174.1846689999999
 30
0.0
 11
34.5765
 21
171.290669
 31
0.0
  0
LINE
  5
124
330
1E
100
AcDbEntity
  8
0
100
AcDbLine
 10
12.6235
 20
174.1846689999999
 30
0.0
 11
14.5294
 21
176.6906689999999
 31
0.0
  0
LINE
  5
125
330
1E
100
AcDbEntity
  8
0
100
AcDbLine
 10
62.42589999999999
 20
176.654669
 30
0.0
 11
63.1198
 21
180.2506689999999
 31
0.0
  0
LINE
  5
127
330
1E
100
AcDbEntity
  8
0
100
AcDbLine
 10
64.30939999999999
 20
176.3526689999999
 30
0.0
 11
64.98229999999999
 21
179.7526689999999
 31
0.0
  0
LINE
  5
128
330
1E
100
AcDbEntity
  8
0
100
AcDbLine
 10
7.435289999999999
 20
177.1666689999999
 30
0.0
 11
10.2941
 21
180.9256689999999
 31
0.0
  0
LINE
  5
129
330
1E
100
AcDbEntity
  8
0
100
AcDbLine
 10
31.4706
 20
176.6906689999999
 30
0.0
 11
33.3765
 21
174.1846689999999
 31
0.0
  0
LINE
  5
12A
330
1E
100
AcDbEntity
  8
0
100
AcDbLine
 10
28.9647
 20
178.5956689999999
 30
0.0
 11
31.4706
 21
176.6906689999999
 31
0.0
  0
LINE
  5
12B
330
1E
100
AcDbEntity
  8
0
100
AcDbLine
 10
38.5647
 20
177.1666689999999
 30
0.0
 11
40.3647
 21
172.825669
 31
0.0
  0
LINE
  5
12C
330
1E
100
AcDbEntity
  8
0
100
AcDbLine
 10
14.5294
 20
176.6906689999999
 30
0.0
 11
17.03529999999999
 21
178.5956689999999
 31
0.0
  0
LINE
  5
12D
330
1E
100
AcDbEntity
  8
0
100
AcDbLine
 10
17.03529999999999
 20
178.5956689999999
 30
0.0
 11
19.9294
 21
179.796669
 31
0.0
  0
LINE
  5
12E
330
1E
100
AcDbEntity
  8
0
100
AcDbLine
 10
17.03529999999999
 20
178.5956689999999
 30
0.0
 11
19.9294
 21
179.795669
 31
0.0
  0
LINE
  5
12F
330
1E
100
AcDbEntity
  8
0
100
AcDbLine
 10
64.959
 20
176.686669
 30
0.0
 11
65.66639999999999
 21
180.2196689999999
 31
0.0
  0
LINE
  5
130
330
1E
100
AcDbEntity
  8
0
100
AcDbLine
 10
99.80920000000001
 20
179.2866689999999
 30
0.0
 11
100.4639999999999
 21
176.0196689999999
 31
0.0
  0
LINE
  5
131
330
1E
100
AcDbEntity
  8
0
100
AcDbLine
 10
100.4639999999999
 20
176.0196689999999
 30
0.0
 11
100.844
 21
172.2196689999999
 31
0.0
  0
LINE
  5
132
330
1E
100
AcDbEntity
  8
0
100
AcDbLine
 10
92.8153
 20
176.486669
 30
0.0
 11
93.48820000000001
 21
180.0196689999999
 31
0.0
  0
LINE
  5
133
330
1E
100
AcDbEntity
  8
0
100
AcDbLine
 10
10.2941
 20
180.9256689999999
 30
0.0
 11
14.05289999999999
 21
183.784669
 31
0.0
  0
LINE
  5
134
330
1E
100
AcDbEntity
  8
0
100
AcDbLine
 10
6.76471
 20
184.4546689999999
 30
0.0
 11
11.5676
 21
188.107669
 31
0.0
  0
LINE
  5
135
330
1E
100
AcDbEntity
  8
0
100
AcDbLine
 10
26.0706
 20
179.795669
 30
0.0
 11
28.9647
 21
178.5956689999999
 31
0.0
  0
LINE
  5
136
330
1E
100
AcDbEntity
  8
0
100
AcDbLine
 10
26.0706
 20
179.796669
 30
0.0
 11
28.9647
 21
178.5956689999999
 31
0.0
  0
LINE
  5
137
330
1E
100
AcDbEntity
  8
0
100
AcDbLine
 10
19.9294
 20
179.795669
 30
0.0
 11
23.0
 21
180.2196689999999
 31
0.0
  0
LINE
  5
138
330
1E
100
AcDbEntity
  8
0
100
AcDbLine
 10
23.0
 20
180.2196689999999
 30
0.0
 11
26.0706
 21
179.796669
 31
0.0
  0
LINE
  5
139
330
1E
100
AcDbEntity
  8
0
100
AcDbLine
 10
23.0
 20
180.2196689999999
 30
0.0
 11
26.0706
 21
179.795669
 31
0.0
  0
LINE
  5
13A
330
1E
100
AcDbEntity
  8
0
100
AcDbLine
 10
14.05289999999999
 20
183.784669
 30
0.0
 11
18.3941
 21
185.5846689999999
 31
0.0
  0
LINE
  5
13B
330
1E
100
AcDbEntity
  8
0
100
AcDbLine
 10
19.9294
 20
179.796669
 30
0.0
 11
23.0
 21
180.2196689999999
 31
0.0
  0
LINE
  5
13C
330
1E
100
AcDbEntity
  8
0
100
AcDbLine
 10
28.48619888888889
 20
185.2196689999999
 30
0.0
 11
66.23359999999999
 21
185.2196689999999
 31
0.0
  0
LINE
  5
13D
330
1E
100
AcDbEntity
  8
0
100
AcDbLine
 10
18.3941
 20
185.5846689999999
 30
0.0
 11
23.0
 21
186.2196689999999
 31
0.0
  0
LINE
  5
13E
330
1E
100
AcDbEntity
  8
0
100
AcDbLine
 10
27.6059
 20
185.5846689999999
 30
0.0
 11
31.9471
 21
183.784669
 31
0.0
  0
LINE
  5
13F
330
1E
100
AcDbEntity
  8
0
100
AcDbLine
 10
23.0
 20
186.2196689999999
 30
0.0
 11
27.6059
 21
185.5846689999999
 31
0.0
  0
LINE
  5
140
330
1E
100
AcDbEntity
  8
0
100
AcDbLine
 10
28.48619888888889
 20
185.2196689999999
 30
0.0
 11
66.23359999999999
 21
185.2196689999999
 31
0.0
  0
LINE
  5
142
330
1E
100
AcDbEntity
  8
0
100
AcDbLine
 10
64.98229999999999
 20
179.7526689999999
 30
0.0
 11
65.8623
 21
182.3526689999999
 31
0.0
  0
LINE
  5
143
330
1E
100
AcDbEntity
  8
0
100
AcDbLine
 10
35.7059
 20
180.9256689999999
 30
0.0
 11
38.5647
 21
177.1666689999999
 31
0.0
  0
LINE
  5
144
330
1E
100
AcDbEntity
  8
0
100
AcDbLine
 10
63.1198
 20
180.2506689999999
 30
0.0
 11
64.05070000000001
 21
182.9316689999999
 31
0.0
  0
LINE
  5
146
330
1E
100
AcDbEntity
  8
0
100
AcDbLine
 10
31.9471
 20
183.784669
 30
0.0
 11
35.7059
 21
180.9256689999999
 31
0.0
  0
LINE
  5
147
330
1E
100
AcDbEntity
  8
0
100
AcDbLine
 10
65.08289999999999
 20
184.6316689999999
 30
0.0
 11
66.23359999999999
 21
185.2196689999999
 31
0.0
  0
LINE
  5
148
330
1E
100
AcDbEntity
  8
0
100
AcDbLine
 10
64.05070000000001
 20
182.9316689999999
 30
0.0
 11
65.08289999999999
 21
184.6316689999999
 31
0.0
  0
LINE
  5
149
330
1E
100
AcDbEntity
  8
0
100
AcDbLine
 10
66.23359999999999
 20
185.2196689999999
 30
0.0
 11
67.3843
 21
184.6316689999999
 31
0.0
  0
LINE
  5
14B
330
1E
100
AcDbEntity
  8
0
100
AcDbLine
 10
65.8623
 20
182.3526689999999
 30
0.0
 11
66.88039999999999
 21
183.9536689999999
 31
0.0
  0
LINE
  5
14D
330
1E
100
AcDbEntity
  8
0
100
AcDbLine
 10
66.88039999999999
 20
183.9536689999999
 30
0.0
 11
67.63349999999999
 21
184.619669
 31
0.0
  0
LINE
  5
14E
330
1E
100
AcDbEntity
  8
0
100
AcDbLine
 10
67.3843
 20
184.6316689999999
 30
0.0
 11
67.4759925294118
 21
184.480669
 31
0.0
  0
LINE
  5
14F
330
1E
100
AcDbEntity
  8
0
100
AcDbLine
 10
68.7722
 20
185.2196689999999
 30
0.0
 11
95.3349
 21
185.2196689999999
 31
0.0
  0
LINE
  5
150
330
1E
100
AcDbEntity
  8
0
100
AcDbLine
 10
67.63349999999999
 20
184.619669
 30
0.0
 11
68.7722
 21
185.2196689999999
 31
0.0
  0
LINE
  5
151
330
1E
100
AcDbEntity
  8
0
100
AcDbLine
 10
66.58100000000001
 20
182.9526689999999
 30
0.0
 11
67.63349999999999
 21
184.619669
 31
0.0
  0
LINE
  5
152
330
1E
100
AcDbEntity
  8
0
100
AcDbLine
 10
65.66639999999999
 20
180.2196689999999
 30
0.0
 11
66.58100000000001
 21
182.9526689999999
 31
0.0
  0
LINE
  5
153
330
1E
100
AcDbEntity
  8
0
100
AcDbLine
 10
98.6822
 20
182.6196689999999
 30
0.0
 11
99.5967
 21
180.0196689999999
 31
0.0
  0
LINE
  5
154
330
1E
100
AcDbEntity
  8
0
100
AcDbLine
 10
99.5967
 20
180.0196689999999
 30
0.0
 11
99.80920000000001
 21
179.2866689999999
 31
0.0
  0
LINE
  5
155
330
1E
100
AcDbEntity
  8
0
100
AcDbLine
 10
95.3349
 20
185.2196689999999
 30
0.0
 11
96.5423
 21
184.885669
 31
0.0
  0
LINE
  5
156
330
1E
100
AcDbEntity
  8
0
100
AcDbLine
 10
96.5423
 20
184.885669
 30
0.0
 11
97.64660000000001
 21
184.2856689999999
 31
0.0
  0
LINE
  5
157
330
1E
100
AcDbEntity
  8
0
100
AcDbLine
 10
97.64660000000001
 20
184.2856689999999
 30
0.0
 11
98.6822
 21
182.6196689999999
 31
0.0
  0
LINE
  5
158
330
1E
100
AcDbEntity
  8
0
100
AcDbLine
 10
95.43799999999999
 20
184.2856689999999
 30
0.0
 11
96.5423
 21
184.885669
 31
0.0
  0
LINE
  5
159
330
1E
100
AcDbEntity
  8
0
100
AcDbLine
 10
94.40269999999999
 20
182.6196689999999
 30
0.0
 11
95.43799999999999
 21
184.2856689999999
 31
0.0
  0
LINE
  5
15A
330
1E
100
AcDbEntity
  8
0
100
AcDbLine
 10
93.48820000000001
 20
180.0196689999999
 30
0.0
 11
94.40269999999999
 21
182.6196689999999
 31
0.0
  0
LINE
  5
15B
330
1E
100
AcDbEntity
  8
0
100
AcDbLine
 10
34.4324
 20
188.107669
 30
0.0
 11
38.2294914864495
 21
185.2196689999999
 31
0.0
  0
LINE
  5
15C
330
1E
100
AcDbEntity
  8
0
100
AcDbLine
 10
28.8853
 20
190.407669
 30
0.0
 11
34.4324
 21
188.107669
 31
0.0
  0
LINE
  5
15D
330
1E
100
AcDbEntity
  8
0
100
AcDbLine
 10
23.0
 20
191.2196689999999
 30
0.0
 11
28.8853
 21
190.407669
 31
0.0
  0
LINE
  5
15E
330
1E
100
AcDbEntity
  8
0
100
AcDbLine
 10
17.1147
 20
190.407669
 30
0.0
 11
23.0
 21
191.2196689999999
 31
0.0
  0
LINE
  5
15F
330
1E
100
AcDbEntity
  8
0
100
AcDbLine
 10
11.5676
 20
188.107669
 30
0.0
 11
17.1147
 21
190.407669
 31
0.0
  0
LINE
  5
160
330
1E
100
AcDbEntity
  8
0
100
AcDbLine
 10
3.111759999999999
 20
179.6516689999999
 30
0.0
 11
6.76471
 21
184.4546689999999
 31
0.0
  0
LINE
  5
161
330
1E
100
AcDbEntity
  8
0
100
AcDbLine
 10
3.111759999999999
 20
179.6516689999999
 30
0.0
 11
6.76471
 21
184.4546689999999
 31
0.0
  0
LINE
  5
162
330
1E
100
AcDbEntity
  8
0
100
AcDbLine
 10
0.8117649999999999
 20
174.104669
 30
0.0
 11
3.111759999999999
 21
179.6516689999999
 31
0.0
  0
LINE
  5
163
330
1E
100
AcDbEntity
  8
0
100
AcDbLine
 10
0.0
 20
168.2196689999999
 30
0.0
 11
0.8117649999999999
 21
174.104669
 31
0.0
  0
LINE
  5
164
330
1E
100
AcDbEntity
  8
0
100
AcDbLine
 10
0.0
 20
168.2196689999999
 30
0.0
 11
0.8117649999999999
 21
162.3346689999999
 31
0.0
  0
ENDSEC
  0
SECTION
  2
OBJECTS
  0
DICTIONARY
  5
C
330
0
100
AcDbDictionary
281
     1
  3
ACAD_GROUP
350
D
  3
ACAD_LAYOUT
350
19
  3
ACAD_MLINESTYLE
350
16
  3
ACAD_PLOTSETTINGS
350
18
  3
ACAD_PLOTSTYLENAME
350
E
  3
AcDbVariableDictionary
350
16A
  0
DICTIONARY
  5
D
102
{ACAD_REACTORS
330
C
102
}
330
C
100
AcDbDictionary
281
     1
  0
DICTIONARY
  5
19
102
{ACAD_REACTORS
330
C
102
}
330
C
100
AcDbDictionary
281
     1
  3
Layout1
350
1D
  3
Model
350
21
  0
DICTIONARY
  5
16
102
{ACAD_REACTORS
330
C
102
}
330
C
100
AcDbDictionary
281
     1
  3
Standard
350
17
  0
DICTIONARY
  5
18
102
{ACAD_REACTORS
330
C
102
}
330
C
100
AcDbDictionary
281
     1
  0
ACDBDICTIONARYWDFLT
  5
E
102
{ACAD_REACTORS
330
C
102
}
330
C
100
AcDbDictionary
281
     1
  3
Normal
350
F
100
AcDbDictionaryWithDefault
340
F
  0
DICTIONARY
  5
16A
102
{ACAD_REACTORS
330
C
102
}
330
C
100
AcDbDictionary
281
     1
  3
DIMASSOC
350
16B
  0
LAYOUT
  5
1D
102
{ACAD_REACTORS
330
19
102
}
330
19
100
AcDbPlotSettings
  1

  2
C:\Programme\AutoCAD LT 2002 Deu\plotters\DWF ePlot (optimized for plotting).pc3
  4

  6

 40
0.0
 41
0.0
 42
0.0
 43
0.0
 44
0.0
 45
0.0
 46
0.0
 47
0.0
 48
0.0
 49
0.0
140
0.0
141
0.0
142
1.0
143
1.0
 70
   688
 72
     0
 73
     0
 74
     5
  7

 75
    16
147
1.0
148
0.0
149
0.0
100
AcDbLayout
  1
Layout1
 70
     1
 71
     1
 10
0.0
 20
0.0
 11
12.0
 21
9.0
 12
0.0
 22
0.0
 32
0.0
 14
1.000000000000000E+20
 24
1.000000000000000E+20
 34
1.000000000000000E+20
 15
-1.000000000000000E+20
 25
-1.000000000000000E+20
 35
-1.000000000000000E+20
146
0.0
 13
0.0
 23
0.0
 33
0.0
 16
1.0
 26
0.0
 36
0.0
 17
0.0
 27
1.0
 37
0.0
 76
     0
330
1A
  0
LAYOUT
  5
21
102
{ACAD_REACTORS
330
19
102
}
330
19
100
AcDbPlotSettings
  1

  2
C:\Programme\AutoCAD LT 2002 Deu\plotters\DWF ePlot (optimized for plotting).pc3
  4

  6

 40
0.0
 41
0.0
 42
0.0
 43
0.0
 44
0.0
 45
0.0
 46
0.0
 47
0.0
 48
0.0
 49
0.0
140
0.0
141
0.0
142
1.0
143
1.0
 70
  1712
 72
     0
 73
     0
 74
     0
  7

 75
     0
147
1.0
148
0.0
149
0.0
100
AcDbLayout
  1
Model
 70
     1
 71
     0
 10
0.0
 20
0.0
 11
12.0
 21
9.0
 12
0.0
 22
0.0
 32
0.0
 14
0.0
 24
0.0
 34
0.0
 15
0.0
 25
0.0
 35
0.0
146
0.0
 13
0.0
 23
0.0
 33
0.0
 16
1.0
 26
0.0
 36
0.0
 17
0.0
 27
1.0
 37
0.0
 76
     0
330
1E
  0
MLINESTYLE
  5
17
102
{ACAD_REACTORS
330
16
102
}
330
16
100
AcDbMlineStyle
  2
STANDARD
 70
     0
  3

 62
   256
 51
90.0
 52
90.0
 71
     2
 49
0.5
 62
   256
  6
BYLAYER
 49
-0.5
 62
   256
  6
BYLAYER
  0
ACDBPLACEHOLDER
  5
F
102
{ACAD_REACTORS
330
E
102
}
330
E
  0
DICTIONARYVAR
  5
16B
102
{ACAD_REACTORS
330
16A
102
}
330
16A
100
DictionaryVariables
280
     0
  1
1
  0
ENDSEC
  0
EOF
