  0
SECTION
  2
HEADER
  9
$ACADVER
  1
AC1015
  9
$ACADMAINTVER
 70
    13
  9
$DWGCODEPAGE
  3
ANSI_1252
  9
$INSBASE
 10
0.0
 20
0.0
 30
0.0
  9
$EXTMIN
 10
155.0
 20
0.171900000000022
 30
0.0
  9
$EXTMAX
 10
565.0
 20
231.8281
 30
0.0
  9
$LIMMIN
 10
0.0
 20
0.0
  9
$LIMMAX
 10
12.0
 20
9.0
  9
$ORTHOMODE
 70
     0
  9
$REGENMODE
 70
     1
  9
$FILLMODE
 70
     1
  9
$QTEXTMODE
 70
     0
  9
$MIRRTEXT
 70
     1
  9
$LTSCALE
 40
1.0
  9
$ATTMODE
 70
     1
  9
$TEXTSIZE
 40
0.2
  9
$TRACEWID
 40
0.05
  9
$TEXTSTYLE
  7
Standard
  9
$CLAYER
  8
0
  9
$CELTYPE
  6
Continuous
  9
$CECOLOR
 62
   256
  9
$CELTSCALE
 40
1.0
  9
$DISPSILH
 70
     0
  9
$DIMSCALE
 40
1.0
  9
$DIMASZ
 40
0.18
  9
$DIMEXO
 40
0.0625
  9
$DIMDLI
 40
0.38
  9
$DIMRND
 40
0.0
  9
$DIMDLE
 40
0.0
  9
$DIMEXE
 40
0.18
  9
$DIMTP
 40
0.0
  9
$DIMTM
 40
0.0
  9
$DIMTXT
 40
0.18
  9
$DIMCEN
 40
0.09
  9
$DIMTSZ
 40
0.0
  9
$DIMTOL
 70
     0
  9
$DIMLIM
 70
     0
  9
$DIMTIH
 70
     1
  9
$DIMTOH
 70
     1
  9
$DIMSE1
 70
     0
  9
$DIMSE2
 70
     0
  9
$DIMTAD
 70
     0
  9
$DIMZIN
 70
     0
  9
$DIMBLK
  1

  9
$DIMASO
 70
     1
  9
$DIMSHO
 70
     1
  9
$DIMPOST
  1

  9
$DIMAPOST
  1

  9
$DIMALT
 70
     0
  9
$DIMALTD
 70
     2
  9
$DIMALTF
 40
25.4
  9
$DIMLFAC
 40
1.0
  9
$DIMTOFL
 70
     0
  9
$DIMTVP
 40
0.0
  9
$DIMTIX
 70
     0
  9
$DIMSOXD
 70
     0
  9
$DIMSAH
 70
     0
  9
$DIMBLK1
  1

  9
$DIMBLK2
  1

  9
$DIMSTYLE
  2
Standard
  9
$DIMCLRD
 70
     0
  9
$DIMCLRE
 70
     0
  9
$DIMCLRT
 70
     0
  9
$DIMTFAC
 40
1.0
  9
$DIMGAP
 40
0.09
  9
$DIMJUST
 70
     0
  9
$DIMSD1
 70
     0
  9
$DIMSD2
 70
     0
  9
$DIMTOLJ
 70
     1
  9
$DIMTZIN
 70
     0
  9
$DIMALTZ
 70
     0
  9
$DIMALTTZ
 70
     0
  9
$DIMUPT
 70
     0
  9
$DIMDEC
 70
     4
  9
$DIMTDEC
 70
     4
  9
$DIMALTU
 70
     2
  9
$DIMALTTD
 70
     2
  9
$DIMTXSTY
  7
Standard
  9
$DIMAUNIT
 70
     0
  9
$DIMADEC
 70
     0
  9
$DIMALTRND
 40
0.0
  9
$DIMAZIN
 70
     0
  9
$DIMDSEP
 70
    46
  9
$DIMATFIT
 70
     3
  9
$DIMFRAC
 70
     0
  9
$DIMLDRBLK
  1

  9
$DIMLUNIT
 70
     2
  9
$DIMLWD
 70
    -2
  9
$DIMLWE
 70
    -2
  9
$DIMTMOVE
 70
     0
  9
$LUNITS
 70
     2
  9
$LUPREC
 70
     4
  9
$SKETCHINC
 40
0.1
  9
$FILLETRAD
 40
0.0
  9
$AUNITS
 70
     0
  9
$AUPREC
 70
     0
  9
$MENU
  1
.
  9
$ELEVATION
 40
0.0
  9
$PELEVATION
 40
0.0
  9
$THICKNESS
 40
0.0
  9
$LIMCHECK
 70
     0
  9
$CHAMFERA
 40
0.0
  9
$CHAMFERB
 40
0.0
  9
$CHAMFERC
 40
0.0
  9
$CHAMFERD
 40
0.0
  9
$SKPOLY
 70
     0
  9
$TDCREATE
 40
2455655.862904907
  9
$TDUCREATE
 40
2455655.779571574
  9
$TDUPDATE
 40
2455655.875607268
  9
$TDUUPDATE
 40
2455655.792273935
  9
$TDINDWG
 40
0.0127023611
  9
$TDUSRTIMER
 40
0.0127023611
  9
$USRTIMER
 70
     1
  9
$ANGBASE
 50
0.0
  9
$ANGDIR
 70
     0
  9
$PDMODE
 70
     0
  9
$PDSIZE
 40
0.0
  9
$PLINEWID
 40
0.0
  9
$SPLFRAME
 70
     0
  9
$SPLINETYPE
 70
     6
  9
$SPLINESEGS
 70
     8
  9
$HANDSEED
  5
60C
  9
$SURFTAB1
 70
     6
  9
$SURFTAB2
 70
     6
  9
$SURFTYPE
 70
     6
  9
$SURFU
 70
     6
  9
$SURFV
 70
     6
  9
$UCSBASE
  2

  9
$UCSNAME
  2

  9
$UCSORG
 10
0.0
 20
0.0
 30
0.0
  9
$UCSXDIR
 10
1.0
 20
0.0
 30
0.0
  9
$UCSYDIR
 10
0.0
 20
1.0
 30
0.0
  9
$UCSORTHOREF
  2

  9
$UCSORTHOVIEW
 70
     1
  9
$UCSORGTOP
 10
0.0
 20
0.0
 30
0.0
  9
$UCSORGBOTTOM
 10
0.0
 20
0.0
 30
0.0
  9
$UCSORGLEFT
 10
0.0
 20
0.0
 30
0.0
  9
$UCSORGRIGHT
 10
0.0
 20
0.0
 30
0.0
  9
$UCSORGFRONT
 10
0.0
 20
0.0
 30
0.0
  9
$UCSORGBACK
 10
0.0
 20
0.0
 30
0.0
  9
$PUCSBASE
  2

  9
$PUCSNAME
  2

  9
$PUCSORG
 10
0.0
 20
0.0
 30
0.0
  9
$PUCSXDIR
 10
1.0
 20
0.0
 30
0.0
  9
$PUCSYDIR
 10
0.0
 20
1.0
 30
0.0
  9
$PUCSORTHOREF
  2

  9
$PUCSORTHOVIEW
 70
     0
  9
$PUCSORGTOP
 10
0.0
 20
0.0
 30
0.0
  9
$PUCSORGBOTTOM
 10
0.0
 20
0.0
 30
0.0
  9
$PUCSORGLEFT
 10
0.0
 20
0.0
 30
0.0
  9
$PUCSORGRIGHT
 10
0.0
 20
0.0
 30
0.0
  9
$PUCSORGFRONT
 10
0.0
 20
0.0
 30
0.0
  9
$PUCSORGBACK
 10
0.0
 20
0.0
 30
0.0
  9
$USERI1
 70
     0
  9
$USERI2
 70
     0
  9
$USERI3
 70
     0
  9
$USERI4
 70
     0
  9
$USERI5
 70
     0
  9
$USERR1
 40
0.0
  9
$USERR2
 40
0.0
  9
$USERR3
 40
0.0
  9
$USERR4
 40
0.0
  9
$USERR5
 40
0.0
  9
$WORLDVIEW
 70
     1
  9
$SHADEDGE
 70
     3
  9
$SHADEDIF
 70
    70
  9
$TILEMODE
 70
     1
  9
$MAXACTVP
 70
    64
  9
$PINSBASE
 10
0.0
 20
0.0
 30
0.0
  9
$PLIMCHECK
 70
     0
  9
$PEXTMIN
 10
1.000000000000000E+20
 20
1.000000000000000E+20
 30
1.000000000000000E+20
  9
$PEXTMAX
 10
-1.000000000000000E+20
 20
-1.000000000000000E+20
 30
-1.000000000000000E+20
  9
$PLIMMIN
 10
0.0
 20
0.0
  9
$PLIMMAX
 10
12.0
 20
9.0
  9
$UNITMODE
 70
     0
  9
$VISRETAIN
 70
     1
  9
$PLINEGEN
 70
     0
  9
$PSLTSCALE
 70
     1
  9
$TREEDEPTH
 70
  3020
  9
$CMLSTYLE
  2
Standard
  9
$CMLJUST
 70
     0
  9
$CMLSCALE
 40
1.0
  9
$PROXYGRAPHICS
 70
     1
  9
$MEASUREMENT
 70
     0
  9
$CELWEIGHT
370
    -1
  9
$ENDCAPS
280
     0
  9
$JOINSTYLE
280
     0
  9
$LWDISPLAY
290
     0
  9
$INSUNITS
 70
     0
  9
$HYPERLINKBASE
  1

  9
$STYLESHEET
  1

  9
$XEDIT
290
     1
  9
$CEPSNTYPE
380
     0
  9
$PSTYLEMODE
290
     1
  9
$FINGERPRINTGUID
  2
{9737ED0C-0C21-4DDA-8767-28F4554D682E}
  9
$VERSIONGUID
  2
{1FA4D758-C5BA-4CA1-893C-3047EBE1AFFA}
  9
$EXTNAMES
290
     1
  9
$PSVPSCALE
 40
0.0
  9
$OLESTARTUP
290
     0
  0
ENDSEC
  0
SECTION
  2
CLASSES
  0
CLASS
  1
ACDBDICTIONARYWDFLT
  2
AcDbDictionaryWithDefault
  3
AutoCAD 2000
 90
        0
280
     0
281
     0
  0
CLASS
  1
ACDBPLACEHOLDER
  2
AcDbPlaceHolder
  3
AutoCAD 2000
 90
        0
280
     0
281
     0
  0
CLASS
  1
LAYOUT
  2
AcDbLayout
  3
AutoCAD 2000
 90
        0
280
     0
281
     0
  0
CLASS
  1
DICTIONARYVAR
  2
AcDbDictionaryVar
  3
AutoCAD 2000
 90
        0
280
     0
281
     0
  0
ENDSEC
  0
SECTION
  2
TABLES
  0
TABLE
  2
VPORT
  5
8
330
0
100
AcDbSymbolTable
 70
     4
  0
VPORT
  5
60B
330
8
100
AcDbSymbolTableRecord
100
AcDbViewportTableRecord
  2
*Active
 70
     0
 10
0.0
 20
0.0
 11
1.0
 21
1.0
 12
360.0
 22
116.0
 13
0.0
 23
0.0
 14
1.0
 24
1.0
 15
0.0
 25
0.0
 16
0.0
 26
0.0
 36
1.0
 17
0.0
 27
0.0
 37
0.0
 40
233.2232092446448
 41
2.073363431151241
 42
50.0
 43
0.0
 44
0.0
 50
0.0
 51
0.0
 71
     0
 72
   100
 73
     1
 74
     3
 75
     0
 76
     0
 77
     0
 78
     0
281
     0
 65
     1
110
0.0
120
0.0
130
0.0
111
1.0
121
0.0
131
0.0
112
0.0
122
1.0
132
0.0
 79
     1
146
0.0
  0
ENDTAB
  0
TABLE
  2
LTYPE
  5
5
330
0
100
AcDbSymbolTable
 70
     1
  0
LTYPE
  5
13
330
5
100
AcDbSymbolTableRecord
100
AcDbLinetypeTableRecord
  2
ByBlock
 70
     0
  3

 72
    65
 73
     0
 40
0.0
  0
LTYPE
  5
14
330
5
100
AcDbSymbolTableRecord
100
AcDbLinetypeTableRecord
  2
ByLayer
 70
     0
  3

 72
    65
 73
     0
 40
0.0
  0
LTYPE
  5
15
330
5
100
AcDbSymbolTableRecord
100
AcDbLinetypeTableRecord
  2
Continuous
 70
     0
  3
Solid line
 72
    65
 73
     0
 40
0.0
  0
ENDTAB
  0
TABLE
  2
LAYER
  5
2
330
0
100
AcDbSymbolTable
 70
     1
  0
LAYER
  5
10
330
2
100
AcDbSymbolTableRecord
100
AcDbLayerTableRecord
  2
0
 70
     0
 62
     7
  6
Continuous
370
    -3
390
F
  0
ENDTAB
  0
TABLE
  2
STYLE
  5
3
330
0
100
AcDbSymbolTable
 70
     1
  0
STYLE
  5
11
330
3
100
AcDbSymbolTableRecord
100
AcDbTextStyleTableRecord
  2
Standard
 70
     0
 40
0.0
 41
1.0
 50
0.0
 71
     0
 42
0.2
  3
txt
  4

  0
ENDTAB
  0
TABLE
  2
VIEW
  5
6
330
0
100
AcDbSymbolTable
 70
     0
  0
ENDTAB
  0
TABLE
  2
UCS
  5
7
330
0
100
AcDbSymbolTable
 70
     0
  0
ENDTAB
  0
TABLE
  2
APPID
  5
9
330
0
100
AcDbSymbolTable
 70
     1
  0
APPID
  5
12
330
9
100
AcDbSymbolTableRecord
100
AcDbRegAppTableRecord
  2
ACAD
 70
     0
  0
ENDTAB
  0
TABLE
  2
DIMSTYLE
  5
A
330
0
100
AcDbSymbolTable
 70
     1
100
AcDbDimStyleTable
 71
     0
  0
DIMSTYLE
105
5C5
330
A
100
AcDbSymbolTableRecord
100
AcDbDimStyleTableRecord
  2
Standard
 70
     0
340
11
  0
ENDTAB
  0
TABLE
  2
BLOCK_RECORD
  5
1
330
0
100
AcDbSymbolTable
 70
     0
  0
BLOCK_RECORD
  5
1E
330
1
100
AcDbSymbolTableRecord
100
AcDbBlockTableRecord
  2
*Model_Space
340
21
  0
BLOCK_RECORD
  5
1A
330
1
100
AcDbSymbolTableRecord
100
AcDbBlockTableRecord
  2
*Paper_Space
340
1D
  0
ENDTAB
  0
ENDSEC
  0
SECTION
  2
BLOCKS
  0
BLOCK
  5
1F
330
1E
100
AcDbEntity
  8
0
100
AcDbBlockBegin
  2
*Model_Space
 70
     0
 10
0.0
 20
0.0
 30
0.0
  3
*Model_Space
  1

  0
ENDBLK
  5
20
330
1E
100
AcDbEntity
  8
0
100
AcDbBlockEnd
  0
BLOCK
  5
1B
330
1A
100
AcDbEntity
 67
     1
  8
0
100
AcDbBlockBegin
  2
*Paper_Space
 70
     0
 10
0.0
 20
0.0
 30
0.0
  3
*Paper_Space
  1

  0
ENDBLK
  5
1C
330
1A
100
AcDbEntity
 67
     1
  8
0
100
AcDbBlockEnd
  0
ENDSEC
  0
SECTION
  2
ENTITIES
  0
LINE
  5
30
330
1E
100
AcDbEntity
  8
0
100
AcDbLine
 10
295.0
 20
17.8281
 30
0.0
 11
297.0629999999999
 21
17.87349999999999
 31
0.0
  0
LINE
  5
31
330
1E
100
AcDbEntity
  8
0
100
AcDbLine
 10
297.0629999999999
 20
17.87349999999999
 30
0.0
 11
297.62
 21
17.9142
 31
0.0
  0
LINE
  5
32
330
1E
100
AcDbEntity
  8
0
100
AcDbLine
 10
297.62
 20
17.9142
 30
0.0
 11
299.404
 21
18.1554
 31
0.0
  0
LINE
  5
33
330
1E
100
AcDbEntity
  8
0
100
AcDbLine
 10
299.404
 20
18.1554
 30
0.0
 11
302.0579999999999
 21
18.85539999999999
 31
0.0
  0
LINE
  5
37
330
1E
100
AcDbEntity
  8
0
100
AcDbLine
 10
302.0579999999999
 20
18.85539999999999
 30
0.0
 11
302.911
 21
19.17229999999999
 31
0.0
  0
LINE
  5
48
330
1E
100
AcDbEntity
  8
0
100
AcDbLine
 10
302.911
 20
19.17229999999999
 30
0.0
 11
304.039996346292
 21
19.71096301648019
 31
0.0
  0
LINE
  5
49
330
1E
100
AcDbEntity
  8
0
100
AcDbLine
 10
302.911
 20
19.17229999999999
 30
0.0
 11
304.039996346292
 21
19.71096301648019
 31
0.0
  0
LINE
  5
4A
330
1E
100
AcDbEntity
  8
0
100
AcDbLine
 10
304.864681340381
 20
20.1044340033628
 30
0.0
 11
305.0959999999999
 21
20.21479999999999
 31
0.0
  0
LINE
  5
4B
330
1E
100
AcDbEntity
  8
0
100
AcDbLine
 10
305.0959999999999
 20
20.21479999999999
 30
0.0
 11
306.7854427267159
 21
21.32128676258469
 31
0.0
  0
LINE
  5
4D
330
1E
100
AcDbEntity
  8
0
100
AcDbLine
 10
307.16
 20
21.5666
 30
0.0
 11
308.9809999999999
 21
23.2013
 31
0.0
  0
LINE
  5
4F
330
1E
100
AcDbEntity
  8
0
100
AcDbLine
 10
308.9809999999999
 20
23.2013
 30
0.0
 11
309.0874547681869
 21
23.3361403103586
 31
0.0
  0
LINE
  5
50
330
1E
100
AcDbEntity
  8
0
100
AcDbLine
 10
310.462
 20
25.0772
 30
0.0
 11
310.8279999999999
 21
25.6807
 31
0.0
  0
LINE
  5
51
330
1E
100
AcDbEntity
  8
0
100
AcDbLine
 10
309.5797755762749
 20
23.9597355864518
 30
0.0
 11
310.462
 21
25.0772
 31
0.0
  0
LINE
  5
52
330
1E
100
AcDbEntity
  8
0
100
AcDbLine
 10
310.8279999999999
 20
25.6807
 30
0.0
 11
311.223
 21
26.4413
 31
0.0
  0
LINE
  5
54
330
1E
100
AcDbEntity
  8
0
100
AcDbLine
 10
309.5797755762749
 20
23.9597355864518
 30
0.0
 11
310.462
 21
25.0772
 31
0.0
  0
LINE
  5
55
330
1E
100
AcDbEntity
  8
0
100
AcDbLine
 10
311.223
 20
26.4413
 30
0.0
 11
311.794
 21
27.8811
 31
0.0
  0
LINE
  5
56
330
1E
100
AcDbEntity
  8
0
100
AcDbLine
 10
311.937266519087
 20
28.49054069151049
 30
0.0
 11
312.2689999999999
 21
29.9017
 31
0.0
  0
LINE
  5
58
330
1E
100
AcDbEntity
  8
0
100
AcDbLine
 10
311.794
 20
27.8811
 30
0.0
 11
311.81596840125
 21
27.97455126645539
 31
0.0
  0
LINE
  5
59
330
1E
100
AcDbEntity
  8
0
100
AcDbLine
 10
312.454
 20
31.7302
 30
0.0
 11
312.5
 21
34.25699999999999
 31
0.0
  0
LINE
  5
5A
330
1E
100
AcDbEntity
  8
0
100
AcDbLine
 10
312.355
 20
30.545
 30
0.0
 11
312.454
 21
31.7302
 31
0.0
  0
LINE
  5
5B
330
1E
100
AcDbEntity
  8
0
100
AcDbLine
 10
312.2689999999999
 20
29.9017
 30
0.0
 11
312.355
 21
30.545
 31
0.0
  0
LINE
  5
5C
330
1E
100
AcDbEntity
  8
0
100
AcDbLine
 10
311.937266519087
 20
28.49054069151049
 30
0.0
 11
312.2689999999999
 21
29.9017
 31
0.0
  0
LINE
  5
5D
330
1E
100
AcDbEntity
  8
0
100
AcDbLine
 10
312.5
 20
34.25699999999999
 30
0.0
 11
312.5
 21
147.5400999999999
 31
0.0
  0
LINE
  5
BD
330
1E
100
AcDbEntity
  8
0
100
AcDbLine
 10
170.12
 20
170.7880999999999
 30
0.0
 11
177.3199999999999
 21
167.9081
 31
0.0
  0
LINE
  5
BE
330
1E
100
AcDbEntity
  8
0
100
AcDbLine
 10
177.3199999999999
 20
167.9081
 30
0.0
 11
185.0
 21
166.8281
 31
0.0
  0
LINE
  5
C7
330
1E
100
AcDbEntity
  8
0
100
AcDbLine
 10
199.8799999999999
 20
170.7880999999999
 30
0.0
 11
206.24
 21
175.5881
 31
0.0
  0
LINE
  5
C8
330
1E
100
AcDbEntity
  8
0
100
AcDbLine
 10
192.68
 20
167.9081
 30
0.0
 11
199.8799999999999
 21
170.7880999999999
 31
0.0
  0
LINE
  5
C9
330
1E
100
AcDbEntity
  8
0
100
AcDbLine
 10
185.0
 20
166.8281
 30
0.0
 11
192.68
 21
167.9081
 31
0.0
  0
LINE
  5
DA
330
1E
100
AcDbEntity
  8
0
100
AcDbLine
 10
312.5
 20
147.6010999999999
 30
0.0
 11
312.5
 21
152.9531
 31
0.0
  0
LINE
  5
DB
330
1E
100
AcDbEntity
  8
0
100
AcDbLine
 10
312.5
 20
147.6010999999999
 30
0.0
 11
312.5
 21
147.5400999999999
 31
0.0
  0
LINE
  5
DC
330
1E
100
AcDbEntity
  8
0
100
AcDbLine
 10
312.5
 20
152.9531
 30
0.0
 11
312.5
 21
155.6121
 31
0.0
  0
LINE
  5
DD
330
1E
100
AcDbEntity
  8
0
100
AcDbLine
 10
312.5
 20
152.9531
 30
0.0
 11
312.5
 21
147.6010999999999
 31
0.0
  0
LINE
  5
DE
330
1E
100
AcDbEntity
  8
0
100
AcDbLine
 10
312.492
 20
203.2920999999999
 30
0.0
 11
312.5
 21
159.5901
 31
0.0
  0
LINE
  5
E0
330
1E
100
AcDbEntity
  8
0
100
AcDbLine
 10
312.5
 20
159.5901
 30
0.0
 11
312.5
 21
155.6121
 31
0.0
  0
LINE
  5
E1
330
1E
100
AcDbEntity
  8
0
100
AcDbLine
 10
312.5
 20
159.5901
 30
0.0
 11
312.492
 21
203.2920999999999
 31
0.0
  0
LINE
  5
E6
330
1E
100
AcDbEntity
  8
0
100
AcDbLine
 10
312.5
 20
155.6121
 30
0.0
 11
312.5
 21
159.5901
 31
0.0
  0
LINE
  5
E7
330
1E
100
AcDbEntity
  8
0
100
AcDbLine
 10
312.5
 20
155.6121
 30
0.0
 11
312.5
 21
152.9531
 31
0.0
  0
LINE
  5
E9
330
1E
100
AcDbEntity
  8
0
100
AcDbLine
 10
312.5
 20
147.5400999999999
 30
0.0
 11
312.5
 21
147.6010999999999
 31
0.0
  0
LINE
  5
EA
330
1E
100
AcDbEntity
  8
0
100
AcDbLine
 10
312.5
 20
147.5400999999999
 30
0.0
 11
312.5
 21
34.25699999999999
 31
0.0
  0
LINE
  5
EB
330
1E
100
AcDbEntity
  8
0
100
AcDbLine
 10
312.5
 20
166.553760377359
 30
0.0
 11
319.7799999999999
 21
172.0481
 31
0.0
  0
LINE
  5
ED
330
1E
100
AcDbEntity
  8
0
100
AcDbLine
 10
163.7599999999999
 20
175.5881
 30
0.0
 11
170.12
 21
170.7880999999999
 31
0.0
  0
LINE
  5
EE
330
1E
100
AcDbEntity
  8
0
100
AcDbLine
 10
175.08
 20
179.4680999999999
 30
0.0
 11
179.8799999999999
 21
177.5481
 31
0.0
  0
LINE
  5
EF
330
1E
100
AcDbEntity
  8
0
100
AcDbLine
 10
179.96
 20
178.0281
 30
0.0
 11
185.0
 21
177.3080999999999
 31
0.0
  0
LINE
  5
F0
330
1E
100
AcDbEntity
  8
0
100
AcDbLine
 10
179.8799999999999
 20
177.5481
 30
0.0
 11
185.0
 21
176.8280999999999
 31
0.0
  0
LINE
  5
F1
330
1E
100
AcDbEntity
  8
0
100
AcDbLine
 10
185.0
 20
177.3080999999999
 30
0.0
 11
190.0399999999999
 21
178.0281
 31
0.0
  0
LINE
  5
F5
330
1E
100
AcDbEntity
  8
0
100
AcDbLine
 10
206.24
 20
175.5881
 30
0.0
 11
211.0399999999999
 21
181.9481
 31
0.0
  0
LINE
  5
F6
330
1E
100
AcDbEntity
  8
0
100
AcDbLine
 10
190.0399999999999
 20
178.0281
 30
0.0
 11
194.6799999999999
 21
179.9481
 31
0.0
  0
LINE
  5
10A
330
1E
100
AcDbEntity
  8
0
100
AcDbLine
 10
194.9199999999999
 20
179.4680999999999
 30
0.0
 11
199.16
 21
182.6681
 31
0.0
  0
LINE
  5
10B
330
1E
100
AcDbEntity
  8
0
100
AcDbLine
 10
190.12
 20
177.5481
 30
0.0
 11
194.9199999999999
 21
179.4680999999999
 31
0.0
  0
LINE
  5
10C
330
1E
100
AcDbEntity
  8
0
100
AcDbLine
 10
185.0
 20
176.8280999999999
 30
0.0
 11
190.12
 21
177.5481
 31
0.0
  0
LINE
  5
10D
330
1E
100
AcDbEntity
  8
0
100
AcDbLine
 10
158.96
 20
181.9481
 30
0.0
 11
163.7599999999999
 21
175.5881
 31
0.0
  0
LINE
  5
10E
330
1E
100
AcDbEntity
  8
0
100
AcDbLine
 10
175.3199999999999
 20
179.9481
 30
0.0
 11
179.96
 21
178.0281
 31
0.0
  0
LINE
  5
127
330
1E
100
AcDbEntity
  8
0
100
AcDbLine
 10
211.0399999999999
 20
181.9481
 30
0.0
 11
213.9199999999999
 21
189.1480999999999
 31
0.0
  0
LINE
  5
128
330
1E
100
AcDbEntity
  8
0
100
AcDbLine
 10
194.6799999999999
 20
179.9481
 30
0.0
 11
198.76
 21
183.0681
 31
0.0
  0
LINE
  5
129
330
1E
100
AcDbEntity
  8
0
100
AcDbLine
 10
264.6199999999999
 20
179.4680999999999
 30
0.0
 11
270.22
 21
172.0481
 31
0.0
  0
LINE
  5
151
330
1E
100
AcDbEntity
  8
0
100
AcDbLine
 10
312.5
 20
180.5091999999999
 30
0.0
 11
315.8319999999999
 21
184.9241
 31
0.0
  0
LINE
  5
152
330
1E
100
AcDbEntity
  8
0
100
AcDbLine
 10
325.38
 20
179.4680999999999
 30
0.0
 11
328.74
 21
187.8681
 31
0.0
  0
LINE
  5
153
330
1E
100
AcDbEntity
  8
0
100
AcDbLine
 10
319.7799999999999
 20
172.0481
 30
0.0
 11
325.38
 21
179.4680999999999
 31
0.0
  0
LINE
  5
154
330
1E
100
AcDbEntity
  8
0
100
AcDbLine
 10
270.22
 20
172.0481
 30
0.0
 11
277.4999999999999
 21
166.553760377359
 31
0.0
  0
LINE
  5
155
330
1E
100
AcDbEntity
  8
0
100
AcDbLine
 10
156.08
 20
189.1480999999999
 30
0.0
 11
158.96
 21
181.9481
 31
0.0
  0
LINE
  5
156
330
1E
100
AcDbEntity
  8
0
100
AcDbLine
 10
155.0
 20
196.8281
 30
0.0
 11
156.08
 21
204.5081
 31
0.0
  0
LINE
  5
157
330
1E
100
AcDbEntity
  8
0
100
AcDbLine
 10
155.0
 20
196.8281
 30
0.0
 11
156.08
 21
189.1480999999999
 31
0.0
  0
LINE
  5
15A
330
1E
100
AcDbEntity
  8
0
100
AcDbLine
 10
170.84
 20
182.6681
 30
0.0
 11
175.08
 21
179.4680999999999
 31
0.0
  0
LINE
  5
15B
330
1E
100
AcDbEntity
  8
0
100
AcDbLine
 10
171.24
 20
183.0681
 30
0.0
 11
175.3199999999999
 21
179.9481
 31
0.0
  0
LINE
  5
15C
330
1E
100
AcDbEntity
  8
0
100
AcDbLine
 10
165.1679999999999
 20
196.8281
 30
0.0
 11
165.4199999999999
 21
195.0641
 31
0.0
  0
LINE
  5
15D
330
1E
100
AcDbEntity
  8
0
100
AcDbLine
 10
165.1679999999999
 20
196.8281
 30
0.0
 11
165.4199999999999
 21
198.5920999999999
 31
0.0
  0
LINE
  5
15E
330
1E
100
AcDbEntity
  8
0
100
AcDbLine
 10
165.4199999999999
 20
195.0641
 30
0.0
 11
166.092
 21
193.4401
 31
0.0
  0
LINE
  5
15F
330
1E
100
AcDbEntity
  8
0
100
AcDbLine
 10
165.252
 20
195.0361
 30
0.0
 11
165.924
 21
193.3561
 31
0.0
  0
LINE
  5
160
330
1E
100
AcDbEntity
  8
0
100
AcDbLine
 10
165.252
 20
195.0361
 30
0.0
 11
165.4199999999999
 21
195.0641
 31
0.0
  0
LINE
  5
161
330
1E
100
AcDbEntity
  8
0
100
AcDbLine
 10
166.092
 20
193.4401
 30
0.0
 11
167.184
 21
192.0121
 31
0.0
  0
LINE
  5
162
330
1E
100
AcDbEntity
  8
0
100
AcDbLine
 10
165.988140969163
 20
193.271113215859
 30
0.0
 11
166.1999999999999
 21
191.7880999999999
 31
0.0
  0
LINE
  5
163
330
1E
100
AcDbEntity
  8
0
100
AcDbLine
 10
198.0
 20
189.9961
 30
0.0
 11
199.764
 21
190.2480999999999
 31
0.0
  0
LINE
  5
164
330
1E
100
AcDbEntity
  8
0
100
AcDbLine
 10
167.184
 20
192.0121
 30
0.0
 11
168.612
 21
190.9200999999999
 31
0.0
  0
LINE
  5
165
330
1E
100
AcDbEntity
  8
0
100
AcDbLine
 10
168.612
 20
190.9200999999999
 30
0.0
 11
170.2359999999999
 21
190.2480999999999
 31
0.0
  0
LINE
  5
166
330
1E
100
AcDbEntity
  8
0
100
AcDbLine
 10
201.3879999999999
 20
190.9200999999999
 30
0.0
 11
202.8159999999999
 21
192.0121
 31
0.0
  0
LINE
  5
167
330
1E
100
AcDbEntity
  8
0
100
AcDbLine
 10
199.764
 20
190.2480999999999
 30
0.0
 11
201.3879999999999
 21
190.9200999999999
 31
0.0
  0
LINE
  5
168
330
1E
100
AcDbEntity
  8
0
100
AcDbLine
 10
170.2359999999999
 20
190.2480999999999
 30
0.0
 11
172.0
 21
189.9961
 31
0.0
  0
LINE
  5
169
330
1E
100
AcDbEntity
  8
0
100
AcDbLine
 10
172.0
 20
189.9961
 30
0.0
 11
198.0
 21
189.9961
 31
0.0
  0
LINE
  5
16A
330
1E
100
AcDbEntity
  8
0
100
AcDbLine
 10
166.1999999999999
 20
191.7880999999999
 30
0.0
 11
168.12
 21
187.1480999999999
 31
0.0
  0
LINE
  5
16B
330
1E
100
AcDbEntity
  8
0
100
AcDbLine
 10
168.12
 20
187.1480999999999
 30
0.0
 11
171.24
 21
183.0681
 31
0.0
  0
LINE
  5
16C
330
1E
100
AcDbEntity
  8
0
100
AcDbLine
 10
165.72
 20
191.7080999999999
 30
0.0
 11
167.6399999999999
 21
186.9080999999999
 31
0.0
  0
LINE
  5
16D
330
1E
100
AcDbEntity
  8
0
100
AcDbLine
 10
167.6399999999999
 20
186.9080999999999
 30
0.0
 11
170.84
 21
182.6681
 31
0.0
  0
LINE
  5
16E
330
1E
100
AcDbEntity
  8
0
100
AcDbLine
 10
201.88
 20
187.1480999999999
 30
0.0
 11
203.8
 21
191.7880999999999
 31
0.0
  0
LINE
  5
16F
330
1E
100
AcDbEntity
  8
0
100
AcDbLine
 10
198.76
 20
183.0681
 30
0.0
 11
201.88
 21
187.1480999999999
 31
0.0
  0
LINE
  5
190
330
1E
100
AcDbEntity
  8
0
100
AcDbLine
 10
213.9199999999999
 20
189.1480999999999
 30
0.0
 11
215.0
 21
196.8281
 31
0.0
  0
LINE
  5
191
330
1E
100
AcDbEntity
  8
0
100
AcDbLine
 10
202.8159999999999
 20
192.0121
 30
0.0
 11
203.9079999999999
 21
193.4401
 31
0.0
  0
LINE
  5
19B
330
1E
100
AcDbEntity
  8
0
100
AcDbLine
 10
204.58
 20
195.0641
 30
0.0
 11
204.7479999999999
 21
195.0361
 31
0.0
  0
LINE
  5
19C
330
1E
100
AcDbEntity
  8
0
100
AcDbLine
 10
204.58
 20
195.0641
 30
0.0
 11
204.8319999999999
 21
196.8281
 31
0.0
  0
LINE
  5
19D
330
1E
100
AcDbEntity
  8
0
100
AcDbLine
 10
203.9079999999999
 20
193.4401
 30
0.0
 11
204.58
 21
195.0641
 31
0.0
  0
LINE
  5
1B3
330
1E
100
AcDbEntity
  8
0
100
AcDbLine
 10
204.8319999999999
 20
196.8281
 30
0.0
 11
205.0
 21
196.8281
 31
0.0
  0
LINE
  5
1B4
330
1E
100
AcDbEntity
  8
0
100
AcDbLine
 10
204.7479999999999
 20
195.0361
 30
0.0
 11
205.0
 21
196.8281
 31
0.0
  0
LINE
  5
1B5
330
1E
100
AcDbEntity
  8
0
100
AcDbLine
 10
204.076
 20
193.3561
 30
0.0
 11
204.7479999999999
 21
195.0361
 31
0.0
  0
LINE
  5
1B6
330
1E
100
AcDbEntity
  8
0
100
AcDbLine
 10
203.8
 20
191.7880999999999
 30
0.0
 11
204.0118590308369
 21
193.271113215859
 31
0.0
  0
LINE
  5
1B7
330
1E
100
AcDbEntity
  8
0
100
AcDbLine
 10
204.28
 20
191.7080999999999
 30
0.0
 11
205.0
 21
196.8281
 31
0.0
  0
LINE
  5
1B8
330
1E
100
AcDbEntity
  8
0
100
AcDbLine
 10
202.36
 20
186.9080999999999
 30
0.0
 11
204.28
 21
191.7080999999999
 31
0.0
  0
LINE
  5
1B9
330
1E
100
AcDbEntity
  8
0
100
AcDbLine
 10
199.16
 20
182.6681
 30
0.0
 11
202.36
 21
186.9080999999999
 31
0.0
  0
LINE
  5
1BA
330
1E
100
AcDbEntity
  8
0
100
AcDbLine
 10
165.0
 20
196.8281
 30
0.0
 11
165.72
 21
201.9481
 31
0.0
  0
LINE
  5
1BB
330
1E
100
AcDbEntity
  8
0
100
AcDbLine
 10
165.0
 20
196.8281
 30
0.0
 11
165.72
 21
191.7080999999999
 31
0.0
  0
LINE
  5
1BC
330
1E
100
AcDbEntity
  8
0
100
AcDbLine
 10
165.0
 20
196.8281
 30
0.0
 11
165.252
 21
195.0361
 31
0.0
  0
LINE
  5
1BD
330
1E
100
AcDbEntity
  8
0
100
AcDbLine
 10
165.0
 20
196.8281
 30
0.0
 11
165.1679999999999
 21
196.8281
 31
0.0
  0
LINE
  5
1BE
330
1E
100
AcDbEntity
  8
0
100
AcDbLine
 10
165.0
 20
196.8281
 30
0.0
 11
165.252
 21
198.6201
 31
0.0
  0
LINE
  5
1C0
330
1E
100
AcDbEntity
  8
0
100
AcDbLine
 10
260.0
 20
196.8281
 30
0.0
 11
261.26
 21
205.7881
 31
0.0
  0
LINE
  5
1DB
330
1E
100
AcDbEntity
  8
0
100
AcDbLine
 10
315.8319999999999
 20
184.9241
 30
0.0
 11
318.1359999999999
 21
190.6841
 31
0.0
  0
LINE
  5
1DC
330
1E
100
AcDbEntity
  8
0
100
AcDbLine
 10
274.168
 20
184.9241
 30
0.0
 11
277.4999999999999
 21
180.5091999999999
 31
0.0
  0
LINE
  5
1DF
330
1E
100
AcDbEntity
  8
0
100
AcDbLine
 10
271.0
 20
196.8281
 30
0.0
 11
271.864
 21
190.6841
 31
0.0
  0
LINE
  5
1E0
330
1E
100
AcDbEntity
  8
0
100
AcDbLine
 10
271.0
 20
196.8281
 30
0.0
 11
271.864
 21
202.9721
 31
0.0
  0
LINE
  5
1EC
330
1E
100
AcDbEntity
  8
0
100
AcDbLine
 10
318.1359999999999
 20
190.6841
 30
0.0
 11
319.0
 21
196.8281
 31
0.0
  0
LINE
  5
23F
330
1E
100
AcDbEntity
  8
0
100
AcDbLine
 10
271.864
 20
190.6841
 30
0.0
 11
274.168
 21
184.9241
 31
0.0
  0
LINE
  5
240
330
1E
100
AcDbEntity
  8
0
100
AcDbLine
 10
328.74
 20
187.8681
 30
0.0
 11
330.0
 21
196.8281
 31
0.0
  0
LINE
  5
241
330
1E
100
AcDbEntity
  8
0
100
AcDbLine
 10
261.26
 20
187.8681
 30
0.0
 11
264.6199999999999
 21
179.4680999999999
 31
0.0
  0
LINE
  5
245
330
1E
100
AcDbEntity
  8
0
100
AcDbLine
 10
204.58
 20
198.5920999999999
 30
0.0
 11
204.7479999999999
 21
198.6201
 31
0.0
  0
LINE
  5
246
330
1E
100
AcDbEntity
  8
0
100
AcDbLine
 10
204.58
 20
198.5920999999999
 30
0.0
 11
204.8319999999999
 21
196.8281
 31
0.0
  0
LINE
  5
247
330
1E
100
AcDbEntity
  8
0
100
AcDbLine
 10
204.7479999999999
 20
198.6201
 30
0.0
 11
205.0
 21
196.8281
 31
0.0
  0
LINE
  5
248
330
1E
100
AcDbEntity
  8
0
100
AcDbLine
 10
165.4199999999999
 20
198.5920999999999
 30
0.0
 11
166.092
 21
200.2161
 31
0.0
  0
LINE
  5
249
330
1E
100
AcDbEntity
  8
0
100
AcDbLine
 10
165.252
 20
198.6201
 30
0.0
 11
165.924
 21
200.3000999999999
 31
0.0
  0
LINE
  5
24A
330
1E
100
AcDbEntity
  8
0
100
AcDbLine
 10
165.252
 20
198.6201
 30
0.0
 11
165.4199999999999
 21
198.5920999999999
 31
0.0
  0
LINE
  5
24C
330
1E
100
AcDbEntity
  8
0
100
AcDbLine
 10
165.924
 20
200.3000999999999
 30
0.0
 11
167.044
 21
201.7840999999999
 31
0.0
  0
LINE
  5
25C
330
1E
100
AcDbEntity
  8
0
100
AcDbLine
 10
203.9079999999999
 20
200.2161
 30
0.0
 11
204.58
 21
198.5920999999999
 31
0.0
  0
LINE
  5
261
330
1E
100
AcDbEntity
  8
0
100
AcDbLine
 10
204.076
 20
200.3000999999999
 30
0.0
 11
204.7479999999999
 21
198.6201
 31
0.0
  0
LINE
  5
262
330
1E
100
AcDbEntity
  8
0
100
AcDbLine
 10
166.092
 20
200.2161
 30
0.0
 11
167.184
 21
201.6440999999999
 31
0.0
  0
LINE
  5
263
330
1E
100
AcDbEntity
  8
0
100
AcDbLine
 10
165.988140969163
 20
200.385086784141
 30
0.0
 11
166.1999999999999
 21
201.8680999999999
 31
0.0
  0
LINE
  5
269
330
1E
100
AcDbEntity
  8
0
100
AcDbLine
 10
202.8159999999999
 20
201.6440999999999
 30
0.0
 11
203.9079999999999
 21
200.2161
 31
0.0
  0
LINE
  5
26A
330
1E
100
AcDbEntity
  8
0
100
AcDbLine
 10
202.956
 20
201.7840999999999
 30
0.0
 11
204.076
 21
200.3000999999999
 31
0.0
  0
LINE
  5
26B
330
1E
100
AcDbEntity
  8
0
100
AcDbLine
 10
167.184
 20
201.6440999999999
 30
0.0
 11
168.612
 21
202.7360999999999
 31
0.0
  0
LINE
  5
26C
330
1E
100
AcDbEntity
  8
0
100
AcDbLine
 10
167.044
 20
201.7840999999999
 30
0.0
 11
168.5279999999999
 21
202.9040999999999
 31
0.0
  0
LINE
  5
26D
330
1E
100
AcDbEntity
  8
0
100
AcDbLine
 10
166.1999999999999
 20
201.8680999999999
 30
0.0
 11
168.12
 21
206.5081
 31
0.0
  0
LINE
  5
26E
330
1E
100
AcDbEntity
  8
0
100
AcDbLine
 10
165.72
 20
201.9481
 30
0.0
 11
167.6399999999999
 21
206.7480999999999
 31
0.0
  0
LINE
  5
27E
330
1E
100
AcDbEntity
  8
0
100
AcDbLine
 10
203.8
 20
201.8680999999999
 30
0.0
 11
204.0118590308369
 21
200.385086784141
 31
0.0
  0
LINE
  5
286
330
1E
100
AcDbEntity
  8
0
100
AcDbLine
 10
204.28
 20
201.9481
 30
0.0
 11
205.0
 21
196.8281
 31
0.0
  0
LINE
  5
295
330
1E
100
AcDbEntity
  8
0
100
AcDbLine
 10
201.3879999999999
 20
202.7360999999999
 30
0.0
 11
202.8159999999999
 21
201.6440999999999
 31
0.0
  0
LINE
  5
296
330
1E
100
AcDbEntity
  8
0
100
AcDbLine
 10
201.472
 20
202.9040999999999
 30
0.0
 11
202.956
 21
201.7840999999999
 31
0.0
  0
LINE
  5
297
330
1E
100
AcDbEntity
  8
0
100
AcDbLine
 10
168.612
 20
202.7360999999999
 30
0.0
 11
170.2359999999999
 21
203.4081
 31
0.0
  0
LINE
  5
299
330
1E
100
AcDbEntity
  8
0
100
AcDbLine
 10
168.5279999999999
 20
202.9040999999999
 30
0.0
 11
170.208
 21
203.5760999999999
 31
0.0
  0
LINE
  5
29B
330
1E
100
AcDbEntity
  8
0
100
AcDbLine
 10
271.864
 20
202.9721
 30
0.0
 11
274.168
 21
208.7321
 31
0.0
  0
LINE
  5
2DB
330
1E
100
AcDbEntity
  8
0
100
AcDbLine
 10
318.1359999999999
 20
202.9721
 30
0.0
 11
319.0
 21
196.8281
 31
0.0
  0
LINE
  5
2E2
330
1E
100
AcDbEntity
  8
0
100
AcDbLine
 10
156.08
 20
204.5081
 30
0.0
 11
158.96
 21
211.7081
 31
0.0
  0
LINE
  5
2E3
330
1E
100
AcDbEntity
  8
0
100
AcDbLine
 10
198.0
 20
203.6601
 30
0.0
 11
199.764
 21
203.4081
 31
0.0
  0
LINE
  5
2E4
330
1E
100
AcDbEntity
  8
0
100
AcDbLine
 10
170.2359999999999
 20
203.4081
 30
0.0
 11
172.0
 21
203.6601
 31
0.0
  0
LINE
  5
2E5
330
1E
100
AcDbEntity
  8
0
100
AcDbLine
 10
170.208
 20
203.5760999999999
 30
0.0
 11
172.0
 21
203.8281
 31
0.0
  0
LINE
  5
2E6
330
1E
100
AcDbEntity
  8
0
100
AcDbLine
 10
198.0
 20
203.8281
 30
0.0
 11
199.792
 21
203.5760999999999
 31
0.0
  0
LINE
  5
2E7
330
1E
100
AcDbEntity
  8
0
100
AcDbLine
 10
172.0
 20
203.8281
 30
0.0
 11
198.0
 21
203.8281
 31
0.0
  0
LINE
  5
2E8
330
1E
100
AcDbEntity
  8
0
100
AcDbLine
 10
172.0
 20
203.6601
 30
0.0
 11
198.0
 21
203.6601
 31
0.0
  0
LINE
  5
2E9
330
1E
100
AcDbEntity
  8
0
100
AcDbLine
 10
168.12
 20
206.5081
 30
0.0
 11
171.24
 21
210.5881
 31
0.0
  0
LINE
  5
2EA
330
1E
100
AcDbEntity
  8
0
100
AcDbLine
 10
171.24
 20
210.5881
 30
0.0
 11
175.3199999999999
 21
213.7081
 31
0.0
  0
LINE
  5
2EB
330
1E
100
AcDbEntity
  8
0
100
AcDbLine
 10
167.6399999999999
 20
206.7480999999999
 30
0.0
 11
170.84
 21
210.9881
 31
0.0
  0
LINE
  5
2EC
330
1E
100
AcDbEntity
  8
0
100
AcDbLine
 10
158.96
 20
211.7081
 30
0.0
 11
163.7599999999999
 21
218.0680999999999
 31
0.0
  0
LINE
  5
2ED
330
1E
100
AcDbEntity
  8
0
100
AcDbLine
 10
175.3199999999999
 20
213.7081
 30
0.0
 11
179.96
 21
215.6280999999999
 31
0.0
  0
LINE
  5
2EE
330
1E
100
AcDbEntity
  8
0
100
AcDbLine
 10
170.84
 20
210.9881
 30
0.0
 11
175.08
 21
214.1881
 31
0.0
  0
LINE
  5
2EF
330
1E
100
AcDbEntity
  8
0
100
AcDbLine
 10
198.76
 20
210.5881
 30
0.0
 11
201.88
 21
206.5081
 31
0.0
  0
LINE
  5
2F0
330
1E
100
AcDbEntity
  8
0
100
AcDbLine
 10
175.08
 20
214.1881
 30
0.0
 11
179.8799999999999
 21
216.1081
 31
0.0
  0
LINE
  5
2F1
330
1E
100
AcDbEntity
  8
0
100
AcDbLine
 10
194.6799999999999
 20
213.7081
 30
0.0
 11
198.76
 21
210.5881
 31
0.0
  0
LINE
  5
2F2
330
1E
100
AcDbEntity
  8
0
100
AcDbLine
 10
199.764
 20
203.4081
 30
0.0
 11
201.3879999999999
 21
202.7360999999999
 31
0.0
  0
LINE
  5
2F3
330
1E
100
AcDbEntity
  8
0
100
AcDbLine
 10
199.792
 20
203.5760999999999
 30
0.0
 11
201.472
 21
202.9040999999999
 31
0.0
  0
LINE
  5
2F4
330
1E
100
AcDbEntity
  8
0
100
AcDbLine
 10
213.9199999999999
 20
204.5081
 30
0.0
 11
215.0
 21
196.8281
 31
0.0
  0
LINE
  5
2F5
330
1E
100
AcDbEntity
  8
0
100
AcDbLine
 10
201.88
 20
206.5081
 30
0.0
 11
203.8
 21
201.8680999999999
 31
0.0
  0
LINE
  5
2F6
330
1E
100
AcDbEntity
  8
0
100
AcDbLine
 10
211.0399999999999
 20
211.7081
 30
0.0
 11
213.9199999999999
 21
204.5081
 31
0.0
  0
LINE
  5
2F7
330
1E
100
AcDbEntity
  8
0
100
AcDbLine
 10
202.36
 20
206.7480999999999
 30
0.0
 11
204.28
 21
201.9481
 31
0.0
  0
LINE
  5
2F8
330
1E
100
AcDbEntity
  8
0
100
AcDbLine
 10
199.16
 20
210.9881
 30
0.0
 11
202.36
 21
206.7480999999999
 31
0.0
  0
LINE
  5
2F9
330
1E
100
AcDbEntity
  8
0
100
AcDbLine
 10
194.9199999999999
 20
214.1881
 30
0.0
 11
199.16
 21
210.9881
 31
0.0
  0
LINE
  5
2FA
330
1E
100
AcDbEntity
  8
0
100
AcDbLine
 10
261.26
 20
205.7881
 30
0.0
 11
264.6199999999999
 21
214.1881
 31
0.0
  0
LINE
  5
2FB
330
1E
100
AcDbEntity
  8
0
100
AcDbLine
 10
179.96
 20
215.6280999999999
 30
0.0
 11
185.0
 21
216.3480999999999
 31
0.0
  0
LINE
  5
2FC
330
1E
100
AcDbEntity
  8
0
100
AcDbLine
 10
179.8799999999999
 20
216.1081
 30
0.0
 11
185.0
 21
216.8280999999999
 31
0.0
  0
LINE
  5
2FD
330
1E
100
AcDbEntity
  8
0
100
AcDbLine
 10
190.0399999999999
 20
215.6280999999999
 30
0.0
 11
194.6799999999999
 21
213.7081
 31
0.0
  0
LINE
  5
2FE
330
1E
100
AcDbEntity
  8
0
100
AcDbLine
 10
185.0
 20
216.3480999999999
 30
0.0
 11
190.0399999999999
 21
215.6280999999999
 31
0.0
  0
LINE
  5
2FF
330
1E
100
AcDbEntity
  8
0
100
AcDbLine
 10
190.12
 20
216.1081
 30
0.0
 11
194.9199999999999
 21
214.1881
 31
0.0
  0
LINE
  5
300
330
1E
100
AcDbEntity
  8
0
100
AcDbLine
 10
163.7599999999999
 20
218.0680999999999
 30
0.0
 11
170.12
 21
222.8680999999999
 31
0.0
  0
LINE
  5
301
330
1E
100
AcDbEntity
  8
0
100
AcDbLine
 10
170.12
 20
222.8680999999999
 30
0.0
 11
177.3199999999999
 21
225.7480999999999
 31
0.0
  0
LINE
  5
308
330
1E
100
AcDbEntity
  8
0
100
AcDbLine
 10
177.3199999999999
 20
225.7480999999999
 30
0.0
 11
185.0
 21
226.8280999999999
 31
0.0
  0
LINE
  5
309
330
1E
100
AcDbEntity
  8
0
100
AcDbLine
 10
206.24
 20
218.0680999999999
 30
0.0
 11
211.0399999999999
 21
211.7081
 31
0.0
  0
LINE
  5
30A
330
1E
100
AcDbEntity
  8
0
100
AcDbLine
 10
192.68
 20
225.7480999999999
 30
0.0
 11
199.8799999999999
 21
222.8680999999999
 31
0.0
  0
LINE
  5
30B
330
1E
100
AcDbEntity
  8
0
100
AcDbLine
 10
199.8799999999999
 20
222.8680999999999
 30
0.0
 11
206.24
 21
218.0680999999999
 31
0.0
  0
LINE
  5
30C
330
1E
100
AcDbEntity
  8
0
100
AcDbLine
 10
185.0
 20
226.8280999999999
 30
0.0
 11
192.68
 21
225.7480999999999
 31
0.0
  0
LINE
  5
30D
330
1E
100
AcDbEntity
  8
0
100
AcDbLine
 10
185.0
 20
216.8280999999999
 30
0.0
 11
190.12
 21
216.1081
 31
0.0
  0
LINE
  5
30E
330
1E
100
AcDbEntity
  8
0
100
AcDbLine
 10
270.22
 20
221.6080999999999
 30
0.0
 11
277.6399999999999
 21
227.2081
 31
0.0
  0
LINE
  5
30F
330
1E
100
AcDbEntity
  8
0
100
AcDbLine
 10
264.6199999999999
 20
214.1881
 30
0.0
 11
270.22
 21
221.6080999999999
 31
0.0
  0
LINE
  5
310
330
1E
100
AcDbEntity
  8
0
100
AcDbLine
 10
274.168
 20
208.7321
 30
0.0
 11
278.0079999999999
 21
213.8201
 31
0.0
  0
LINE
  5
32F
330
1E
100
AcDbEntity
  8
0
100
AcDbLine
 10
277.6399999999999
 20
227.2081
 30
0.0
 11
286.04
 21
230.5680999999999
 31
0.0
  0
LINE
  5
330
330
1E
100
AcDbEntity
  8
0
100
AcDbLine
 10
278.0079999999999
 20
213.8201
 30
0.0
 11
283.096
 21
217.6601
 31
0.0
  0
LINE
  5
339
330
1E
100
AcDbEntity
  8
0
100
AcDbLine
 10
305.4459999999999
 20
206.4030999999999
 30
0.0
 11
307.115
 21
205.8911
 31
0.0
  0
LINE
  5
33A
330
1E
100
AcDbEntity
  8
0
100
AcDbLine
 10
302.179
 20
207.1861
 30
0.0
 11
305.4459999999999
 21
206.4030999999999
 31
0.0
  0
LINE
  5
33B
330
1E
100
AcDbEntity
  8
0
100
AcDbLine
 10
301.854
 20
207.2470999999999
 30
0.0
 11
302.179
 21
207.1861
 31
0.0
  0
LINE
  5
33D
330
1E
100
AcDbEntity
  8
0
100
AcDbLine
 10
298.428
 20
207.7290999999999
 30
0.0
 11
301.854
 21
207.2470999999999
 31
0.0
  0
LINE
  5
342
330
1E
100
AcDbEntity
  8
0
100
AcDbLine
 10
312.375
 20
203.6340999999999
 30
0.0
 11
312.492
 21
203.2920999999999
 31
0.0
  0
LINE
  5
343
330
1E
100
AcDbEntity
  8
0
100
AcDbLine
 10
312.029
 20
203.9200999999999
 30
0.0
 11
312.279
 21
203.7281
 31
0.0
  0
LINE
  5
347
330
1E
100
AcDbEntity
  8
0
100
AcDbLine
 10
312.279
 20
203.7281
 30
0.0
 11
312.3259999999999
 21
203.6881
 31
0.0
  0
LINE
  5
348
330
1E
100
AcDbEntity
  8
0
100
AcDbLine
 10
312.3259999999999
 20
203.6881
 30
0.0
 11
312.375
 21
203.6340999999999
 31
0.0
  0
LINE
  5
34D
330
1E
100
AcDbEntity
  8
0
100
AcDbLine
 10
310.712
 20
204.5201
 30
0.0
 11
312.029
 21
203.9200999999999
 31
0.0
  0
LINE
  5
34E
330
1E
100
AcDbEntity
  8
0
100
AcDbLine
 10
310.423
 20
204.6361
 30
0.0
 11
310.712
 21
204.5201
 31
0.0
  0
LINE
  5
35B
330
1E
100
AcDbEntity
  8
0
100
AcDbLine
 10
308.903
 20
205.2541
 30
0.0
 11
310.423
 21
204.6361
 31
0.0
  0
LINE
  5
364
330
1E
100
AcDbEntity
  8
0
100
AcDbLine
 10
308.8349999999999
 20
205.2821
 30
0.0
 11
308.903
 21
205.2541
 31
0.0
  0
LINE
  5
366
330
1E
100
AcDbEntity
  8
0
100
AcDbLine
 10
308.7099999999999
 20
205.3190999999999
 30
0.0
 11
308.8349999999999
 21
205.2821
 31
0.0
  0
LINE
  5
36A
330
1E
100
AcDbEntity
  8
0
100
AcDbLine
 10
307.115
 20
205.8911
 30
0.0
 11
308.7099999999999
 21
205.3190999999999
 31
0.0
  0
LINE
  5
36B
330
1E
100
AcDbEntity
  8
0
100
AcDbLine
 10
296.4309999999999
 20
207.7830999999999
 30
0.0
 11
298.428
 21
207.7290999999999
 31
0.0
  0
LINE
  5
370
330
1E
100
AcDbEntity
  8
0
100
AcDbLine
 10
283.096
 20
217.6601
 30
0.0
 11
288.856
 21
219.9641
 31
0.0
  0
LINE
  5
371
330
1E
100
AcDbEntity
  8
0
100
AcDbLine
 10
295.0
 20
231.8281
 30
0.0
 11
303.96
 21
230.5680999999999
 31
0.0
  0
LINE
  5
372
330
1E
100
AcDbEntity
  8
0
100
AcDbLine
 10
286.04
 20
230.5680999999999
 30
0.0
 11
295.0
 21
231.8281
 31
0.0
  0
LINE
  5
374
330
1E
100
AcDbEntity
  8
0
100
AcDbLine
 10
295.0
 20
220.8280999999999
 30
0.0
 11
301.144
 21
219.9641
 31
0.0
  0
LINE
  5
375
330
1E
100
AcDbEntity
  8
0
100
AcDbLine
 10
288.856
 20
219.9641
 30
0.0
 11
295.0
 21
220.8280999999999
 31
0.0
  0
LINE
  5
399
330
1E
100
AcDbEntity
  8
0
100
AcDbLine
 10
315.8319999999999
 20
208.7321
 30
0.0
 11
318.1359999999999
 21
202.9721
 31
0.0
  0
LINE
  5
3BE
330
1E
100
AcDbEntity
  8
0
100
AcDbLine
 10
325.38
 20
214.1881
 30
0.0
 11
328.74
 21
205.7881
 31
0.0
  0
LINE
  5
3BF
330
1E
100
AcDbEntity
  8
0
100
AcDbLine
 10
311.992
 20
213.8201
 30
0.0
 11
315.8319999999999
 21
208.7321
 31
0.0
  0
LINE
  5
3C0
330
1E
100
AcDbEntity
  8
0
100
AcDbLine
 10
306.904
 20
217.6601
 30
0.0
 11
311.992
 21
213.8201
 31
0.0
  0
LINE
  5
3C1
330
1E
100
AcDbEntity
  8
0
100
AcDbLine
 10
319.7799999999999
 20
221.6080999999999
 30
0.0
 11
325.38
 21
214.1881
 31
0.0
  0
LINE
  5
3C4
330
1E
100
AcDbEntity
  8
0
100
AcDbLine
 10
312.36
 20
227.2081
 30
0.0
 11
319.7799999999999
 21
221.6080999999999
 31
0.0
  0
LINE
  5
3C5
330
1E
100
AcDbEntity
  8
0
100
AcDbLine
 10
303.96
 20
230.5680999999999
 30
0.0
 11
312.36
 21
227.2081
 31
0.0
  0
LINE
  5
3C6
330
1E
100
AcDbEntity
  8
0
100
AcDbLine
 10
301.144
 20
219.9641
 30
0.0
 11
306.904
 21
217.6601
 31
0.0
  0
LINE
  5
3C7
330
1E
100
AcDbEntity
  8
0
100
AcDbLine
 10
295.0
 20
207.8281
 30
0.0
 11
296.4309999999999
 21
207.7830999999999
 31
0.0
  0
LINE
  5
3D3
330
1E
100
AcDbEntity
  8
0
100
AcDbLine
 10
376.0799999999999
 20
204.5081
 30
0.0
 11
378.96
 21
211.7081
 31
0.0
  0
LINE
  5
3D4
330
1E
100
AcDbEntity
  8
0
100
AcDbLine
 10
375.0
 20
196.8281
 30
0.0
 11
376.0799999999999
 21
189.1480999999999
 31
0.0
  0
LINE
  5
3D5
330
1E
100
AcDbEntity
  8
0
100
AcDbLine
 10
375.0
 20
196.8281
 30
0.0
 11
376.0799999999999
 21
204.5081
 31
0.0
  0
LINE
  5
3D6
330
1E
100
AcDbEntity
  8
0
100
AcDbLine
 10
378.96
 20
211.7081
 30
0.0
 11
383.76
 21
218.0680999999999
 31
0.0
  0
LINE
  5
3D8
330
1E
100
AcDbEntity
  8
0
100
AcDbLine
 10
383.76
 20
218.0680999999999
 30
0.0
 11
390.12
 21
222.8680999999999
 31
0.0
  0
LINE
  5
3D9
330
1E
100
AcDbEntity
  8
0
100
AcDbLine
 10
376.0799999999999
 20
189.1480999999999
 30
0.0
 11
378.96
 21
181.9481
 31
0.0
  0
LINE
  5
3DA
330
1E
100
AcDbEntity
  8
0
100
AcDbLine
 10
378.96
 20
181.9481
 30
0.0
 11
383.76
 21
175.5881
 31
0.0
  0
LINE
  5
3DB
330
1E
100
AcDbEntity
  8
0
100
AcDbLine
 10
385.1679999999999
 20
196.8281
 30
0.0
 11
385.42
 21
195.0641
 31
0.0
  0
LINE
  5
3DC
330
1E
100
AcDbEntity
  8
0
100
AcDbLine
 10
385.1679999999999
 20
196.8281
 30
0.0
 11
385.42
 21
198.5920999999999
 31
0.0
  0
LINE
  5
3DD
330
1E
100
AcDbEntity
  8
0
100
AcDbLine
 10
385.2519999999999
 20
195.0361
 30
0.0
 11
385.924
 21
193.3561
 31
0.0
  0
LINE
  5
3DF
330
1E
100
AcDbEntity
  8
0
100
AcDbLine
 10
385.42
 20
195.0641
 30
0.0
 11
386.092
 21
193.4401
 31
0.0
  0
LINE
  5
3E0
330
1E
100
AcDbEntity
  8
0
100
AcDbLine
 10
385.2519999999999
 20
195.0361
 30
0.0
 11
385.72
 21
191.7080999999999
 31
0.0
  0
LINE
  5
3E1
330
1E
100
AcDbEntity
  8
0
100
AcDbLine
 10
385.42
 20
198.5920999999999
 30
0.0
 11
386.092
 21
200.2161
 31
0.0
  0
LINE
  5
3E2
330
1E
100
AcDbEntity
  8
0
100
AcDbLine
 10
385.2519999999999
 20
198.6201
 30
0.0
 11
385.924
 21
200.3000999999999
 31
0.0
  0
LINE
  5
3E4
330
1E
100
AcDbEntity
  8
0
100
AcDbLine
 10
385.2519999999999
 20
198.6201
 30
0.0
 11
385.72
 21
201.9481
 31
0.0
  0
LINE
  5
3E5
330
1E
100
AcDbEntity
  8
0
100
AcDbLine
 10
385.72
 20
201.9481
 30
0.0
 11
387.6399999999999
 21
206.7480999999999
 31
0.0
  0
LINE
  5
3E6
330
1E
100
AcDbEntity
  8
0
100
AcDbLine
 10
385.0
 20
196.8281
 30
0.0
 11
385.2519999999999
 21
195.0361
 31
0.0
  0
LINE
  5
3E7
330
1E
100
AcDbEntity
  8
0
100
AcDbLine
 10
385.0
 20
196.8281
 30
0.0
 11
385.2519999999999
 21
195.0361
 31
0.0
  0
LINE
  5
3E9
330
1E
100
AcDbEntity
  8
0
100
AcDbLine
 10
385.0
 20
196.8281
 30
0.0
 11
385.2519999999999
 21
198.6201
 31
0.0
  0
LINE
  5
3EA
330
1E
100
AcDbEntity
  8
0
100
AcDbLine
 10
385.0
 20
196.8281
 30
0.0
 11
385.2519999999999
 21
198.6201
 31
0.0
  0
LINE
  5
3EB
330
1E
100
AcDbEntity
  8
0
100
AcDbLine
 10
386.092
 20
200.2161
 30
0.0
 11
387.184
 21
201.6440999999999
 31
0.0
  0
LINE
  5
3EC
330
1E
100
AcDbEntity
  8
0
100
AcDbLine
 10
385.924
 20
200.3000999999999
 30
0.0
 11
387.044
 21
201.7840999999999
 31
0.0
  0
LINE
  5
3ED
330
1E
100
AcDbEntity
  8
0
100
AcDbLine
 10
385.9881409691629
 20
200.385086784141
 30
0.0
 11
386.2
 21
201.8680999999999
 31
0.0
  0
LINE
  5
3EE
330
1E
100
AcDbEntity
  8
0
100
AcDbLine
 10
386.2
 20
201.8680999999999
 30
0.0
 11
388.12
 21
206.5081
 31
0.0
  0
LINE
  5
3EF
330
1E
100
AcDbEntity
  8
0
100
AcDbLine
 10
386.092
 20
193.4401
 30
0.0
 11
387.184
 21
192.0121
 31
0.0
  0
LINE
  5
3F0
330
1E
100
AcDbEntity
  8
0
100
AcDbLine
 10
385.9881409691629
 20
193.271113215859
 30
0.0
 11
386.2
 21
191.7880999999999
 31
0.0
  0
LINE
  5
3F1
330
1E
100
AcDbEntity
  8
0
100
AcDbLine
 10
388.6119999999999
 20
190.9200999999999
 30
0.0
 11
390.2359999999999
 21
190.2480999999999
 31
0.0
  0
LINE
  5
3F2
330
1E
100
AcDbEntity
  8
0
100
AcDbLine
 10
390.2359999999999
 20
190.2480999999999
 30
0.0
 11
392.0
 21
189.9961
 31
0.0
  0
LINE
  5
3F3
330
1E
100
AcDbEntity
  8
0
100
AcDbLine
 10
387.184
 20
201.6440999999999
 30
0.0
 11
388.6119999999999
 21
202.7360999999999
 31
0.0
  0
LINE
  5
3F4
330
1E
100
AcDbEntity
  8
0
100
AcDbLine
 10
387.044
 20
201.7840999999999
 30
0.0
 11
388.528
 21
202.9040999999999
 31
0.0
  0
LINE
  5
3F5
330
1E
100
AcDbEntity
  8
0
100
AcDbLine
 10
388.6119999999999
 20
202.7360999999999
 30
0.0
 11
390.2359999999999
 21
203.4081
 31
0.0
  0
LINE
  5
3F6
330
1E
100
AcDbEntity
  8
0
100
AcDbLine
 10
388.528
 20
202.9040999999999
 30
0.0
 11
390.208
 21
203.5760999999999
 31
0.0
  0
LINE
  5
3F7
330
1E
100
AcDbEntity
  8
0
100
AcDbLine
 10
390.2359999999999
 20
203.4081
 30
0.0
 11
392.0
 21
203.6601
 31
0.0
  0
LINE
  5
3F8
330
1E
100
AcDbEntity
  8
0
100
AcDbLine
 10
390.208
 20
203.5760999999999
 30
0.0
 11
392.0
 21
203.8281
 31
0.0
  0
LINE
  5
3F9
330
1E
100
AcDbEntity
  8
0
100
AcDbLine
 10
388.12
 20
206.5081
 30
0.0
 11
391.24
 21
210.5881
 31
0.0
  0
LINE
  5
3FA
330
1E
100
AcDbEntity
  8
0
100
AcDbLine
 10
387.6399999999999
 20
206.7480999999999
 30
0.0
 11
390.8399999999999
 21
210.9881
 31
0.0
  0
LINE
  5
3FB
330
1E
100
AcDbEntity
  8
0
100
AcDbLine
 10
390.12
 20
222.8680999999999
 30
0.0
 11
397.3199999999999
 21
225.7480999999999
 31
0.0
  0
LINE
  5
3FC
330
1E
100
AcDbEntity
  8
0
100
AcDbLine
 10
390.8399999999999
 20
210.9881
 30
0.0
 11
395.08
 21
214.1881
 31
0.0
  0
LINE
  5
3FD
330
1E
100
AcDbEntity
  8
0
100
AcDbLine
 10
387.184
 20
192.0121
 30
0.0
 11
388.6119999999999
 21
190.9200999999999
 31
0.0
  0
LINE
  5
3FE
330
1E
100
AcDbEntity
  8
0
100
AcDbLine
 10
386.2
 20
191.7880999999999
 30
0.0
 11
388.12
 21
187.1480999999999
 31
0.0
  0
LINE
  5
3FF
330
1E
100
AcDbEntity
  8
0
100
AcDbLine
 10
388.12
 20
187.1480999999999
 30
0.0
 11
391.24
 21
183.0681
 31
0.0
  0
LINE
  5
400
330
1E
100
AcDbEntity
  8
0
100
AcDbLine
 10
385.72
 20
191.7080999999999
 30
0.0
 11
387.6399999999999
 21
186.9080999999999
 31
0.0
  0
LINE
  5
401
330
1E
100
AcDbEntity
  8
0
100
AcDbLine
 10
387.6399999999999
 20
186.9080999999999
 30
0.0
 11
390.8399999999999
 21
182.6681
 31
0.0
  0
LINE
  5
402
330
1E
100
AcDbEntity
  8
0
100
AcDbLine
 10
391.24
 20
210.5881
 30
0.0
 11
395.3199999999999
 21
213.7081
 31
0.0
  0
LINE
  5
403
330
1E
100
AcDbEntity
  8
0
100
AcDbLine
 10
392.0
 20
203.8281
 30
0.0
 11
418.0
 21
203.8281
 31
0.0
  0
LINE
  5
404
330
1E
100
AcDbEntity
  8
0
100
AcDbLine
 10
392.0
 20
203.6601
 30
0.0
 11
418.0
 21
203.6601
 31
0.0
  0
LINE
  5
405
330
1E
100
AcDbEntity
  8
0
100
AcDbLine
 10
397.3199999999999
 20
225.7480999999999
 30
0.0
 11
405.0
 21
226.8280999999999
 31
0.0
  0
LINE
  5
406
330
1E
100
AcDbEntity
  8
0
100
AcDbLine
 10
395.3199999999999
 20
213.7081
 30
0.0
 11
399.96
 21
215.6280999999999
 31
0.0
  0
LINE
  5
407
330
1E
100
AcDbEntity
  8
0
100
AcDbLine
 10
395.08
 20
214.1881
 30
0.0
 11
399.88
 21
216.1081
 31
0.0
  0
LINE
  5
408
330
1E
100
AcDbEntity
  8
0
100
AcDbLine
 10
392.0
 20
189.9961
 30
0.0
 11
418.0
 21
189.9961
 31
0.0
  0
LINE
  5
409
330
1E
100
AcDbEntity
  8
0
100
AcDbLine
 10
391.24
 20
183.0681
 30
0.0
 11
395.3199999999999
 21
179.9481
 31
0.0
  0
LINE
  5
40A
330
1E
100
AcDbEntity
  8
0
100
AcDbLine
 10
395.3199999999999
 20
179.9481
 30
0.0
 11
399.96
 21
178.0281
 31
0.0
  0
LINE
  5
40B
330
1E
100
AcDbEntity
  8
0
100
AcDbLine
 10
390.8399999999999
 20
182.6681
 30
0.0
 11
395.08
 21
179.4680999999999
 31
0.0
  0
LINE
  5
40C
330
1E
100
AcDbEntity
  8
0
100
AcDbLine
 10
395.08
 20
179.4680999999999
 30
0.0
 11
399.88
 21
177.5481
 31
0.0
  0
LINE
  5
40D
330
1E
100
AcDbEntity
  8
0
100
AcDbLine
 10
383.76
 20
175.5881
 30
0.0
 11
390.12
 21
170.7880999999999
 31
0.0
  0
LINE
  5
40E
330
1E
100
AcDbEntity
  8
0
100
AcDbLine
 10
390.12
 20
170.7880999999999
 30
0.0
 11
397.3199999999999
 21
167.9081
 31
0.0
  0
LINE
  5
40F
330
1E
100
AcDbEntity
  8
0
100
AcDbLine
 10
465.5109999999999
 20
39.6658
 30
0.0
 11
466.8249999999999
 21
33.77819999999999
 31
0.0
  0
LINE
  5
410
330
1E
100
AcDbEntity
  8
0
100
AcDbLine
 10
465.5109999999999
 20
48.54079999999999
 30
0.0
 11
466.8249999999999
 21
42.6531
 31
0.0
  0
LINE
  5
411
330
1E
100
AcDbEntity
  8
0
100
AcDbLine
 10
465.0
 20
45.48729999999999
 30
0.0
 11
465.0
 21
54.3624
 31
0.0
  0
LINE
  5
412
330
1E
100
AcDbEntity
  8
0
100
AcDbLine
 10
465.0
 20
45.48729999999999
 30
0.0
 11
465.5109999999999
 21
39.6658
 31
0.0
  0
LINE
  5
413
330
1E
100
AcDbEntity
  8
0
100
AcDbLine
 10
465.5109999999999
 20
60.1839
 30
0.0
 11
466.8249999999999
 21
66.0716
 31
0.0
  0
LINE
  5
414
330
1E
100
AcDbEntity
  8
0
100
AcDbLine
 10
465.0
 20
54.3624
 30
0.0
 11
465.5109999999999
 21
60.1839
 31
0.0
  0
LINE
  5
415
330
1E
100
AcDbEntity
  8
0
100
AcDbLine
 10
465.0
 20
54.3624
 30
0.0
 11
465.5109999999999
 21
48.54079999999999
 31
0.0
  0
LINE
  5
416
330
1E
100
AcDbEntity
  8
0
100
AcDbLine
 10
465.0
 20
54.3624
 30
0.0
 11
465.0
 21
45.48729999999999
 31
0.0
  0
LINE
  5
417
330
1E
100
AcDbEntity
  8
0
100
AcDbLine
 10
468.869
 20
28.155
 30
0.0
 11
471.715
 21
22.92889999999999
 31
0.0
  0
LINE
  5
418
330
1E
100
AcDbEntity
  8
0
100
AcDbLine
 10
466.8249999999999
 20
33.77819999999999
 30
0.0
 11
468.869
 21
28.155
 31
0.0
  0
LINE
  5
419
330
1E
100
AcDbEntity
  8
0
100
AcDbLine
 10
468.869
 20
37.03
 30
0.0
 11
471.715
 21
31.804
 31
0.0
  0
LINE
  5
41A
330
1E
100
AcDbEntity
  8
0
100
AcDbLine
 10
466.8249999999999
 20
42.6531
 30
0.0
 11
468.869
 21
37.03
 31
0.0
  0
LINE
  5
41B
330
1E
100
AcDbEntity
  8
0
100
AcDbLine
 10
475.365
 20
17.9673
 30
0.0
 11
479.6719999999999
 21
13.4688
 31
0.0
  0
LINE
  5
41C
330
1E
100
AcDbEntity
  8
0
100
AcDbLine
 10
471.715
 20
22.92889999999999
 30
0.0
 11
475.365
 21
17.9673
 31
0.0
  0
LINE
  5
41D
330
1E
100
AcDbEntity
  8
0
100
AcDbLine
 10
475.365
 20
26.8423
 30
0.0
 11
479.6719999999999
 21
22.3439
 31
0.0
  0
LINE
  5
41E
330
1E
100
AcDbEntity
  8
0
100
AcDbLine
 10
471.715
 20
31.804
 30
0.0
 11
475.365
 21
26.8423
 31
0.0
  0
LINE
  5
41F
330
1E
100
AcDbEntity
  8
0
100
AcDbLine
 10
479.6719999999999
 20
13.4688
 30
0.0
 11
484.635
 21
9.565900000000018
 31
0.0
  0
LINE
  5
420
330
1E
100
AcDbEntity
  8
0
100
AcDbLine
 10
479.6719999999999
 20
22.3439
 30
0.0
 11
484.635
 21
18.44089999999999
 31
0.0
  0
LINE
  5
421
330
1E
100
AcDbEntity
  8
0
100
AcDbLine
 10
480.183
 20
23.2297
 30
0.0
 11
485.073
 21
19.3926
 31
0.0
  0
LINE
  5
422
330
1E
100
AcDbEntity
  8
0
100
AcDbLine
 10
475.949
 20
27.66189999999999
 30
0.0
 11
480.183
 21
23.2297
 31
0.0
  0
LINE
  5
423
330
1E
100
AcDbEntity
  8
0
100
AcDbLine
 10
472.299
 20
32.55729999999999
 30
0.0
 11
475.949
 21
27.66189999999999
 31
0.0
  0
LINE
  5
424
330
1E
100
AcDbEntity
  8
0
100
AcDbLine
 10
469.599
 20
37.7173
 30
0.0
 11
472.299
 21
32.55729999999999
 31
0.0
  0
LINE
  5
425
330
1E
100
AcDbEntity
  8
0
100
AcDbLine
 10
467.4819999999999
 20
43.5388
 30
0.0
 11
469.599
 21
37.7173
 31
0.0
  0
LINE
  5
426
330
1E
100
AcDbEntity
  8
0
100
AcDbLine
 10
466.241
 20
49.0296
 30
0.0
 11
467.4819999999999
 21
43.5388
 31
0.0
  0
LINE
  5
427
330
1E
100
AcDbEntity
  8
0
100
AcDbLine
 10
466.8249999999999
 20
66.0716
 30
0.0
 11
468.869
 21
71.6947
 31
0.0
  0
LINE
  5
428
330
1E
100
AcDbEntity
  8
0
100
AcDbLine
 10
468.869
 20
71.6947
 30
0.0
 11
471.715
 21
76.9208
 31
0.0
  0
LINE
  5
429
330
1E
100
AcDbEntity
  8
0
100
AcDbLine
 10
471.715
 20
76.9208
 30
0.0
 11
475.365
 21
81.8824
 31
0.0
  0
LINE
  5
42A
330
1E
100
AcDbEntity
  8
0
100
AcDbLine
 10
475.365
 20
81.8824
 30
0.0
 11
479.6719999999999
 21
86.3809
 31
0.0
  0
LINE
  5
42B
330
1E
100
AcDbEntity
  8
0
100
AcDbLine
 10
475.949
 20
81.90800000000001
 30
0.0
 11
480.183
 21
86.3403
 31
0.0
  0
LINE
  5
42C
330
1E
100
AcDbEntity
  8
0
100
AcDbLine
 10
472.299
 20
77.01260000000001
 30
0.0
 11
475.949
 21
81.90800000000001
 31
0.0
  0
LINE
  5
42D
330
1E
100
AcDbEntity
  8
0
100
AcDbLine
 10
469.599
 20
71.8527
 30
0.0
 11
472.299
 21
77.01260000000001
 31
0.0
  0
LINE
  5
42E
330
1E
100
AcDbEntity
  8
0
100
AcDbLine
 10
467.4819999999999
 20
66.0311
 30
0.0
 11
469.599
 21
71.8527
 31
0.0
  0
LINE
  5
42F
330
1E
100
AcDbEntity
  8
0
100
AcDbLine
 10
466.241
 20
60.5404
 30
0.0
 11
467.4819999999999
 21
66.0311
 31
0.0
  0
LINE
  5
430
330
1E
100
AcDbEntity
  8
0
100
AcDbLine
 10
465.73
 20
54.785
 30
0.0
 11
466.241
 21
60.5404
 31
0.0
  0
LINE
  5
431
330
1E
100
AcDbEntity
  8
0
100
AcDbLine
 10
465.73
 20
54.785
 30
0.0
 11
466.241
 21
49.0296
 31
0.0
  0
LINE
  5
432
330
1E
100
AcDbEntity
  8
0
100
AcDbLine
 10
479.6719999999999
 20
86.3809
 30
0.0
 11
484.635
 21
90.28409999999999
 31
0.0
  0
LINE
  5
433
330
1E
100
AcDbEntity
  8
0
100
AcDbLine
 10
484.635
 20
9.565900000000018
 30
0.0
 11
490.109
 21
6.258100000000019
 31
0.0
  0
LINE
  5
434
330
1E
100
AcDbEntity
  8
0
100
AcDbLine
 10
490.109
 20
6.258100000000019
 30
0.0
 11
495.8759999999999
 21
3.67810000000002
 31
0.0
  0
LINE
  5
435
330
1E
100
AcDbEntity
  8
0
100
AcDbLine
 10
484.635
 20
18.44089999999999
 30
0.0
 11
490.109
 21
15.133
 31
0.0
  0
LINE
  5
436
330
1E
100
AcDbEntity
  8
0
100
AcDbLine
 10
490.109
 20
15.133
 30
0.0
 11
495.8759999999999
 21
12.5531
 31
0.0
  0
LINE
  5
437
330
1E
100
AcDbEntity
  8
0
100
AcDbLine
 10
485.073
 20
19.3926
 30
0.0
 11
490.4749999999999
 21
16.085
 31
0.0
  0
LINE
  5
438
330
1E
100
AcDbEntity
  8
0
100
AcDbLine
 10
490.4749999999999
 20
16.085
 30
0.0
 11
496.168
 21
13.6372
 31
0.0
  0
LINE
  5
439
330
1E
100
AcDbEntity
  8
0
100
AcDbLine
 10
480.183
 20
86.3403
 30
0.0
 11
485.073
 21
90.17709999999999
 31
0.0
  0
LINE
  5
43A
330
1E
100
AcDbEntity
  8
0
100
AcDbLine
 10
484.635
 20
90.28409999999999
 30
0.0
 11
490.109
 21
93.59109999999999
 31
0.0
  0
LINE
  5
43B
330
1E
100
AcDbEntity
  8
0
100
AcDbLine
 10
490.109
 20
93.59109999999999
 30
0.0
 11
495.8759999999999
 21
96.1721
 31
0.0
  0
LINE
  5
43C
330
1E
100
AcDbEntity
  8
0
100
AcDbLine
 10
485.073
 20
90.17709999999999
 30
0.0
 11
490.4749999999999
 21
93.4851
 31
0.0
  0
LINE
  5
43D
330
1E
100
AcDbEntity
  8
0
100
AcDbLine
 10
495.8759999999999
 20
3.67810000000002
 30
0.0
 11
502.08
 21
1.82580000000002
 31
0.0
  0
LINE
  5
43E
330
1E
100
AcDbEntity
  8
0
100
AcDbLine
 10
495.8759999999999
 20
12.5531
 30
0.0
 11
502.08
 21
10.7007
 31
0.0
  0
LINE
  5
43F
330
1E
100
AcDbEntity
  8
0
100
AcDbLine
 10
496.168
 20
13.6372
 30
0.0
 11
502.591
 21
11.7188
 31
0.0
  0
LINE
  5
440
330
1E
100
AcDbEntity
  8
0
100
AcDbLine
 10
490.4749999999999
 20
93.4851
 30
0.0
 11
496.168
 21
95.9331
 31
0.0
  0
LINE
  5
441
330
1E
100
AcDbEntity
  8
0
100
AcDbLine
 10
495.8759999999999
 20
96.1721
 30
0.0
 11
502.08
 21
98.02410000000001
 31
0.0
  0
LINE
  5
442
330
1E
100
AcDbEntity
  8
0
100
AcDbLine
 10
496.168
 20
95.9331
 30
0.0
 11
502.591
 21
97.85110000000001
 31
0.0
  0
LINE
  5
443
330
1E
100
AcDbEntity
  8
0
100
AcDbLine
 10
502.08
 20
1.82580000000002
 30
0.0
 11
508.577
 21
0.6350000000000211
 31
0.0
  0
LINE
  5
444
330
1E
100
AcDbEntity
  8
0
100
AcDbLine
 10
508.577
 20
0.6350000000000211
 30
0.0
 11
515.0
 21
0.171900000000022
 31
0.0
  0
LINE
  5
445
330
1E
100
AcDbEntity
  8
0
100
AcDbLine
 10
508.577
 20
9.510000000000019
 30
0.0
 11
515.0
 21
9.046900000000018
 31
0.0
  0
LINE
  5
446
330
1E
100
AcDbEntity
  8
0
100
AcDbLine
 10
515.0
 20
0.171900000000022
 30
0.0
 11
521.4229999999999
 21
0.6350000000000211
 31
0.0
  0
LINE
  5
447
330
1E
100
AcDbEntity
  8
0
100
AcDbLine
 10
521.4229999999999
 20
0.6350000000000211
 30
0.0
 11
527.9199999999999
 21
1.82580000000002
 31
0.0
  0
LINE
  5
448
330
1E
100
AcDbEntity
  8
0
100
AcDbLine
 10
521.4229999999999
 20
9.510000000000019
 30
0.0
 11
527.9199999999999
 21
10.7007
 31
0.0
  0
LINE
  5
449
330
1E
100
AcDbEntity
  8
0
100
AcDbLine
 10
515.0
 20
9.046900000000018
 30
0.0
 11
521.4229999999999
 21
9.510000000000019
 31
0.0
  0
LINE
  5
44A
330
1E
100
AcDbEntity
  8
0
100
AcDbLine
 10
502.08
 20
10.7007
 30
0.0
 11
508.577
 21
9.510000000000019
 31
0.0
  0
LINE
  5
44B
330
1E
100
AcDbEntity
  8
0
100
AcDbLine
 10
502.591
 20
11.7188
 30
0.0
 11
508.65
 21
10.5942
 31
0.0
  0
LINE
  5
44C
330
1E
100
AcDbEntity
  8
0
100
AcDbLine
 10
502.08
 20
98.02410000000001
 30
0.0
 11
508.577
 21
99.21510000000001
 31
0.0
  0
LINE
  5
44D
330
1E
100
AcDbEntity
  8
0
100
AcDbLine
 10
506.36
 20
98.80868981068191
 30
0.0
 11
506.36
 21
108.3180999999999
 31
0.0
  0
LINE
  5
44E
330
1E
100
AcDbEntity
  8
0
100
AcDbLine
 10
508.65
 20
10.5942
 30
0.0
 11
515.0
 21
10.13109999999999
 31
0.0
  0
LINE
  5
44F
330
1E
100
AcDbEntity
  8
0
100
AcDbLine
 10
502.591
 20
97.85110000000001
 30
0.0
 11
508.65
 21
98.9761
 31
0.0
  0
LINE
  5
450
330
1E
100
AcDbEntity
  8
0
100
AcDbLine
 10
508.577
 20
99.21510000000001
 30
0.0
 11
515.0
 21
99.6781
 31
0.0
  0
LINE
  5
451
330
1E
100
AcDbEntity
  8
0
100
AcDbLine
 10
508.65
 20
98.9761
 30
0.0
 11
515.0
 21
99.4391
 31
0.0
  0
LINE
  5
452
330
1E
100
AcDbEntity
  8
0
100
AcDbLine
 10
521.35
 20
98.9761
 30
0.0
 11
527.409
 21
97.85110000000001
 31
0.0
  0
LINE
  5
453
330
1E
100
AcDbEntity
  8
0
100
AcDbLine
 10
503.384
 20
106.9381
 30
0.0
 11
504.6319999999999
 21
105.6351
 31
0.0
  0
LINE
  5
454
330
1E
100
AcDbEntity
  8
0
100
AcDbLine
 10
503.0
 20
108.3180999999999
 30
0.0
 11
503.384
 21
109.7371
 31
0.0
  0
LINE
  5
455
330
1E
100
AcDbEntity
  8
0
100
AcDbLine
 10
503.0
 20
108.3180999999999
 30
0.0
 11
503.384
 21
106.9381
 31
0.0
  0
LINE
  5
456
330
1E
100
AcDbEntity
  8
0
100
AcDbLine
 10
503.0
 20
108.3180999999999
 30
0.0
 11
503.0
 21
168.7991
 31
0.0
  0
LINE
  5
457
330
1E
100
AcDbEntity
  8
0
100
AcDbLine
 10
504.6319999999999
 20
105.6351
 30
0.0
 11
506.36
 21
104.6063999999999
 31
0.0
  0
LINE
  5
458
330
1E
100
AcDbEntity
  8
0
100
AcDbLine
 10
503.384
 20
109.7371
 30
0.0
 11
504.6319999999999
 21
111.0391
 31
0.0
  0
LINE
  5
459
330
1E
100
AcDbEntity
  8
0
100
AcDbLine
 10
504.6319999999999
 20
111.0391
 30
0.0
 11
506.5519999999999
 21
112.1821
 31
0.0
  0
LINE
  5
45A
330
1E
100
AcDbEntity
  8
0
100
AcDbLine
 10
506.5519999999999
 20
112.1821
 30
0.0
 11
509.048
 21
113.0511
 31
0.0
  0
LINE
  5
45B
330
1E
100
AcDbEntity
  8
0
100
AcDbLine
 10
512.7919999999999
 20
112.1040999999999
 30
0.0
 11
515.0
 21
112.2611
 31
0.0
  0
LINE
  5
45C
330
1E
100
AcDbEntity
  8
0
100
AcDbLine
 10
510.6799999999999
 20
111.7091
 30
0.0
 11
512.7919999999999
 21
112.1040999999999
 31
0.0
  0
LINE
  5
45D
330
1E
100
AcDbEntity
  8
0
100
AcDbLine
 10
508.856
 20
111.0791
 30
0.0
 11
510.6799999999999
 21
111.7091
 31
0.0
  0
LINE
  5
45E
330
1E
100
AcDbEntity
  8
0
100
AcDbLine
 10
507.5119999999999
 20
110.2891
 30
0.0
 11
508.856
 21
111.0791
 31
0.0
  0
LINE
  5
45F
330
1E
100
AcDbEntity
  8
0
100
AcDbLine
 10
506.648
 20
109.3420999999999
 30
0.0
 11
507.5119999999999
 21
110.2891
 31
0.0
  0
LINE
  5
460
330
1E
100
AcDbEntity
  8
0
100
AcDbLine
 10
506.36
 20
108.3180999999999
 30
0.0
 11
506.36
 21
98.80868981068191
 31
0.0
  0
LINE
  5
461
330
1E
100
AcDbEntity
  8
0
100
AcDbLine
 10
506.36
 20
108.3180999999999
 30
0.0
 11
506.648
 21
109.3420999999999
 31
0.0
  0
LINE
  5
462
330
1E
100
AcDbEntity
  8
0
100
AcDbLine
 10
509.048
 20
113.0511
 30
0.0
 11
511.928
 21
113.5620999999999
 31
0.0
  0
LINE
  5
463
330
1E
100
AcDbEntity
  8
0
100
AcDbLine
 10
511.928
 20
113.5620999999999
 30
0.0
 11
515.0
 21
113.7600999999999
 31
0.0
  0
LINE
  5
464
330
1E
100
AcDbEntity
  8
0
100
AcDbLine
 10
515.0
 20
113.7600999999999
 30
0.0
 11
518.0719999999999
 21
113.5620999999999
 31
0.0
  0
LINE
  5
465
330
1E
100
AcDbEntity
  8
0
100
AcDbLine
 10
515.0
 20
112.2611
 30
0.0
 11
517.2080000000001
 21
112.1040999999999
 31
0.0
  0
LINE
  5
466
330
1E
100
AcDbEntity
  8
0
100
AcDbLine
 10
521.144
 20
111.0791
 30
0.0
 11
522.488
 21
110.2891
 31
0.0
  0
LINE
  5
467
330
1E
100
AcDbEntity
  8
0
100
AcDbLine
 10
519.32
 20
111.7091
 30
0.0
 11
521.144
 21
111.0791
 31
0.0
  0
LINE
  5
468
330
1E
100
AcDbEntity
  8
0
100
AcDbLine
 10
520.952
 20
113.0511
 30
0.0
 11
523.4479999999999
 21
112.1821
 31
0.0
  0
LINE
  5
469
330
1E
100
AcDbEntity
  8
0
100
AcDbLine
 10
518.0719999999999
 20
113.5620999999999
 30
0.0
 11
520.952
 21
113.0511
 31
0.0
  0
LINE
  5
46A
330
1E
100
AcDbEntity
  8
0
100
AcDbLine
 10
517.2080000000001
 20
112.1040999999999
 30
0.0
 11
519.32
 21
111.7091
 31
0.0
  0
LINE
  5
46B
330
1E
100
AcDbEntity
  8
0
100
AcDbLine
 10
515.0
 20
99.6781
 30
0.0
 11
521.4229999999999
 21
99.21510000000001
 31
0.0
  0
LINE
  5
46C
330
1E
100
AcDbEntity
  8
0
100
AcDbLine
 10
515.0
 20
99.4391
 30
0.0
 11
521.35
 21
98.9761
 31
0.0
  0
LINE
  5
46D
330
1E
100
AcDbEntity
  8
0
100
AcDbLine
 10
523.6399999999999
 20
98.80868981068191
 30
0.0
 11
523.6399999999999
 21
108.3180999999999
 31
0.0
  0
LINE
  5
46E
330
1E
100
AcDbEntity
  8
0
100
AcDbLine
 10
523.6399999999999
 20
104.6063999999999
 30
0.0
 11
525.3680000000001
 21
105.6351
 31
0.0
  0
LINE
  5
46F
330
1E
100
AcDbEntity
  8
0
100
AcDbLine
 10
525.3680000000001
 20
105.6351
 30
0.0
 11
526.616
 21
106.9381
 31
0.0
  0
LINE
  5
470
330
1E
100
AcDbEntity
  8
0
100
AcDbLine
 10
527.0
 20
108.3180999999999
 30
0.0
 11
527.0
 21
168.7991
 31
0.0
  0
LINE
  5
471
330
1E
100
AcDbEntity
  8
0
100
AcDbLine
 10
526.616
 20
106.9381
 30
0.0
 11
527.0
 21
108.3180999999999
 31
0.0
  0
LINE
  5
472
330
1E
100
AcDbEntity
  8
0
100
AcDbLine
 10
523.6399999999999
 20
108.3180999999999
 30
0.0
 11
523.6399999999999
 21
98.80868981068191
 31
0.0
  0
LINE
  5
473
330
1E
100
AcDbEntity
  8
0
100
AcDbLine
 10
526.616
 20
109.7371
 30
0.0
 11
527.0
 21
108.3180999999999
 31
0.0
  0
LINE
  5
475
330
1E
100
AcDbEntity
  8
0
100
AcDbLine
 10
525.3680000000001
 20
111.0391
 30
0.0
 11
526.616
 21
109.7371
 31
0.0
  0
LINE
  5
476
330
1E
100
AcDbEntity
  8
0
100
AcDbLine
 10
523.4479999999999
 20
112.1821
 30
0.0
 11
525.3680000000001
 21
111.0391
 31
0.0
  0
LINE
  5
477
330
1E
100
AcDbEntity
  8
0
100
AcDbLine
 10
523.3519999999999
 20
109.3420999999999
 30
0.0
 11
523.6399999999999
 21
108.3180999999999
 31
0.0
  0
LINE
  5
478
330
1E
100
AcDbEntity
  8
0
100
AcDbLine
 10
522.488
 20
110.2891
 30
0.0
 11
523.3519999999999
 21
109.3420999999999
 31
0.0
  0
LINE
  5
479
330
1E
100
AcDbEntity
  8
0
100
AcDbLine
 10
521.4229999999999
 20
99.21510000000001
 30
0.0
 11
527.9199999999999
 21
98.02410000000001
 31
0.0
  0
LINE
  5
47A
330
1E
100
AcDbEntity
  8
0
100
AcDbLine
 10
521.35
 20
10.5942
 30
0.0
 11
527.409
 21
11.7188
 31
0.0
  0
LINE
  5
47B
330
1E
100
AcDbEntity
  8
0
100
AcDbLine
 10
515.0
 20
10.13109999999999
 30
0.0
 11
521.35
 21
10.5942
 31
0.0
  0
LINE
  5
47C
330
1E
100
AcDbEntity
  8
0
100
AcDbLine
 10
527.9199999999999
 20
1.82580000000002
 30
0.0
 11
534.1239999999999
 21
3.67810000000002
 31
0.0
  0
LINE
  5
47D
330
1E
100
AcDbEntity
  8
0
100
AcDbLine
 10
545.365
 20
9.565900000000018
 30
0.0
 11
550.329
 21
13.4688
 31
0.0
  0
LINE
  5
47E
330
1E
100
AcDbEntity
  8
0
100
AcDbLine
 10
539.8909999999999
 20
6.258100000000019
 30
0.0
 11
545.365
 21
9.565900000000018
 31
0.0
  0
LINE
  5
47F
330
1E
100
AcDbEntity
  8
0
100
AcDbLine
 10
534.1239999999999
 20
3.67810000000002
 30
0.0
 11
539.8909999999999
 21
6.258100000000019
 31
0.0
  0
LINE
  5
480
330
1E
100
AcDbEntity
  8
0
100
AcDbLine
 10
527.9199999999999
 20
10.7007
 30
0.0
 11
534.1239999999999
 21
12.5531
 31
0.0
  0
LINE
  5
481
330
1E
100
AcDbEntity
  8
0
100
AcDbLine
 10
533.832
 20
95.9331
 30
0.0
 11
539.5249999999999
 21
93.4851
 31
0.0
  0
LINE
  5
482
330
1E
100
AcDbEntity
  8
0
100
AcDbLine
 10
527.9199999999999
 20
98.02410000000001
 30
0.0
 11
534.1239999999999
 21
96.1721
 31
0.0
  0
LINE
  5
483
330
1E
100
AcDbEntity
  8
0
100
AcDbLine
 10
527.409
 20
97.85110000000001
 30
0.0
 11
533.832
 21
95.9331
 31
0.0
  0
LINE
  5
484
330
1E
100
AcDbEntity
  8
0
100
AcDbLine
 10
550.329
 20
13.4688
 30
0.0
 11
554.635
 21
17.9673
 31
0.0
  0
LINE
  5
485
330
1E
100
AcDbEntity
  8
0
100
AcDbLine
 10
539.8909999999999
 20
15.133
 30
0.0
 11
545.365
 21
18.44089999999999
 31
0.0
  0
LINE
  5
486
330
1E
100
AcDbEntity
  8
0
100
AcDbLine
 10
534.1239999999999
 20
12.5531
 30
0.0
 11
539.8909999999999
 21
15.133
 31
0.0
  0
LINE
  5
487
330
1E
100
AcDbEntity
  8
0
100
AcDbLine
 10
544.927
 20
90.17709999999999
 30
0.0
 11
549.8179999999999
 21
86.3403
 31
0.0
  0
LINE
  5
488
330
1E
100
AcDbEntity
  8
0
100
AcDbLine
 10
539.8909999999999
 20
93.59109999999999
 30
0.0
 11
545.365
 21
90.28409999999999
 31
0.0
  0
LINE
  5
489
330
1E
100
AcDbEntity
  8
0
100
AcDbLine
 10
534.1239999999999
 20
96.1721
 30
0.0
 11
539.8909999999999
 21
93.59109999999999
 31
0.0
  0
LINE
  5
48A
330
1E
100
AcDbEntity
  8
0
100
AcDbLine
 10
539.5249999999999
 20
93.4851
 30
0.0
 11
544.927
 21
90.17709999999999
 31
0.0
  0
LINE
  5
48B
330
1E
100
AcDbEntity
  8
0
100
AcDbLine
 10
554.635
 20
17.9673
 30
0.0
 11
558.2849999999999
 21
22.92889999999999
 31
0.0
  0
LINE
  5
48C
330
1E
100
AcDbEntity
  8
0
100
AcDbLine
 10
550.329
 20
22.3439
 30
0.0
 11
554.635
 21
26.8423
 31
0.0
  0
LINE
  5
48D
330
1E
100
AcDbEntity
  8
0
100
AcDbLine
 10
549.8179999999999
 20
23.2297
 30
0.0
 11
554.0509999999999
 21
27.66189999999999
 31
0.0
  0
LINE
  5
48E
330
1E
100
AcDbEntity
  8
0
100
AcDbLine
 10
558.2849999999999
 20
22.92889999999999
 30
0.0
 11
561.1309999999999
 21
28.155
 31
0.0
  0
LINE
  5
48F
330
1E
100
AcDbEntity
  8
0
100
AcDbLine
 10
554.635
 20
26.8423
 30
0.0
 11
558.2849999999999
 21
31.804
 31
0.0
  0
LINE
  5
490
330
1E
100
AcDbEntity
  8
0
100
AcDbLine
 10
558.2849999999999
 20
31.804
 30
0.0
 11
561.1309999999999
 21
37.03
 31
0.0
  0
LINE
  5
491
330
1E
100
AcDbEntity
  8
0
100
AcDbLine
 10
554.0509999999999
 20
27.66189999999999
 30
0.0
 11
557.701
 21
32.55729999999999
 31
0.0
  0
LINE
  5
492
330
1E
100
AcDbEntity
  8
0
100
AcDbLine
 10
557.701
 20
32.55729999999999
 30
0.0
 11
560.4009999999999
 21
37.7173
 31
0.0
  0
LINE
  5
493
330
1E
100
AcDbEntity
  8
0
100
AcDbLine
 10
561.1309999999999
 20
28.155
 30
0.0
 11
563.1749999999999
 21
33.77819999999999
 31
0.0
  0
LINE
  5
494
330
1E
100
AcDbEntity
  8
0
100
AcDbLine
 10
563.1749999999999
 20
33.77819999999999
 30
0.0
 11
564.489
 21
39.6658
 31
0.0
  0
LINE
  5
495
330
1E
100
AcDbEntity
  8
0
100
AcDbLine
 10
561.1309999999999
 20
37.03
 30
0.0
 11
563.1749999999999
 21
42.6531
 31
0.0
  0
LINE
  5
496
330
1E
100
AcDbEntity
  8
0
100
AcDbLine
 10
563.1749999999999
 20
42.6531
 30
0.0
 11
564.489
 21
48.54079999999999
 31
0.0
  0
LINE
  5
497
330
1E
100
AcDbEntity
  8
0
100
AcDbLine
 10
560.4009999999999
 20
37.7173
 30
0.0
 11
562.518
 21
43.5388
 31
0.0
  0
LINE
  5
498
330
1E
100
AcDbEntity
  8
0
100
AcDbLine
 10
558.2849999999999
 20
76.9208
 30
0.0
 11
561.1309999999999
 21
71.6947
 31
0.0
  0
LINE
  5
499
330
1E
100
AcDbEntity
  8
0
100
AcDbLine
 10
545.365
 20
90.28409999999999
 30
0.0
 11
550.329
 21
86.3809
 31
0.0
  0
LINE
  5
49C
330
1E
100
AcDbEntity
  8
0
100
AcDbLine
 10
550.329
 20
86.3809
 30
0.0
 11
554.635
 21
81.8824
 31
0.0
  0
LINE
  5
49D
330
1E
100
AcDbEntity
  8
0
100
AcDbLine
 10
549.8179999999999
 20
86.3403
 30
0.0
 11
554.0509999999999
 21
81.90800000000001
 31
0.0
  0
LINE
  5
49F
330
1E
100
AcDbEntity
  8
0
100
AcDbLine
 10
554.635
 20
81.8824
 30
0.0
 11
558.2849999999999
 21
76.9208
 31
0.0
  0
LINE
  5
4A0
330
1E
100
AcDbEntity
  8
0
100
AcDbLine
 10
554.0509999999999
 20
81.90800000000001
 30
0.0
 11
557.701
 21
77.01260000000001
 31
0.0
  0
LINE
  5
4A1
330
1E
100
AcDbEntity
  8
0
100
AcDbLine
 10
557.701
 20
77.01260000000001
 30
0.0
 11
560.4009999999999
 21
71.8527
 31
0.0
  0
LINE
  5
4A2
330
1E
100
AcDbEntity
  8
0
100
AcDbLine
 10
561.1309999999999
 20
71.6947
 30
0.0
 11
563.1749999999999
 21
66.0716
 31
0.0
  0
LINE
  5
4A3
330
1E
100
AcDbEntity
  8
0
100
AcDbLine
 10
563.1749999999999
 20
66.0716
 30
0.0
 11
564.489
 21
60.1839
 31
0.0
  0
LINE
  5
4A4
330
1E
100
AcDbEntity
  8
0
100
AcDbLine
 10
560.4009999999999
 20
71.8527
 30
0.0
 11
562.518
 21
66.0311
 31
0.0
  0
LINE
  5
4A5
330
1E
100
AcDbEntity
  8
0
100
AcDbLine
 10
562.518
 20
66.0311
 30
0.0
 11
563.759
 21
60.5404
 31
0.0
  0
LINE
  5
4A6
330
1E
100
AcDbEntity
  8
0
100
AcDbLine
 10
563.759
 20
60.5404
 30
0.0
 11
564.2699999999999
 21
54.785
 31
0.0
  0
LINE
  5
4A7
330
1E
100
AcDbEntity
  8
0
100
AcDbLine
 10
562.518
 20
43.5388
 30
0.0
 11
563.759
 21
49.0296
 31
0.0
  0
LINE
  5
4A8
330
1E
100
AcDbEntity
  8
0
100
AcDbLine
 10
565.0
 20
45.48729999999999
 30
0.0
 11
565.0
 21
54.3624
 31
0.0
  0
LINE
  5
4A9
330
1E
100
AcDbEntity
  8
0
100
AcDbLine
 10
564.489
 20
39.6658
 30
0.0
 11
565.0
 21
45.48729999999999
 31
0.0
  0
LINE
  5
4AB
330
1E
100
AcDbEntity
  8
0
100
AcDbLine
 10
565.0
 20
54.3624
 30
0.0
 11
565.0
 21
45.48729999999999
 31
0.0
  0
LINE
  5
4AC
330
1E
100
AcDbEntity
  8
0
100
AcDbLine
 10
564.489
 20
60.1839
 30
0.0
 11
565.0
 21
54.3624
 31
0.0
  0
LINE
  5
4AD
330
1E
100
AcDbEntity
  8
0
100
AcDbLine
 10
564.489
 20
48.54079999999999
 30
0.0
 11
565.0
 21
54.3624
 31
0.0
  0
LINE
  5
4AE
330
1E
100
AcDbEntity
  8
0
100
AcDbLine
 10
563.759
 20
49.0296
 30
0.0
 11
564.2699999999999
 21
54.785
 31
0.0
  0
LINE
  5
4AF
330
1E
100
AcDbEntity
  8
0
100
AcDbLine
 10
545.365
 20
18.44089999999999
 30
0.0
 11
550.329
 21
22.3439
 31
0.0
  0
LINE
  5
4B0
330
1E
100
AcDbEntity
  8
0
100
AcDbLine
 10
544.927
 20
19.3926
 30
0.0
 11
549.8179999999999
 21
23.2297
 31
0.0
  0
LINE
  5
4B1
330
1E
100
AcDbEntity
  8
0
100
AcDbLine
 10
539.5249999999999
 20
16.085
 30
0.0
 11
544.927
 21
19.3926
 31
0.0
  0
LINE
  5
4B2
330
1E
100
AcDbEntity
  8
0
100
AcDbLine
 10
533.832
 20
13.6372
 30
0.0
 11
539.5249999999999
 21
16.085
 31
0.0
  0
LINE
  5
4B3
330
1E
100
AcDbEntity
  8
0
100
AcDbLine
 10
527.409
 20
11.7188
 30
0.0
 11
533.832
 21
13.6372
 31
0.0
  0
LINE
  5
4B4
330
1E
100
AcDbEntity
  8
0
100
AcDbLine
 10
527.0
 20
164.342385714286
 30
0.0
 11
532.3999999999999
 21
166.5281
 31
0.0
  0
LINE
  5
4B5
330
1E
100
AcDbEntity
  8
0
100
AcDbLine
 10
532.3999999999999
 20
166.5281
 30
0.0
 11
539.7
 21
172.1280999999999
 31
0.0
  0
LINE
  5
4B6
330
1E
100
AcDbEntity
  8
0
100
AcDbLine
 10
527.0
 20
165.396392682927
 30
0.0
 11
531.8999999999999
 21
167.4281
 31
0.0
  0
LINE
  5
4B7
330
1E
100
AcDbEntity
  8
0
100
AcDbLine
 10
497.5999999999999
 20
166.5281
 30
0.0
 11
503.0
 21
164.342385714286
 31
0.0
  0
LINE
  5
4B8
330
1E
100
AcDbEntity
  8
0
100
AcDbLine
 10
405.0
 20
177.3080999999999
 30
0.0
 11
410.04
 21
178.0281
 31
0.0
  0
LINE
  5
4B9
330
1E
100
AcDbEntity
  8
0
100
AcDbLine
 10
410.12
 20
177.5481
 30
0.0
 11
414.92
 21
179.4680999999999
 31
0.0
  0
LINE
  5
4BA
330
1E
100
AcDbEntity
  8
0
100
AcDbLine
 10
405.0
 20
176.8280999999999
 30
0.0
 11
410.12
 21
177.5481
 31
0.0
  0
LINE
  5
4BB
330
1E
100
AcDbEntity
  8
0
100
AcDbLine
 10
399.96
 20
215.6280999999999
 30
0.0
 11
405.0
 21
216.3480999999999
 31
0.0
  0
LINE
  5
4BC
330
1E
100
AcDbEntity
  8
0
100
AcDbLine
 10
399.88
 20
216.1081
 30
0.0
 11
405.0
 21
216.8280999999999
 31
0.0
  0
LINE
  5
4BD
330
1E
100
AcDbEntity
  8
0
100
AcDbLine
 10
410.04
 20
178.0281
 30
0.0
 11
414.6799999999999
 21
179.9481
 31
0.0
  0
LINE
  5
4BE
330
1E
100
AcDbEntity
  8
0
100
AcDbLine
 10
405.0
 20
226.8280999999999
 30
0.0
 11
412.68
 21
225.7480999999999
 31
0.0
  0
LINE
  5
4BF
330
1E
100
AcDbEntity
  8
0
100
AcDbLine
 10
405.0
 20
216.3480999999999
 30
0.0
 11
410.04
 21
215.6280999999999
 31
0.0
  0
LINE
  5
4C0
330
1E
100
AcDbEntity
  8
0
100
AcDbLine
 10
414.6799999999999
 20
213.7081
 30
0.0
 11
418.7599999999999
 21
210.5881
 31
0.0
  0
LINE
  5
4C1
330
1E
100
AcDbEntity
  8
0
100
AcDbLine
 10
410.04
 20
215.6280999999999
 30
0.0
 11
414.6799999999999
 21
213.7081
 31
0.0
  0
LINE
  5
4C2
330
1E
100
AcDbEntity
  8
0
100
AcDbLine
 10
418.0
 20
203.6601
 30
0.0
 11
419.7639999999999
 21
203.4081
 31
0.0
  0
LINE
  5
4C3
330
1E
100
AcDbEntity
  8
0
100
AcDbLine
 10
418.0
 20
203.8281
 30
0.0
 11
419.7919999999999
 21
203.5760999999999
 31
0.0
  0
LINE
  5
4C4
330
1E
100
AcDbEntity
  8
0
100
AcDbLine
 10
418.7599999999999
 20
210.5881
 30
0.0
 11
421.8799999999999
 21
206.5081
 31
0.0
  0
LINE
  5
4C5
330
1E
100
AcDbEntity
  8
0
100
AcDbLine
 10
414.92
 20
214.1881
 30
0.0
 11
419.16
 21
210.9881
 31
0.0
  0
LINE
  5
4C6
330
1E
100
AcDbEntity
  8
0
100
AcDbLine
 10
412.68
 20
225.7480999999999
 30
0.0
 11
419.88
 21
222.8680999999999
 31
0.0
  0
LINE
  5
4C7
330
1E
100
AcDbEntity
  8
0
100
AcDbLine
 10
410.12
 20
216.1081
 30
0.0
 11
414.92
 21
214.1881
 31
0.0
  0
LINE
  5
4C8
330
1E
100
AcDbEntity
  8
0
100
AcDbLine
 10
405.0
 20
216.8280999999999
 30
0.0
 11
410.12
 21
216.1081
 31
0.0
  0
LINE
  5
4C9
330
1E
100
AcDbEntity
  8
0
100
AcDbLine
 10
418.0
 20
189.9961
 30
0.0
 11
419.7639999999999
 21
190.2480999999999
 31
0.0
  0
LINE
  5
4CA
330
1E
100
AcDbEntity
  8
0
100
AcDbLine
 10
419.16
 20
210.9881
 30
0.0
 11
422.36
 21
206.7480999999999
 31
0.0
  0
LINE
  5
4CB
330
1E
100
AcDbEntity
  8
0
100
AcDbLine
 10
418.7599999999999
 20
183.0681
 30
0.0
 11
421.8799999999999
 21
187.1480999999999
 31
0.0
  0
LINE
  5
4CC
330
1E
100
AcDbEntity
  8
0
100
AcDbLine
 10
414.6799999999999
 20
179.9481
 30
0.0
 11
418.7599999999999
 21
183.0681
 31
0.0
  0
LINE
  5
4CD
330
1E
100
AcDbEntity
  8
0
100
AcDbLine
 10
419.7639999999999
 20
203.4081
 30
0.0
 11
421.388
 21
202.7360999999999
 31
0.0
  0
LINE
  5
4CE
330
1E
100
AcDbEntity
  8
0
100
AcDbLine
 10
419.7919999999999
 20
203.5760999999999
 30
0.0
 11
421.4719999999999
 21
202.9040999999999
 31
0.0
  0
LINE
  5
4CF
330
1E
100
AcDbEntity
  8
0
100
AcDbLine
 10
419.88
 20
222.8680999999999
 30
0.0
 11
426.24
 21
218.0680999999999
 31
0.0
  0
LINE
  5
4D0
330
1E
100
AcDbEntity
  8
0
100
AcDbLine
 10
419.7639999999999
 20
190.2480999999999
 30
0.0
 11
421.388
 21
190.9200999999999
 31
0.0
  0
LINE
  5
4D1
330
1E
100
AcDbEntity
  8
0
100
AcDbLine
 10
419.16
 20
182.6681
 30
0.0
 11
422.36
 21
186.9080999999999
 31
0.0
  0
LINE
  5
4D2
330
1E
100
AcDbEntity
  8
0
100
AcDbLine
 10
414.92
 20
179.4680999999999
 30
0.0
 11
419.16
 21
182.6681
 31
0.0
  0
LINE
  5
4D3
330
1E
100
AcDbEntity
  8
0
100
AcDbLine
 10
399.96
 20
178.0281
 30
0.0
 11
405.0
 21
177.3080999999999
 31
0.0
  0
LINE
  5
4D4
330
1E
100
AcDbEntity
  8
0
100
AcDbLine
 10
399.88
 20
177.5481
 30
0.0
 11
405.0
 21
176.8280999999999
 31
0.0
  0
LINE
  5
4D5
330
1E
100
AcDbEntity
  8
0
100
AcDbLine
 10
421.388
 20
202.7360999999999
 30
0.0
 11
422.8159999999999
 21
201.6440999999999
 31
0.0
  0
LINE
  5
4D6
330
1E
100
AcDbEntity
  8
0
100
AcDbLine
 10
421.4719999999999
 20
202.9040999999999
 30
0.0
 11
422.9559999999999
 21
201.7840999999999
 31
0.0
  0
LINE
  5
4D7
330
1E
100
AcDbEntity
  8
0
100
AcDbLine
 10
422.8159999999999
 20
201.6440999999999
 30
0.0
 11
423.908
 21
200.2161
 31
0.0
  0
LINE
  5
4D8
330
1E
100
AcDbEntity
  8
0
100
AcDbLine
 10
421.8799999999999
 20
206.5081
 30
0.0
 11
423.8
 21
201.8680999999999
 31
0.0
  0
LINE
  5
4D9
330
1E
100
AcDbEntity
  8
0
100
AcDbLine
 10
422.36
 20
206.7480999999999
 30
0.0
 11
424.2799999999999
 21
201.9481
 31
0.0
  0
LINE
  5
4DA
330
1E
100
AcDbEntity
  8
0
100
AcDbLine
 10
422.9559999999999
 20
201.7840999999999
 30
0.0
 11
424.0759999999999
 21
200.3000999999999
 31
0.0
  0
LINE
  5
4DB
330
1E
100
AcDbEntity
  8
0
100
AcDbLine
 10
423.8
 20
201.8680999999999
 30
0.0
 11
424.011859030837
 21
200.385086784141
 31
0.0
  0
LINE
  5
4DC
330
1E
100
AcDbEntity
  8
0
100
AcDbLine
 10
422.8159999999999
 20
192.0121
 30
0.0
 11
423.908
 21
193.4401
 31
0.0
  0
LINE
  5
4DD
330
1E
100
AcDbEntity
  8
0
100
AcDbLine
 10
421.388
 20
190.9200999999999
 30
0.0
 11
422.8159999999999
 21
192.0121
 31
0.0
  0
LINE
  5
4DE
330
1E
100
AcDbEntity
  8
0
100
AcDbLine
 10
423.908
 20
200.2161
 30
0.0
 11
424.58
 21
198.5920999999999
 31
0.0
  0
LINE
  5
4DF
330
1E
100
AcDbEntity
  8
0
100
AcDbLine
 10
424.0759999999999
 20
200.3000999999999
 30
0.0
 11
424.748
 21
198.6201
 31
0.0
  0
LINE
  5
4E0
330
1E
100
AcDbEntity
  8
0
100
AcDbLine
 10
424.2799999999999
 20
201.9481
 30
0.0
 11
425.0
 21
196.8281
 31
0.0
  0
LINE
  5
4E1
330
1E
100
AcDbEntity
  8
0
100
AcDbLine
 10
423.908
 20
193.4401
 30
0.0
 11
424.58
 21
195.0641
 31
0.0
  0
LINE
  5
4E2
330
1E
100
AcDbEntity
  8
0
100
AcDbLine
 10
424.0759999999999
 20
193.3561
 30
0.0
 11
424.748
 21
195.0361
 31
0.0
  0
LINE
  5
4E3
330
1E
100
AcDbEntity
  8
0
100
AcDbLine
 10
423.8
 20
191.7880999999999
 30
0.0
 11
424.011859030837
 21
193.271113215859
 31
0.0
  0
LINE
  5
4E4
330
1E
100
AcDbEntity
  8
0
100
AcDbLine
 10
421.8799999999999
 20
187.1480999999999
 30
0.0
 11
423.8
 21
191.7880999999999
 31
0.0
  0
LINE
  5
4E6
330
1E
100
AcDbEntity
  8
0
100
AcDbLine
 10
424.58
 20
198.5920999999999
 30
0.0
 11
424.8319999999999
 21
196.8281
 31
0.0
  0
LINE
  5
4E7
330
1E
100
AcDbEntity
  8
0
100
AcDbLine
 10
424.748
 20
198.6201
 30
0.0
 11
425.0
 21
196.8281
 31
0.0
  0
LINE
  5
4E8
330
1E
100
AcDbEntity
  8
0
100
AcDbLine
 10
426.24
 20
218.0680999999999
 30
0.0
 11
431.04
 21
211.7081
 31
0.0
  0
LINE
  5
4EB
330
1E
100
AcDbEntity
  8
0
100
AcDbLine
 10
424.58
 20
195.0641
 30
0.0
 11
424.8319999999999
 21
196.8281
 31
0.0
  0
LINE
  5
4EC
330
1E
100
AcDbEntity
  8
0
100
AcDbLine
 10
424.748
 20
195.0361
 30
0.0
 11
425.0
 21
196.8281
 31
0.0
  0
LINE
  5
4ED
330
1E
100
AcDbEntity
  8
0
100
AcDbLine
 10
424.2799999999999
 20
191.7080999999999
 30
0.0
 11
425.0
 21
196.8281
 31
0.0
  0
LINE
  5
4EE
330
1E
100
AcDbEntity
  8
0
100
AcDbLine
 10
422.36
 20
186.9080999999999
 30
0.0
 11
424.2799999999999
 21
191.7080999999999
 31
0.0
  0
LINE
  5
4EF
330
1E
100
AcDbEntity
  8
0
100
AcDbLine
 10
419.88
 20
170.7880999999999
 30
0.0
 11
426.24
 21
175.5881
 31
0.0
  0
LINE
  5
4F0
330
1E
100
AcDbEntity
  8
0
100
AcDbLine
 10
412.68
 20
167.9081
 30
0.0
 11
419.88
 21
170.7880999999999
 31
0.0
  0
LINE
  5
4F1
330
1E
100
AcDbEntity
  8
0
100
AcDbLine
 10
490.3
 20
172.1280999999999
 30
0.0
 11
497.5999999999999
 21
166.5281
 31
0.0
  0
LINE
  5
4F2
330
1E
100
AcDbEntity
  8
0
100
AcDbLine
 10
503.0
 20
168.7991
 30
0.0
 11
503.0
 21
108.3180999999999
 31
0.0
  0
LINE
  5
4F3
330
1E
100
AcDbEntity
  8
0
100
AcDbLine
 10
503.0
 20
168.7991
 30
0.0
 11
503.384
 21
171.1930999999999
 31
0.0
  0
LINE
  5
4F4
330
1E
100
AcDbEntity
  8
0
100
AcDbLine
 10
503.0
 20
169.9610999999999
 30
0.0
 11
503.098936858655
 21
169.415909478179
 31
0.0
  0
LINE
  5
4F5
330
1E
100
AcDbEntity
  8
0
100
AcDbLine
 10
503.0
 20
169.9610999999999
 30
0.0
 11
503.0
 21
175.6750999999999
 31
0.0
  0
LINE
  5
4F6
330
1E
100
AcDbEntity
  8
0
100
AcDbLine
 10
498.1
 20
167.4281
 30
0.0
 11
503.0
 21
165.396392682927
 31
0.0
  0
LINE
  5
4F7
330
1E
100
AcDbEntity
  8
0
100
AcDbLine
 10
491.0
 20
172.8281
 30
0.0
 11
498.1
 21
167.4281
 31
0.0
  0
LINE
  5
4F8
330
1E
100
AcDbEntity
  8
0
100
AcDbLine
 10
484.7
 20
179.4280999999999
 30
0.0
 11
490.3
 21
172.1280999999999
 31
0.0
  0
LINE
  5
4F9
330
1E
100
AcDbEntity
  8
0
100
AcDbLine
 10
485.6
 20
179.9281
 30
0.0
 11
491.0
 21
172.8281
 31
0.0
  0
LINE
  5
4FA
330
1E
100
AcDbEntity
  8
0
100
AcDbLine
 10
495.8999999999999
 20
177.7281
 30
0.0
 11
501.4999999999999
 21
173.4281
 31
0.0
  0
LINE
  5
4FB
330
1E
100
AcDbEntity
  8
0
100
AcDbLine
 10
501.4999999999999
 20
173.4281
 30
0.0
 11
503.0
 21
172.8281
 31
0.0
  0
LINE
  5
4FC
330
1E
100
AcDbEntity
  8
0
100
AcDbLine
 10
503.384
 20
171.1930999999999
 30
0.0
 11
504.6319999999999
 21
173.4190999999999
 31
0.0
  0
LINE
  5
4FD
330
1E
100
AcDbEntity
  8
0
100
AcDbLine
 10
526.616
 20
171.1930999999999
 30
0.0
 11
527.0
 21
168.7991
 31
0.0
  0
LINE
  5
4FE
330
1E
100
AcDbEntity
  8
0
100
AcDbLine
 10
527.0
 20
168.7991
 30
0.0
 11
527.0
 21
108.3180999999999
 31
0.0
  0
LINE
  5
4FF
330
1E
100
AcDbEntity
  8
0
100
AcDbLine
 10
527.0
 20
169.9610999999999
 30
0.0
 11
527.0
 21
175.6750999999999
 31
0.0
  0
LINE
  5
500
330
1E
100
AcDbEntity
  8
0
100
AcDbLine
 10
526.9010631413449
 20
169.415909478179
 30
0.0
 11
527.0
 21
169.9610999999999
 31
0.0
  0
LINE
  5
501
330
1E
100
AcDbEntity
  8
0
100
AcDbLine
 10
504.6319999999999
 20
173.4190999999999
 30
0.0
 11
506.5519999999999
 21
175.3480999999999
 31
0.0
  0
LINE
  5
502
330
1E
100
AcDbEntity
  8
0
100
AcDbLine
 10
525.3680000000001
 20
173.4190999999999
 30
0.0
 11
526.616
 21
171.1930999999999
 31
0.0
  0
LINE
  5
503
330
1E
100
AcDbEntity
  8
0
100
AcDbLine
 10
526.3569999999999
 20
171.7571
 30
0.0
 11
526.3849550951979
 21
171.6052041330839
 31
0.0
  0
LINE
  5
504
330
1E
100
AcDbEntity
  8
0
100
AcDbLine
 10
503.643
 20
171.7571
 30
0.0
 11
504.8
 21
173.9231
 31
0.0
  0
LINE
  5
505
330
1E
100
AcDbEntity
  8
0
100
AcDbLine
 10
503.615044904802
 20
171.6052041330839
 30
0.0
 11
503.643
 21
171.7571
 31
0.0
  0
LINE
  5
506
330
1E
100
AcDbEntity
  8
0
100
AcDbLine
 10
539.7
 20
172.1280999999999
 30
0.0
 11
545.2999999999999
 21
179.4280999999999
 31
0.0
  0
LINE
  5
507
330
1E
100
AcDbEntity
  8
0
100
AcDbLine
 10
531.8999999999999
 20
167.4281
 30
0.0
 11
539.0
 21
172.8281
 31
0.0
  0
LINE
  5
508
330
1E
100
AcDbEntity
  8
0
100
AcDbLine
 10
539.0
 20
172.8281
 30
0.0
 11
544.3999999999999
 21
179.9281
 31
0.0
  0
LINE
  5
509
330
1E
100
AcDbEntity
  8
0
100
AcDbLine
 10
527.0
 20
172.8281
 30
0.0
 11
528.5
 21
173.4281
 31
0.0
  0
LINE
  5
50A
330
1E
100
AcDbEntity
  8
0
100
AcDbLine
 10
506.5519999999999
 20
175.3480999999999
 30
0.0
 11
509.048
 21
176.7720999999999
 31
0.0
  0
LINE
  5
50B
330
1E
100
AcDbEntity
  8
0
100
AcDbLine
 10
523.4479999999999
 20
175.3480999999999
 30
0.0
 11
525.3680000000001
 21
173.4190999999999
 31
0.0
  0
LINE
  5
50C
330
1E
100
AcDbEntity
  8
0
100
AcDbLine
 10
525.2
 20
173.9231
 30
0.0
 11
526.3569999999999
 21
171.7571
 31
0.0
  0
LINE
  5
50D
330
1E
100
AcDbEntity
  8
0
100
AcDbLine
 10
504.8
 20
173.9231
 30
0.0
 11
506.686
 21
175.7951
 31
0.0
  0
LINE
  5
50E
330
1E
100
AcDbEntity
  8
0
100
AcDbLine
 10
509.048
 20
176.7720999999999
 30
0.0
 11
511.928
 21
177.6531
 31
0.0
  0
LINE
  5
50F
330
1E
100
AcDbEntity
  8
0
100
AcDbLine
 10
506.686
 20
175.7951
 30
0.0
 11
509.1289999999999
 21
177.2391
 31
0.0
  0
LINE
  5
510
330
1E
100
AcDbEntity
  8
0
100
AcDbLine
 10
511.928
 20
177.6531
 30
0.0
 11
515.0
 21
177.9891
 31
0.0
  0
LINE
  5
511
330
1E
100
AcDbEntity
  8
0
100
AcDbLine
 10
509.1289999999999
 20
177.2391
 30
0.0
 11
511.957
 21
178.1261
 31
0.0
  0
LINE
  5
512
330
1E
100
AcDbEntity
  8
0
100
AcDbLine
 10
515.0
 20
177.9891
 30
0.0
 11
518.0719999999999
 21
177.6531
 31
0.0
  0
LINE
  5
513
330
1E
100
AcDbEntity
  8
0
100
AcDbLine
 10
520.952
 20
176.7720999999999
 30
0.0
 11
523.4479999999999
 21
175.3480999999999
 31
0.0
  0
LINE
  5
514
330
1E
100
AcDbEntity
  8
0
100
AcDbLine
 10
523.3139999999999
 20
175.7951
 30
0.0
 11
525.2
 21
173.9231
 31
0.0
  0
LINE
  5
515
330
1E
100
AcDbEntity
  8
0
100
AcDbLine
 10
518.0719999999999
 20
177.6531
 30
0.0
 11
520.952
 21
176.7720999999999
 31
0.0
  0
LINE
  5
516
330
1E
100
AcDbEntity
  8
0
100
AcDbLine
 10
520.8709999999999
 20
177.2391
 30
0.0
 11
523.3139999999999
 21
175.7951
 31
0.0
  0
LINE
  5
517
330
1E
100
AcDbEntity
  8
0
100
AcDbLine
 10
518.043
 20
178.1261
 30
0.0
 11
520.8709999999999
 21
177.2391
 31
0.0
  0
LINE
  5
518
330
1E
100
AcDbEntity
  8
0
100
AcDbLine
 10
515.0
 20
178.4541
 30
0.0
 11
518.043
 21
178.1261
 31
0.0
  0
LINE
  5
519
330
1E
100
AcDbEntity
  8
0
100
AcDbLine
 10
511.957
 20
178.1261
 30
0.0
 11
515.0
 21
178.4541
 31
0.0
  0
LINE
  5
51A
330
1E
100
AcDbEntity
  8
0
100
AcDbLine
 10
527.0
 20
175.6750999999999
 30
0.0
 11
527.0
 21
182.9280999999999
 31
0.0
  0
LINE
  5
51B
330
1E
100
AcDbEntity
  8
0
100
AcDbLine
 10
527.0
 20
175.6750999999999
 30
0.0
 11
527.0
 21
169.9610999999999
 31
0.0
  0
LINE
  5
51C
330
1E
100
AcDbEntity
  8
0
100
AcDbLine
 10
545.2999999999999
 20
179.4280999999999
 30
0.0
 11
548.7
 21
187.8281
 31
0.0
  0
LINE
  5
51D
330
1E
100
AcDbEntity
  8
0
100
AcDbLine
 10
544.3999999999999
 20
179.9281
 30
0.0
 11
547.7999999999999
 21
188.1280999999999
 31
0.0
  0
LINE
  5
51E
330
1E
100
AcDbEntity
  8
0
100
AcDbLine
 10
534.1
 20
177.7281
 30
0.0
 11
538.3999999999999
 21
183.3281
 31
0.0
  0
LINE
  5
51F
330
1E
100
AcDbEntity
  8
0
100
AcDbLine
 10
528.5
 20
173.4281
 30
0.0
 11
534.1
 21
177.7281
 31
0.0
  0
LINE
  5
520
330
1E
100
AcDbEntity
  8
0
100
AcDbLine
 10
503.0
 20
175.6750999999999
 30
0.0
 11
503.0
 21
182.9280999999999
 31
0.0
  0
LINE
  5
521
330
1E
100
AcDbEntity
  8
0
100
AcDbLine
 10
503.0
 20
175.6750999999999
 30
0.0
 11
503.0
 21
169.9610999999999
 31
0.0
  0
LINE
  5
522
330
1E
100
AcDbEntity
  8
0
100
AcDbLine
 10
433.9199999999999
 20
204.5081
 30
0.0
 11
435.0
 21
196.8281
 31
0.0
  0
LINE
  5
526
330
1E
100
AcDbEntity
  8
0
100
AcDbLine
 10
431.04
 20
211.7081
 30
0.0
 11
433.9199999999999
 21
204.5081
 31
0.0
  0
LINE
  5
53A
330
1E
100
AcDbEntity
  8
0
100
AcDbLine
 10
481.3
 20
187.8281
 30
0.0
 11
484.7
 21
179.4280999999999
 31
0.0
  0
LINE
  5
53B
330
1E
100
AcDbEntity
  8
0
100
AcDbLine
 10
480.0
 20
196.8281
 30
0.0
 11
481.3
 21
187.8281
 31
0.0
  0
LINE
  5
53C
330
1E
100
AcDbEntity
  8
0
100
AcDbLine
 10
480.0
 20
196.8281
 30
0.0
 11
481.3
 21
205.8281
 31
0.0
  0
LINE
  5
53D
330
1E
100
AcDbEntity
  8
0
100
AcDbLine
 10
482.2
 20
188.1280999999999
 30
0.0
 11
485.6
 21
179.9281
 31
0.0
  0
LINE
  5
53E
330
1E
100
AcDbEntity
  8
0
100
AcDbLine
 10
481.0
 20
196.8281
 30
0.0
 11
482.2
 21
188.1280999999999
 31
0.0
  0
LINE
  5
53F
330
1E
100
AcDbEntity
  8
0
100
AcDbLine
 10
481.0
 20
196.8281
 30
0.0
 11
482.2
 21
205.5280999999999
 31
0.0
  0
LINE
  5
540
330
1E
100
AcDbEntity
  8
0
100
AcDbLine
 10
489.0
 20
189.8281
 30
0.0
 11
491.6
 21
183.3281
 31
0.0
  0
LINE
  5
541
330
1E
100
AcDbEntity
  8
0
100
AcDbLine
 10
491.6
 20
183.3281
 30
0.0
 11
495.8999999999999
 21
177.7281
 31
0.0
  0
LINE
  5
542
330
1E
100
AcDbEntity
  8
0
100
AcDbLine
 10
527.0
 20
182.9280999999999
 30
0.0
 11
527.0
 21
175.6750999999999
 31
0.0
  0
LINE
  5
543
330
1E
100
AcDbEntity
  8
0
100
AcDbLine
 10
538.3999999999999
 20
183.3281
 30
0.0
 11
541.0
 21
189.8281
 31
0.0
  0
LINE
  5
544
330
1E
100
AcDbEntity
  8
0
100
AcDbLine
 10
526.6
 20
185.7281
 30
0.0
 11
527.0
 21
182.9280999999999
 31
0.0
  0
LINE
  5
545
330
1E
100
AcDbEntity
  8
0
100
AcDbLine
 10
523.5
 20
190.5281
 30
0.0
 11
525.3999999999999
 21
188.2281
 31
0.0
  0
LINE
  5
546
330
1E
100
AcDbEntity
  8
0
100
AcDbLine
 10
548.7
 20
187.8281
 30
0.0
 11
550.0
 21
196.8281
 31
0.0
  0
LINE
  5
547
330
1E
100
AcDbEntity
  8
0
100
AcDbLine
 10
547.7999999999999
 20
188.1280999999999
 30
0.0
 11
549.0
 21
196.8281
 31
0.0
  0
LINE
  5
548
330
1E
100
AcDbEntity
  8
0
100
AcDbLine
 10
541.0
 20
189.8281
 30
0.0
 11
542.0
 21
196.8281
 31
0.0
  0
LINE
  5
549
330
1E
100
AcDbEntity
  8
0
100
AcDbLine
 10
525.3999999999999
 20
188.2281
 30
0.0
 11
526.6
 21
185.7281
 31
0.0
  0
LINE
  5
54A
330
1E
100
AcDbEntity
  8
0
100
AcDbLine
 10
518.1
 20
193.3281
 30
0.0
 11
521.0
 21
192.2281
 31
0.0
  0
LINE
  5
54B
330
1E
100
AcDbEntity
  8
0
100
AcDbLine
 10
521.0
 20
192.2281
 30
0.0
 11
523.5
 21
190.5281
 31
0.0
  0
LINE
  5
54C
330
1E
100
AcDbEntity
  8
0
100
AcDbLine
 10
515.0
 20
193.7281
 30
0.0
 11
518.1
 21
193.3281
 31
0.0
  0
LINE
  5
54D
330
1E
100
AcDbEntity
  8
0
100
AcDbLine
 10
511.8999999999999
 20
193.3281
 30
0.0
 11
515.0
 21
193.7281
 31
0.0
  0
LINE
  5
54E
330
1E
100
AcDbEntity
  8
0
100
AcDbLine
 10
509.0
 20
192.2281
 30
0.0
 11
511.8999999999999
 21
193.3281
 31
0.0
  0
LINE
  5
54F
330
1E
100
AcDbEntity
  8
0
100
AcDbLine
 10
506.5
 20
190.5281
 30
0.0
 11
509.0
 21
192.2281
 31
0.0
  0
LINE
  5
550
330
1E
100
AcDbEntity
  8
0
100
AcDbLine
 10
504.6
 20
188.2281
 30
0.0
 11
506.5
 21
190.5281
 31
0.0
  0
LINE
  5
551
330
1E
100
AcDbEntity
  8
0
100
AcDbLine
 10
503.3999999999999
 20
185.7281
 30
0.0
 11
504.6
 21
188.2281
 31
0.0
  0
LINE
  5
552
330
1E
100
AcDbEntity
  8
0
100
AcDbLine
 10
503.0
 20
182.9280999999999
 30
0.0
 11
503.0
 21
175.6750999999999
 31
0.0
  0
LINE
  5
553
330
1E
100
AcDbEntity
  8
0
100
AcDbLine
 10
503.0
 20
182.9280999999999
 30
0.0
 11
503.3999999999999
 21
185.7281
 31
0.0
  0
LINE
  5
598
330
1E
100
AcDbEntity
  8
0
100
AcDbLine
 10
484.7
 20
214.2281
 30
0.0
 11
490.3
 21
221.5281
 31
0.0
  0
LINE
  5
599
330
1E
100
AcDbEntity
  8
0
100
AcDbLine
 10
481.3
 20
205.8281
 30
0.0
 11
484.7
 21
214.2281
 31
0.0
  0
LINE
  5
59A
330
1E
100
AcDbEntity
  8
0
100
AcDbLine
 10
485.6
 20
213.7281
 30
0.0
 11
491.0
 21
220.8280999999999
 31
0.0
  0
LINE
  5
59B
330
1E
100
AcDbEntity
  8
0
100
AcDbLine
 10
482.2
 20
205.5280999999999
 30
0.0
 11
485.6
 21
213.7281
 31
0.0
  0
LINE
  5
59C
330
1E
100
AcDbEntity
  8
0
100
AcDbLine
 10
538.3999999999999
 20
210.3280999999999
 30
0.0
 11
541.0
 21
203.8281
 31
0.0
  0
LINE
  5
59D
330
1E
100
AcDbEntity
  8
0
100
AcDbLine
 10
548.7
 20
205.8281
 30
0.0
 11
550.0
 21
196.8281
 31
0.0
  0
LINE
  5
59E
330
1E
100
AcDbEntity
  8
0
100
AcDbLine
 10
547.7999999999999
 20
205.5280999999999
 30
0.0
 11
549.0
 21
196.8281
 31
0.0
  0
LINE
  5
59F
330
1E
100
AcDbEntity
  8
0
100
AcDbLine
 10
541.0
 20
203.8281
 30
0.0
 11
542.0
 21
196.8281
 31
0.0
  0
LINE
  5
5A0
330
1E
100
AcDbEntity
  8
0
100
AcDbLine
 10
490.3
 20
221.5281
 30
0.0
 11
497.5999999999999
 21
227.1281
 31
0.0
  0
LINE
  5
5A1
330
1E
100
AcDbEntity
  8
0
100
AcDbLine
 10
491.0
 20
220.8280999999999
 30
0.0
 11
498.1
 21
226.2281
 31
0.0
  0
LINE
  5
5A2
330
1E
100
AcDbEntity
  8
0
100
AcDbLine
 10
528.5
 20
220.2281
 30
0.0
 11
534.1
 21
215.9281
 31
0.0
  0
LINE
  5
5A3
330
1E
100
AcDbEntity
  8
0
100
AcDbLine
 10
545.2999999999999
 20
214.2281
 30
0.0
 11
548.7
 21
205.8281
 31
0.0
  0
LINE
  5
5A4
330
1E
100
AcDbEntity
  8
0
100
AcDbLine
 10
544.3999999999999
 20
213.7281
 30
0.0
 11
547.7999999999999
 21
205.5280999999999
 31
0.0
  0
LINE
  5
5A5
330
1E
100
AcDbEntity
  8
0
100
AcDbLine
 10
534.1
 20
215.9281
 30
0.0
 11
538.3999999999999
 21
210.3280999999999
 31
0.0
  0
LINE
  5
5A6
330
1E
100
AcDbEntity
  8
0
100
AcDbLine
 10
506.0
 20
230.5280999999999
 30
0.0
 11
515.0
 21
231.8281
 31
0.0
  0
LINE
  5
5A7
330
1E
100
AcDbEntity
  8
0
100
AcDbLine
 10
497.5999999999999
 20
227.1281
 30
0.0
 11
506.0
 21
230.5280999999999
 31
0.0
  0
LINE
  5
5A8
330
1E
100
AcDbEntity
  8
0
100
AcDbLine
 10
506.3
 20
229.6281
 30
0.0
 11
515.0
 21
230.8281
 31
0.0
  0
LINE
  5
5A9
330
1E
100
AcDbEntity
  8
0
100
AcDbLine
 10
498.1
 20
226.2281
 30
0.0
 11
506.3
 21
229.6281
 31
0.0
  0
LINE
  5
5AA
330
1E
100
AcDbEntity
  8
0
100
AcDbLine
 10
539.7
 20
221.5281
 30
0.0
 11
545.2999999999999
 21
214.2281
 31
0.0
  0
LINE
  5
5AB
330
1E
100
AcDbEntity
  8
0
100
AcDbLine
 10
539.0
 20
220.8280999999999
 30
0.0
 11
544.3999999999999
 21
213.7281
 31
0.0
  0
LINE
  5
5AC
330
1E
100
AcDbEntity
  8
0
100
AcDbLine
 10
515.0
 20
231.8281
 30
0.0
 11
524.0
 21
230.5280999999999
 31
0.0
  0
LINE
  5
5AD
330
1E
100
AcDbEntity
  8
0
100
AcDbLine
 10
515.0
 20
230.8281
 30
0.0
 11
523.7
 21
229.6281
 31
0.0
  0
LINE
  5
5B3
330
1E
100
AcDbEntity
  8
0
100
AcDbLine
 10
524.0
 20
230.5280999999999
 30
0.0
 11
532.3999999999999
 21
227.1281
 31
0.0
  0
LINE
  5
5B4
330
1E
100
AcDbEntity
  8
0
100
AcDbLine
 10
532.3999999999999
 20
227.1281
 30
0.0
 11
539.7
 21
221.5281
 31
0.0
  0
LINE
  5
5B5
330
1E
100
AcDbEntity
  8
0
100
AcDbLine
 10
523.7
 20
229.6281
 30
0.0
 11
531.8999999999999
 21
226.2281
 31
0.0
  0
LINE
  5
5B6
330
1E
100
AcDbEntity
  8
0
100
AcDbLine
 10
531.8999999999999
 20
226.2281
 30
0.0
 11
539.0
 21
220.8280999999999
 31
0.0
  0
LINE
  5
5B7
330
1E
100
AcDbEntity
  8
0
100
AcDbLine
 10
515.0
 20
223.8281
 30
0.0
 11
522.0
 21
222.8280999999999
 31
0.0
  0
LINE
  5
5B8
330
1E
100
AcDbEntity
  8
0
100
AcDbLine
 10
522.0
 20
222.8280999999999
 30
0.0
 11
528.5
 21
220.2281
 31
0.0
  0
LINE
  5
5B9
330
1E
100
AcDbEntity
  8
0
100
AcDbLine
 10
508.0
 20
222.8280999999999
 30
0.0
 11
515.0
 21
223.8281
 31
0.0
  0
LINE
  5
5BA
330
1E
100
AcDbEntity
  8
0
100
AcDbLine
 10
501.4999999999999
 20
220.2281
 30
0.0
 11
508.0
 21
222.8280999999999
 31
0.0
  0
LINE
  5
5BB
330
1E
100
AcDbEntity
  8
0
100
AcDbLine
 10
495.8999999999999
 20
215.9281
 30
0.0
 11
501.4999999999999
 21
220.2281
 31
0.0
  0
LINE
  5
5BC
330
1E
100
AcDbEntity
  8
0
100
AcDbLine
 10
491.6
 20
210.3280999999999
 30
0.0
 11
495.8999999999999
 21
215.9281
 31
0.0
  0
LINE
  5
5BD
330
1E
100
AcDbEntity
  8
0
100
AcDbLine
 10
489.0
 20
203.8281
 30
0.0
 11
491.6
 21
210.3280999999999
 31
0.0
  0
LINE
  5
5BE
330
1E
100
AcDbEntity
  8
0
100
AcDbLine
 10
488.0
 20
196.8281
 30
0.0
 11
489.0
 21
203.8281
 31
0.0
  0
LINE
  5
5BF
330
1E
100
AcDbEntity
  8
0
100
AcDbLine
 10
488.0
 20
196.8281
 30
0.0
 11
489.0
 21
189.8281
 31
0.0
  0
LINE
  5
5C0
330
1E
100
AcDbEntity
  8
0
100
AcDbLine
 10
433.9199999999999
 20
189.1480999999999
 30
0.0
 11
435.0
 21
196.8281
 31
0.0
  0
LINE
  5
5C1
330
1E
100
AcDbEntity
  8
0
100
AcDbLine
 10
431.04
 20
181.9481
 30
0.0
 11
433.9199999999999
 21
189.1480999999999
 31
0.0
  0
LINE
  5
5C2
330
1E
100
AcDbEntity
  8
0
100
AcDbLine
 10
426.24
 20
175.5881
 30
0.0
 11
431.04
 21
181.9481
 31
0.0
  0
LINE
  5
5C3
330
1E
100
AcDbEntity
  8
0
100
AcDbLine
 10
405.0
 20
166.8281
 30
0.0
 11
412.68
 21
167.9081
 31
0.0
  0
LINE
  5
5C4
330
1E
100
AcDbEntity
  8
0
100
AcDbLine
 10
397.3199999999999
 20
167.9081
 30
0.0
 11
405.0
 21
166.8281
 31
0.0
  0
LINE
  5
5CA
330
1E
100
AcDbEntity
  8
0
100
AcDbLine
 10
328.74
 20
205.7881
 30
0.0
 11
329.531467133125
 21
202.3986188516138
 31
0.0
  0
LINE
  5
5CB
330
1E
100
AcDbEntity
  8
0
100
AcDbLine
 10
329.531467133125
 20
202.3986188516138
 30
0.0
 11
330.0
 21
196.8281
 31
0.0
  0
LINE
  5
5CC
330
1E
100
AcDbEntity
  8
0
100
AcDbLine
 10
304.039996346292
 20
19.71096301648019
 30
0.0
 11
304.864681340381
 21
20.1044340033628
 31
0.0
  0
LINE
  5
5CD
330
1E
100
AcDbEntity
  8
0
100
AcDbLine
 10
306.7854427267159
 20
21.32128676258469
 30
0.0
 11
307.16
 21
21.5666
 31
0.0
  0
LINE
  5
5CE
330
1E
100
AcDbEntity
  8
0
100
AcDbLine
 10
309.0874547681869
 20
23.3361403103586
 30
0.0
 11
309.5797755762749
 21
23.9597355864518
 31
0.0
  0
LINE
  5
5CF
330
1E
100
AcDbEntity
  8
0
100
AcDbLine
 10
311.81596840125
 20
27.97455126645539
 30
0.0
 11
311.937266519087
 21
28.49054069151049
 31
0.0
  0
LINE
  5
5D0
330
1E
100
AcDbEntity
  8
0
100
AcDbLine
 10
277.4999999999999
 20
159.5901
 30
0.0
 11
277.5079999999999
 21
203.2920999999999
 31
0.0
  0
LINE
  5
5D1
330
1E
100
AcDbEntity
  8
0
100
AcDbLine
 10
277.5079999999999
 20
203.2920999999999
 30
0.0
 11
277.4999999999999
 21
159.5901
 31
0.0
  0
LINE
  5
5D2
330
1E
100
AcDbEntity
  8
0
100
AcDbLine
 10
295.0
 20
207.8281
 30
0.0
 11
293.569
 21
207.7830999999999
 31
0.0
  0
LINE
  5
5D3
330
1E
100
AcDbEntity
  8
0
100
AcDbLine
 10
279.288
 20
204.5201
 30
0.0
 11
277.971
 21
203.9200999999999
 31
0.0
  0
LINE
  5
5D4
330
1E
100
AcDbEntity
  8
0
100
AcDbLine
 10
277.674
 20
203.6881
 30
0.0
 11
277.625
 21
203.6340999999999
 31
0.0
  0
LINE
  5
5D5
330
1E
100
AcDbEntity
  8
0
100
AcDbLine
 10
277.721
 20
203.7281
 30
0.0
 11
277.674
 21
203.6881
 31
0.0
  0
LINE
  5
5D6
330
1E
100
AcDbEntity
  8
0
100
AcDbLine
 10
277.971
 20
203.9200999999999
 30
0.0
 11
277.721
 21
203.7281
 31
0.0
  0
LINE
  5
5D7
330
1E
100
AcDbEntity
  8
0
100
AcDbLine
 10
277.625
 20
203.6340999999999
 30
0.0
 11
277.5079999999999
 21
203.2920999999999
 31
0.0
  0
LINE
  5
5D8
330
1E
100
AcDbEntity
  8
0
100
AcDbLine
 10
281.0969999999999
 20
205.2541
 30
0.0
 11
279.577
 21
204.6361
 31
0.0
  0
LINE
  5
5D9
330
1E
100
AcDbEntity
  8
0
100
AcDbLine
 10
288.1459999999999
 20
207.2470999999999
 30
0.0
 11
287.8209999999999
 21
207.1861
 31
0.0
  0
LINE
  5
5DA
330
1E
100
AcDbEntity
  8
0
100
AcDbLine
 10
293.569
 20
207.7830999999999
 30
0.0
 11
291.5719999999999
 21
207.7290999999999
 31
0.0
  0
LINE
  5
5DB
330
1E
100
AcDbEntity
  8
0
100
AcDbLine
 10
291.5719999999999
 20
207.7290999999999
 30
0.0
 11
288.1459999999999
 21
207.2470999999999
 31
0.0
  0
LINE
  5
5DC
330
1E
100
AcDbEntity
  8
0
100
AcDbLine
 10
282.885
 20
205.8911
 30
0.0
 11
281.29
 21
205.3190999999999
 31
0.0
  0
LINE
  5
5DD
330
1E
100
AcDbEntity
  8
0
100
AcDbLine
 10
281.29
 20
205.3190999999999
 30
0.0
 11
281.165
 21
205.2821
 31
0.0
  0
LINE
  5
5DE
330
1E
100
AcDbEntity
  8
0
100
AcDbLine
 10
281.165
 20
205.2821
 30
0.0
 11
281.0969999999999
 21
205.2541
 31
0.0
  0
LINE
  5
5DF
330
1E
100
AcDbEntity
  8
0
100
AcDbLine
 10
287.8209999999999
 20
207.1861
 30
0.0
 11
284.554
 21
206.4030999999999
 31
0.0
  0
LINE
  5
5E0
330
1E
100
AcDbEntity
  8
0
100
AcDbLine
 10
284.554
 20
206.4030999999999
 30
0.0
 11
282.885
 21
205.8911
 31
0.0
  0
LINE
  5
5E1
330
1E
100
AcDbEntity
  8
0
100
AcDbLine
 10
279.577
 20
204.6361
 30
0.0
 11
279.288
 21
204.5201
 31
0.0
  0
LINE
  5
5E2
330
1E
100
AcDbEntity
  8
0
100
AcDbLine
 10
277.4999999999999
 20
147.5400999999999
 30
0.0
 11
277.4999999999999
 21
34.25699999999999
 31
0.0
  0
LINE
  5
5E3
330
1E
100
AcDbEntity
  8
0
100
AcDbLine
 10
277.4999999999999
 20
34.25699999999999
 30
0.0
 11
277.4999999999999
 21
147.5400999999999
 31
0.0
  0
LINE
  5
5E4
330
1E
100
AcDbEntity
  8
0
100
AcDbLine
 10
277.4999999999999
 20
152.9531
 30
0.0
 11
277.4999999999999
 21
147.6010999999999
 31
0.0
  0
LINE
  5
5E5
330
1E
100
AcDbEntity
  8
0
100
AcDbLine
 10
277.4999999999999
 20
147.6010999999999
 30
0.0
 11
277.4999999999999
 21
152.9531
 31
0.0
  0
LINE
  5
5E6
330
1E
100
AcDbEntity
  8
0
100
AcDbLine
 10
277.4999999999999
 20
147.5400999999999
 30
0.0
 11
277.4999999999999
 21
147.6010999999999
 31
0.0
  0
LINE
  5
5E7
330
1E
100
AcDbEntity
  8
0
100
AcDbLine
 10
277.4999999999999
 20
147.6010999999999
 30
0.0
 11
277.4999999999999
 21
147.5400999999999
 31
0.0
  0
LINE
  5
5E8
330
1E
100
AcDbEntity
  8
0
100
AcDbLine
 10
277.4999999999999
 20
155.6121
 30
0.0
 11
277.4999999999999
 21
152.9531
 31
0.0
  0
LINE
  5
5E9
330
1E
100
AcDbEntity
  8
0
100
AcDbLine
 10
277.4999999999999
 20
152.9531
 30
0.0
 11
277.4999999999999
 21
155.6121
 31
0.0
  0
LINE
  5
5EA
330
1E
100
AcDbEntity
  8
0
100
AcDbLine
 10
277.4999999999999
 20
155.6121
 30
0.0
 11
277.4999999999999
 21
159.5901
 31
0.0
  0
LINE
  5
5EB
330
1E
100
AcDbEntity
  8
0
100
AcDbLine
 10
277.4999999999999
 20
159.5901
 30
0.0
 11
277.4999999999999
 21
155.6121
 31
0.0
  0
LINE
  5
5EC
330
1E
100
AcDbEntity
  8
0
100
AcDbLine
 10
295.0
 20
17.8281
 30
0.0
 11
292.937
 21
17.87349999999999
 31
0.0
  0
LINE
  5
5ED
330
1E
100
AcDbEntity
  8
0
100
AcDbLine
 10
277.7309999999999
 20
29.9017
 30
0.0
 11
277.645
 21
30.545
 31
0.0
  0
LINE
  5
5EE
330
1E
100
AcDbEntity
  8
0
100
AcDbLine
 10
287.089
 20
19.17229999999999
 30
0.0
 11
285.9600036537079
 21
19.71096301648019
 31
0.0
  0
LINE
  5
5EF
330
1E
100
AcDbEntity
  8
0
100
AcDbLine
 10
287.089
 20
19.17229999999999
 30
0.0
 11
285.9600036537079
 21
19.71096301648019
 31
0.0
  0
LINE
  5
5F0
330
1E
100
AcDbEntity
  8
0
100
AcDbLine
 10
287.942
 20
18.85539999999999
 30
0.0
 11
287.089
 21
19.17229999999999
 31
0.0
  0
LINE
  5
5F1
330
1E
100
AcDbEntity
  8
0
100
AcDbLine
 10
290.5959999999999
 20
18.1554
 30
0.0
 11
287.942
 21
18.85539999999999
 31
0.0
  0
LINE
  5
5F2
330
1E
100
AcDbEntity
  8
0
100
AcDbLine
 10
292.3799999999999
 20
17.9142
 30
0.0
 11
290.5959999999999
 21
18.1554
 31
0.0
  0
LINE
  5
5F3
330
1E
100
AcDbEntity
  8
0
100
AcDbLine
 10
292.937
 20
17.87349999999999
 30
0.0
 11
292.3799999999999
 21
17.9142
 31
0.0
  0
LINE
  5
5F4
330
1E
100
AcDbEntity
  8
0
100
AcDbLine
 10
281.019
 20
23.2013
 30
0.0
 11
280.9125452318129
 21
23.3361403103586
 31
0.0
  0
LINE
  5
5F5
330
1E
100
AcDbEntity
  8
0
100
AcDbLine
 10
283.214557273284
 20
21.32128676258469
 30
0.0
 11
282.8399999999999
 21
21.5666
 31
0.0
  0
LINE
  5
5F6
330
1E
100
AcDbEntity
  8
0
100
AcDbLine
 10
285.9600036537079
 20
19.71096301648019
 30
0.0
 11
285.1353186596189
 21
20.1044340033628
 31
0.0
  0
LINE
  5
5F7
330
1E
100
AcDbEntity
  8
0
100
AcDbLine
 10
282.8399999999999
 20
21.5666
 30
0.0
 11
281.019
 21
23.2013
 31
0.0
  0
LINE
  5
5F8
330
1E
100
AcDbEntity
  8
0
100
AcDbLine
 10
284.904
 20
20.21479999999999
 30
0.0
 11
283.214557273284
 21
21.32128676258469
 31
0.0
  0
LINE
  5
5F9
330
1E
100
AcDbEntity
  8
0
100
AcDbLine
 10
285.1353186596189
 20
20.1044340033628
 30
0.0
 11
284.904
 21
20.21479999999999
 31
0.0
  0
LINE
  5
5FA
330
1E
100
AcDbEntity
  8
0
100
AcDbLine
 10
280.420224423725
 20
23.9597355864518
 30
0.0
 11
279.538
 21
25.0772
 31
0.0
  0
LINE
  5
5FB
330
1E
100
AcDbEntity
  8
0
100
AcDbLine
 10
280.420224423725
 20
23.9597355864518
 30
0.0
 11
279.538
 21
25.0772
 31
0.0
  0
LINE
  5
5FC
330
1E
100
AcDbEntity
  8
0
100
AcDbLine
 10
280.9125452318129
 20
23.3361403103586
 30
0.0
 11
280.420224423725
 21
23.9597355864518
 31
0.0
  0
LINE
  5
5FD
330
1E
100
AcDbEntity
  8
0
100
AcDbLine
 10
278.18403159875
 20
27.97455126645539
 30
0.0
 11
278.0627334809129
 21
28.49054069151049
 31
0.0
  0
LINE
  5
5FE
330
1E
100
AcDbEntity
  8
0
100
AcDbLine
 10
278.0627334809129
 20
28.49054069151049
 30
0.0
 11
277.7309999999999
 21
29.9017
 31
0.0
  0
LINE
  5
5FF
330
1E
100
AcDbEntity
  8
0
100
AcDbLine
 10
278.2059999999999
 20
27.8811
 30
0.0
 11
278.18403159875
 21
27.97455126645539
 31
0.0
  0
LINE
  5
600
330
1E
100
AcDbEntity
  8
0
100
AcDbLine
 10
278.0627334809129
 20
28.49054069151049
 30
0.0
 11
277.7309999999999
 21
29.9017
 31
0.0
  0
LINE
  5
601
330
1E
100
AcDbEntity
  8
0
100
AcDbLine
 10
278.777
 20
26.4413
 30
0.0
 11
278.2059999999999
 21
27.8811
 31
0.0
  0
LINE
  5
602
330
1E
100
AcDbEntity
  8
0
100
AcDbLine
 10
279.172
 20
25.6807
 30
0.0
 11
278.777
 21
26.4413
 31
0.0
  0
LINE
  5
603
330
1E
100
AcDbEntity
  8
0
100
AcDbLine
 10
279.538
 20
25.0772
 30
0.0
 11
279.172
 21
25.6807
 31
0.0
  0
LINE
  5
604
330
1E
100
AcDbEntity
  8
0
100
AcDbLine
 10
277.645
 20
30.545
 30
0.0
 11
277.5459999999999
 21
31.7302
 31
0.0
  0
LINE
  5
605
330
1E
100
AcDbEntity
  8
0
100
AcDbLine
 10
277.5459999999999
 20
31.7302
 30
0.0
 11
277.4999999999999
 21
34.25699999999999
 31
0.0
  0
LINE
  5
606
330
1E
100
AcDbEntity
  8
0
100
AcDbLine
 10
260.0
 20
196.8281
 30
0.0
 11
261.26
 21
187.8681
 31
0.0
  0
ENDSEC
  0
SECTION
  2
OBJECTS
  0
DICTIONARY
  5
C
330
0
100
AcDbDictionary
281
     1
  3
ACAD_GROUP
350
D
  3
ACAD_LAYOUT
350
19
  3
ACAD_MLINESTYLE
350
16
  3
ACAD_PLOTSETTINGS
350
18
  3
ACAD_PLOTSTYLENAME
350
E
  3
AcDbVariableDictionary
350
608
  0
DICTIONARY
  5
D
102
{ACAD_REACTORS
330
C
102
}
330
C
100
AcDbDictionary
281
     1
  0
DICTIONARY
  5
19
102
{ACAD_REACTORS
330
C
102
}
330
C
100
AcDbDictionary
281
     1
  3
Layout1
350
1D
  3
Model
350
21
  0
DICTIONARY
  5
16
102
{ACAD_REACTORS
330
C
102
}
330
C
100
AcDbDictionary
281
     1
  3
Standard
350
17
  0
DICTIONARY
  5
18
102
{ACAD_REACTORS
330
C
102
}
330
C
100
AcDbDictionary
281
     1
  0
ACDBDICTIONARYWDFLT
  5
E
102
{ACAD_REACTORS
330
C
102
}
330
C
100
AcDbDictionary
281
     1
  3
Normal
350
F
100
AcDbDictionaryWithDefault
340
F
  0
DICTIONARY
  5
608
102
{ACAD_REACTORS
330
C
102
}
330
C
100
AcDbDictionary
281
     1
  3
DIMASSOC
350
609
  0
LAYOUT
  5
1D
102
{ACAD_REACTORS
330
19
102
}
330
19
100
AcDbPlotSettings
  1

  2
C:\Programme\AutoCAD LT 2002 Deu\plotters\DWF ePlot (optimized for plotting).pc3
  4

  6

 40
0.0
 41
0.0
 42
0.0
 43
0.0
 44
0.0
 45
0.0
 46
0.0
 47
0.0
 48
0.0
 49
0.0
140
0.0
141
0.0
142
1.0
143
1.0
 70
   688
 72
     0
 73
     0
 74
     5
  7

 75
    16
147
1.0
148
0.0
149
0.0
100
AcDbLayout
  1
Layout1
 70
     1
 71
     1
 10
0.0
 20
0.0
 11
12.0
 21
9.0
 12
0.0
 22
0.0
 32
0.0
 14
1.000000000000000E+20
 24
1.000000000000000E+20
 34
1.000000000000000E+20
 15
-1.000000000000000E+20
 25
-1.000000000000000E+20
 35
-1.000000000000000E+20
146
0.0
 13
0.0
 23
0.0
 33
0.0
 16
1.0
 26
0.0
 36
0.0
 17
0.0
 27
1.0
 37
0.0
 76
     0
330
1A
  0
LAYOUT
  5
21
102
{ACAD_REACTORS
330
19
102
}
330
19
100
AcDbPlotSettings
  1

  2
C:\Programme\AutoCAD LT 2002 Deu\plotters\DWF ePlot (optimized for plotting).pc3
  4

  6

 40
0.0
 41
0.0
 42
0.0
 43
0.0
 44
0.0
 45
0.0
 46
0.0
 47
0.0
 48
0.0
 49
0.0
140
0.0
141
0.0
142
1.0
143
1.0
 70
  1712
 72
     0
 73
     0
 74
     0
  7

 75
     0
147
1.0
148
0.0
149
0.0
100
AcDbLayout
  1
Model
 70
     1
 71
     0
 10
0.0
 20
0.0
 11
12.0
 21
9.0
 12
0.0
 22
0.0
 32
0.0
 14
0.0
 24
0.0
 34
0.0
 15
0.0
 25
0.0
 35
0.0
146
0.0
 13
0.0
 23
0.0
 33
0.0
 16
1.0
 26
0.0
 36
0.0
 17
0.0
 27
1.0
 37
0.0
 76
     0
330
1E
  0
MLINESTYLE
  5
17
102
{ACAD_REACTORS
330
16
102
}
330
16
100
AcDbMlineStyle
  2
STANDARD
 70
     0
  3

 62
   256
 51
90.0
 52
90.0
 71
     2
 49
0.5
 62
   256
  6
BYLAYER
 49
-0.5
 62
   256
  6
BYLAYER
  0
ACDBPLACEHOLDER
  5
F
102
{ACAD_REACTORS
330
E
102
}
330
E
  0
DICTIONARYVAR
  5
609
102
{ACAD_REACTORS
330
608
102
}
330
608
100
DictionaryVariables
280
     0
  1
1
  0
ENDSEC
  0
EOF
