  0
SECTION
  2
HEADER
  9
$ACADVER
  1
AC1015
  9
$ACADMAINTVER
 70
    13
  9
$DWGCODEPAGE
  3
ANSI_1252
  9
$INSBASE
 10
0.0
 20
0.0
 30
0.0
  9
$EXTMIN
 10
-1.354478626561984
 20
0.029749999999991
 30
0.0
  9
$EXTMAX
 10
136.0
 20
166.9702499999999
 30
0.0
  9
$LIMMIN
 10
0.0
 20
0.0
  9
$LIMMAX
 10
12.0
 20
9.0
  9
$ORTHOMODE
 70
     0
  9
$REGENMODE
 70
     1
  9
$FILLMODE
 70
     1
  9
$QTEXTMODE
 70
     0
  9
$MIRRTEXT
 70
     1
  9
$LTSCALE
 40
1.0
  9
$ATTMODE
 70
     1
  9
$TEXTSIZE
 40
0.2
  9
$TRACEWID
 40
0.05
  9
$TEXTSTYLE
  7
Standard
  9
$CLAYER
  8
0
  9
$CELTYPE
  6
Continuous
  9
$CECOLOR
 62
   256
  9
$CELTSCALE
 40
1.0
  9
$DISPSILH
 70
     0
  9
$DIMSCALE
 40
1.0
  9
$DIMASZ
 40
0.18
  9
$DIMEXO
 40
0.0625
  9
$DIMDLI
 40
0.38
  9
$DIMRND
 40
0.0
  9
$DIMDLE
 40
0.0
  9
$DIMEXE
 40
0.18
  9
$DIMTP
 40
0.0
  9
$DIMTM
 40
0.0
  9
$DIMTXT
 40
0.18
  9
$DIMCEN
 40
0.09
  9
$DIMTSZ
 40
0.0
  9
$DIMTOL
 70
     0
  9
$DIMLIM
 70
     0
  9
$DIMTIH
 70
     1
  9
$DIMTOH
 70
     1
  9
$DIMSE1
 70
     0
  9
$DIMSE2
 70
     0
  9
$DIMTAD
 70
     0
  9
$DIMZIN
 70
     0
  9
$DIMBLK
  1

  9
$DIMASO
 70
     1
  9
$DIMSHO
 70
     1
  9
$DIMPOST
  1

  9
$DIMAPOST
  1

  9
$DIMALT
 70
     0
  9
$DIMALTD
 70
     2
  9
$DIMALTF
 40
25.4
  9
$DIMLFAC
 40
1.0
  9
$DIMTOFL
 70
     0
  9
$DIMTVP
 40
0.0
  9
$DIMTIX
 70
     0
  9
$DIMSOXD
 70
     0
  9
$DIMSAH
 70
     0
  9
$DIMBLK1
  1

  9
$DIMBLK2
  1

  9
$DIMSTYLE
  2
Standard
  9
$DIMCLRD
 70
     0
  9
$DIMCLRE
 70
     0
  9
$DIMCLRT
 70
     0
  9
$DIMTFAC
 40
1.0
  9
$DIMGAP
 40
0.09
  9
$DIMJUST
 70
     0
  9
$DIMSD1
 70
     0
  9
$DIMSD2
 70
     0
  9
$DIMTOLJ
 70
     1
  9
$DIMTZIN
 70
     0
  9
$DIMALTZ
 70
     0
  9
$DIMALTTZ
 70
     0
  9
$DIMUPT
 70
     0
  9
$DIMDEC
 70
     4
  9
$DIMTDEC
 70
     4
  9
$DIMALTU
 70
     2
  9
$DIMALTTD
 70
     2
  9
$DIMTXSTY
  7
Standard
  9
$DIMAUNIT
 70
     0
  9
$DIMADEC
 70
     0
  9
$DIMALTRND
 40
0.0
  9
$DIMAZIN
 70
     0
  9
$DIMDSEP
 70
    46
  9
$DIMATFIT
 70
     3
  9
$DIMFRAC
 70
     0
  9
$DIMLDRBLK
  1

  9
$DIMLUNIT
 70
     2
  9
$DIMLWD
 70
    -2
  9
$DIMLWE
 70
    -2
  9
$DIMTMOVE
 70
     0
  9
$LUNITS
 70
     2
  9
$LUPREC
 70
     4
  9
$SKETCHINC
 40
0.1
  9
$FILLETRAD
 40
0.0
  9
$AUNITS
 70
     0
  9
$AUPREC
 70
     0
  9
$MENU
  1
.
  9
$ELEVATION
 40
0.0
  9
$PELEVATION
 40
0.0
  9
$THICKNESS
 40
0.0
  9
$LIMCHECK
 70
     0
  9
$CHAMFERA
 40
0.0
  9
$CHAMFERB
 40
0.0
  9
$CHAMFERC
 40
0.0
  9
$CHAMFERD
 40
0.0
  9
$SKPOLY
 70
     0
  9
$TDCREATE
 40
2455655.560413773
  9
$TDUCREATE
 40
2455655.477080440
  9
$TDUPDATE
 40
2455655.577247175
  9
$TDUUPDATE
 40
2455655.493913842
  9
$TDINDWG
 40
0.0168335764
  9
$TDUSRTIMER
 40
0.0168335764
  9
$USRTIMER
 70
     1
  9
$ANGBASE
 50
0.0
  9
$ANGDIR
 70
     0
  9
$PDMODE
 70
     0
  9
$PDSIZE
 40
0.0
  9
$PLINEWID
 40
0.0
  9
$SPLFRAME
 70
     0
  9
$SPLINETYPE
 70
     6
  9
$SPLINESEGS
 70
     8
  9
$HANDSEED
  5
3D6
  9
$SURFTAB1
 70
     6
  9
$SURFTAB2
 70
     6
  9
$SURFTYPE
 70
     6
  9
$SURFU
 70
     6
  9
$SURFV
 70
     6
  9
$UCSBASE
  2

  9
$UCSNAME
  2

  9
$UCSORG
 10
0.0
 20
0.0
 30
0.0
  9
$UCSXDIR
 10
1.0
 20
0.0
 30
0.0
  9
$UCSYDIR
 10
0.0
 20
1.0
 30
0.0
  9
$UCSORTHOREF
  2

  9
$UCSORTHOVIEW
 70
     1
  9
$UCSORGTOP
 10
0.0
 20
0.0
 30
0.0
  9
$UCSORGBOTTOM
 10
0.0
 20
0.0
 30
0.0
  9
$UCSORGLEFT
 10
0.0
 20
0.0
 30
0.0
  9
$UCSORGRIGHT
 10
0.0
 20
0.0
 30
0.0
  9
$UCSORGFRONT
 10
0.0
 20
0.0
 30
0.0
  9
$UCSORGBACK
 10
0.0
 20
0.0
 30
0.0
  9
$PUCSBASE
  2

  9
$PUCSNAME
  2

  9
$PUCSORG
 10
0.0
 20
0.0
 30
0.0
  9
$PUCSXDIR
 10
1.0
 20
0.0
 30
0.0
  9
$PUCSYDIR
 10
0.0
 20
1.0
 30
0.0
  9
$PUCSORTHOREF
  2

  9
$PUCSORTHOVIEW
 70
     0
  9
$PUCSORGTOP
 10
0.0
 20
0.0
 30
0.0
  9
$PUCSORGBOTTOM
 10
0.0
 20
0.0
 30
0.0
  9
$PUCSORGLEFT
 10
0.0
 20
0.0
 30
0.0
  9
$PUCSORGRIGHT
 10
0.0
 20
0.0
 30
0.0
  9
$PUCSORGFRONT
 10
0.0
 20
0.0
 30
0.0
  9
$PUCSORGBACK
 10
0.0
 20
0.0
 30
0.0
  9
$USERI1
 70
     0
  9
$USERI2
 70
     0
  9
$USERI3
 70
     0
  9
$USERI4
 70
     0
  9
$USERI5
 70
     0
  9
$USERR1
 40
0.0
  9
$USERR2
 40
0.0
  9
$USERR3
 40
0.0
  9
$USERR4
 40
0.0
  9
$USERR5
 40
0.0
  9
$WORLDVIEW
 70
     1
  9
$SHADEDGE
 70
     3
  9
$SHADEDIF
 70
    70
  9
$TILEMODE
 70
     1
  9
$MAXACTVP
 70
    64
  9
$PINSBASE
 10
0.0
 20
0.0
 30
0.0
  9
$PLIMCHECK
 70
     0
  9
$PEXTMIN
 10
1.000000000000000E+20
 20
1.000000000000000E+20
 30
1.000000000000000E+20
  9
$PEXTMAX
 10
-1.000000000000000E+20
 20
-1.000000000000000E+20
 30
-1.000000000000000E+20
  9
$PLIMMIN
 10
0.0
 20
0.0
  9
$PLIMMAX
 10
12.0
 20
9.0
  9
$UNITMODE
 70
     0
  9
$VISRETAIN
 70
     1
  9
$PLINEGEN
 70
     0
  9
$PSLTSCALE
 70
     1
  9
$TREEDEPTH
 70
  3020
  9
$CMLSTYLE
  2
Standard
  9
$CMLJUST
 70
     0
  9
$CMLSCALE
 40
1.0
  9
$PROXYGRAPHICS
 70
     1
  9
$MEASUREMENT
 70
     0
  9
$CELWEIGHT
370
    -1
  9
$ENDCAPS
280
     0
  9
$JOINSTYLE
280
     0
  9
$LWDISPLAY
290
     0
  9
$INSUNITS
 70
     0
  9
$HYPERLINKBASE
  1

  9
$STYLESHEET
  1

  9
$XEDIT
290
     1
  9
$CEPSNTYPE
380
     0
  9
$PSTYLEMODE
290
     1
  9
$FINGERPRINTGUID
  2
{691BDAEC-5871-42E0-8F0F-FA1122D5B258}
  9
$VERSIONGUID
  2
{255C13F0-264E-4133-BFB5-AD9F3744F365}
  9
$EXTNAMES
290
     1
  9
$PSVPSCALE
 40
0.0
  9
$OLESTARTUP
290
     0
  0
ENDSEC
  0
SECTION
  2
CLASSES
  0
CLASS
  1
ACDBDICTIONARYWDFLT
  2
AcDbDictionaryWithDefault
  3
AutoCAD 2000
 90
        0
280
     0
281
     0
  0
CLASS
  1
ACDBPLACEHOLDER
  2
AcDbPlaceHolder
  3
AutoCAD 2000
 90
        0
280
     0
281
     0
  0
CLASS
  1
LAYOUT
  2
AcDbLayout
  3
AutoCAD 2000
 90
        0
280
     0
281
     0
  0
CLASS
  1
DICTIONARYVAR
  2
AcDbDictionaryVar
  3
AutoCAD 2000
 90
        0
280
     0
281
     0
  0
ENDSEC
  0
SECTION
  2
TABLES
  0
TABLE
  2
VPORT
  5
8
330
0
100
AcDbSymbolTable
 70
     3
  0
VPORT
  5
3D5
330
8
100
AcDbSymbolTableRecord
100
AcDbViewportTableRecord
  2
*Active
 70
     0
 10
0.0
 20
0.0
 11
1.0
 21
1.0
 12
67.322760686719
 22
83.49999999999999
 13
0.0
 23
0.0
 14
1.0
 24
1.0
 15
0.0
 25
0.0
 16
0.0
 26
0.0
 36
1.0
 17
0.0
 27
0.0
 37
0.0
 40
168.0697480270574
 41
2.073363431151241
 42
50.0
 43
0.0
 44
0.0
 50
0.0
 51
0.0
 71
     0
 72
   100
 73
     1
 74
     3
 75
     0
 76
     0
 77
     0
 78
     0
281
     0
 65
     1
110
0.0
120
0.0
130
0.0
111
1.0
121
0.0
131
0.0
112
0.0
122
1.0
132
0.0
 79
     1
146
0.0
  0
ENDTAB
  0
TABLE
  2
LTYPE
  5
5
330
0
100
AcDbSymbolTable
 70
     1
  0
LTYPE
  5
13
330
5
100
AcDbSymbolTableRecord
100
AcDbLinetypeTableRecord
  2
ByBlock
 70
     0
  3

 72
    65
 73
     0
 40
0.0
  0
LTYPE
  5
14
330
5
100
AcDbSymbolTableRecord
100
AcDbLinetypeTableRecord
  2
ByLayer
 70
     0
  3

 72
    65
 73
     0
 40
0.0
  0
LTYPE
  5
15
330
5
100
AcDbSymbolTableRecord
100
AcDbLinetypeTableRecord
  2
Continuous
 70
     0
  3
Solid line
 72
    65
 73
     0
 40
0.0
  0
ENDTAB
  0
TABLE
  2
LAYER
  5
2
330
0
100
AcDbSymbolTable
 70
     1
  0
LAYER
  5
10
330
2
100
AcDbSymbolTableRecord
100
AcDbLayerTableRecord
  2
0
 70
     0
 62
     7
  6
Continuous
370
    -3
390
F
  0
ENDTAB
  0
TABLE
  2
STYLE
  5
3
330
0
100
AcDbSymbolTable
 70
     1
  0
STYLE
  5
11
330
3
100
AcDbSymbolTableRecord
100
AcDbTextStyleTableRecord
  2
Standard
 70
     0
 40
0.0
 41
1.0
 50
0.0
 71
     0
 42
0.2
  3
txt
  4

  0
ENDTAB
  0
TABLE
  2
VIEW
  5
6
330
0
100
AcDbSymbolTable
 70
     0
  0
ENDTAB
  0
TABLE
  2
UCS
  5
7
330
0
100
AcDbSymbolTable
 70
     0
  0
ENDTAB
  0
TABLE
  2
APPID
  5
9
330
0
100
AcDbSymbolTable
 70
     1
  0
APPID
  5
12
330
9
100
AcDbSymbolTableRecord
100
AcDbRegAppTableRecord
  2
ACAD
 70
     0
  0
ENDTAB
  0
TABLE
  2
DIMSTYLE
  5
A
330
0
100
AcDbSymbolTable
 70
     1
100
AcDbDimStyleTable
 71
     0
  0
DIMSTYLE
105
2F7
330
A
100
AcDbSymbolTableRecord
100
AcDbDimStyleTableRecord
  2
Standard
 70
     0
340
11
  0
ENDTAB
  0
TABLE
  2
BLOCK_RECORD
  5
1
330
0
100
AcDbSymbolTable
 70
     1
  0
BLOCK_RECORD
  5
1E
330
1
100
AcDbSymbolTableRecord
100
AcDbBlockTableRecord
  2
*Model_Space
340
21
  0
BLOCK_RECORD
  5
1A
330
1
100
AcDbSymbolTableRecord
100
AcDbBlockTableRecord
  2
*Paper_Space
340
1D
  0
ENDTAB
  0
ENDSEC
  0
SECTION
  2
BLOCKS
  0
BLOCK
  5
1F
330
1E
100
AcDbEntity
  8
0
100
AcDbBlockBegin
  2
*Model_Space
 70
     0
 10
0.0
 20
0.0
 30
0.0
  3
*Model_Space
  1

  0
ENDBLK
  5
20
330
1E
100
AcDbEntity
  8
0
100
AcDbBlockEnd
  0
BLOCK
  5
1B
330
1A
100
AcDbEntity
 67
     1
  8
0
100
AcDbBlockBegin
  2
*Paper_Space
 70
     0
 10
0.0
 20
0.0
 30
0.0
  3
*Paper_Space
  1

  0
ENDBLK
  5
1C
330
1A
100
AcDbEntity
 67
     1
  8
0
100
AcDbBlockEnd
  0
ENDSEC
  0
SECTION
  2
ENTITIES
  0
LINE
  5
11C
330
1E
100
AcDbEntity
  8
0
100
AcDbLine
 10
72.69490000000001
 20
60.02975
 30
0.0
 11
73.0949
 21
60.02975
 31
0.0
  0
LINE
  5
11D
330
1E
100
AcDbEntity
  8
0
100
AcDbLine
 10
73.0949
 20
60.02975
 30
0.0
 11
74.09489999999999
 21
60.02975
 31
0.0
  0
LINE
  5
11E
330
1E
100
AcDbEntity
  8
0
100
AcDbLine
 10
75.9949
 20
60.02975
 30
0.0
 11
76.6949
 21
60.02975
 31
0.0
  0
LINE
  5
11F
330
1E
100
AcDbEntity
  8
0
100
AcDbLine
 10
75.9949
 20
5.64085
 30
0.0
 11
76.6949
 21
6.84024999999999
 31
0.0
  0
LINE
  5
120
330
1E
100
AcDbEntity
  8
0
100
AcDbLine
 10
75.6949
 20
60.02975
 30
0.0
 11
75.6949
 21
4.29145
 31
0.0
  0
LINE
  5
121
330
1E
100
AcDbEntity
  8
0
100
AcDbLine
 10
75.6949
 20
60.02975
 30
0.0
 11
75.9949
 21
60.02975
 31
0.0
  0
LINE
  5
122
330
1E
100
AcDbEntity
  8
0
100
AcDbLine
 10
75.6949
 20
4.29145
 30
0.0
 11
75.9949
 21
2.30494999999999
 31
0.0
  0
LINE
  5
123
330
1E
100
AcDbEntity
  8
0
100
AcDbLine
 10
75.6949
 20
4.29145
 30
0.0
 11
75.6949
 21
60.02975
 31
0.0
  0
LINE
  5
124
330
1E
100
AcDbEntity
  8
0
100
AcDbLine
 10
75.6949
 20
4.29145
 30
0.0
 11
75.9949
 21
5.64085
 31
0.0
  0
LINE
  5
125
330
1E
100
AcDbEntity
  8
0
100
AcDbLine
 10
76.6949
 20
6.84024999999999
 30
0.0
 11
77.8949
 21
8.039749999999999
 31
0.0
  0
LINE
  5
126
330
1E
100
AcDbEntity
  8
0
100
AcDbLine
 10
76.6949
 20
60.02975
 30
0.0
 11
77.8949
 21
60.02975
 31
0.0
  0
LINE
  5
127
330
1E
100
AcDbEntity
  8
0
100
AcDbLine
 10
77.8949
 20
8.039749999999999
 30
0.0
 11
79.4949
 21
9.089250000000008
 31
0.0
  0
LINE
  5
128
330
1E
100
AcDbEntity
  8
0
100
AcDbLine
 10
77.8949
 20
60.02975
 30
0.0
 11
79.4949
 21
60.02975
 31
0.0
  0
LINE
  5
129
330
1E
100
AcDbEntity
  8
0
100
AcDbLine
 10
75.9949
 20
2.30494999999999
 30
0.0
 11
76.6949
 21
1.180449999999999
 31
0.0
  0
LINE
  5
12A
330
1E
100
AcDbEntity
  8
0
100
AcDbLine
 10
76.6949
 20
1.180449999999999
 30
0.0
 11
77.8949
 21
0.50575
 31
0.0
  0
LINE
  5
12B
330
1E
100
AcDbEntity
  8
0
100
AcDbLine
 10
77.8949
 20
0.50575
 30
0.0
 11
79.4949
 21
0.130949999999995
 31
0.0
  0
LINE
  5
12C
330
1E
100
AcDbEntity
  8
0
100
AcDbLine
 10
75.79489999999999
 20
60.02975
 30
0.0
 11
77.9949
 21
60.02975
 31
0.0
  0
LINE
  5
12D
330
1E
100
AcDbEntity
  8
0
100
AcDbLine
 10
79.4949
 20
9.089250000000008
 30
0.0
 11
81.2949
 21
9.80145
 31
0.0
  0
LINE
  5
12E
330
1E
100
AcDbEntity
  8
0
100
AcDbLine
 10
79.4949
 20
60.02975
 30
0.0
 11
81.2949
 21
60.02975
 31
0.0
  0
LINE
  5
12F
330
1E
100
AcDbEntity
  8
0
100
AcDbLine
 10
79.4949
 20
0.130949999999995
 30
0.0
 11
81.2949
 21
0.0559499999999977
 31
0.0
  0
LINE
  5
130
330
1E
100
AcDbEntity
  8
0
100
AcDbLine
 10
77.9949
 20
60.02975
 30
0.0
 11
80.4949
 21
60.02975
 31
0.0
  0
LINE
  5
131
330
1E
100
AcDbEntity
  8
0
100
AcDbLine
 10
77.4949
 20
90.02925000000001
 30
0.0
 11
80.19490000000001
 21
90.02925000000001
 31
0.0
  0
LINE
  5
132
330
1E
100
AcDbEntity
  8
0
100
AcDbLine
 10
85.09489999999999
 20
0.0559499999999977
 30
0.0
 11
86.89490000000001
 21
0.130949999999995
 31
0.0
  0
LINE
  5
133
330
1E
100
AcDbEntity
  8
0
100
AcDbLine
 10
83.1949
 20
0.029749999999991
 30
0.0
 11
85.09489999999999
 21
0.0559499999999977
 31
0.0
  0
LINE
  5
134
330
1E
100
AcDbEntity
  8
0
100
AcDbLine
 10
81.2949
 20
9.80145
 30
0.0
 11
83.1949
 21
10.02974999999999
 31
0.0
  0
LINE
  5
135
330
1E
100
AcDbEntity
  8
0
100
AcDbLine
 10
85.09489999999999
 20
9.80145
 30
0.0
 11
86.89490000000001
 21
9.089250000000008
 31
0.0
  0
LINE
  5
136
330
1E
100
AcDbEntity
  8
0
100
AcDbLine
 10
85.09489999999999
 20
60.02975
 30
0.0
 11
86.89490000000001
 21
60.02975
 31
0.0
  0
LINE
  5
137
330
1E
100
AcDbEntity
  8
0
100
AcDbLine
 10
83.1949
 20
10.02974999999999
 30
0.0
 11
85.09489999999999
 21
9.80145
 31
0.0
  0
LINE
  5
138
330
1E
100
AcDbEntity
  8
0
100
AcDbLine
 10
81.2949
 20
60.02975
 30
0.0
 11
83.1949
 21
60.02975
 31
0.0
  0
LINE
  5
139
330
1E
100
AcDbEntity
  8
0
100
AcDbLine
 10
81.2949
 20
0.0559499999999977
 30
0.0
 11
83.1949
 21
0.029749999999991
 31
0.0
  0
LINE
  5
13A
330
1E
100
AcDbEntity
  8
0
100
AcDbLine
 10
86.89490000000001
 20
0.130949999999995
 30
0.0
 11
88.49490000000001
 21
0.50575
 31
0.0
  0
LINE
  5
13B
330
1E
100
AcDbEntity
  8
0
100
AcDbLine
 10
88.49490000000001
 20
0.50575
 30
0.0
 11
89.6949
 21
1.180449999999999
 31
0.0
  0
LINE
  5
13C
330
1E
100
AcDbEntity
  8
0
100
AcDbLine
 10
90.3949
 20
2.30494999999999
 30
0.0
 11
90.6949
 21
4.29145
 31
0.0
  0
LINE
  5
13D
330
1E
100
AcDbEntity
  8
0
100
AcDbLine
 10
89.6949
 20
1.180449999999999
 30
0.0
 11
90.3949
 21
2.30494999999999
 31
0.0
  0
LINE
  5
13E
330
1E
100
AcDbEntity
  8
0
100
AcDbLine
 10
90.3949
 20
5.64085
 30
0.0
 11
90.6949
 21
4.29145
 31
0.0
  0
LINE
  5
13F
330
1E
100
AcDbEntity
  8
0
100
AcDbLine
 10
90.3949
 20
60.02975
 30
0.0
 11
90.6949
 21
60.02975
 31
0.0
  0
LINE
  5
140
330
1E
100
AcDbEntity
  8
0
100
AcDbLine
 10
89.6949
 20
60.02975
 30
0.0
 11
90.3949
 21
60.02975
 31
0.0
  0
LINE
  5
141
330
1E
100
AcDbEntity
  8
0
100
AcDbLine
 10
89.6949
 20
6.84024999999999
 30
0.0
 11
90.3949
 21
5.64085
 31
0.0
  0
LINE
  5
142
330
1E
100
AcDbEntity
  8
0
100
AcDbLine
 10
88.49490000000001
 20
8.039749999999999
 30
0.0
 11
89.6949
 21
6.84024999999999
 31
0.0
  0
LINE
  5
143
330
1E
100
AcDbEntity
  8
0
100
AcDbLine
 10
88.49490000000001
 20
60.02975
 30
0.0
 11
89.6949
 21
60.02975
 31
0.0
  0
LINE
  5
144
330
1E
100
AcDbEntity
  8
0
100
AcDbLine
 10
86.89490000000001
 20
9.089250000000008
 30
0.0
 11
88.49490000000001
 21
8.039749999999999
 31
0.0
  0
LINE
  5
145
330
1E
100
AcDbEntity
  8
0
100
AcDbLine
 10
86.89490000000001
 20
60.02975
 30
0.0
 11
88.49490000000001
 21
60.02975
 31
0.0
  0
LINE
  5
146
330
1E
100
AcDbEntity
  8
0
100
AcDbLine
 10
90.6949
 20
4.29145
 30
0.0
 11
90.6949
 21
60.02975
 31
0.0
  0
LINE
  5
147
330
1E
100
AcDbEntity
  8
0
100
AcDbLine
 10
90.5949
 20
60.02975
 30
0.0
 11
92.2949
 21
60.02975
 31
0.0
  0
LINE
  5
148
330
1E
100
AcDbEntity
  8
0
100
AcDbLine
 10
88.39490000000001
 20
60.02975
 30
0.0
 11
90.5949
 21
60.02975
 31
0.0
  0
LINE
  5
149
330
1E
100
AcDbEntity
  8
0
100
AcDbLine
 10
85.89490000000001
 20
60.02975
 30
0.0
 11
88.39490000000001
 21
60.02975
 31
0.0
  0
LINE
  5
14A
330
1E
100
AcDbEntity
  8
0
100
AcDbLine
 10
83.1949
 20
60.02975
 30
0.0
 11
85.89490000000001
 21
60.02975
 31
0.0
  0
LINE
  5
14B
330
1E
100
AcDbEntity
  8
0
100
AcDbLine
 10
83.1949
 20
60.02975
 30
0.0
 11
85.09489999999999
 21
60.02975
 31
0.0
  0
LINE
  5
14C
330
1E
100
AcDbEntity
  8
0
100
AcDbLine
 10
93.6949
 20
60.02975
 30
0.0
 11
94.6949
 21
90.02925000000001
 31
0.0
  0
LINE
  5
14D
330
1E
100
AcDbEntity
  8
0
100
AcDbLine
 10
93.29489999999999
 20
60.02975
 30
0.0
 11
93.6949
 21
60.02975
 31
0.0
  0
LINE
  5
14E
330
1E
100
AcDbEntity
  8
0
100
AcDbLine
 10
92.2949
 20
60.02975
 30
0.0
 11
93.29489999999999
 21
60.02975
 31
0.0
  0
LINE
  5
14F
330
1E
100
AcDbEntity
  8
0
100
AcDbLine
 10
93.1949
 20
90.02925000000001
 30
0.0
 11
94.29489999999999
 21
90.02925000000001
 31
0.0
  0
LINE
  5
150
330
1E
100
AcDbEntity
  8
0
100
AcDbLine
 10
91.2949
 20
90.02925000000001
 30
0.0
 11
93.1949
 21
90.02925000000001
 31
0.0
  0
LINE
  5
151
330
1E
100
AcDbEntity
  8
0
100
AcDbLine
 10
88.8949
 20
90.02925000000001
 30
0.0
 11
91.2949
 21
90.02925000000001
 31
0.0
  0
LINE
  5
152
330
1E
100
AcDbEntity
  8
0
100
AcDbLine
 10
86.1949
 20
90.02925000000001
 30
0.0
 11
88.8949
 21
90.02925000000001
 31
0.0
  0
LINE
  5
153
330
1E
100
AcDbEntity
  8
0
100
AcDbLine
 10
83.1949
 20
90.02925000000001
 30
0.0
 11
86.1949
 21
90.02925000000001
 31
0.0
  0
LINE
  5
154
330
1E
100
AcDbEntity
  8
0
100
AcDbLine
 10
90.6949
 20
60.02975
 30
0.0
 11
92.2949
 21
60.02975
 31
0.0
  0
LINE
  5
155
330
1E
100
AcDbEntity
  8
0
100
AcDbLine
 10
90.6949
 20
60.02975
 30
0.0
 11
90.6949
 21
4.29145
 31
0.0
  0
LINE
  5
156
330
1E
100
AcDbEntity
  8
0
100
AcDbLine
 10
80.4949
 20
60.02975
 30
0.0
 11
83.1949
 21
60.02975
 31
0.0
  0
LINE
  5
157
330
1E
100
AcDbEntity
  8
0
100
AcDbLine
 10
80.19490000000001
 20
90.02925000000001
 30
0.0
 11
83.1949
 21
90.02925000000001
 31
0.0
  0
LINE
  5
158
330
1E
100
AcDbEntity
  8
0
100
AcDbLine
 10
74.09489999999999
 20
60.02975
 30
0.0
 11
75.6949
 21
60.02975
 31
0.0
  0
LINE
  5
159
330
1E
100
AcDbEntity
  8
0
100
AcDbLine
 10
74.09489999999999
 20
60.02975
 30
0.0
 11
75.79489999999999
 21
60.02975
 31
0.0
  0
LINE
  5
15A
330
1E
100
AcDbEntity
  8
0
100
AcDbLine
 10
72.09489999999999
 20
90.02925000000001
 30
0.0
 11
73.1949
 21
90.02925000000001
 31
0.0
  0
LINE
  5
15B
330
1E
100
AcDbEntity
  8
0
100
AcDbLine
 10
73.1949
 20
90.02925000000001
 30
0.0
 11
75.09489999999999
 21
90.02925000000001
 31
0.0
  0
LINE
  5
15C
330
1E
100
AcDbEntity
  8
0
100
AcDbLine
 10
71.6949
 20
90.02925000000001
 30
0.0
 11
72.69490000000001
 21
60.02975
 31
0.0
  0
LINE
  5
15D
330
1E
100
AcDbEntity
  8
0
100
AcDbLine
 10
71.6949
 20
90.02925000000001
 30
0.0
 11
72.09489999999999
 21
90.02925000000001
 31
0.0
  0
LINE
  5
15E
330
1E
100
AcDbEntity
  8
0
100
AcDbLine
 10
75.09489999999999
 20
90.02925000000001
 30
0.0
 11
75.6269
 21
90.02925000000001
 31
0.0
  0
LINE
  5
15F
330
1E
100
AcDbEntity
  8
0
100
AcDbLine
 10
75.09489999999999
 20
90.02925000000001
 30
0.0
 11
77.4949
 21
90.02925000000001
 31
0.0
  0
LINE
  5
160
330
1E
100
AcDbEntity
  8
0
100
AcDbLine
 10
75.6269
 20
90.02925000000001
 30
0.0
 11
77.4949
 21
90.02925000000001
 31
0.0
  0
LINE
  5
161
330
1E
100
AcDbEntity
  8
0
100
AcDbLine
 10
77.7389
 20
90.38925
 30
0.0
 11
80.3789
 21
90.38925
 31
0.0
  0
LINE
  5
162
330
1E
100
AcDbEntity
  8
0
100
AcDbLine
 10
72.1949
 20
90.38925
 30
0.0
 11
72.5909
 21
90.38925
 31
0.0
  0
LINE
  5
163
330
1E
100
AcDbEntity
  8
0
100
AcDbLine
 10
72.1949
 20
90.38925
 30
0.0
 11
72.4589
 21
90.02925000000001
 31
0.0
  0
LINE
  5
164
330
1E
100
AcDbEntity
  8
0
100
AcDbLine
 10
72.1949
 20
90.38925
 30
0.0
 11
72.1949
 21
90.97025
 31
0.0
  0
LINE
  5
165
330
1E
100
AcDbEntity
  8
0
100
AcDbLine
 10
72.5909
 20
90.38925
 30
0.0
 11
73.6469
 21
90.38925
 31
0.0
  0
LINE
  5
166
330
1E
100
AcDbEntity
  8
0
100
AcDbLine
 10
71.46819999999999
 20
90.97025
 30
0.0
 11
72.2087266826923
 21
90.97025
 31
0.0
  0
LINE
  5
167
330
1E
100
AcDbEntity
  8
0
100
AcDbLine
 10
71.46819999999999
 20
90.97025
 30
0.0
 11
71.98959999999999
 21
90.97025
 31
0.0
  0
LINE
  5
168
330
1E
100
AcDbEntity
  8
0
100
AcDbLine
 10
71.46819999999999
 20
90.97025
 30
0.0
 11
72.1949
 21
90.97025
 31
0.0
  0
LINE
  5
169
330
1E
100
AcDbEntity
  8
0
100
AcDbLine
 10
70.5928
 20
90.97025
 30
0.0
 11
70.80119999999999
 21
90.97025
 31
0.0
  0
LINE
  5
16A
330
1E
100
AcDbEntity
  8
0
100
AcDbLine
 10
70.5928
 20
90.97025
 30
0.0
 11
70.5928
 21
96.53404999999999
 31
0.0
  0
LINE
  5
16B
330
1E
100
AcDbEntity
  8
0
100
AcDbLine
 10
70.0654
 20
99.97334999999999
 30
0.0
 11
70.4194
 21
98.98255
 31
0.0
  0
LINE
  5
16C
330
1E
100
AcDbEntity
  8
0
100
AcDbLine
 10
69.6417
 20
100.57655
 30
0.0
 11
70.0654
 21
99.97334999999999
 31
0.0
  0
LINE
  5
16D
330
1E
100
AcDbEntity
  8
0
100
AcDbLine
 10
69.0794
 20
101.05355
 30
0.0
 11
69.6417
 21
100.57655
 31
0.0
  0
LINE
  5
16E
330
1E
100
AcDbEntity
  8
0
100
AcDbLine
 10
68.38549999999999
 20
101.41025
 30
0.0
 11
69.0794
 21
101.05355
 31
0.0
  0
LINE
  5
16F
330
1E
100
AcDbEntity
  8
0
100
AcDbLine
 10
67.574
 20
101.6566499999999
 30
0.0
 11
68.38549999999999
 21
101.41025
 31
0.0
  0
LINE
  5
170
330
1E
100
AcDbEntity
  8
0
100
AcDbLine
 10
66.34669999999999
 20
101.8425499999999
 30
0.0
 11
67.574
 21
101.6566499999999
 31
0.0
  0
LINE
  5
171
330
1E
100
AcDbEntity
  8
0
100
AcDbLine
 10
65.4594
 20
101.8981499999999
 30
0.0
 11
66.34669999999999
 21
101.8425499999999
 31
0.0
  0
LINE
  5
172
330
1E
100
AcDbEntity
  8
0
100
AcDbLine
 10
63.60199999999999
 20
101.92105
 30
0.0
 11
65.4594
 21
101.8981499999999
 31
0.0
  0
LINE
  5
173
330
1E
100
AcDbEntity
  8
0
100
AcDbLine
 10
70.53799999999999
 20
98.21845000000001
 30
0.0
 11
70.5928
 21
96.53404999999999
 31
0.0
  0
LINE
  5
174
330
1E
100
AcDbEntity
  8
0
100
AcDbLine
 10
70.5928
 20
96.53404999999999
 30
0.0
 11
70.5928
 21
90.97025
 31
0.0
  0
LINE
  5
175
330
1E
100
AcDbEntity
  8
0
100
AcDbLine
 10
70.4194
 20
98.98255
 30
0.0
 11
70.53799999999999
 21
98.21845000000001
 31
0.0
  0
LINE
  5
176
330
1E
100
AcDbEntity
  8
0
100
AcDbLine
 10
70.80119999999999
 20
90.97025
 30
0.0
 11
71.46819999999999
 21
90.97025
 31
0.0
  0
LINE
  5
177
330
1E
100
AcDbEntity
  8
0
100
AcDbLine
 10
71.98959999999999
 20
90.97025
 30
0.0
 11
72.6307
 21
90.97025
 31
0.0
  0
LINE
  5
178
330
1E
100
AcDbEntity
  8
0
100
AcDbLine
 10
71.98959999999999
 20
90.97025
 30
0.0
 11
72.3216
 21
90.97025
 31
0.0
  0
LINE
  5
179
330
1E
100
AcDbEntity
  8
0
100
AcDbLine
 10
71.98959999999999
 20
90.97025
 30
0.0
 11
72.1949
 21
90.97025
 31
0.0
  0
LINE
  5
17A
330
1E
100
AcDbEntity
  8
0
100
AcDbLine
 10
43.0
 20
104.4982499999999
 30
0.0
 11
43.3
 21
103.9702499999999
 31
0.0
  0
LINE
  5
17B
330
1E
100
AcDbEntity
  8
0
100
AcDbLine
 10
43.3
 20
103.9702499999999
 30
0.0
 11
54.4167086820381
 21
103.9702499999999
 31
0.0
  0
LINE
  5
17C
330
1E
100
AcDbEntity
  8
0
100
AcDbLine
 10
43.3
 20
103.9702499999999
 30
0.0
 11
43.3
 21
104.7622499999999
 31
0.0
  0
LINE
  5
17D
330
1E
100
AcDbEntity
  8
0
100
AcDbLine
 10
43.0
 20
105.6318899910549
 30
0.0
 11
43.0
 21
105.29025
 31
0.0
  0
LINE
  5
17E
330
1E
100
AcDbEntity
  8
0
100
AcDbLine
 10
43.0
 20
105.29025
 30
0.0
 11
43.0
 21
107.4022499999999
 31
0.0
  0
LINE
  5
17F
330
1E
100
AcDbEntity
  8
0
100
AcDbLine
 10
43.0
 20
105.29025
 30
0.0
 11
43.0
 21
105.6318899910549
 31
0.0
  0
LINE
  5
180
330
1E
100
AcDbEntity
  8
0
100
AcDbLine
 10
43.3
 20
104.7622499999999
 30
0.0
 11
43.3
 21
103.9702499999999
 31
0.0
  0
LINE
  5
181
330
1E
100
AcDbEntity
  8
0
100
AcDbLine
 10
43.3
 20
104.7622499999999
 30
0.0
 11
43.3
 21
106.87425
 31
0.0
  0
LINE
  5
182
330
1E
100
AcDbEntity
  8
0
100
AcDbLine
 10
54.4457
 20
102.9753499999999
 30
0.0
 11
54.46159999999999
 21
102.4755499999999
 31
0.0
  0
LINE
  5
183
330
1E
100
AcDbEntity
  8
0
100
AcDbLine
 10
54.4457
 20
102.9753499999999
 30
0.0
 11
54.4636
 21
102.40295
 31
0.0
  0
LINE
  5
184
330
1E
100
AcDbEntity
  8
0
100
AcDbLine
 10
54.4177
 20
103.9352499999999
 30
0.0
 11
54.4457
 21
102.9753499999999
 31
0.0
  0
LINE
  5
185
330
1E
100
AcDbEntity
  8
0
100
AcDbLine
 10
54.46159999999999
 20
102.4755499999999
 30
0.0
 11
54.4636
 21
102.40295
 31
0.0
  0
LINE
  5
186
330
1E
100
AcDbEntity
  8
0
100
AcDbLine
 10
54.4636
 20
102.40295
 30
0.0
 11
54.5354
 21
102.16145
 31
0.0
  0
LINE
  5
187
330
1E
100
AcDbEntity
  8
0
100
AcDbLine
 10
54.5354
 20
102.16145
 30
0.0
 11
54.7168
 21
101.98565
 31
0.0
  0
LINE
  5
188
330
1E
100
AcDbEntity
  8
0
100
AcDbLine
 10
54.7168
 20
101.98565
 30
0.0
 11
54.9621
 21
101.92105
 31
0.0
  0
LINE
  5
189
330
1E
100
AcDbEntity
  8
0
100
AcDbLine
 10
54.9621
 20
101.92105
 30
0.0
 11
63.60199999999999
 21
101.92105
 31
0.0
  0
LINE
  5
18A
330
1E
100
AcDbEntity
  8
0
100
AcDbLine
 10
73.3844
 20
90.97025
 30
0.0
 11
74.2428
 21
90.97025
 31
0.0
  0
LINE
  5
18B
330
1E
100
AcDbEntity
  8
0
100
AcDbLine
 10
75.19490000000001
 20
90.97025
 30
0.0
 11
76.22679999999999
 21
90.97025
 31
0.0
  0
LINE
  5
18C
330
1E
100
AcDbEntity
  8
0
100
AcDbLine
 10
72.6307
 20
90.97025
 30
0.0
 11
73.3844
 21
90.97025
 31
0.0
  0
LINE
  5
18D
330
1E
100
AcDbEntity
  8
0
100
AcDbLine
 10
74.2428
 20
90.97025
 30
0.0
 11
75.19490000000001
 21
90.97025
 31
0.0
  0
LINE
  5
18E
330
1E
100
AcDbEntity
  8
0
100
AcDbLine
 10
72.1949
 20
90.97025
 30
0.0
 11
72.1949
 21
90.38925
 31
0.0
  0
LINE
  5
18F
330
1E
100
AcDbEntity
  8
0
100
AcDbLine
 10
73.6469
 20
90.38925
 30
0.0
 11
75.40689999999999
 21
90.38925
 31
0.0
  0
LINE
  5
190
330
1E
100
AcDbEntity
  8
0
100
AcDbLine
 10
77.3235
 20
90.97025
 30
0.0
 11
78.468
 21
90.97025
 31
0.0
  0
LINE
  5
191
330
1E
100
AcDbEntity
  8
0
100
AcDbLine
 10
83.05519999999999
 20
90.97025
 30
0.0
 11
85.32329999999999
 21
90.97025
 31
0.0
  0
LINE
  5
192
330
1E
100
AcDbEntity
  8
0
100
AcDbLine
 10
80.78799999999999
 20
90.97025
 30
0.0
 11
83.05519999999999
 21
90.97025
 31
0.0
  0
LINE
  5
193
330
1E
100
AcDbEntity
  8
0
100
AcDbLine
 10
78.468
 20
90.97025
 30
0.0
 11
80.78799999999999
 21
90.97025
 31
0.0
  0
LINE
  5
194
330
1E
100
AcDbEntity
  8
0
100
AcDbLine
 10
76.22679999999999
 20
90.97025
 30
0.0
 11
77.3235
 21
90.97025
 31
0.0
  0
LINE
  5
195
330
1E
100
AcDbEntity
  8
0
100
AcDbLine
 10
75.40689999999999
 20
90.38925
 30
0.0
 11
77.7389
 21
90.38925
 31
0.0
  0
LINE
  5
196
330
1E
100
AcDbEntity
  8
0
100
AcDbLine
 10
80.3789
 20
90.38925
 30
0.0
 11
83.1949
 21
90.38925
 31
0.0
  0
LINE
  5
197
330
1E
100
AcDbEntity
  8
0
100
AcDbLine
 10
93.79890000000001
 20
90.38925
 30
0.0
 11
94.19490000000001
 21
90.38925
 31
0.0
  0
LINE
  5
198
330
1E
100
AcDbEntity
  8
0
100
AcDbLine
 10
94.19490000000001
 20
90.38925
 30
0.0
 11
94.19490000000001
 21
90.97025
 31
0.0
  0
LINE
  5
199
330
1E
100
AcDbEntity
  8
0
100
AcDbLine
 10
92.7429
 20
90.38925
 30
0.0
 11
93.79890000000001
 21
90.38925
 31
0.0
  0
LINE
  5
19A
330
1E
100
AcDbEntity
  8
0
100
AcDbLine
 10
90.9829
 20
90.38925
 30
0.0
 11
92.7429
 21
90.38925
 31
0.0
  0
LINE
  5
19B
330
1E
100
AcDbEntity
  8
0
100
AcDbLine
 10
88.6509
 20
90.38925
 30
0.0
 11
90.9829
 21
90.38925
 31
0.0
  0
LINE
  5
19C
330
1E
100
AcDbEntity
  8
0
100
AcDbLine
 10
87.64230000000001
 20
90.97025
 30
0.0
 11
88.7878
 21
90.97025
 31
0.0
  0
LINE
  5
19D
330
1E
100
AcDbEntity
  8
0
100
AcDbLine
 10
89.8835
 20
90.97025
 30
0.0
 11
90.9154
 21
90.97025
 31
0.0
  0
LINE
  5
19E
330
1E
100
AcDbEntity
  8
0
100
AcDbLine
 10
90.9154
 20
90.97025
 30
0.0
 11
91.86750000000001
 21
90.97025
 31
0.0
  0
LINE
  5
19F
330
1E
100
AcDbEntity
  8
0
100
AcDbLine
 10
88.7878
 20
90.97025
 30
0.0
 11
89.8835
 21
90.97025
 31
0.0
  0
LINE
  5
1A0
330
1E
100
AcDbEntity
  8
0
100
AcDbLine
 10
91.86750000000001
 20
90.97025
 30
0.0
 11
92.72589999999999
 21
90.97025
 31
0.0
  0
LINE
  5
1A1
330
1E
100
AcDbEntity
  8
0
100
AcDbLine
 10
92.72589999999999
 20
90.97025
 30
0.0
 11
93.4806
 21
90.97025
 31
0.0
  0
LINE
  5
1A2
330
1E
100
AcDbEntity
  8
0
100
AcDbLine
 10
85.32329999999999
 20
90.97025
 30
0.0
 11
87.64230000000001
 21
90.97025
 31
0.0
  0
LINE
  5
1A3
330
1E
100
AcDbEntity
  8
0
100
AcDbLine
 10
94.12069999999999
 20
90.97025
 30
0.0
 11
94.64310000000001
 21
90.97025
 31
0.0
  0
LINE
  5
1A4
330
1E
100
AcDbEntity
  8
0
100
AcDbLine
 10
93.4806
 20
90.97025
 30
0.0
 11
94.12069999999999
 21
90.97025
 31
0.0
  0
LINE
  5
1A5
330
1E
100
AcDbEntity
  8
0
100
AcDbLine
 10
93.4806
 20
90.97025
 30
0.0
 11
93.7568
 21
90.97025
 31
0.0
  0
LINE
  5
1A6
330
1E
100
AcDbEntity
  8
0
100
AcDbLine
 10
86.01090000000001
 20
90.38925
 30
0.0
 11
88.6509
 21
90.38925
 31
0.0
  0
LINE
  5
1A7
330
1E
100
AcDbEntity
  8
0
100
AcDbLine
 10
83.1949
 20
90.38925
 30
0.0
 11
86.01090000000001
 21
90.38925
 31
0.0
  0
LINE
  5
1A8
330
1E
100
AcDbEntity
  8
0
100
AcDbLine
 10
93.93089999999999
 20
90.02925000000001
 30
0.0
 11
94.19490000000001
 21
90.38925
 31
0.0
  0
LINE
  5
1A9
330
1E
100
AcDbEntity
  8
0
100
AcDbLine
 10
95.5175
 20
90.97025
 30
0.0
 11
96.0
 21
148.81925
 31
0.0
  0
LINE
  5
1AB
330
1E
100
AcDbEntity
  8
0
100
AcDbLine
 10
136.0
 20
98.97024999999999
 30
0.0
 11
136.0
 21
100.1702499999999
 31
0.0
  0
LINE
  5
1AC
330
1E
100
AcDbEntity
  8
0
100
AcDbLine
 10
115.0
 20
98.97024999999999
 30
0.0
 11
136.0
 21
98.97024999999999
 31
0.0
  0
LINE
  5
1AD
330
1E
100
AcDbEntity
  8
0
100
AcDbLine
 10
113.5
 20
99.63695000000001
 30
0.0
 11
115.0
 21
98.97024999999999
 31
0.0
  0
LINE
  5
1AE
330
1E
100
AcDbEntity
  8
0
100
AcDbLine
 10
113.5
 20
99.63695000000001
 30
0.0
 11
113.5
 21
100.83695
 31
0.0
  0
LINE
  5
1B0
330
1E
100
AcDbEntity
  8
0
100
AcDbLine
 10
96.0
 20
148.81925
 30
0.0
 11
95.5175
 21
90.97025
 31
0.0
  0
LINE
  5
1B1
330
1E
100
AcDbEntity
  8
0
100
AcDbLine
 10
95.3091
 20
90.97025
 30
0.0
 11
95.5175
 21
90.97025
 31
0.0
  0
LINE
  5
1B2
330
1E
100
AcDbEntity
  8
0
100
AcDbLine
 10
94.64310000000001
 20
90.97025
 30
0.0
 11
95.3091
 21
90.97025
 31
0.0
  0
LINE
  5
1B5
330
1E
100
AcDbEntity
  8
0
100
AcDbLine
 10
136.0
 20
100.1702499999999
 30
0.0
 11
136.0
 21
98.97024999999999
 31
0.0
  0
LINE
  5
1B6
330
1E
100
AcDbEntity
  8
0
100
AcDbLine
 10
136.0
 20
100.1702499999999
 30
0.0
 11
136.0
 21
103.5035499999999
 31
0.0
  0
LINE
  5
1B7
330
1E
100
AcDbEntity
  8
0
100
AcDbLine
 10
113.5
 20
100.83695
 30
0.0
 11
113.5
 21
99.63695000000001
 31
0.0
  0
LINE
  5
1B8
330
1E
100
AcDbEntity
  8
0
100
AcDbLine
 10
113.5
 20
100.83695
 30
0.0
 11
113.5
 21
104.1702499999999
 31
0.0
  0
LINE
  5
1BE
330
1E
100
AcDbEntity
  8
0
100
AcDbLine
 10
113.0
 20
101.6369499999999
 30
0.0
 11
113.5
 21
99.63695000000001
 31
0.0
  0
LINE
  5
1BF
330
1E
100
AcDbEntity
  8
0
100
AcDbLine
 10
113.0
 20
101.6369499999999
 30
0.0
 11
113.0
 21
102.8369499999999
 31
0.0
  0
LINE
  5
1C0
330
1E
100
AcDbEntity
  8
0
100
AcDbLine
 10
136.0
 20
103.5035499999999
 30
0.0
 11
136.0
 21
100.1702499999999
 31
0.0
  0
LINE
  5
1C1
330
1E
100
AcDbEntity
  8
0
100
AcDbLine
 10
136.0
 20
103.5035499999999
 30
0.0
 11
136.0
 21
108.97025
 31
0.0
  0
LINE
  5
1C2
330
1E
100
AcDbEntity
  8
0
100
AcDbLine
 10
113.5
 20
104.1702499999999
 30
0.0
 11
113.5
 21
100.83695
 31
0.0
  0
LINE
  5
1C3
330
1E
100
AcDbEntity
  8
0
100
AcDbLine
 10
113.5
 20
104.1702499999999
 30
0.0
 11
113.5
 21
109.37025
 31
0.0
  0
LINE
  5
1C4
330
1E
100
AcDbEntity
  8
0
100
AcDbLine
 10
113.0
 20
102.8369499999999
 30
0.0
 11
113.0
 21
101.6369499999999
 31
0.0
  0
LINE
  5
1C5
330
1E
100
AcDbEntity
  8
0
100
AcDbLine
 10
113.0
 20
102.8369499999999
 30
0.0
 11
113.0
 21
148.5702499999999
 31
0.0
  0
LINE
  5
1CD
330
1E
100
AcDbEntity
  8
0
100
AcDbLine
 10
94.29489999999999
 20
90.02925000000001
 30
0.0
 11
94.6949
 21
90.02925000000001
 31
0.0
  0
LINE
  5
1CE
330
1E
100
AcDbEntity
  8
0
100
AcDbLine
 10
94.19490000000001
 20
90.97025
 30
0.0
 11
94.19490000000001
 21
90.38925
 31
0.0
  0
LINE
  5
1CF
330
1E
100
AcDbEntity
  8
0
100
AcDbLine
 10
94.19490000000001
 20
90.97025
 30
0.0
 11
94.64310000000001
 21
90.97025
 31
0.0
  0
LINE
  5
1D0
330
1E
100
AcDbEntity
  8
0
100
AcDbLine
 10
43.3
 20
106.87425
 30
0.0
 11
43.3
 21
104.7622499999999
 31
0.0
  0
LINE
  5
1D1
330
1E
100
AcDbEntity
  8
0
100
AcDbLine
 10
43.3
 20
106.87425
 30
0.0
 11
43.3
 21
110.39425
 31
0.0
  0
LINE
  5
1D2
330
1E
100
AcDbEntity
  8
0
100
AcDbLine
 10
43.0
 20
107.4022499999999
 30
0.0
 11
43.0
 21
105.29025
 31
0.0
  0
LINE
  5
1D3
330
1E
100
AcDbEntity
  8
0
100
AcDbLine
 10
43.0
 20
110.83425
 30
0.0
 11
43.0
 21
115.32225
 31
0.0
  0
LINE
  5
1D4
330
1E
100
AcDbEntity
  8
0
100
AcDbLine
 10
43.3
 20
110.39425
 30
0.0
 11
43.3
 21
106.87425
 31
0.0
  0
LINE
  5
1D5
330
1E
100
AcDbEntity
  8
0
100
AcDbLine
 10
43.3
 20
110.39425
 30
0.0
 11
43.3
 21
115.05825
 31
0.0
  0
LINE
  5
1D7
330
1E
100
AcDbEntity
  8
0
100
AcDbLine
 10
43.0
 20
115.32225
 30
0.0
 11
43.0
 21
110.83425
 31
0.0
  0
LINE
  5
1D8
330
1E
100
AcDbEntity
  8
0
100
AcDbLine
 10
43.3
 20
115.05825
 30
0.0
 11
43.3
 21
110.39425
 31
0.0
  0
LINE
  5
1D9
330
1E
100
AcDbEntity
  8
0
100
AcDbLine
 10
43.3
 20
115.05825
 30
0.0
 11
43.3
 21
120.33825
 31
0.0
  0
LINE
  5
1E2
330
1E
100
AcDbEntity
  8
0
100
AcDbLine
 10
43.0
 20
120.42625
 30
0.0
 11
43.0
 21
125.9702499999999
 31
0.0
  0
LINE
  5
1E3
330
1E
100
AcDbEntity
  8
0
100
AcDbLine
 10
43.3
 20
120.33825
 30
0.0
 11
43.3
 21
115.05825
 31
0.0
  0
LINE
  5
1E4
330
1E
100
AcDbEntity
  8
0
100
AcDbLine
 10
43.3
 20
120.33825
 30
0.0
 11
43.3
 21
125.9702499999999
 31
0.0
  0
LINE
  5
212
330
1E
100
AcDbEntity
  8
0
100
AcDbLine
 10
96.0
 20
119.256
 30
0.0
 11
97.0
 21
118.11315
 31
0.0
  0
LINE
  5
221
330
1E
100
AcDbEntity
  8
0
100
AcDbLine
 10
108.0
 20
116.9702499999999
 30
0.0
 11
110.0
 21
118.11315
 31
0.0
  0
LINE
  5
222
330
1E
100
AcDbEntity
  8
0
100
AcDbLine
 10
102.0
 20
116.9702499999999
 30
0.0
 11
108.0
 21
116.9702499999999
 31
0.0
  0
LINE
  5
226
330
1E
100
AcDbEntity
  8
0
100
AcDbLine
 10
110.0
 20
118.11315
 30
0.0
 11
112.0
 21
120.3988499999999
 31
0.0
  0
LINE
  5
227
330
1E
100
AcDbEntity
  8
0
100
AcDbLine
 10
112.0
 20
120.3988499999999
 30
0.0
 11
113.0
 21
120.3988499999999
 31
0.0
  0
LINE
  5
228
330
1E
100
AcDbEntity
  8
0
100
AcDbLine
 10
112.0
 20
120.3988499999999
 30
0.0
 11
112.0
 21
120.85595
 31
0.0
  0
LINE
  5
229
330
1E
100
AcDbEntity
  8
0
100
AcDbLine
 10
99.0
 20
116.9702499999999
 30
0.0
 11
102.0
 21
116.9702499999999
 31
0.0
  0
LINE
  5
22A
330
1E
100
AcDbEntity
  8
0
100
AcDbLine
 10
97.0
 20
118.11315
 30
0.0
 11
99.0
 21
116.9702499999999
 31
0.0
  0
LINE
  5
22B
330
1E
100
AcDbEntity
  8
0
100
AcDbLine
 10
113.0
 20
148.5702499999999
 30
0.0
 11
113.0
 21
102.8369499999999
 31
0.0
  0
LINE
  5
22C
330
1E
100
AcDbEntity
  8
0
100
AcDbLine
 10
136.0
 20
108.97025
 30
0.0
 11
136.0
 21
103.5035499999999
 31
0.0
  0
LINE
  5
22D
330
1E
100
AcDbEntity
  8
0
100
AcDbLine
 10
136.0
 20
108.97025
 30
0.0
 11
136.0
 21
116.03695
 31
0.0
  0
LINE
  5
22E
330
1E
100
AcDbEntity
  8
0
100
AcDbLine
 10
136.0
 20
116.03695
 30
0.0
 11
136.0
 21
108.97025
 31
0.0
  0
LINE
  5
22F
330
1E
100
AcDbEntity
  8
0
100
AcDbLine
 10
136.0
 20
116.03695
 30
0.0
 11
136.0
 21
124.1702499999999
 31
0.0
  0
LINE
  5
230
330
1E
100
AcDbEntity
  8
0
100
AcDbLine
 10
113.5
 20
116.43695
 30
0.0
 11
113.5
 21
109.37025
 31
0.0
  0
LINE
  5
231
330
1E
100
AcDbEntity
  8
0
100
AcDbLine
 10
113.5
 20
116.43695
 30
0.0
 11
113.5
 21
124.4369499999999
 31
0.0
  0
LINE
  5
232
330
1E
100
AcDbEntity
  8
0
100
AcDbLine
 10
113.5
 20
109.37025
 30
0.0
 11
113.5
 21
104.1702499999999
 31
0.0
  0
LINE
  5
233
330
1E
100
AcDbEntity
  8
0
100
AcDbLine
 10
113.5
 20
109.37025
 30
0.0
 11
113.5
 21
116.43695
 31
0.0
  0
LINE
  5
234
330
1E
100
AcDbEntity
  8
0
100
AcDbLine
 10
113.0
 20
117.37025
 30
0.0
 11
113.0
 21
120.3988499999999
 31
0.0
  0
LINE
  5
235
330
1E
100
AcDbEntity
  8
0
100
AcDbLine
 10
113.0
 20
117.37025
 30
0.0
 11
113.0
 21
124.9702499999999
 31
0.0
  0
LINE
  5
237
330
1E
100
AcDbEntity
  8
0
100
AcDbLine
 10
112.0
 20
122.11315
 30
0.0
 11
112.0
 21
120.85595
 31
0.0
  0
LINE
  5
238
330
1E
100
AcDbEntity
  8
0
100
AcDbLine
 10
112.0
 20
122.11315
 30
0.0
 11
112.0
 21
124.05595
 31
0.0
  0
LINE
  5
239
330
1E
100
AcDbEntity
  8
0
100
AcDbLine
 10
112.0
 20
120.85595
 30
0.0
 11
112.0
 21
120.3988499999999
 31
0.0
  0
LINE
  5
23A
330
1E
100
AcDbEntity
  8
0
100
AcDbLine
 10
112.0
 20
120.85595
 30
0.0
 11
112.0
 21
122.11315
 31
0.0
  0
LINE
  5
23C
330
1E
100
AcDbEntity
  8
0
100
AcDbLine
 10
113.0
 20
120.3988499999999
 30
0.0
 11
113.0
 21
117.37025
 31
0.0
  0
LINE
  5
23F
330
1E
100
AcDbEntity
  8
0
100
AcDbLine
 10
43.0
 20
125.9702499999999
 30
0.0
 11
43.0
 21
120.42625
 31
0.0
  0
LINE
  5
240
330
1E
100
AcDbEntity
  8
0
100
AcDbLine
 10
43.0
 20
125.9702499999999
 30
0.0
 11
43.0
 21
131.51425
 31
0.0
  0
LINE
  5
241
330
1E
100
AcDbEntity
  8
0
100
AcDbLine
 10
43.3
 20
125.9702499999999
 30
0.0
 11
43.3
 21
120.33825
 31
0.0
  0
LINE
  5
242
330
1E
100
AcDbEntity
  8
0
100
AcDbLine
 10
43.3
 20
125.9702499999999
 30
0.0
 11
43.3
 21
131.60225
 31
0.0
  0
LINE
  5
245
330
1E
100
AcDbEntity
  8
0
100
AcDbLine
 10
43.0
 20
131.51425
 30
0.0
 11
43.0
 21
125.9702499999999
 31
0.0
  0
LINE
  5
246
330
1E
100
AcDbEntity
  8
0
100
AcDbLine
 10
43.0
 20
136.6182499999999
 30
0.0
 11
43.0
 21
141.1062499999999
 31
0.0
  0
LINE
  5
247
330
1E
100
AcDbEntity
  8
0
100
AcDbLine
 10
43.0
 20
141.1062499999999
 30
0.0
 11
43.0
 21
136.6182499999999
 31
0.0
  0
LINE
  5
248
330
1E
100
AcDbEntity
  8
0
100
AcDbLine
 10
43.3
 20
131.60225
 30
0.0
 11
43.3
 21
125.9702499999999
 31
0.0
  0
LINE
  5
249
330
1E
100
AcDbEntity
  8
0
100
AcDbLine
 10
43.3
 20
131.60225
 30
0.0
 11
43.3
 21
136.88225
 31
0.0
  0
LINE
  5
24A
330
1E
100
AcDbEntity
  8
0
100
AcDbLine
 10
43.3
 20
136.88225
 30
0.0
 11
43.3
 21
131.60225
 31
0.0
  0
LINE
  5
24B
330
1E
100
AcDbEntity
  8
0
100
AcDbLine
 10
43.3
 20
136.88225
 30
0.0
 11
43.3
 21
141.5462499999999
 31
0.0
  0
LINE
  5
24C
330
1E
100
AcDbEntity
  8
0
100
AcDbLine
 10
43.3
 20
141.5462499999999
 30
0.0
 11
43.3
 21
136.88225
 31
0.0
  0
LINE
  5
24D
330
1E
100
AcDbEntity
  8
0
100
AcDbLine
 10
43.3
 20
141.5462499999999
 30
0.0
 11
43.3
 21
145.0662499999999
 31
0.0
  0
LINE
  5
250
330
1E
100
AcDbEntity
  8
0
100
AcDbLine
 10
43.0
 20
104.4982499999999
 30
0.0
 11
43.0
 21
146.6502499999999
 31
0.0
  0
LINE
  5
251
330
1E
100
AcDbEntity
  8
0
100
AcDbLine
 10
43.3
 20
145.0662499999999
 30
0.0
 11
43.3
 21
141.5462499999999
 31
0.0
  0
LINE
  5
252
330
1E
100
AcDbEntity
  8
0
100
AcDbLine
 10
43.3
 20
145.0662499999999
 30
0.0
 11
43.3
 21
147.1782499999999
 31
0.0
  0
LINE
  5
259
330
1E
100
AcDbEntity
  8
0
100
AcDbLine
 10
43.0
 20
146.236901405476
 30
0.0
 11
43.0
 21
146.6502499999999
 31
0.0
  0
LINE
  5
25A
330
1E
100
AcDbEntity
  8
0
100
AcDbLine
 10
43.0
 20
146.6502499999999
 30
0.0
 11
43.0
 21
104.4982499999999
 31
0.0
  0
LINE
  5
25B
330
1E
100
AcDbEntity
  8
0
100
AcDbLine
 10
43.0
 20
146.6502499999999
 30
0.0
 11
43.0
 21
147.44225
 31
0.0
  0
LINE
  5
25C
330
1E
100
AcDbEntity
  8
0
100
AcDbLine
 10
43.0
 20
146.6502499999999
 30
0.0
 11
43.0
 21
146.236901405476
 31
0.0
  0
LINE
  5
25D
330
1E
100
AcDbEntity
  8
0
100
AcDbLine
 10
43.0
 20
147.44225
 30
0.0
 11
43.0
 21
146.6502499999999
 31
0.0
  0
LINE
  5
25E
330
1E
100
AcDbEntity
  8
0
100
AcDbLine
 10
43.0
 20
147.44225
 30
0.0
 11
43.3
 21
147.9702499999999
 31
0.0
  0
LINE
  5
25F
330
1E
100
AcDbEntity
  8
0
100
AcDbLine
 10
43.3
 20
147.1782499999999
 30
0.0
 11
43.3
 21
145.0662499999999
 31
0.0
  0
LINE
  5
260
330
1E
100
AcDbEntity
  8
0
100
AcDbLine
 10
43.3
 20
147.1782499999999
 30
0.0
 11
43.3
 21
147.9702499999999
 31
0.0
  0
LINE
  5
261
330
1E
100
AcDbEntity
  8
0
100
AcDbLine
 10
43.3
 20
147.9702499999999
 30
0.0
 11
43.3
 21
147.1782499999999
 31
0.0
  0
LINE
  5
262
330
1E
100
AcDbEntity
  8
0
100
AcDbLine
 10
43.3
 20
147.9702499999999
 30
0.0
 11
54.1259708126619
 21
147.9702499999999
 31
0.0
  0
LINE
  5
279
330
1E
100
AcDbEntity
  8
0
100
AcDbLine
 10
96.0
 20
146.68425
 30
0.0
 11
97.0
 21
147.8272499999999
 31
0.0
  0
LINE
  5
282
330
1E
100
AcDbEntity
  8
0
100
AcDbLine
 10
96.0
 20
148.81925
 30
0.0
 11
96.0
 21
148.97425
 31
0.0
  0
LINE
  5
283
330
1E
100
AcDbEntity
  8
0
100
AcDbLine
 10
96.0
 20
148.97425
 30
0.0
 11
96.0
 21
149.1122499999999
 31
0.0
  0
LINE
  5
284
330
1E
100
AcDbEntity
  8
0
100
AcDbLine
 10
96.0
 20
148.97425
 30
0.0
 11
96.0
 21
148.81925
 31
0.0
  0
LINE
  5
28A
330
1E
100
AcDbEntity
  8
0
100
AcDbLine
 10
54.23387277797979
 20
149.410539074815
 30
0.0
 11
54.2772
 21
149.4632499999999
 31
0.0
  0
LINE
  5
28B
330
1E
100
AcDbEntity
  8
0
100
AcDbLine
 10
54.20239999999999
 20
149.37225
 30
0.0
 11
54.2772
 21
149.4632499999999
 31
0.0
  0
LINE
  5
28C
330
1E
100
AcDbEntity
  8
0
100
AcDbLine
 10
54.2772
 20
149.4632499999999
 30
0.0
 11
54.3759
 21
149.55025
 31
0.0
  0
LINE
  5
28D
330
1E
100
AcDbEntity
  8
0
100
AcDbLine
 10
54.2772
 20
149.4632499999999
 30
0.0
 11
54.33437108039299
 21
149.513643961441
 31
0.0
  0
LINE
  5
28E
330
1E
100
AcDbEntity
  8
0
100
AcDbLine
 10
54.3759
 20
149.55025
 30
0.0
 11
95.52150000000001
 21
149.62125
 31
0.0
  0
LINE
  5
28F
330
1E
100
AcDbEntity
  8
0
100
AcDbLine
 10
95.8614
 20
149.45625
 30
0.0
 11
95.93619999999999
 21
149.36725
 31
0.0
  0
LINE
  5
290
330
1E
100
AcDbEntity
  8
0
100
AcDbLine
 10
95.76269999999999
 20
149.54825
 30
0.0
 11
95.8614
 21
149.45625
 31
0.0
  0
LINE
  5
291
330
1E
100
AcDbEntity
  8
0
100
AcDbLine
 10
95.52150000000001
 20
149.62125
 30
0.0
 11
95.76269999999999
 21
149.54825
 31
0.0
  0
LINE
  5
292
330
1E
100
AcDbEntity
  8
0
100
AcDbLine
 10
95.93619999999999
 20
149.36725
 30
0.0
 11
96.0
 21
149.12425
 31
0.0
  0
LINE
  5
293
330
1E
100
AcDbEntity
  8
0
100
AcDbLine
 10
96.0
 20
149.1122499999999
 30
0.0
 11
96.0
 21
148.97425
 31
0.0
  0
LINE
  5
2A0
330
1E
100
AcDbEntity
  8
0
100
AcDbLine
 10
112.0
 20
124.05595
 30
0.0
 11
112.0
 21
122.11315
 31
0.0
  0
LINE
  5
2A1
330
1E
100
AcDbEntity
  8
0
100
AcDbLine
 10
112.0
 20
124.05595
 30
0.0
 11
112.0
 21
126.68455
 31
0.0
  0
LINE
  5
2A3
330
1E
100
AcDbEntity
  8
0
100
AcDbLine
 10
112.0
 20
129.7702499999999
 30
0.0
 11
112.0
 21
126.68455
 31
0.0
  0
LINE
  5
2A4
330
1E
100
AcDbEntity
  8
0
100
AcDbLine
 10
112.0
 20
129.7702499999999
 30
0.0
 11
112.0
 21
132.97025
 31
0.0
  0
LINE
  5
2A5
330
1E
100
AcDbEntity
  8
0
100
AcDbLine
 10
112.0
 20
126.68455
 30
0.0
 11
112.0
 21
124.05595
 31
0.0
  0
LINE
  5
2A6
330
1E
100
AcDbEntity
  8
0
100
AcDbLine
 10
112.0
 20
126.68455
 30
0.0
 11
112.0
 21
129.7702499999999
 31
0.0
  0
LINE
  5
2AB
330
1E
100
AcDbEntity
  8
0
100
AcDbLine
 10
112.0
 20
141.8845499999999
 30
0.0
 11
112.0
 21
143.8272499999999
 31
0.0
  0
LINE
  5
2AC
330
1E
100
AcDbEntity
  8
0
100
AcDbLine
 10
112.0
 20
141.8845499999999
 30
0.0
 11
112.0
 21
139.25595
 31
0.0
  0
LINE
  5
2AD
330
1E
100
AcDbEntity
  8
0
100
AcDbLine
 10
112.0
 20
143.8272499999999
 30
0.0
 11
112.0
 21
145.08425
 31
0.0
  0
LINE
  5
2AE
330
1E
100
AcDbEntity
  8
0
100
AcDbLine
 10
112.0
 20
143.8272499999999
 30
0.0
 11
112.0
 21
141.8845499999999
 31
0.0
  0
LINE
  5
2AF
330
1E
100
AcDbEntity
  8
0
100
AcDbLine
 10
110.0
 20
147.8272499999999
 30
0.0
 11
112.0
 21
145.5412499999999
 31
0.0
  0
LINE
  5
2B3
330
1E
100
AcDbEntity
  8
0
100
AcDbLine
 10
112.0
 20
145.08425
 30
0.0
 11
112.0
 21
145.5412499999999
 31
0.0
  0
LINE
  5
2B4
330
1E
100
AcDbEntity
  8
0
100
AcDbLine
 10
112.0
 20
145.08425
 30
0.0
 11
112.0
 21
143.8272499999999
 31
0.0
  0
LINE
  5
2B5
330
1E
100
AcDbEntity
  8
0
100
AcDbLine
 10
112.0
 20
145.5412499999999
 30
0.0
 11
113.0
 21
145.5412499999999
 31
0.0
  0
LINE
  5
2B6
330
1E
100
AcDbEntity
  8
0
100
AcDbLine
 10
112.0
 20
145.5412499999999
 30
0.0
 11
112.0
 21
145.08425
 31
0.0
  0
LINE
  5
2B7
330
1E
100
AcDbEntity
  8
0
100
AcDbLine
 10
112.0
 20
139.25595
 30
0.0
 11
112.0
 21
141.8845499999999
 31
0.0
  0
LINE
  5
2B8
330
1E
100
AcDbEntity
  8
0
100
AcDbLine
 10
112.0
 20
139.25595
 30
0.0
 11
112.0
 21
136.17025
 31
0.0
  0
LINE
  5
2B9
330
1E
100
AcDbEntity
  8
0
100
AcDbLine
 10
112.0
 20
136.17025
 30
0.0
 11
112.0
 21
139.25595
 31
0.0
  0
LINE
  5
2BA
330
1E
100
AcDbEntity
  8
0
100
AcDbLine
 10
112.0
 20
136.17025
 30
0.0
 11
112.0
 21
132.97025
 31
0.0
  0
LINE
  5
2BB
330
1E
100
AcDbEntity
  8
0
100
AcDbLine
 10
112.0
 20
132.97025
 30
0.0
 11
112.0
 21
129.7702499999999
 31
0.0
  0
LINE
  5
2BC
330
1E
100
AcDbEntity
  8
0
100
AcDbLine
 10
112.0
 20
132.97025
 30
0.0
 11
112.0
 21
136.17025
 31
0.0
  0
LINE
  5
2BF
330
1E
100
AcDbEntity
  8
0
100
AcDbLine
 10
113.0
 20
124.9702499999999
 30
0.0
 11
113.0
 21
117.37025
 31
0.0
  0
LINE
  5
2C0
330
1E
100
AcDbEntity
  8
0
100
AcDbLine
 10
97.0
 20
147.8272499999999
 30
0.0
 11
99.0
 21
148.9702499999999
 31
0.0
  0
LINE
  5
2C1
330
1E
100
AcDbEntity
  8
0
100
AcDbLine
 10
102.0
 20
148.9702499999999
 30
0.0
 11
108.0
 21
148.9702499999999
 31
0.0
  0
LINE
  5
2C2
330
1E
100
AcDbEntity
  8
0
100
AcDbLine
 10
108.0
 20
148.9702499999999
 30
0.0
 11
110.0
 21
147.8272499999999
 31
0.0
  0
LINE
  5
2C3
330
1E
100
AcDbEntity
  8
0
100
AcDbLine
 10
99.0
 20
148.9702499999999
 30
0.0
 11
102.0
 21
148.9702499999999
 31
0.0
  0
LINE
  5
2C4
330
1E
100
AcDbEntity
  8
0
100
AcDbLine
 10
113.0
 20
148.5702499999999
 30
0.0
 11
113.0
 21
155.1032499999999
 31
0.0
  0
LINE
  5
2C5
330
1E
100
AcDbEntity
  8
0
100
AcDbLine
 10
136.0
 20
124.1702499999999
 30
0.0
 11
136.0
 21
116.03695
 31
0.0
  0
LINE
  5
2C6
330
1E
100
AcDbEntity
  8
0
100
AcDbLine
 10
136.0
 20
124.1702499999999
 30
0.0
 11
136.0
 21
132.9703499999999
 31
0.0
  0
LINE
  5
2C7
330
1E
100
AcDbEntity
  8
0
100
AcDbLine
 10
113.5
 20
132.9701499999999
 30
0.0
 11
113.5
 21
141.5035499999999
 31
0.0
  0
LINE
  5
2C9
330
1E
100
AcDbEntity
  8
0
100
AcDbLine
 10
113.5
 20
141.5035499999999
 30
0.0
 11
113.5
 21
149.50325
 31
0.0
  0
LINE
  5
2CA
330
1E
100
AcDbEntity
  8
0
100
AcDbLine
 10
113.5
 20
141.5035499999999
 30
0.0
 11
113.5
 21
132.9701499999999
 31
0.0
  0
LINE
  5
2CB
330
1E
100
AcDbEntity
  8
0
100
AcDbLine
 10
113.5
 20
149.50325
 30
0.0
 11
113.5
 21
141.5035499999999
 31
0.0
  0
LINE
  5
2CC
330
1E
100
AcDbEntity
  8
0
100
AcDbLine
 10
113.5
 20
149.50325
 30
0.0
 11
113.5
 21
156.5702499999999
 31
0.0
  0
LINE
  5
2CD
330
1E
100
AcDbEntity
  8
0
100
AcDbLine
 10
113.5
 20
156.5702499999999
 30
0.0
 11
113.5
 21
149.50325
 31
0.0
  0
LINE
  5
2CE
330
1E
100
AcDbEntity
  8
0
100
AcDbLine
 10
113.5
 20
156.5702499999999
 30
0.0
 11
113.5
 21
161.77025
 31
0.0
  0
LINE
  5
2D0
330
1E
100
AcDbEntity
  8
0
100
AcDbLine
 10
136.0
 20
132.9701499999999
 30
0.0
 11
136.0
 21
141.77025
 31
0.0
  0
LINE
  5
2D1
330
1E
100
AcDbEntity
  8
0
100
AcDbLine
 10
136.0
 20
132.9703499999999
 30
0.0
 11
136.0
 21
124.1702499999999
 31
0.0
  0
LINE
  5
2D2
330
1E
100
AcDbEntity
  8
0
100
AcDbLine
 10
136.0
 20
149.90325
 30
0.0
 11
136.0
 21
156.97025
 31
0.0
  0
LINE
  5
2D3
330
1E
100
AcDbEntity
  8
0
100
AcDbLine
 10
136.0
 20
149.90325
 30
0.0
 11
136.0
 21
141.77025
 31
0.0
  0
LINE
  5
2D4
330
1E
100
AcDbEntity
  8
0
100
AcDbLine
 10
136.0
 20
141.77025
 30
0.0
 11
136.0
 21
149.90325
 31
0.0
  0
LINE
  5
2D5
330
1E
100
AcDbEntity
  8
0
100
AcDbLine
 10
136.0
 20
141.77025
 30
0.0
 11
136.0
 21
132.9701499999999
 31
0.0
  0
LINE
  5
2D6
330
1E
100
AcDbEntity
  8
0
100
AcDbLine
 10
136.0
 20
156.97025
 30
0.0
 11
136.0
 21
162.4372499999999
 31
0.0
  0
LINE
  5
2D7
330
1E
100
AcDbEntity
  8
0
100
AcDbLine
 10
136.0
 20
156.97025
 30
0.0
 11
136.0
 21
149.90325
 31
0.0
  0
LINE
  5
2D9
330
1E
100
AcDbEntity
  8
0
100
AcDbLine
 10
113.5
 20
132.9703499999999
 30
0.0
 11
113.5
 21
124.4369499999999
 31
0.0
  0
LINE
  5
2DB
330
1E
100
AcDbEntity
  8
0
100
AcDbLine
 10
113.5
 20
124.4369499999999
 30
0.0
 11
113.5
 21
116.43695
 31
0.0
  0
LINE
  5
2DC
330
1E
100
AcDbEntity
  8
0
100
AcDbLine
 10
113.5
 20
124.4369499999999
 30
0.0
 11
113.5
 21
132.9703499999999
 31
0.0
  0
LINE
  5
2DD
330
1E
100
AcDbEntity
  8
0
100
AcDbLine
 10
113.0
 20
155.1032499999999
 30
0.0
 11
113.0
 21
160.17025
 31
0.0
  0
LINE
  5
2DE
330
1E
100
AcDbEntity
  8
0
100
AcDbLine
 10
113.0
 20
155.1032499999999
 30
0.0
 11
113.0
 21
148.5702499999999
 31
0.0
  0
LINE
  5
2DF
330
1E
100
AcDbEntity
  8
0
100
AcDbLine
 10
113.0
 20
164.3032499999999
 30
0.0
 11
113.0
 21
163.10325
 31
0.0
  0
LINE
  5
2E0
330
1E
100
AcDbEntity
  8
0
100
AcDbLine
 10
113.0
 20
164.3032499999999
 30
0.0
 11
113.5
 21
166.3032499999999
 31
0.0
  0
LINE
  5
2E1
330
1E
100
AcDbEntity
  8
0
100
AcDbLine
 10
113.5
 20
161.77025
 30
0.0
 11
113.5
 21
165.10325
 31
0.0
  0
LINE
  5
2E2
330
1E
100
AcDbEntity
  8
0
100
AcDbLine
 10
113.5
 20
161.77025
 30
0.0
 11
113.5
 21
156.5702499999999
 31
0.0
  0
LINE
  5
2E3
330
1E
100
AcDbEntity
  8
0
100
AcDbLine
 10
113.5
 20
165.10325
 30
0.0
 11
113.5
 21
161.77025
 31
0.0
  0
LINE
  5
2E4
330
1E
100
AcDbEntity
  8
0
100
AcDbLine
 10
113.5
 20
165.10325
 30
0.0
 11
113.5
 21
166.3032499999999
 31
0.0
  0
LINE
  5
2E5
330
1E
100
AcDbEntity
  8
0
100
AcDbLine
 10
136.0
 20
162.4372499999999
 30
0.0
 11
136.0
 21
165.77025
 31
0.0
  0
LINE
  5
2E6
330
1E
100
AcDbEntity
  8
0
100
AcDbLine
 10
136.0
 20
162.4372499999999
 30
0.0
 11
136.0
 21
156.97025
 31
0.0
  0
LINE
  5
2E7
330
1E
100
AcDbEntity
  8
0
100
AcDbLine
 10
136.0
 20
165.77025
 30
0.0
 11
136.0
 21
162.4372499999999
 31
0.0
  0
LINE
  5
2E8
330
1E
100
AcDbEntity
  8
0
100
AcDbLine
 10
136.0
 20
165.77025
 30
0.0
 11
136.0
 21
166.9702499999999
 31
0.0
  0
LINE
  5
2E9
330
1E
100
AcDbEntity
  8
0
100
AcDbLine
 10
136.0
 20
166.9702499999999
 30
0.0
 11
136.0
 21
165.77025
 31
0.0
  0
LINE
  5
2EA
330
1E
100
AcDbEntity
  8
0
100
AcDbLine
 10
115.0
 20
166.9702499999999
 30
0.0
 11
136.0
 21
166.9702499999999
 31
0.0
  0
LINE
  5
2EB
330
1E
100
AcDbEntity
  8
0
100
AcDbLine
 10
113.5
 20
166.3032499999999
 30
0.0
 11
115.0
 21
166.9702499999999
 31
0.0
  0
LINE
  5
2EC
330
1E
100
AcDbEntity
  8
0
100
AcDbLine
 10
113.0
 20
163.10325
 30
0.0
 11
113.0
 21
164.3032499999999
 31
0.0
  0
LINE
  5
2ED
330
1E
100
AcDbEntity
  8
0
100
AcDbLine
 10
113.0
 20
163.10325
 30
0.0
 11
113.0
 21
160.17025
 31
0.0
  0
LINE
  5
2EE
330
1E
100
AcDbEntity
  8
0
100
AcDbLine
 10
113.0
 20
160.17025
 30
0.0
 11
113.0
 21
155.1032499999999
 31
0.0
  0
LINE
  5
2EF
330
1E
100
AcDbEntity
  8
0
100
AcDbLine
 10
113.0
 20
160.17025
 30
0.0
 11
113.0
 21
163.10325
 31
0.0
  0
LINE
  5
2F4
330
1E
100
AcDbEntity
  8
0
100
AcDbLine
 10
42.9258
 20
146.23625
 30
0.0
 11
43.0
 21
146.236901405476
 31
0.0
  0
LINE
  5
2F5
330
1E
100
AcDbEntity
  8
0
100
AcDbLine
 10
42.9258
 20
105.63255
 30
0.0
 11
43.0
 21
105.6318899910549
 31
0.0
  0
LINE
  5
2FB
330
1E
100
AcDbEntity
  8
0
100
AcDbLine
 10
54.20239999999999
 20
149.37225
 30
0.0
 11
54.4167086820381
 21
103.9702499999999
 31
0.0
  0
LINE
  5
369
330
1E
100
AcDbEntity
  8
0
100
AcDbLine
 10
2.385521373438024
 20
75.574197059436
 30
0.0
 11
2.425521373438016
 21
79.92119705943601
 31
0.0
  0
LINE
  5
36A
330
1E
100
AcDbEntity
  8
0
100
AcDbLine
 10
11.655521373438
 20
75.230997059436
 30
0.0
 11
12.13052137343803
 21
81.59139705943609
 31
0.0
  0
LINE
  5
36B
330
1E
100
AcDbEntity
  8
0
100
AcDbLine
 10
-0.1824786265619878
 20
48.85619705943601
 30
0.0
 11
0.6355213734380243
 21
53.149397059436
 31
0.0
  0
LINE
  5
36C
330
1E
100
AcDbEntity
  8
0
100
AcDbLine
 10
0.0805213734380175
 20
50.23619705943601
 30
0.0
 11
0.6355213734380243
 21
53.149397059436
 31
0.0
  0
LINE
  5
36D
330
1E
100
AcDbEntity
  8
0
100
AcDbLine
 10
7.444521373438021
 20
51.62589705943601
 30
0.0
 11
8.180521373438011
 21
53.56649705943597
 31
0.0
  0
LINE
  5
36E
330
1E
100
AcDbEntity
  8
0
100
AcDbLine
 10
3.596521373438008
 20
44.39539705943601
 30
0.0
 11
4.51352137343801
 21
45.82409705943599
 31
0.0
  0
LINE
  5
36F
330
1E
100
AcDbEntity
  8
0
100
AcDbLine
 10
4.51352137343801
 20
45.82409705943599
 30
0.0
 11
6.120521373438009
 21
48.71249705943599
 31
0.0
  0
LINE
  5
370
330
1E
100
AcDbEntity
  8
0
100
AcDbLine
 10
6.120521373438009
 20
48.71249705943599
 30
0.0
 11
7.444521373438021
 21
51.62589705943601
 31
0.0
  0
LINE
  5
371
330
1E
100
AcDbEntity
  8
0
100
AcDbLine
 10
-1.24847862656199
 20
44.38039705943602
 30
0.0
 11
-0.1824786265619878
 21
48.85619705943601
 31
0.0
  0
LINE
  5
372
330
1E
100
AcDbEntity
  8
0
100
AcDbLine
 10
2.599521373438022
 20
42.97959705943601
 30
0.0
 11
3.596521373438008
 21
44.39539705943601
 31
0.0
  0
LINE
  5
373
330
1E
100
AcDbEntity
  8
0
100
AcDbLine
 10
-1.312478626561983
 20
43.452597059436
 30
0.0
 11
-1.354478626561984
 21
43.910497059436
 31
0.0
  0
LINE
  5
374
330
1E
100
AcDbEntity
  8
0
100
AcDbLine
 10
0.9565213734379938
 20
42.03379705943603
 30
0.0
 11
0.6365213734380007
 21
42.12459705943603
 31
0.0
  0
LINE
  5
375
330
1E
100
AcDbEntity
  8
0
100
AcDbLine
 10
1.850521373438027
 20
42.19939705943601
 30
0.0
 11
2.111521373437994
 21
42.39999705943602
 31
0.0
  0
LINE
  5
376
330
1E
100
AcDbEntity
  8
0
100
AcDbLine
 10
1.42052137343802
 20
42.03179705943601
 30
0.0
 11
0.9565213734379938
 21
42.03379705943603
 31
0.0
  0
LINE
  5
377
330
1E
100
AcDbEntity
  8
0
100
AcDbLine
 10
1.42052137343802
 20
42.03179705943601
 30
0.0
 11
1.850521373438027
 21
42.19939705943601
 31
0.0
  0
LINE
  5
378
330
1E
100
AcDbEntity
  8
0
100
AcDbLine
 10
2.111521373437994
 20
42.39999705943602
 30
0.0
 11
2.599521373438022
 21
42.97959705943601
 31
0.0
  0
LINE
  5
379
330
1E
100
AcDbEntity
  8
0
100
AcDbLine
 10
0.6365213734380007
 20
42.12459705943603
 30
0.0
 11
-0.0384786265620107
 21
42.47979705943599
 31
0.0
  0
LINE
  5
37A
330
1E
100
AcDbEntity
  8
0
100
AcDbLine
 10
-0.0384786265620107
 20
42.47979705943599
 30
0.0
 11
-0.6234786265619903
 21
42.82999705943602
 31
0.0
  0
LINE
  5
37B
330
1E
100
AcDbEntity
  8
0
100
AcDbLine
 10
-0.6234786265619903
 20
42.82999705943602
 30
0.0
 11
-1.025478626561977
 21
43.09339705943601
 31
0.0
  0
LINE
  5
37C
330
1E
100
AcDbEntity
  8
0
100
AcDbLine
 10
-1.025478626561977
 20
43.09339705943601
 30
0.0
 11
-1.312478626561983
 21
43.452597059436
 31
0.0
  0
LINE
  5
37D
330
1E
100
AcDbEntity
  8
0
100
AcDbLine
 10
-1.320478626561964
 20
44.06159705943601
 30
0.0
 11
-1.24847862656199
 21
44.38039705943602
 31
0.0
  0
LINE
  5
37E
330
1E
100
AcDbEntity
  8
0
100
AcDbLine
 10
-1.354478626561984
 20
43.910497059436
 30
0.0
 11
-1.320478626561964
 21
44.06159705943601
 31
0.0
  0
LINE
  5
37F
330
1E
100
AcDbEntity
  8
0
100
AcDbLine
 10
-0.1824786265619878
 20
48.85619705943601
 30
0.0
 11
0.0805213734380175
 21
50.23619705943601
 31
0.0
  0
LINE
  5
380
330
1E
100
AcDbEntity
  8
0
100
AcDbLine
 10
10.501521373438
 20
63.094697059436
 30
0.0
 11
10.869521373438
 21
65.797497059436
 31
0.0
  0
LINE
  5
381
330
1E
100
AcDbEntity
  8
0
100
AcDbLine
 10
9.475521373438027
 20
57.91749705943598
 30
0.0
 11
10.00852137343801
 21
60.30209705943601
 31
0.0
  0
LINE
  5
382
330
1E
100
AcDbEntity
  8
0
100
AcDbLine
 10
8.813521373438021
 20
55.50199705943602
 30
0.0
 11
9.475521373438027
 21
57.91749705943598
 31
0.0
  0
LINE
  5
383
330
1E
100
AcDbEntity
  8
0
100
AcDbLine
 10
8.180521373438011
 20
53.56639705943599
 30
0.0
 11
8.813521373438021
 21
55.50199705943602
 31
0.0
  0
LINE
  5
384
330
1E
100
AcDbEntity
  8
0
100
AcDbLine
 10
10.00852137343801
 20
60.30209705943601
 30
0.0
 11
10.501521373438
 21
63.094697059436
 31
0.0
  0
LINE
  5
385
330
1E
100
AcDbEntity
  8
0
100
AcDbLine
 10
11.38752137343803
 20
71.35979705943599
 30
0.0
 11
11.655521373438
 21
75.230997059436
 31
0.0
  0
LINE
  5
386
330
1E
100
AcDbEntity
  8
0
100
AcDbLine
 10
10.869521373438
 20
65.797497059436
 30
0.0
 11
11.21652137343801
 21
69.219697059436
 31
0.0
  0
LINE
  5
387
330
1E
100
AcDbEntity
  8
0
100
AcDbLine
 10
11.21652137343801
 20
69.219697059436
 30
0.0
 11
11.38752137343803
 21
71.35979705943599
 31
0.0
  0
LINE
  5
388
330
1E
100
AcDbEntity
  8
0
100
AcDbLine
 10
1.940521373438002
 20
64.320897059436
 30
0.0
 11
2.190521373438002
 21
68.66989705943599
 31
0.0
  0
LINE
  5
389
330
1E
100
AcDbEntity
  8
0
100
AcDbLine
 10
1.144521373438038
 20
56.510697059436
 30
0.0
 11
1.537521373438011
 21
59.763297059436
 31
0.0
  0
LINE
  5
38A
330
1E
100
AcDbEntity
  8
0
100
AcDbLine
 10
0.6355213734380243
 20
53.149397059436
 30
0.0
 11
1.144521373438038
 21
56.510697059436
 31
0.0
  0
LINE
  5
38B
330
1E
100
AcDbEntity
  8
0
100
AcDbLine
 10
1.537521373438011
 20
59.763297059436
 30
0.0
 11
1.810521373438007
 21
62.855897059436
 31
0.0
  0
LINE
  5
38C
330
1E
100
AcDbEntity
  8
0
100
AcDbLine
 10
1.810521373438007
 20
62.855897059436
 30
0.0
 11
1.940521373438002
 21
64.320897059436
 31
0.0
  0
LINE
  5
38D
330
1E
100
AcDbEntity
  8
0
100
AcDbLine
 10
2.190521373438002
 20
68.66989705943599
 30
0.0
 11
2.385521373438024
 21
75.574197059436
 31
0.0
  0
LINE
  5
38E
330
1E
100
AcDbEntity
  8
0
100
AcDbLine
 10
40.40352137343799
 20
126.0623970594359
 30
0.0
 11
39.87152137343801
 21
127.804397059436
 31
0.0
  0
LINE
  5
38F
330
1E
100
AcDbEntity
  8
0
100
AcDbLine
 10
2.437521373438016
 20
88.14639705943598
 30
0.0
 11
2.437521373438016
 21
145.4903970594359
 31
0.0
  0
LINE
  5
390
330
1E
100
AcDbEntity
  8
0
100
AcDbLine
 10
23.13752137343803
 20
103.4423970594359
 30
0.0
 11
39.940521373438
 21
103.955397059436
 31
0.0
  0
LINE
  5
391
330
1E
100
AcDbEntity
  8
0
100
AcDbLine
 10
40.42552137343801
 20
112.930397059436
 30
0.0
 11
40.42552137343801
 21
115.159397059436
 31
0.0
  0
LINE
  5
392
330
1E
100
AcDbEntity
  8
0
100
AcDbLine
 10
40.42552137343801
 20
107.585397059436
 30
0.0
 11
40.42552137343801
 21
109.116397059436
 31
0.0
  0
LINE
  5
393
330
1E
100
AcDbEntity
  8
0
100
AcDbLine
 10
40.42552137343801
 20
105.301397059436
 30
0.0
 11
40.42552137343801
 21
105.9078403733899
 31
0.0
  0
LINE
  5
394
330
1E
100
AcDbEntity
  8
0
100
AcDbLine
 10
40.42552137343801
 20
104.854397059436
 30
0.0
 11
40.42552137343801
 21
105.488397059436
 31
0.0
  0
LINE
  5
395
330
1E
100
AcDbEntity
  8
0
100
AcDbLine
 10
39.940521373438
 20
103.955397059436
 30
0.0
 11
40.184521373438
 21
104.026397059436
 31
0.0
  0
LINE
  5
396
330
1E
100
AcDbEntity
  8
0
100
AcDbLine
 10
40.184521373438
 20
104.026397059436
 30
0.0
 11
40.36152137343802
 21
104.2083970594359
 31
0.0
  0
LINE
  5
397
330
1E
100
AcDbEntity
  8
0
100
AcDbLine
 10
40.36152137343802
 20
104.2083970594359
 30
0.0
 11
40.42552137343801
 21
104.4533970594359
 31
0.0
  0
LINE
  5
398
330
1E
100
AcDbEntity
  8
0
100
AcDbLine
 10
40.42552137343801
 20
104.756397059436
 30
0.0
 11
40.42552137343801
 21
105.301397059436
 31
0.0
  0
LINE
  5
399
330
1E
100
AcDbEntity
  8
0
100
AcDbLine
 10
40.42552137343801
 20
104.575397059436
 30
0.0
 11
40.42552137343801
 21
104.756397059436
 31
0.0
  0
LINE
  5
39A
330
1E
100
AcDbEntity
  8
0
100
AcDbLine
 10
40.42552137343801
 20
104.4533970594359
 30
0.0
 11
40.42552137343801
 21
104.513397059436
 31
0.0
  0
LINE
  5
39B
330
1E
100
AcDbEntity
  8
0
100
AcDbLine
 10
40.42552137343801
 20
104.513397059436
 30
0.0
 11
40.42552137343801
 21
104.854397059436
 31
0.0
  0
LINE
  5
39C
330
1E
100
AcDbEntity
  8
0
100
AcDbLine
 10
41.83652137343801
 20
105.688397059436
 30
0.0
 11
40.42552137343801
 21
105.9078403733899
 31
0.0
  0
LINE
  5
39D
330
1E
100
AcDbEntity
  8
0
100
AcDbLine
 10
42.9258
 20
105.63255
 30
0.0
 11
41.83652137343801
 21
105.688397059436
 31
0.0
  0
LINE
  5
39E
330
1E
100
AcDbEntity
  8
0
100
AcDbLine
 10
40.42552137343801
 20
106.403397059436
 30
0.0
 11
40.42552137343801
 21
107.585397059436
 31
0.0
  0
LINE
  5
39F
330
1E
100
AcDbEntity
  8
0
100
AcDbLine
 10
40.42552137343801
 20
105.488397059436
 30
0.0
 11
40.42552137343801
 21
106.403397059436
 31
0.0
  0
LINE
  5
3A0
330
1E
100
AcDbEntity
  8
0
100
AcDbLine
 10
40.42552137343801
 20
110.907397059436
 30
0.0
 11
40.42552137343801
 21
112.930397059436
 31
0.0
  0
LINE
  5
3A1
330
1E
100
AcDbEntity
  8
0
100
AcDbLine
 10
40.42552137343801
 20
109.116397059436
 30
0.0
 11
40.42552137343801
 21
110.907397059436
 31
0.0
  0
LINE
  5
3A2
330
1E
100
AcDbEntity
  8
0
100
AcDbLine
 10
40.42552137343801
 20
119.4893970594359
 30
0.0
 11
40.42552137343801
 21
121.796397059436
 31
0.0
  0
LINE
  5
3A3
330
1E
100
AcDbEntity
  8
0
100
AcDbLine
 10
40.42552137343801
 20
117.2693970594359
 30
0.0
 11
40.42552137343801
 21
119.4893970594359
 31
0.0
  0
LINE
  5
3A4
330
1E
100
AcDbEntity
  8
0
100
AcDbLine
 10
40.42552137343801
 20
115.159397059436
 30
0.0
 11
40.42552137343801
 21
117.2693970594359
 31
0.0
  0
LINE
  5
3A5
330
1E
100
AcDbEntity
  8
0
100
AcDbLine
 10
40.42552137343801
 20
121.796397059436
 30
0.0
 11
40.42552137343801
 21
124.164397059436
 31
0.0
  0
LINE
  5
3A6
330
1E
100
AcDbEntity
  8
0
100
AcDbLine
 10
40.42552137343801
 20
124.164397059436
 30
0.0
 11
40.42552137343801
 21
125.916397059436
 31
0.0
  0
LINE
  5
3A7
330
1E
100
AcDbEntity
  8
0
100
AcDbLine
 10
40.42552137343801
 20
125.916397059436
 30
0.0
 11
40.40352137343799
 21
126.0623970594359
 31
0.0
  0
LINE
  5
3A8
330
1E
100
AcDbEntity
  8
0
100
AcDbLine
 10
17.904521373438
 20
102.2573970594359
 30
0.0
 11
19.24052137343801
 21
102.8123970594359
 31
0.0
  0
LINE
  5
3A9
330
1E
100
AcDbEntity
  8
0
100
AcDbLine
 10
12.64652137343801
 20
87.73839705943599
 30
0.0
 11
12.89552137343801
 21
90.38529705943609
 31
0.0
  0
LINE
  5
3AA
330
1E
100
AcDbEntity
  8
0
100
AcDbLine
 10
12.13052137343803
 20
81.59139705943609
 30
0.0
 11
12.64652137343801
 21
87.73839705943599
 31
0.0
  0
LINE
  5
3AB
330
1E
100
AcDbEntity
  8
0
100
AcDbLine
 10
16.79552137343802
 20
101.5283970594359
 30
0.0
 11
17.904521373438
 21
102.2573970594359
 31
0.0
  0
LINE
  5
3AC
330
1E
100
AcDbEntity
  8
0
100
AcDbLine
 10
13.66652137343803
 20
95.450697059436
 30
0.0
 11
14.05152137343802
 21
96.93039705943601
 31
0.0
  0
LINE
  5
3AD
330
1E
100
AcDbEntity
  8
0
100
AcDbLine
 10
13.071704148495
 20
91.90816223944109
 30
0.0
 11
13.363521373438
 21
93.89929705943599
 31
0.0
  0
LINE
  5
3AE
330
1E
100
AcDbEntity
  8
0
100
AcDbLine
 10
12.89552137343801
 20
90.38529705943609
 30
0.0
 11
13.053521373438
 21
91.78409705943598
 31
0.0
  0
LINE
  5
3AF
330
1E
100
AcDbEntity
  8
0
100
AcDbLine
 10
13.363521373438
 20
93.89929705943599
 30
0.0
 11
13.66652137343803
 21
95.450697059436
 31
0.0
  0
LINE
  5
3B0
330
1E
100
AcDbEntity
  8
0
100
AcDbLine
 10
14.82152137343803
 20
98.94039705943599
 30
0.0
 11
15.309521373438
 21
99.827397059436
 31
0.0
  0
LINE
  5
3B1
330
1E
100
AcDbEntity
  8
0
100
AcDbLine
 10
14.05152137343802
 20
96.93039705943601
 30
0.0
 11
14.40352137343799
 21
97.97199705943599
 31
0.0
  0
LINE
  5
3B2
330
1E
100
AcDbEntity
  8
0
100
AcDbLine
 10
14.40352137343799
 20
97.97199705943599
 30
0.0
 11
14.82152137343803
 21
98.94039705943599
 31
0.0
  0
LINE
  5
3B3
330
1E
100
AcDbEntity
  8
0
100
AcDbLine
 10
15.882521373438
 20
100.6223970594359
 30
0.0
 11
16.79552137343802
 21
101.5283970594359
 31
0.0
  0
LINE
  5
3B4
330
1E
100
AcDbEntity
  8
0
100
AcDbLine
 10
15.309521373438
 20
99.827397059436
 30
0.0
 11
15.882521373438
 21
100.6223970594359
 31
0.0
  0
LINE
  5
3B5
330
1E
100
AcDbEntity
  8
0
100
AcDbLine
 10
2.429521373438035
 20
82.56509705943598
 30
0.0
 11
2.437521373438016
 21
88.14639705943598
 31
0.0
  0
LINE
  5
3B6
330
1E
100
AcDbEntity
  8
0
100
AcDbLine
 10
2.425521373438016
 20
79.92119705943601
 30
0.0
 11
2.471521373438008
 21
80.86609705943599
 31
0.0
  0
LINE
  5
3B7
330
1E
100
AcDbEntity
  8
0
100
AcDbLine
 10
2.425521373438016
 20
79.92119705943601
 30
0.0
 11
2.429521373438035
 21
82.56509705943598
 31
0.0
  0
LINE
  5
3B8
330
1E
100
AcDbEntity
  8
0
100
AcDbLine
 10
19.24052137343801
 20
102.8123970594359
 30
0.0
 11
21.035521373438
 21
103.2303970594359
 31
0.0
  0
LINE
  5
3B9
330
1E
100
AcDbEntity
  8
0
100
AcDbLine
 10
21.035521373438
 20
103.2303970594359
 30
0.0
 11
23.13752137343803
 21
103.4423970594359
 31
0.0
  0
LINE
  5
3BA
330
1E
100
AcDbEntity
  8
0
100
AcDbLine
 10
3.734521373438042
 20
146.825397059436
 30
0.0
 11
33.40752137343801
 21
147.690397059436
 31
0.0
  0
LINE
  5
3BB
330
1E
100
AcDbEntity
  8
0
100
AcDbLine
 10
39.87152137343801
 20
127.804397059436
 30
0.0
 11
34.74652137343801
 21
144.565397059436
 31
0.0
  0
LINE
  5
3BC
330
1E
100
AcDbEntity
  8
0
100
AcDbLine
 10
37.750521373438
 20
145.310397059436
 30
0.0
 11
39.77252137343802
 21
145.8403970594359
 31
0.0
  0
LINE
  5
3BD
330
1E
100
AcDbEntity
  8
0
100
AcDbLine
 10
34.74652137343801
 20
144.565397059436
 30
0.0
 11
34.38552137343802
 21
145.7463970594359
 31
0.0
  0
LINE
  5
3BE
330
1E
100
AcDbEntity
  8
0
100
AcDbLine
 10
35.79552137343802
 20
144.5763970594359
 30
0.0
 11
37.750521373438
 21
145.310397059436
 31
0.0
  0
LINE
  5
3BF
330
1E
100
AcDbEntity
  8
0
100
AcDbLine
 10
34.88200097251402
 20
144.1215909133069
 30
0.0
 11
35.79552137343802
 21
144.5763970594359
 31
0.0
  0
LINE
  5
3C0
330
1E
100
AcDbEntity
  8
0
100
AcDbLine
 10
39.77252137343802
 20
145.8403970594359
 30
0.0
 11
41.83652137343801
 21
146.161397059436
 31
0.0
  0
LINE
  5
3C1
330
1E
100
AcDbEntity
  8
0
100
AcDbLine
 10
41.83652137343801
 20
146.161397059436
 30
0.0
 11
42.93352137343802
 21
146.217114356992
 31
0.0
  0
LINE
  5
3C2
330
1E
100
AcDbEntity
  8
0
100
AcDbLine
 10
34.38552137343802
 20
145.7463970594359
 30
0.0
 11
34.12152137343801
 21
146.6083970594359
 31
0.0
  0
LINE
  5
3C3
330
1E
100
AcDbEntity
  8
0
100
AcDbLine
 10
34.12152137343801
 20
146.6083970594359
 30
0.0
 11
33.95952137343801
 21
147.1383970594359
 31
0.0
  0
LINE
  5
3C4
330
1E
100
AcDbEntity
  8
0
100
AcDbLine
 10
33.95952137343801
 20
147.1383970594359
 30
0.0
 11
33.899521373438
 21
147.3363970594359
 31
0.0
  0
LINE
  5
3C5
330
1E
100
AcDbEntity
  8
0
100
AcDbLine
 10
33.61752137343802
 20
147.6503970594359
 30
0.0
 11
33.40752137343801
 21
147.690397059436
 31
0.0
  0
LINE
  5
3C6
330
1E
100
AcDbEntity
  8
0
100
AcDbLine
 10
33.79252137343803
 20
147.5243970594359
 30
0.0
 11
33.71252137343802
 21
147.5953970594359
 31
0.0
  0
LINE
  5
3C7
330
1E
100
AcDbEntity
  8
0
100
AcDbLine
 10
33.71252137343802
 20
147.5953970594359
 30
0.0
 11
33.61752137343802
 21
147.6503970594359
 31
0.0
  0
LINE
  5
3C8
330
1E
100
AcDbEntity
  8
0
100
AcDbLine
 10
33.899521373438
 20
147.3363970594359
 30
0.0
 11
33.79252137343803
 21
147.5243970594359
 31
0.0
  0
LINE
  5
3C9
330
1E
100
AcDbEntity
  8
0
100
AcDbLine
 10
33.898521373438
 20
147.3383970594359
 30
0.0
 11
33.79252137343803
 21
147.5243970594359
 31
0.0
  0
LINE
  5
3CA
330
1E
100
AcDbEntity
  8
0
100
AcDbLine
 10
2.437521373438016
 20
145.4903970594359
 30
0.0
 11
2.466521373438013
 21
146.0523970594359
 31
0.0
  0
LINE
  5
3CB
330
1E
100
AcDbEntity
  8
0
100
AcDbLine
 10
2.446521373438002
 20
145.089397059436
 30
0.0
 11
2.441521373438007
 21
145.3113970594359
 31
0.0
  0
LINE
  5
3CC
330
1E
100
AcDbEntity
  8
0
100
AcDbLine
 10
2.441521373438007
 20
145.3113970594359
 30
0.0
 11
2.438521373438021
 21
145.4453970594359
 31
0.0
  0
LINE
  5
3CD
330
1E
100
AcDbEntity
  8
0
100
AcDbLine
 10
2.950521373438022
 20
146.714397059436
 30
0.0
 11
3.17252137343803
 21
146.779397059436
 31
0.0
  0
LINE
  5
3CE
330
1E
100
AcDbEntity
  8
0
100
AcDbLine
 10
3.17252137343803
 20
146.779397059436
 30
0.0
 11
3.734521373438042
 21
146.825397059436
 31
0.0
  0
LINE
  5
3CF
330
1E
100
AcDbEntity
  8
0
100
AcDbLine
 10
2.690521373438002
 20
146.541397059436
 30
0.0
 11
2.950521373438022
 21
146.714397059436
 31
0.0
  0
LINE
  5
3D0
330
1E
100
AcDbEntity
  8
0
100
AcDbLine
 10
2.52552137343801
 20
146.2763970594359
 30
0.0
 11
2.690521373438002
 21
146.541397059436
 31
0.0
  0
LINE
  5
3D1
330
1E
100
AcDbEntity
  8
0
100
AcDbLine
 10
2.466521373438013
 20
146.0523970594359
 30
0.0
 11
2.52552137343801
 21
146.2763970594359
 31
0.0
  0
ENDSEC
  0
SECTION
  2
OBJECTS
  0
DICTIONARY
  5
C
330
0
100
AcDbDictionary
281
     1
  3
ACAD_GROUP
350
D
  3
ACAD_LAYOUT
350
19
  3
ACAD_MLINESTYLE
350
16
  3
ACAD_PLOTSETTINGS
350
18
  3
ACAD_PLOTSTYLENAME
350
E
  3
AcDbVariableDictionary
350
3D3
  0
DICTIONARY
  5
D
102
{ACAD_REACTORS
330
C
102
}
330
C
100
AcDbDictionary
281
     1
  0
DICTIONARY
  5
19
102
{ACAD_REACTORS
330
C
102
}
330
C
100
AcDbDictionary
281
     1
  3
Layout1
350
1D
  3
Model
350
21
  0
DICTIONARY
  5
16
102
{ACAD_REACTORS
330
C
102
}
330
C
100
AcDbDictionary
281
     1
  3
Standard
350
17
  0
DICTIONARY
  5
18
102
{ACAD_REACTORS
330
C
102
}
330
C
100
AcDbDictionary
281
     1
  0
ACDBDICTIONARYWDFLT
  5
E
102
{ACAD_REACTORS
330
C
102
}
330
C
100
AcDbDictionary
281
     1
  3
Normal
350
F
100
AcDbDictionaryWithDefault
340
F
  0
DICTIONARY
  5
3D3
102
{ACAD_REACTORS
330
C
102
}
330
C
100
AcDbDictionary
281
     1
  3
DIMASSOC
350
3D4
  0
LAYOUT
  5
1D
102
{ACAD_REACTORS
330
19
102
}
330
19
100
AcDbPlotSettings
  1

  2
C:\Programme\AutoCAD LT 2002 Deu\plotters\DWF ePlot (optimized for plotting).pc3
  4

  6

 40
0.0
 41
0.0
 42
0.0
 43
0.0
 44
0.0
 45
0.0
 46
0.0
 47
0.0
 48
0.0
 49
0.0
140
0.0
141
0.0
142
1.0
143
1.0
 70
   688
 72
     0
 73
     0
 74
     5
  7

 75
    16
147
1.0
148
0.0
149
0.0
100
AcDbLayout
  1
Layout1
 70
     1
 71
     1
 10
0.0
 20
0.0
 11
12.0
 21
9.0
 12
0.0
 22
0.0
 32
0.0
 14
1.000000000000000E+20
 24
1.000000000000000E+20
 34
1.000000000000000E+20
 15
-1.000000000000000E+20
 25
-1.000000000000000E+20
 35
-1.000000000000000E+20
146
0.0
 13
0.0
 23
0.0
 33
0.0
 16
1.0
 26
0.0
 36
0.0
 17
0.0
 27
1.0
 37
0.0
 76
     0
330
1A
  0
LAYOUT
  5
21
102
{ACAD_REACTORS
330
19
102
}
330
19
100
AcDbPlotSettings
  1

  2
C:\Programme\AutoCAD LT 2002 Deu\plotters\DWF ePlot (optimized for plotting).pc3
  4

  6

 40
0.0
 41
0.0
 42
0.0
 43
0.0
 44
0.0
 45
0.0
 46
0.0
 47
0.0
 48
0.0
 49
0.0
140
0.0
141
0.0
142
1.0
143
1.0
 70
  1712
 72
     0
 73
     0
 74
     0
  7

 75
     0
147
1.0
148
0.0
149
0.0
100
AcDbLayout
  1
Model
 70
     1
 71
     0
 10
0.0
 20
0.0
 11
12.0
 21
9.0
 12
0.0
 22
0.0
 32
0.0
 14
0.0
 24
0.0
 34
0.0
 15
0.0
 25
0.0
 35
0.0
146
0.0
 13
0.0
 23
0.0
 33
0.0
 16
1.0
 26
0.0
 36
0.0
 17
0.0
 27
1.0
 37
0.0
 76
     0
330
1E
  0
MLINESTYLE
  5
17
102
{ACAD_REACTORS
330
16
102
}
330
16
100
AcDbMlineStyle
  2
STANDARD
 70
     0
  3

 62
   256
 51
90.0
 52
90.0
 71
     2
 49
0.5
 62
   256
  6
BYLAYER
 49
-0.5
 62
   256
  6
BYLAYER
  0
ACDBPLACEHOLDER
  5
F
102
{ACAD_REACTORS
330
E
102
}
330
E
  0
DICTIONARYVAR
  5
3D4
102
{ACAD_REACTORS
330
3D3
102
}
330
3D3
100
DictionaryVariables
280
     0
  1
1
  0
ENDSEC
  0
EOF
