  0
SECTION
  2
HEADER
  9
$ACADVER
  1
AC1015
  9
$ACADMAINTVER
 70
    13
  9
$DWGCODEPAGE
  3
ANSI_1252
  9
$INSBASE
 10
0.0
 20
0.0
 30
0.0
  9
$EXTMIN
 10
0.050000000000011
 20
-0.0000000000000003
 30
0.0
  9
$EXTMAX
 10
180.9499999999999
 20
65.0
 30
0.0
  9
$LIMMIN
 10
0.0
 20
0.0
  9
$LIMMAX
 10
12.0
 20
9.0
  9
$ORTHOMODE
 70
     0
  9
$REGENMODE
 70
     1
  9
$FILLMODE
 70
     1
  9
$QTEXTMODE
 70
     0
  9
$MIRRTEXT
 70
     1
  9
$LTSCALE
 40
1.0
  9
$ATTMODE
 70
     1
  9
$TEXTSIZE
 40
0.2
  9
$TRACEWID
 40
0.05
  9
$TEXTSTYLE
  7
Standard
  9
$CLAYER
  8
0
  9
$CELTYPE
  6
Continuous
  9
$CECOLOR
 62
   256
  9
$CELTSCALE
 40
1.0
  9
$DISPSILH
 70
     0
  9
$DIMSCALE
 40
1.0
  9
$DIMASZ
 40
0.18
  9
$DIMEXO
 40
0.0625
  9
$DIMDLI
 40
0.38
  9
$DIMRND
 40
0.0
  9
$DIMDLE
 40
0.0
  9
$DIMEXE
 40
0.18
  9
$DIMTP
 40
0.0
  9
$DIMTM
 40
0.0
  9
$DIMTXT
 40
0.18
  9
$DIMCEN
 40
0.09
  9
$DIMTSZ
 40
0.0
  9
$DIMTOL
 70
     0
  9
$DIMLIM
 70
     0
  9
$DIMTIH
 70
     1
  9
$DIMTOH
 70
     1
  9
$DIMSE1
 70
     0
  9
$DIMSE2
 70
     0
  9
$DIMTAD
 70
     0
  9
$DIMZIN
 70
     0
  9
$DIMBLK
  1

  9
$DIMASO
 70
     1
  9
$DIMSHO
 70
     1
  9
$DIMPOST
  1

  9
$DIMAPOST
  1

  9
$DIMALT
 70
     0
  9
$DIMALTD
 70
     2
  9
$DIMALTF
 40
25.4
  9
$DIMLFAC
 40
1.0
  9
$DIMTOFL
 70
     0
  9
$DIMTVP
 40
0.0
  9
$DIMTIX
 70
     0
  9
$DIMSOXD
 70
     0
  9
$DIMSAH
 70
     0
  9
$DIMBLK1
  1

  9
$DIMBLK2
  1

  9
$DIMSTYLE
  2
Standard
  9
$DIMCLRD
 70
     0
  9
$DIMCLRE
 70
     0
  9
$DIMCLRT
 70
     0
  9
$DIMTFAC
 40
1.0
  9
$DIMGAP
 40
0.09
  9
$DIMJUST
 70
     0
  9
$DIMSD1
 70
     0
  9
$DIMSD2
 70
     0
  9
$DIMTOLJ
 70
     1
  9
$DIMTZIN
 70
     0
  9
$DIMALTZ
 70
     0
  9
$DIMALTTZ
 70
     0
  9
$DIMUPT
 70
     0
  9
$DIMDEC
 70
     4
  9
$DIMTDEC
 70
     4
  9
$DIMALTU
 70
     2
  9
$DIMALTTD
 70
     2
  9
$DIMTXSTY
  7
Standard
  9
$DIMAUNIT
 70
     0
  9
$DIMADEC
 70
     0
  9
$DIMALTRND
 40
0.0
  9
$DIMAZIN
 70
     0
  9
$DIMDSEP
 70
    46
  9
$DIMATFIT
 70
     3
  9
$DIMFRAC
 70
     0
  9
$DIMLDRBLK
  1

  9
$DIMLUNIT
 70
     2
  9
$DIMLWD
 70
    -2
  9
$DIMLWE
 70
    -2
  9
$DIMTMOVE
 70
     0
  9
$LUNITS
 70
     2
  9
$LUPREC
 70
     4
  9
$SKETCHINC
 40
0.1
  9
$FILLETRAD
 40
0.0
  9
$AUNITS
 70
     0
  9
$AUPREC
 70
     0
  9
$MENU
  1
.
  9
$ELEVATION
 40
0.0
  9
$PELEVATION
 40
0.0
  9
$THICKNESS
 40
0.0
  9
$LIMCHECK
 70
     0
  9
$CHAMFERA
 40
0.0
  9
$CHAMFERB
 40
0.0
  9
$CHAMFERC
 40
0.0
  9
$CHAMFERD
 40
0.0
  9
$SKPOLY
 70
     0
  9
$TDCREATE
 40
2455655.550207604
  9
$TDUCREATE
 40
2455655.466874270
  9
$TDUPDATE
 40
2455655.551630497
  9
$TDUUPDATE
 40
2455655.468297164
  9
$TDINDWG
 40
0.0014228935
  9
$TDUSRTIMER
 40
0.0014228935
  9
$USRTIMER
 70
     1
  9
$ANGBASE
 50
0.0
  9
$ANGDIR
 70
     0
  9
$PDMODE
 70
     0
  9
$PDSIZE
 40
0.0
  9
$PLINEWID
 40
0.0
  9
$SPLFRAME
 70
     0
  9
$SPLINETYPE
 70
     6
  9
$SPLINESEGS
 70
     8
  9
$HANDSEED
  5
145
  9
$SURFTAB1
 70
     6
  9
$SURFTAB2
 70
     6
  9
$SURFTYPE
 70
     6
  9
$SURFU
 70
     6
  9
$SURFV
 70
     6
  9
$UCSBASE
  2

  9
$UCSNAME
  2

  9
$UCSORG
 10
0.0
 20
0.0
 30
0.0
  9
$UCSXDIR
 10
1.0
 20
0.0
 30
0.0
  9
$UCSYDIR
 10
0.0
 20
1.0
 30
0.0
  9
$UCSORTHOREF
  2

  9
$UCSORTHOVIEW
 70
     1
  9
$UCSORGTOP
 10
0.0
 20
0.0
 30
0.0
  9
$UCSORGBOTTOM
 10
0.0
 20
0.0
 30
0.0
  9
$UCSORGLEFT
 10
0.0
 20
0.0
 30
0.0
  9
$UCSORGRIGHT
 10
0.0
 20
0.0
 30
0.0
  9
$UCSORGFRONT
 10
0.0
 20
0.0
 30
0.0
  9
$UCSORGBACK
 10
0.0
 20
0.0
 30
0.0
  9
$PUCSBASE
  2

  9
$PUCSNAME
  2

  9
$PUCSORG
 10
0.0
 20
0.0
 30
0.0
  9
$PUCSXDIR
 10
1.0
 20
0.0
 30
0.0
  9
$PUCSYDIR
 10
0.0
 20
1.0
 30
0.0
  9
$PUCSORTHOREF
  2

  9
$PUCSORTHOVIEW
 70
     0
  9
$PUCSORGTOP
 10
0.0
 20
0.0
 30
0.0
  9
$PUCSORGBOTTOM
 10
0.0
 20
0.0
 30
0.0
  9
$PUCSORGLEFT
 10
0.0
 20
0.0
 30
0.0
  9
$PUCSORGRIGHT
 10
0.0
 20
0.0
 30
0.0
  9
$PUCSORGFRONT
 10
0.0
 20
0.0
 30
0.0
  9
$PUCSORGBACK
 10
0.0
 20
0.0
 30
0.0
  9
$USERI1
 70
     0
  9
$USERI2
 70
     0
  9
$USERI3
 70
     0
  9
$USERI4
 70
     0
  9
$USERI5
 70
     0
  9
$USERR1
 40
0.0
  9
$USERR2
 40
0.0
  9
$USERR3
 40
0.0
  9
$USERR4
 40
0.0
  9
$USERR5
 40
0.0
  9
$WORLDVIEW
 70
     1
  9
$SHADEDGE
 70
     3
  9
$SHADEDIF
 70
    70
  9
$TILEMODE
 70
     1
  9
$MAXACTVP
 70
    64
  9
$PINSBASE
 10
0.0
 20
0.0
 30
0.0
  9
$PLIMCHECK
 70
     0
  9
$PEXTMIN
 10
1.000000000000000E+20
 20
1.000000000000000E+20
 30
1.000000000000000E+20
  9
$PEXTMAX
 10
-1.000000000000000E+20
 20
-1.000000000000000E+20
 30
-1.000000000000000E+20
  9
$PLIMMIN
 10
0.0
 20
0.0
  9
$PLIMMAX
 10
12.0
 20
9.0
  9
$UNITMODE
 70
     0
  9
$VISRETAIN
 70
     1
  9
$PLINEGEN
 70
     0
  9
$PSLTSCALE
 70
     1
  9
$TREEDEPTH
 70
  3020
  9
$CMLSTYLE
  2
Standard
  9
$CMLJUST
 70
     0
  9
$CMLSCALE
 40
1.0
  9
$PROXYGRAPHICS
 70
     1
  9
$MEASUREMENT
 70
     0
  9
$CELWEIGHT
370
    -1
  9
$ENDCAPS
280
     0
  9
$JOINSTYLE
280
     0
  9
$LWDISPLAY
290
     0
  9
$INSUNITS
 70
     0
  9
$HYPERLINKBASE
  1

  9
$STYLESHEET
  1

  9
$XEDIT
290
     1
  9
$CEPSNTYPE
380
     0
  9
$PSTYLEMODE
290
     1
  9
$FINGERPRINTGUID
  2
{713A65CB-702A-4EA1-8520-3E6E5249BB93}
  9
$VERSIONGUID
  2
{4B8D2570-DC84-44AD-BE72-D900D813DFF0}
  9
$EXTNAMES
290
     1
  9
$PSVPSCALE
 40
0.0
  9
$OLESTARTUP
290
     0
  0
ENDSEC
  0
SECTION
  2
CLASSES
  0
CLASS
  1
ACDBDICTIONARYWDFLT
  2
AcDbDictionaryWithDefault
  3
AutoCAD 2000
 90
        0
280
     0
281
     0
  0
CLASS
  1
ACDBPLACEHOLDER
  2
AcDbPlaceHolder
  3
AutoCAD 2000
 90
        0
280
     0
281
     0
  0
CLASS
  1
LAYOUT
  2
AcDbLayout
  3
AutoCAD 2000
 90
        0
280
     0
281
     0
  0
CLASS
  1
DICTIONARYVAR
  2
AcDbDictionaryVar
  3
AutoCAD 2000
 90
        0
280
     0
281
     0
  0
ENDSEC
  0
SECTION
  2
TABLES
  0
TABLE
  2
VPORT
  5
8
330
0
100
AcDbSymbolTable
 70
     3
  0
VPORT
  5
144
330
8
100
AcDbSymbolTableRecord
100
AcDbViewportTableRecord
  2
*Active
 70
     0
 10
0.0
 20
0.0
 11
1.0
 21
1.0
 12
90.5
 22
32.5
 13
0.0
 23
0.0
 14
1.0
 24
1.0
 15
0.0
 25
0.0
 16
0.0
 26
0.0
 36
1.0
 17
0.0
 27
0.0
 37
0.0
 40
87.53435623559488
 41
2.073363431151241
 42
50.0
 43
0.0
 44
0.0
 50
0.0
 51
0.0
 71
     0
 72
   100
 73
     1
 74
     3
 75
     0
 76
     0
 77
     0
 78
     0
281
     0
 65
     1
110
0.0
120
0.0
130
0.0
111
1.0
121
0.0
131
0.0
112
0.0
122
1.0
132
0.0
 79
     1
146
0.0
  0
ENDTAB
  0
TABLE
  2
LTYPE
  5
5
330
0
100
AcDbSymbolTable
 70
     1
  0
LTYPE
  5
13
330
5
100
AcDbSymbolTableRecord
100
AcDbLinetypeTableRecord
  2
ByBlock
 70
     0
  3

 72
    65
 73
     0
 40
0.0
  0
LTYPE
  5
14
330
5
100
AcDbSymbolTableRecord
100
AcDbLinetypeTableRecord
  2
ByLayer
 70
     0
  3

 72
    65
 73
     0
 40
0.0
  0
LTYPE
  5
15
330
5
100
AcDbSymbolTableRecord
100
AcDbLinetypeTableRecord
  2
Continuous
 70
     0
  3
Solid line
 72
    65
 73
     0
 40
0.0
  0
ENDTAB
  0
TABLE
  2
LAYER
  5
2
330
0
100
AcDbSymbolTable
 70
     1
  0
LAYER
  5
10
330
2
100
AcDbSymbolTableRecord
100
AcDbLayerTableRecord
  2
0
 70
     0
 62
     7
  6
Continuous
370
    -3
390
F
  0
ENDTAB
  0
TABLE
  2
STYLE
  5
3
330
0
100
AcDbSymbolTable
 70
     1
  0
STYLE
  5
11
330
3
100
AcDbSymbolTableRecord
100
AcDbTextStyleTableRecord
  2
Standard
 70
     0
 40
0.0
 41
1.0
 50
0.0
 71
     0
 42
0.2
  3
txt
  4

  0
ENDTAB
  0
TABLE
  2
VIEW
  5
6
330
0
100
AcDbSymbolTable
 70
     0
  0
ENDTAB
  0
TABLE
  2
UCS
  5
7
330
0
100
AcDbSymbolTable
 70
     0
  0
ENDTAB
  0
TABLE
  2
APPID
  5
9
330
0
100
AcDbSymbolTable
 70
     1
  0
APPID
  5
12
330
9
100
AcDbSymbolTableRecord
100
AcDbRegAppTableRecord
  2
ACAD
 70
     0
  0
ENDTAB
  0
TABLE
  2
DIMSTYLE
  5
A
330
0
100
AcDbSymbolTable
 70
     1
100
AcDbDimStyleTable
 71
     0
  0
DIMSTYLE
105
13C
330
A
100
AcDbSymbolTableRecord
100
AcDbDimStyleTableRecord
  2
Standard
 70
     0
340
11
  0
ENDTAB
  0
TABLE
  2
BLOCK_RECORD
  5
1
330
0
100
AcDbSymbolTable
 70
     0
  0
BLOCK_RECORD
  5
1E
330
1
100
AcDbSymbolTableRecord
100
AcDbBlockTableRecord
  2
*Model_Space
340
21
  0
BLOCK_RECORD
  5
1A
330
1
100
AcDbSymbolTableRecord
100
AcDbBlockTableRecord
  2
*Paper_Space
340
1D
  0
ENDTAB
  0
ENDSEC
  0
SECTION
  2
BLOCKS
  0
BLOCK
  5
1F
330
1E
100
AcDbEntity
  8
0
100
AcDbBlockBegin
  2
*Model_Space
 70
     0
 10
0.0
 20
0.0
 30
0.0
  3
*Model_Space
  1

  0
ENDBLK
  5
20
330
1E
100
AcDbEntity
  8
0
100
AcDbBlockEnd
  0
BLOCK
  5
1B
330
1A
100
AcDbEntity
 67
     1
  8
0
100
AcDbBlockBegin
  2
*Paper_Space
 70
     0
 10
0.0
 20
0.0
 30
0.0
  3
*Paper_Space
  1

  0
ENDBLK
  5
1C
330
1A
100
AcDbEntity
 67
     1
  8
0
100
AcDbBlockEnd
  0
ENDSEC
  0
SECTION
  2
ENTITIES
  0
LINE
  5
52
330
1E
100
AcDbEntity
  8
0
100
AcDbLine
 10
27.6682
 20
13.2881
 30
0.0
 11
27.7973
 21
13.4543
 31
0.0
  0
LINE
  5
53
330
1E
100
AcDbEntity
  8
0
100
AcDbLine
 10
27.4727
 20
13.2088
 30
0.0
 11
27.6682
 21
13.2881
 31
0.0
  0
LINE
  5
54
330
1E
100
AcDbEntity
  8
0
100
AcDbLine
 10
27.2657
 20
13.2385
 30
0.0
 11
27.4727
 21
13.2088
 31
0.0
  0
LINE
  5
55
330
1E
100
AcDbEntity
  8
0
100
AcDbLine
 10
27.7973
 20
13.4543
 30
0.0
 11
29.66558896347689
 21
17.8080127607563
 31
0.0
  0
LINE
  5
56
330
1E
100
AcDbEntity
  8
0
100
AcDbLine
 10
27.7973
 20
13.4543
 30
0.0
 11
29.66558896347689
 21
17.8080127607563
 31
0.0
  0
LINE
  5
5B
330
1E
100
AcDbEntity
  8
0
100
AcDbLine
 10
29.835
 20
17.7194
 30
0.0
 11
30.03199999999999
 21
17.6158
 31
0.0
  0
LINE
  5
5C
330
1E
100
AcDbEntity
  8
0
100
AcDbLine
 10
34.93399999999999
 20
16.0254
 30
0.0
 11
35.774
 21
16.3303
 31
0.0
  0
LINE
  5
5D
330
1E
100
AcDbEntity
  8
0
100
AcDbLine
 10
35.774
 20
16.3303
 30
0.0
 11
38.483
 21
17.2733
 31
0.0
  0
LINE
  5
60
330
1E
100
AcDbEntity
  8
0
100
AcDbLine
 10
38.483
 20
17.2733
 30
0.0
 11
41.04899999999999
 21
17.85429999999999
 31
0.0
  0
LINE
  5
62
330
1E
100
AcDbEntity
  8
0
100
AcDbLine
 10
33.265
 20
16.27639999999999
 30
0.0
 11
34.106
 21
16.0
 31
0.0
  0
LINE
  5
63
330
1E
100
AcDbEntity
  8
0
100
AcDbLine
 10
30.03199999999999
 20
17.6158
 30
0.0
 11
33.265
 21
16.27639999999999
 31
0.0
  0
LINE
  5
64
330
1E
100
AcDbEntity
  8
0
100
AcDbLine
 10
29.66558896347689
 20
17.8080127607563
 30
0.0
 11
29.835
 21
17.7194
 31
0.0
  0
LINE
  5
65
330
1E
100
AcDbEntity
  8
0
100
AcDbLine
 10
41.04899999999999
 20
17.85429999999999
 30
0.0
 11
41.203
 21
17.8892
 31
0.0
  0
LINE
  5
66
330
1E
100
AcDbEntity
  8
0
100
AcDbLine
 10
41.203
 20
17.8892
 30
0.0
 11
43.875
 21
18.2519
 31
0.0
  0
LINE
  5
6B
330
1E
100
AcDbEntity
  8
0
100
AcDbLine
 10
46.466
 20
18.4328
 30
0.0
 11
47.99100000000001
 21
18.45579999999999
 31
0.0
  0
LINE
  5
6C
330
1E
100
AcDbEntity
  8
0
100
AcDbLine
 10
47.99100000000001
 20
18.45579999999999
 30
0.0
 11
51.38899999999999
 21
18.507
 31
0.0
  0
LINE
  5
6D
330
1E
100
AcDbEntity
  8
0
100
AcDbLine
 10
43.875
 20
18.2519
 30
0.0
 11
46.466
 21
18.4328
 31
0.0
  0
LINE
  5
6E
330
1E
100
AcDbEntity
  8
0
100
AcDbLine
 10
29.835
 20
17.7194
 30
0.0
 11
30.03199999999999
 21
17.6158
 31
0.0
  0
LINE
  5
6F
330
1E
100
AcDbEntity
  8
0
100
AcDbLine
 10
29.254
 20
18.02329999999999
 30
0.0
 11
29.835
 21
17.7194
 31
0.0
  0
LINE
  5
70
330
1E
100
AcDbEntity
  8
0
100
AcDbLine
 10
34.106
 20
16.0
 30
0.0
 11
34.93399999999999
 21
16.0254
 31
0.0
  0
LINE
  5
71
330
1E
100
AcDbEntity
  8
0
100
AcDbLine
 10
28.499
 20
18.4125
 30
0.0
 11
29.254
 21
18.02329999999999
 31
0.0
  0
LINE
  5
72
330
1E
100
AcDbEntity
  8
0
100
AcDbLine
 10
0.178000000000011
 20
31.0828
 30
0.0
 11
0.577000000000011
 21
31.5269
 31
0.0
  0
LINE
  5
73
330
1E
100
AcDbEntity
  8
0
100
AcDbLine
 10
0.0720000000000111
 20
30.846
 30
0.0
 11
0.178000000000011
 21
31.0828
 31
0.0
  0
LINE
  5
74
330
1E
100
AcDbEntity
  8
0
100
AcDbLine
 10
0.050000000000011
 20
30.4782
 30
0.0
 11
0.191000000000011
 21
30.14079999999999
 31
0.0
  0
LINE
  5
75
330
1E
100
AcDbEntity
  8
0
100
AcDbLine
 10
0.050000000000011
 20
30.4782
 30
0.0
 11
0.0720000000000111
 21
30.846
 31
0.0
  0
LINE
  5
79
330
1E
100
AcDbEntity
  8
0
100
AcDbLine
 10
0.885000000000012
 20
29.6845
 30
0.0
 11
6.879000000000009
 21
27.2029
 31
0.0
  0
LINE
  5
7B
330
1E
100
AcDbEntity
  8
0
100
AcDbLine
 10
0.3680000000000109
 20
29.9568
 30
0.0
 11
0.8850000000000109
 21
29.6845
 31
0.0
  0
LINE
  5
7F
330
1E
100
AcDbEntity
  8
0
100
AcDbLine
 10
2.685000000000009
 20
33.38049999999999
 30
0.0
 11
4.898000000000009
 21
35.1325
 31
0.0
  0
LINE
  5
80
330
1E
100
AcDbEntity
  8
0
100
AcDbLine
 10
0.577000000000011
 20
31.5269
 30
0.0
 11
2.685000000000009
 21
33.38049999999999
 31
0.0
  0
LINE
  5
81
330
1E
100
AcDbEntity
  8
0
100
AcDbLine
 10
0.8850000000000109
 20
29.6845
 30
0.0
 11
6.879000000000009
 21
27.2029
 31
0.0
  0
LINE
  5
AB
330
1E
100
AcDbEntity
  8
0
100
AcDbLine
 10
5.788000000000009
 20
22.5145
 30
0.0
 11
5.952190000000009
 21
22.38459999999999
 31
0.0
  0
LINE
  5
AD
330
1E
100
AcDbEntity
  8
0
100
AcDbLine
 10
21.72699999999999
 20
21.6441
 30
0.0
 11
23.39099999999999
 21
20.8931
 31
0.0
  0
LINE
  5
AE
330
1E
100
AcDbEntity
  8
0
100
AcDbLine
 10
23.39099999999999
 20
20.8931
 30
0.0
 11
24.93199999999999
 21
20.17259999999999
 31
0.0
  0
LINE
  5
AF
330
1E
100
AcDbEntity
  8
0
100
AcDbLine
 10
24.93199999999999
 20
20.17259999999999
 30
0.0
 11
26.31699999999999
 21
19.50499999999999
 31
0.0
  0
LINE
  5
B0
330
1E
100
AcDbEntity
  8
0
100
AcDbLine
 10
5.710750000000009
 20
22.7102
 30
0.0
 11
5.788000000000009
 21
22.5145
 31
0.0
  0
LINE
  5
B1
330
1E
100
AcDbEntity
  8
0
100
AcDbLine
 10
5.710750000000009
 20
22.7102
 30
0.0
 11
5.742320000000009
 21
22.9187
 31
0.0
  0
LINE
  5
B2
330
1E
100
AcDbEntity
  8
0
100
AcDbLine
 10
5.742320000000009
 20
22.9187
 30
0.0
 11
7.498193155468229
 21
27.0106995324211
 31
0.0
  0
LINE
  5
B3
330
1E
100
AcDbEntity
  8
0
100
AcDbLine
 10
5.742320000000009
 20
22.9187
 30
0.0
 11
7.498193155468229
 21
27.0106995324211
 31
0.0
  0
LINE
  5
B4
330
1E
100
AcDbEntity
  8
0
100
AcDbLine
 10
8.34400000000001
 20
26.7425
 30
0.0
 11
9.352000000000009
 21
26.41529999999999
 31
0.0
  0
LINE
  5
B5
330
1E
100
AcDbEntity
  8
0
100
AcDbLine
 10
9.352000000000009
 20
26.41529999999999
 30
0.0
 11
10.58699999999999
 21
26.0017
 31
0.0
  0
LINE
  5
B6
330
1E
100
AcDbEntity
  8
0
100
AcDbLine
 10
10.58699999999999
 20
26.0017
 30
0.0
 11
12.017
 21
25.5058
 31
0.0
  0
LINE
  5
B7
330
1E
100
AcDbEntity
  8
0
100
AcDbLine
 10
13.57599999999999
 20
24.9438
 30
0.0
 11
15.24799999999999
 21
24.31779999999999
 31
0.0
  0
LINE
  5
B8
330
1E
100
AcDbEntity
  8
0
100
AcDbLine
 10
15.24799999999999
 20
24.31779999999999
 30
0.0
 11
16.989
 21
23.63789999999999
 31
0.0
  0
LINE
  5
B9
330
1E
100
AcDbEntity
  8
0
100
AcDbLine
 10
16.989
 20
23.63789999999999
 30
0.0
 11
19.387
 21
22.6563
 31
0.0
  0
LINE
  5
BA
330
1E
100
AcDbEntity
  8
0
100
AcDbLine
 10
12.017
 20
25.5058
 30
0.0
 11
13.57599999999999
 21
24.9438
 31
0.0
  0
LINE
  5
BB
330
1E
100
AcDbEntity
  8
0
100
AcDbLine
 10
19.387
 20
22.6563
 30
0.0
 11
21.72699999999999
 21
21.6441
 31
0.0
  0
LINE
  5
BC
330
1E
100
AcDbEntity
  8
0
100
AcDbLine
 10
27.51199999999999
 20
18.9125
 30
0.0
 11
28.499
 21
18.4125
 31
0.0
  0
LINE
  5
BD
330
1E
100
AcDbEntity
  8
0
100
AcDbLine
 10
26.31699999999999
 20
19.50499999999999
 30
0.0
 11
27.51199999999999
 21
18.9125
 31
0.0
  0
LINE
  5
BE
330
1E
100
AcDbEntity
  8
0
100
AcDbLine
 10
7.045000000000009
 20
27.15199999999999
 30
0.0
 11
7.537000000000009
 21
26.9986
 31
0.0
  0
LINE
  5
BF
330
1E
100
AcDbEntity
  8
0
100
AcDbLine
 10
6.879000000000009
 20
27.2029
 30
0.0
 11
7.045000000000009
 21
27.15199999999999
 31
0.0
  0
LINE
  5
C0
330
1E
100
AcDbEntity
  8
0
100
AcDbLine
 10
7.537000000000009
 20
26.9986
 30
0.0
 11
8.34400000000001
 21
26.7425
 31
0.0
  0
LINE
  5
C1
330
1E
100
AcDbEntity
  8
0
100
AcDbLine
 10
4.898000000000009
 20
35.1325
 30
0.0
 11
7.208000000000009
 21
36.7635
 31
0.0
  0
LINE
  5
C2
330
1E
100
AcDbEntity
  8
0
100
AcDbLine
 10
9.605000000000009
 20
38.25739999999999
 30
0.0
 11
12.925
 21
40.0175
 31
0.0
  0
LINE
  5
C3
330
1E
100
AcDbEntity
  8
0
100
AcDbLine
 10
12.925
 20
40.0175
 30
0.0
 11
16.367
 21
41.4981
 31
0.0
  0
LINE
  5
C4
330
1E
100
AcDbEntity
  8
0
100
AcDbLine
 10
19.908
 20
42.6911
 30
0.0
 11
23.525
 21
43.6047
 31
0.0
  0
LINE
  5
C5
330
1E
100
AcDbEntity
  8
0
100
AcDbLine
 10
23.525
 20
43.6047
 30
0.0
 11
27.19599999999999
 21
44.2571
 31
0.0
  0
LINE
  5
C7
330
1E
100
AcDbEntity
  8
0
100
AcDbLine
 10
27.19599999999999
 20
44.2571
 30
0.0
 11
32.131
 21
44.7693
 31
0.0
  0
LINE
  5
CB
330
1E
100
AcDbEntity
  8
0
100
AcDbLine
 10
16.367
 20
41.4981
 30
0.0
 11
19.908
 21
42.6911
 31
0.0
  0
LINE
  5
CC
330
1E
100
AcDbEntity
  8
0
100
AcDbLine
 10
32.131
 20
44.7693
 30
0.0
 11
35.419
 21
44.9309
 31
0.0
  0
LINE
  5
CD
330
1E
100
AcDbEntity
  8
0
100
AcDbLine
 10
7.208000000000009
 20
36.7635
 30
0.0
 11
9.605000000000009
 21
38.25739999999999
 31
0.0
  0
LINE
  5
D5
330
1E
100
AcDbEntity
  8
0
100
AcDbLine
 10
35.419
 20
44.9309
 30
0.0
 11
41.90299999999999
 21
45.0
 31
0.0
  0
LINE
  5
D7
330
1E
100
AcDbEntity
  8
0
100
AcDbLine
 10
41.90299999999999
 20
45.0
 30
0.0
 11
173.9499999999999
 21
44.92795237961909
 31
0.0
  0
LINE
  5
D8
330
1E
100
AcDbEntity
  8
0
100
AcDbLine
 10
41.90299999999999
 20
45.0
 30
0.0
 11
173.9499999999999
 21
44.92795237961909
 31
0.0
  0
LINE
  5
DA
330
1E
100
AcDbEntity
  8
0
100
AcDbLine
 10
0.191000000000011
 20
30.14079999999999
 30
0.0
 11
0.3680000000000109
 21
29.9568
 31
0.0
  0
LINE
  5
DD
330
1E
100
AcDbEntity
  8
0
100
AcDbLine
 10
157.3529999999999
 20
18.507
 30
0.0
 11
157.453
 21
18.5172
 31
0.0
  0
LINE
  5
DE
330
1E
100
AcDbEntity
  8
0
100
AcDbLine
 10
157.453
 20
18.5172
 30
0.0
 11
157.7449999999999
 21
18.54459999999999
 31
0.0
  0
LINE
  5
DF
330
1E
100
AcDbEntity
  8
0
100
AcDbLine
 10
157.7449999999999
 20
18.54459999999999
 30
0.0
 11
158.261
 21
18.5883
 31
0.0
  0
LINE
  5
E0
330
1E
100
AcDbEntity
  8
0
100
AcDbLine
 10
163.037
 20
18.5721
 30
0.0
 11
163.496
 21
18.5314
 31
0.0
  0
LINE
  5
E1
330
1E
100
AcDbEntity
  8
0
100
AcDbLine
 10
163.496
 20
18.5314
 30
0.0
 11
163.7509999999999
 21
18.507
 31
0.0
  0
LINE
  5
E3
330
1E
100
AcDbEntity
  8
0
100
AcDbLine
 10
163.7509999999999
 20
18.507
 30
0.0
 11
170.86
 21
18.507
 31
0.0
  0
LINE
  5
E5
330
1E
100
AcDbEntity
  8
0
100
AcDbLine
 10
174.335
 20
0.4779410000000001
 30
0.0
 11
175.104
 21
0.0000000000000001
 31
0.0
  0
LINE
  5
E6
330
1E
100
AcDbEntity
  8
0
100
AcDbLine
 10
174.335
 20
0.4779410000000001
 30
0.0
 11
174.335
 21
1.625
 31
0.0
  0
LINE
  5
E7
330
1E
100
AcDbEntity
  8
0
100
AcDbLine
 10
174.335
 20
0.4779410000000001
 30
0.0
 11
175.104
 21
0.0000000000000001
 31
0.0
  0
LINE
  5
E8
330
1E
100
AcDbEntity
  8
0
100
AcDbLine
 10
175.104
 20
0.0000000000000001
 30
0.0
 11
180.9499999999999
 21
-0.0000000000000003
 31
0.0
  0
LINE
  5
E9
330
1E
100
AcDbEntity
  8
0
100
AcDbLine
 10
180.9499999999999
 20
-0.0000000000000003
 30
0.0
 11
180.9499999999999
 21
1.147059999999999
 31
0.0
  0
LINE
  5
EA
330
1E
100
AcDbEntity
  8
0
100
AcDbLine
 10
173.9499999999999
 20
2.58088
 30
0.0
 11
173.9499999999999
 21
5.63971
 31
0.0
  0
LINE
  5
EB
330
1E
100
AcDbEntity
  8
0
100
AcDbLine
 10
173.9499999999999
 20
1.43382
 30
0.0
 11
174.335
 21
0.4779410000000001
 31
0.0
  0
LINE
  5
EC
330
1E
100
AcDbEntity
  8
0
100
AcDbLine
 10
173.9499999999999
 20
1.43382
 30
0.0
 11
174.335
 21
0.4779410000000001
 31
0.0
  0
LINE
  5
ED
330
1E
100
AcDbEntity
  8
0
100
AcDbLine
 10
173.9499999999999
 20
5.63971
 30
0.0
 11
173.9499999999999
 21
2.58088
 31
0.0
  0
LINE
  5
EE
330
1E
100
AcDbEntity
  8
0
100
AcDbLine
 10
174.335
 20
4.779409999999999
 30
0.0
 11
174.335
 21
1.625
 31
0.0
  0
LINE
  5
EF
330
1E
100
AcDbEntity
  8
0
100
AcDbLine
 10
174.335
 20
4.779409999999999
 30
0.0
 11
174.335
 21
9.845589999999999
 31
0.0
  0
LINE
  5
F0
330
1E
100
AcDbEntity
  8
0
100
AcDbLine
 10
174.335
 20
1.625
 30
0.0
 11
174.335
 21
0.4779410000000001
 31
0.0
  0
LINE
  5
F1
330
1E
100
AcDbEntity
  8
0
100
AcDbLine
 10
174.335
 20
1.625
 30
0.0
 11
174.335
 21
4.779409999999999
 31
0.0
  0
LINE
  5
F2
330
1E
100
AcDbEntity
  8
0
100
AcDbLine
 10
173.9499999999999
 20
1.43382
 30
0.0
 11
173.9499999999999
 21
17.0147
 31
0.0
  0
LINE
  5
F3
330
1E
100
AcDbEntity
  8
0
100
AcDbLine
 10
173.9499999999999
 20
17.0147
 30
0.0
 11
173.9499999999999
 21
1.43382
 31
0.0
  0
LINE
  5
F4
330
1E
100
AcDbEntity
  8
0
100
AcDbLine
 10
173.9499999999999
 20
17.0147
 30
0.0
 11
173.9499999999999
 21
24.4706
 31
0.0
  0
LINE
  5
F5
330
1E
100
AcDbEntity
  8
0
100
AcDbLine
 10
174.335
 20
16.5368
 30
0.0
 11
174.335
 21
9.845589999999999
 31
0.0
  0
LINE
  5
F6
330
1E
100
AcDbEntity
  8
0
100
AcDbLine
 10
174.335
 20
16.5368
 30
0.0
 11
174.335
 21
24.27939999999999
 31
0.0
  0
LINE
  5
F7
330
1E
100
AcDbEntity
  8
0
100
AcDbLine
 10
180.9499999999999
 20
16.3456
 30
0.0
 11
180.9499999999999
 21
9.558819999999998
 31
0.0
  0
LINE
  5
F8
330
1E
100
AcDbEntity
  8
0
100
AcDbLine
 10
180.9499999999999
 20
16.3456
 30
0.0
 11
180.9499999999999
 21
24.1838
 31
0.0
  0
LINE
  5
F9
330
1E
100
AcDbEntity
  8
0
100
AcDbLine
 10
174.335
 20
9.845589999999999
 30
0.0
 11
174.335
 21
4.779409999999999
 31
0.0
  0
LINE
  5
FA
330
1E
100
AcDbEntity
  8
0
100
AcDbLine
 10
174.335
 20
9.845589999999999
 30
0.0
 11
174.335
 21
16.5368
 31
0.0
  0
LINE
  5
FB
330
1E
100
AcDbEntity
  8
0
100
AcDbLine
 10
180.9499999999999
 20
9.558819999999998
 30
0.0
 11
180.9499999999999
 21
4.397059999999999
 31
0.0
  0
LINE
  5
FC
330
1E
100
AcDbEntity
  8
0
100
AcDbLine
 10
180.9499999999999
 20
9.558819999999998
 30
0.0
 11
180.9499999999999
 21
16.3456
 31
0.0
  0
LINE
  5
FD
330
1E
100
AcDbEntity
  8
0
100
AcDbLine
 10
180.9499999999999
 20
4.397059999999999
 30
0.0
 11
180.9499999999999
 21
1.147059999999999
 31
0.0
  0
LINE
  5
FE
330
1E
100
AcDbEntity
  8
0
100
AcDbLine
 10
180.9499999999999
 20
4.397059999999999
 30
0.0
 11
180.9499999999999
 21
9.558819999999998
 31
0.0
  0
LINE
  5
FF
330
1E
100
AcDbEntity
  8
0
100
AcDbLine
 10
180.9499999999999
 20
1.147059999999999
 30
0.0
 11
180.9499999999999
 21
-0.0000000000000002
 31
0.0
  0
LINE
  5
100
330
1E
100
AcDbEntity
  8
0
100
AcDbLine
 10
180.9499999999999
 20
1.147059999999999
 30
0.0
 11
180.9499999999999
 21
4.397059999999999
 31
0.0
  0
LINE
  5
101
330
1E
100
AcDbEntity
  8
0
100
AcDbLine
 10
170.86
 20
18.507
 30
0.0
 11
173.9499999999999
 21
18.507
 31
0.0
  0
LINE
  5
102
330
1E
100
AcDbEntity
  8
0
100
AcDbLine
 10
160.0449999999999
 20
18.67269999999999
 30
0.0
 11
160.881
 21
18.6747
 31
0.0
  0
LINE
  5
103
330
1E
100
AcDbEntity
  8
0
100
AcDbLine
 10
158.953
 20
18.63299999999999
 30
0.0
 11
160.0449999999999
 21
18.67269999999999
 31
0.0
  0
LINE
  5
104
330
1E
100
AcDbEntity
  8
0
100
AcDbLine
 10
162.4279999999999
 20
18.6168
 30
0.0
 11
163.037
 21
18.5721
 31
0.0
  0
LINE
  5
105
330
1E
100
AcDbEntity
  8
0
100
AcDbLine
 10
161.6989999999999
 20
18.65439999999999
 30
0.0
 11
162.4279999999999
 21
18.6168
 31
0.0
  0
LINE
  5
106
330
1E
100
AcDbEntity
  8
0
100
AcDbLine
 10
173.9499999999999
 20
59.3603
 30
0.0
 11
173.9499999999999
 21
54.4853
 31
0.0
  0
LINE
  5
107
330
1E
100
AcDbEntity
  8
0
100
AcDbLine
 10
173.9499999999999
 20
59.3603
 30
0.0
 11
173.9499999999999
 21
62.4191
 31
0.0
  0
LINE
  5
108
330
1E
100
AcDbEntity
  8
0
100
AcDbLine
 10
173.9499999999999
 20
62.4191
 30
0.0
 11
173.9499999999999
 21
59.3603
 31
0.0
  0
LINE
  5
109
330
1E
100
AcDbEntity
  8
0
100
AcDbLine
 10
173.9499999999999
 20
62.4191
 30
0.0
 11
173.9499999999999
 21
63.5662
 31
0.0
  0
LINE
  5
10A
330
1E
100
AcDbEntity
  8
0
100
AcDbLine
 10
173.9499999999999
 20
63.5662
 30
0.0
 11
173.9499999999999
 21
62.4191
 31
0.0
  0
LINE
  5
10B
330
1E
100
AcDbEntity
  8
0
100
AcDbLine
 10
173.9499999999999
 20
63.5662
 30
0.0
 11
174.335
 21
64.5221
 31
0.0
  0
LINE
  5
10C
330
1E
100
AcDbEntity
  8
0
100
AcDbLine
 10
173.9499999999999
 20
54.4853
 30
0.0
 11
173.9499999999999
 21
47.9853
 31
0.0
  0
LINE
  5
10D
330
1E
100
AcDbEntity
  8
0
100
AcDbLine
 10
173.9499999999999
 20
54.4853
 30
0.0
 11
173.9499999999999
 21
59.3603
 31
0.0
  0
LINE
  5
10E
330
1E
100
AcDbEntity
  8
0
100
AcDbLine
 10
173.9499999999999
 20
47.9853
 30
0.0
 11
173.9499999999999
 21
40.5294
 31
0.0
  0
LINE
  5
10F
330
1E
100
AcDbEntity
  8
0
100
AcDbLine
 10
173.9499999999999
 20
47.9853
 30
0.0
 11
173.9499999999999
 21
54.4853
 31
0.0
  0
LINE
  5
110
330
1E
100
AcDbEntity
  8
0
100
AcDbLine
 10
173.9499999999999
 20
40.5294
 30
0.0
 11
173.9499999999999
 21
32.5
 31
0.0
  0
LINE
  5
111
330
1E
100
AcDbEntity
  8
0
100
AcDbLine
 10
173.9499999999999
 20
40.5294
 30
0.0
 11
173.9499999999999
 21
47.9853
 31
0.0
  0
LINE
  5
112
330
1E
100
AcDbEntity
  8
0
100
AcDbLine
 10
173.9499999999999
 20
24.4706
 30
0.0
 11
173.9499999999999
 21
17.0147
 31
0.0
  0
LINE
  5
113
330
1E
100
AcDbEntity
  8
0
100
AcDbLine
 10
173.9499999999999
 20
24.4706
 30
0.0
 11
173.9499999999999
 21
32.5
 31
0.0
  0
LINE
  5
114
330
1E
100
AcDbEntity
  8
0
100
AcDbLine
 10
173.9499999999999
 20
32.5
 30
0.0
 11
173.9499999999999
 21
24.4706
 31
0.0
  0
LINE
  5
115
330
1E
100
AcDbEntity
  8
0
100
AcDbLine
 10
173.9499999999999
 20
32.5
 30
0.0
 11
173.9499999999999
 21
40.5294
 31
0.0
  0
LINE
  5
116
330
1E
100
AcDbEntity
  8
0
100
AcDbLine
 10
160.881
 20
18.6747
 30
0.0
 11
161.6989999999999
 21
18.65439999999999
 31
0.0
  0
LINE
  5
117
330
1E
100
AcDbEntity
  8
0
100
AcDbLine
 10
174.335
 20
24.27939999999999
 30
0.0
 11
174.335
 21
16.5368
 31
0.0
  0
LINE
  5
118
330
1E
100
AcDbEntity
  8
0
100
AcDbLine
 10
174.335
 20
24.27939999999999
 30
0.0
 11
174.335
 21
32.5
 31
0.0
  0
LINE
  5
119
330
1E
100
AcDbEntity
  8
0
100
AcDbLine
 10
174.335
 20
32.5
 30
0.0
 11
174.335
 21
24.27939999999999
 31
0.0
  0
LINE
  5
11A
330
1E
100
AcDbEntity
  8
0
100
AcDbLine
 10
174.335
 20
32.5
 30
0.0
 11
174.335
 21
40.72059999999999
 31
0.0
  0
LINE
  5
11B
330
1E
100
AcDbEntity
  8
0
100
AcDbLine
 10
180.9499999999999
 20
24.1838
 30
0.0
 11
180.9499999999999
 21
16.3456
 31
0.0
  0
LINE
  5
11C
330
1E
100
AcDbEntity
  8
0
100
AcDbLine
 10
180.9499999999999
 20
24.1838
 30
0.0
 11
180.9499999999999
 21
32.5
 31
0.0
  0
LINE
  5
11D
330
1E
100
AcDbEntity
  8
0
100
AcDbLine
 10
174.335
 20
48.4632
 30
0.0
 11
174.335
 21
40.72059999999999
 31
0.0
  0
LINE
  5
11E
330
1E
100
AcDbEntity
  8
0
100
AcDbLine
 10
174.335
 20
48.4632
 30
0.0
 11
174.335
 21
55.1544
 31
0.0
  0
LINE
  5
11F
330
1E
100
AcDbEntity
  8
0
100
AcDbLine
 10
174.335
 20
40.72059999999999
 30
0.0
 11
174.335
 21
32.5
 31
0.0
  0
LINE
  5
120
330
1E
100
AcDbEntity
  8
0
100
AcDbLine
 10
174.335
 20
40.72059999999999
 30
0.0
 11
174.335
 21
48.4632
 31
0.0
  0
LINE
  5
121
330
1E
100
AcDbEntity
  8
0
100
AcDbLine
 10
174.335
 20
60.22059999999999
 30
0.0
 11
174.335
 21
55.1544
 31
0.0
  0
LINE
  5
122
330
1E
100
AcDbEntity
  8
0
100
AcDbLine
 10
174.335
 20
60.22059999999999
 30
0.0
 11
174.335
 21
63.375
 31
0.0
  0
LINE
  5
123
330
1E
100
AcDbEntity
  8
0
100
AcDbLine
 10
174.335
 20
63.375
 30
0.0
 11
174.335
 21
60.22059999999999
 31
0.0
  0
LINE
  5
124
330
1E
100
AcDbEntity
  8
0
100
AcDbLine
 10
174.335
 20
63.375
 30
0.0
 11
174.335
 21
64.5221
 31
0.0
  0
LINE
  5
125
330
1E
100
AcDbEntity
  8
0
100
AcDbLine
 10
180.9499999999999
 20
60.6029
 30
0.0
 11
180.9499999999999
 21
55.4412
 31
0.0
  0
LINE
  5
126
330
1E
100
AcDbEntity
  8
0
100
AcDbLine
 10
180.9499999999999
 20
60.6029
 30
0.0
 11
180.9499999999999
 21
63.8529
 31
0.0
  0
LINE
  5
127
330
1E
100
AcDbEntity
  8
0
100
AcDbLine
 10
174.335
 20
64.5221
 30
0.0
 11
174.335
 21
63.375
 31
0.0
  0
LINE
  5
128
330
1E
100
AcDbEntity
  8
0
100
AcDbLine
 10
174.335
 20
64.5221
 30
0.0
 11
175.104
 21
65.0
 31
0.0
  0
LINE
  5
129
330
1E
100
AcDbEntity
  8
0
100
AcDbLine
 10
175.104
 20
65.0
 30
0.0
 11
180.9499999999999
 21
65.0
 31
0.0
  0
LINE
  5
12A
330
1E
100
AcDbEntity
  8
0
100
AcDbLine
 10
180.9499999999999
 20
63.8529
 30
0.0
 11
180.9499999999999
 21
60.6029
 31
0.0
  0
LINE
  5
12B
330
1E
100
AcDbEntity
  8
0
100
AcDbLine
 10
180.9499999999999
 20
63.8529
 30
0.0
 11
180.9499999999999
 21
65.0
 31
0.0
  0
LINE
  5
12C
330
1E
100
AcDbEntity
  8
0
100
AcDbLine
 10
180.9499999999999
 20
65.0
 30
0.0
 11
180.9499999999999
 21
63.8529
 31
0.0
  0
LINE
  5
12D
330
1E
100
AcDbEntity
  8
0
100
AcDbLine
 10
174.335
 20
55.1544
 30
0.0
 11
174.335
 21
48.4632
 31
0.0
  0
LINE
  5
12E
330
1E
100
AcDbEntity
  8
0
100
AcDbLine
 10
174.335
 20
55.1544
 30
0.0
 11
174.335
 21
60.22059999999999
 31
0.0
  0
LINE
  5
12F
330
1E
100
AcDbEntity
  8
0
100
AcDbLine
 10
180.9499999999999
 20
55.4412
 30
0.0
 11
180.9499999999999
 21
48.6544
 31
0.0
  0
LINE
  5
130
330
1E
100
AcDbEntity
  8
0
100
AcDbLine
 10
180.9499999999999
 20
55.4412
 30
0.0
 11
180.9499999999999
 21
60.6029
 31
0.0
  0
LINE
  5
131
330
1E
100
AcDbEntity
  8
0
100
AcDbLine
 10
180.9499999999999
 20
48.6544
 30
0.0
 11
180.9499999999999
 21
40.8162
 31
0.0
  0
LINE
  5
132
330
1E
100
AcDbEntity
  8
0
100
AcDbLine
 10
180.9499999999999
 20
48.6544
 30
0.0
 11
180.9499999999999
 21
55.4412
 31
0.0
  0
LINE
  5
133
330
1E
100
AcDbEntity
  8
0
100
AcDbLine
 10
180.9499999999999
 20
40.8162
 30
0.0
 11
180.9499999999999
 21
32.5
 31
0.0
  0
LINE
  5
134
330
1E
100
AcDbEntity
  8
0
100
AcDbLine
 10
180.9499999999999
 20
40.8162
 30
0.0
 11
180.9499999999999
 21
48.6544
 31
0.0
  0
LINE
  5
135
330
1E
100
AcDbEntity
  8
0
100
AcDbLine
 10
180.9499999999999
 20
32.5
 30
0.0
 11
180.9499999999999
 21
24.1838
 31
0.0
  0
LINE
  5
136
330
1E
100
AcDbEntity
  8
0
100
AcDbLine
 10
180.9499999999999
 20
32.5
 30
0.0
 11
180.9499999999999
 21
40.8162
 31
0.0
  0
LINE
  5
137
330
1E
100
AcDbEntity
  8
0
100
AcDbLine
 10
158.261
 20
18.5883
 30
0.0
 11
158.953
 21
18.63299999999999
 31
0.0
  0
LINE
  5
139
330
1E
100
AcDbEntity
  8
0
100
AcDbLine
 10
51.38899999999999
 20
18.507
 30
0.0
 11
157.3529999999999
 21
18.507
 31
0.0
  0
LINE
  5
140
330
1E
100
AcDbEntity
  8
0
100
AcDbLine
 10
5.952190000000009
 20
22.38459999999999
 30
0.0
 11
27.2657
 21
13.2385
 31
0.0
  0
ENDSEC
  0
SECTION
  2
OBJECTS
  0
DICTIONARY
  5
C
330
0
100
AcDbDictionary
281
     1
  3
ACAD_GROUP
350
D
  3
ACAD_LAYOUT
350
19
  3
ACAD_MLINESTYLE
350
16
  3
ACAD_PLOTSETTINGS
350
18
  3
ACAD_PLOTSTYLENAME
350
E
  3
AcDbVariableDictionary
350
142
  0
DICTIONARY
  5
D
102
{ACAD_REACTORS
330
C
102
}
330
C
100
AcDbDictionary
281
     1
  0
DICTIONARY
  5
19
102
{ACAD_REACTORS
330
C
102
}
330
C
100
AcDbDictionary
281
     1
  3
Layout1
350
1D
  3
Model
350
21
  0
DICTIONARY
  5
16
102
{ACAD_REACTORS
330
C
102
}
330
C
100
AcDbDictionary
281
     1
  3
Standard
350
17
  0
DICTIONARY
  5
18
102
{ACAD_REACTORS
330
C
102
}
330
C
100
AcDbDictionary
281
     1
  0
ACDBDICTIONARYWDFLT
  5
E
102
{ACAD_REACTORS
330
C
102
}
330
C
100
AcDbDictionary
281
     1
  3
Normal
350
F
100
AcDbDictionaryWithDefault
340
F
  0
DICTIONARY
  5
142
102
{ACAD_REACTORS
330
C
102
}
330
C
100
AcDbDictionary
281
     1
  3
DIMASSOC
350
143
  0
LAYOUT
  5
1D
102
{ACAD_REACTORS
330
19
102
}
330
19
100
AcDbPlotSettings
  1

  2
C:\Programme\AutoCAD LT 2002 Deu\plotters\DWF ePlot (optimized for plotting).pc3
  4

  6

 40
0.0
 41
0.0
 42
0.0
 43
0.0
 44
0.0
 45
0.0
 46
0.0
 47
0.0
 48
0.0
 49
0.0
140
0.0
141
0.0
142
1.0
143
1.0
 70
   688
 72
     0
 73
     0
 74
     5
  7

 75
    16
147
1.0
148
0.0
149
0.0
100
AcDbLayout
  1
Layout1
 70
     1
 71
     1
 10
0.0
 20
0.0
 11
12.0
 21
9.0
 12
0.0
 22
0.0
 32
0.0
 14
1.000000000000000E+20
 24
1.000000000000000E+20
 34
1.000000000000000E+20
 15
-1.000000000000000E+20
 25
-1.000000000000000E+20
 35
-1.000000000000000E+20
146
0.0
 13
0.0
 23
0.0
 33
0.0
 16
1.0
 26
0.0
 36
0.0
 17
0.0
 27
1.0
 37
0.0
 76
     0
330
1A
  0
LAYOUT
  5
21
102
{ACAD_REACTORS
330
19
102
}
330
19
100
AcDbPlotSettings
  1

  2
C:\Programme\AutoCAD LT 2002 Deu\plotters\DWF ePlot (optimized for plotting).pc3
  4

  6

 40
0.0
 41
0.0
 42
0.0
 43
0.0
 44
0.0
 45
0.0
 46
0.0
 47
0.0
 48
0.0
 49
0.0
140
0.0
141
0.0
142
1.0
143
1.0
 70
  1712
 72
     0
 73
     0
 74
     0
  7

 75
     0
147
1.0
148
0.0
149
0.0
100
AcDbLayout
  1
Model
 70
     1
 71
     0
 10
0.0
 20
0.0
 11
12.0
 21
9.0
 12
0.0
 22
0.0
 32
0.0
 14
0.0
 24
0.0
 34
0.0
 15
0.0
 25
0.0
 35
0.0
146
0.0
 13
0.0
 23
0.0
 33
0.0
 16
1.0
 26
0.0
 36
0.0
 17
0.0
 27
1.0
 37
0.0
 76
     0
330
1E
  0
MLINESTYLE
  5
17
102
{ACAD_REACTORS
330
16
102
}
330
16
100
AcDbMlineStyle
  2
STANDARD
 70
     0
  3

 62
   256
 51
90.0
 52
90.0
 71
     2
 49
0.5
 62
   256
  6
BYLAYER
 49
-0.5
 62
   256
  6
BYLAYER
  0
ACDBPLACEHOLDER
  5
F
102
{ACAD_REACTORS
330
E
102
}
330
E
  0
DICTIONARYVAR
  5
143
102
{ACAD_REACTORS
330
142
102
}
330
142
100
DictionaryVariables
280
     0
  1
1
  0
ENDSEC
  0
EOF
