  0
SECTION
  2
HEADER
  9
$ACADVER
  1
AC1015
  9
$ACADMAINTVER
 70
    13
  9
$DWGCODEPAGE
  3
ANSI_1252
  9
$INSBASE
 10
0.0
 20
0.0
 30
0.0
  9
$EXTMIN
 10
-0.9023499999999984
 20
-0.1819999999999915
 30
0.0
  9
$EXTMAX
 10
53.86755
 20
184.0589999999999
 30
0.0
  9
$LIMMIN
 10
0.0
 20
0.0
  9
$LIMMAX
 10
12.0
 20
9.0
  9
$ORTHOMODE
 70
     0
  9
$REGENMODE
 70
     1
  9
$FILLMODE
 70
     1
  9
$QTEXTMODE
 70
     0
  9
$MIRRTEXT
 70
     1
  9
$LTSCALE
 40
1.0
  9
$ATTMODE
 70
     1
  9
$TEXTSIZE
 40
0.2
  9
$TRACEWID
 40
0.05
  9
$TEXTSTYLE
  7
Standard
  9
$CLAYER
  8
0
  9
$CELTYPE
  6
Continuous
  9
$CECOLOR
 62
   256
  9
$CELTSCALE
 40
1.0
  9
$DISPSILH
 70
     0
  9
$DIMSCALE
 40
1.0
  9
$DIMASZ
 40
0.18
  9
$DIMEXO
 40
0.0625
  9
$DIMDLI
 40
0.38
  9
$DIMRND
 40
0.0
  9
$DIMDLE
 40
0.0
  9
$DIMEXE
 40
0.18
  9
$DIMTP
 40
0.0
  9
$DIMTM
 40
0.0
  9
$DIMTXT
 40
0.18
  9
$DIMCEN
 40
0.09
  9
$DIMTSZ
 40
0.0
  9
$DIMTOL
 70
     0
  9
$DIMLIM
 70
     0
  9
$DIMTIH
 70
     1
  9
$DIMTOH
 70
     1
  9
$DIMSE1
 70
     0
  9
$DIMSE2
 70
     0
  9
$DIMTAD
 70
     0
  9
$DIMZIN
 70
     0
  9
$DIMBLK
  1

  9
$DIMASO
 70
     1
  9
$DIMSHO
 70
     1
  9
$DIMPOST
  1

  9
$DIMAPOST
  1

  9
$DIMALT
 70
     0
  9
$DIMALTD
 70
     2
  9
$DIMALTF
 40
25.4
  9
$DIMLFAC
 40
1.0
  9
$DIMTOFL
 70
     0
  9
$DIMTVP
 40
0.0
  9
$DIMTIX
 70
     0
  9
$DIMSOXD
 70
     0
  9
$DIMSAH
 70
     0
  9
$DIMBLK1
  1

  9
$DIMBLK2
  1

  9
$DIMSTYLE
  2
Standard
  9
$DIMCLRD
 70
     0
  9
$DIMCLRE
 70
     0
  9
$DIMCLRT
 70
     0
  9
$DIMTFAC
 40
1.0
  9
$DIMGAP
 40
0.09
  9
$DIMJUST
 70
     0
  9
$DIMSD1
 70
     0
  9
$DIMSD2
 70
     0
  9
$DIMTOLJ
 70
     1
  9
$DIMTZIN
 70
     0
  9
$DIMALTZ
 70
     0
  9
$DIMALTTZ
 70
     0
  9
$DIMUPT
 70
     0
  9
$DIMDEC
 70
     4
  9
$DIMTDEC
 70
     4
  9
$DIMALTU
 70
     2
  9
$DIMALTTD
 70
     2
  9
$DIMTXSTY
  7
Standard
  9
$DIMAUNIT
 70
     0
  9
$DIMADEC
 70
     0
  9
$DIMALTRND
 40
0.0
  9
$DIMAZIN
 70
     0
  9
$DIMDSEP
 70
    46
  9
$DIMATFIT
 70
     3
  9
$DIMFRAC
 70
     0
  9
$DIMLDRBLK
  1

  9
$DIMLUNIT
 70
     2
  9
$DIMLWD
 70
    -2
  9
$DIMLWE
 70
    -2
  9
$DIMTMOVE
 70
     0
  9
$LUNITS
 70
     2
  9
$LUPREC
 70
     4
  9
$SKETCHINC
 40
0.1
  9
$FILLETRAD
 40
0.0
  9
$AUNITS
 70
     0
  9
$AUPREC
 70
     0
  9
$MENU
  1
.
  9
$ELEVATION
 40
0.0
  9
$PELEVATION
 40
0.0
  9
$THICKNESS
 40
0.0
  9
$LIMCHECK
 70
     0
  9
$CHAMFERA
 40
0.0
  9
$CHAMFERB
 40
0.0
  9
$CHAMFERC
 40
0.0
  9
$CHAMFERD
 40
0.0
  9
$SKPOLY
 70
     0
  9
$TDCREATE
 40
2455653.900465312
  9
$TDUCREATE
 40
2455653.817131979
  9
$TDUPDATE
 40
2455653.904587488
  9
$TDUUPDATE
 40
2455653.821254155
  9
$TDINDWG
 40
0.0041223611
  9
$TDUSRTIMER
 40
0.0041223611
  9
$USRTIMER
 70
     1
  9
$ANGBASE
 50
0.0
  9
$ANGDIR
 70
     0
  9
$PDMODE
 70
     0
  9
$PDSIZE
 40
0.0
  9
$PLINEWID
 40
0.0
  9
$SPLFRAME
 70
     0
  9
$SPLINETYPE
 70
     6
  9
$SPLINESEGS
 70
     8
  9
$HANDSEED
  5
4E0
  9
$SURFTAB1
 70
     6
  9
$SURFTAB2
 70
     6
  9
$SURFTYPE
 70
     6
  9
$SURFU
 70
     6
  9
$SURFV
 70
     6
  9
$UCSBASE
  2

  9
$UCSNAME
  2

  9
$UCSORG
 10
0.0
 20
0.0
 30
0.0
  9
$UCSXDIR
 10
1.0
 20
0.0
 30
0.0
  9
$UCSYDIR
 10
0.0
 20
1.0
 30
0.0
  9
$UCSORTHOREF
  2

  9
$UCSORTHOVIEW
 70
     1
  9
$UCSORGTOP
 10
0.0
 20
0.0
 30
0.0
  9
$UCSORGBOTTOM
 10
0.0
 20
0.0
 30
0.0
  9
$UCSORGLEFT
 10
0.0
 20
0.0
 30
0.0
  9
$UCSORGRIGHT
 10
0.0
 20
0.0
 30
0.0
  9
$UCSORGFRONT
 10
0.0
 20
0.0
 30
0.0
  9
$UCSORGBACK
 10
0.0
 20
0.0
 30
0.0
  9
$PUCSBASE
  2

  9
$PUCSNAME
  2

  9
$PUCSORG
 10
0.0
 20
0.0
 30
0.0
  9
$PUCSXDIR
 10
1.0
 20
0.0
 30
0.0
  9
$PUCSYDIR
 10
0.0
 20
1.0
 30
0.0
  9
$PUCSORTHOREF
  2

  9
$PUCSORTHOVIEW
 70
     0
  9
$PUCSORGTOP
 10
0.0
 20
0.0
 30
0.0
  9
$PUCSORGBOTTOM
 10
0.0
 20
0.0
 30
0.0
  9
$PUCSORGLEFT
 10
0.0
 20
0.0
 30
0.0
  9
$PUCSORGRIGHT
 10
0.0
 20
0.0
 30
0.0
  9
$PUCSORGFRONT
 10
0.0
 20
0.0
 30
0.0
  9
$PUCSORGBACK
 10
0.0
 20
0.0
 30
0.0
  9
$USERI1
 70
     0
  9
$USERI2
 70
     0
  9
$USERI3
 70
     0
  9
$USERI4
 70
     0
  9
$USERI5
 70
     0
  9
$USERR1
 40
0.0
  9
$USERR2
 40
0.0
  9
$USERR3
 40
0.0
  9
$USERR4
 40
0.0
  9
$USERR5
 40
0.0
  9
$WORLDVIEW
 70
     1
  9
$SHADEDGE
 70
     3
  9
$SHADEDIF
 70
    70
  9
$TILEMODE
 70
     1
  9
$MAXACTVP
 70
    64
  9
$PINSBASE
 10
0.0
 20
0.0
 30
0.0
  9
$PLIMCHECK
 70
     0
  9
$PEXTMIN
 10
1.000000000000000E+20
 20
1.000000000000000E+20
 30
1.000000000000000E+20
  9
$PEXTMAX
 10
-1.000000000000000E+20
 20
-1.000000000000000E+20
 30
-1.000000000000000E+20
  9
$PLIMMIN
 10
0.0
 20
0.0
  9
$PLIMMAX
 10
12.0
 20
9.0
  9
$UNITMODE
 70
     0
  9
$VISRETAIN
 70
     1
  9
$PLINEGEN
 70
     0
  9
$PSLTSCALE
 70
     1
  9
$TREEDEPTH
 70
  3020
  9
$CMLSTYLE
  2
Standard
  9
$CMLJUST
 70
     0
  9
$CMLSCALE
 40
1.0
  9
$PROXYGRAPHICS
 70
     1
  9
$MEASUREMENT
 70
     0
  9
$CELWEIGHT
370
    -1
  9
$ENDCAPS
280
     0
  9
$JOINSTYLE
280
     0
  9
$LWDISPLAY
290
     0
  9
$INSUNITS
 70
     0
  9
$HYPERLINKBASE
  1

  9
$STYLESHEET
  1

  9
$XEDIT
290
     1
  9
$CEPSNTYPE
380
     0
  9
$PSTYLEMODE
290
     1
  9
$FINGERPRINTGUID
  2
{A376F4C7-B818-4952-A69B-DB5A35163E0F}
  9
$VERSIONGUID
  2
{E1EC686B-BCBE-4C5E-91BF-22E6B4759B28}
  9
$EXTNAMES
290
     1
  9
$PSVPSCALE
 40
0.0
  9
$OLESTARTUP
290
     0
  0
ENDSEC
  0
SECTION
  2
CLASSES
  0
CLASS
  1
ACDBDICTIONARYWDFLT
  2
AcDbDictionaryWithDefault
  3
AutoCAD 2000
 90
        0
280
     0
281
     0
  0
CLASS
  1
ACDBPLACEHOLDER
  2
AcDbPlaceHolder
  3
AutoCAD 2000
 90
        0
280
     0
281
     0
  0
CLASS
  1
LAYOUT
  2
AcDbLayout
  3
AutoCAD 2000
 90
        0
280
     0
281
     0
  0
CLASS
  1
DICTIONARYVAR
  2
AcDbDictionaryVar
  3
AutoCAD 2000
 90
        0
280
     0
281
     0
  0
ENDSEC
  0
SECTION
  2
TABLES
  0
TABLE
  2
VPORT
  5
8
330
0
100
AcDbSymbolTable
 70
     3
  0
VPORT
  5
4DF
330
8
100
AcDbSymbolTableRecord
100
AcDbViewportTableRecord
  2
*Active
 70
     0
 10
0.0
 20
0.0
 11
1.0
 21
1.0
 12
26.4826
 22
91.93850000000001
 13
0.0
 23
0.0
 14
1.0
 24
1.0
 15
0.0
 25
0.0
 16
0.0
 26
0.0
 36
1.0
 17
0.0
 27
0.0
 37
0.0
 40
185.4872750845546
 41
2.073363431151241
 42
50.0
 43
0.0
 44
0.0
 50
0.0
 51
0.0
 71
     0
 72
   100
 73
     1
 74
     3
 75
     0
 76
     0
 77
     0
 78
     0
281
     0
 65
     1
110
0.0
120
0.0
130
0.0
111
1.0
121
0.0
131
0.0
112
0.0
122
1.0
132
0.0
 79
     1
146
0.0
  0
ENDTAB
  0
TABLE
  2
LTYPE
  5
5
330
0
100
AcDbSymbolTable
 70
     1
  0
LTYPE
  5
13
330
5
100
AcDbSymbolTableRecord
100
AcDbLinetypeTableRecord
  2
ByBlock
 70
     0
  3

 72
    65
 73
     0
 40
0.0
  0
LTYPE
  5
14
330
5
100
AcDbSymbolTableRecord
100
AcDbLinetypeTableRecord
  2
ByLayer
 70
     0
  3

 72
    65
 73
     0
 40
0.0
  0
LTYPE
  5
15
330
5
100
AcDbSymbolTableRecord
100
AcDbLinetypeTableRecord
  2
Continuous
 70
     0
  3
Solid line
 72
    65
 73
     0
 40
0.0
  0
ENDTAB
  0
TABLE
  2
LAYER
  5
2
330
0
100
AcDbSymbolTable
 70
     1
  0
LAYER
  5
10
330
2
100
AcDbSymbolTableRecord
100
AcDbLayerTableRecord
  2
0
 70
     0
 62
     7
  6
Continuous
370
    -3
390
F
  0
ENDTAB
  0
TABLE
  2
STYLE
  5
3
330
0
100
AcDbSymbolTable
 70
     1
  0
STYLE
  5
11
330
3
100
AcDbSymbolTableRecord
100
AcDbTextStyleTableRecord
  2
Standard
 70
     0
 40
0.0
 41
1.0
 50
0.0
 71
     0
 42
0.2
  3
txt
  4

  0
ENDTAB
  0
TABLE
  2
VIEW
  5
6
330
0
100
AcDbSymbolTable
 70
     0
  0
ENDTAB
  0
TABLE
  2
UCS
  5
7
330
0
100
AcDbSymbolTable
 70
     0
  0
ENDTAB
  0
TABLE
  2
APPID
  5
9
330
0
100
AcDbSymbolTable
 70
     1
  0
APPID
  5
12
330
9
100
AcDbSymbolTableRecord
100
AcDbRegAppTableRecord
  2
ACAD
 70
     0
  0
ENDTAB
  0
TABLE
  2
DIMSTYLE
  5
A
330
0
100
AcDbSymbolTable
 70
     1
100
AcDbDimStyleTable
 71
     0
  0
DIMSTYLE
105
22C
330
A
100
AcDbSymbolTableRecord
100
AcDbDimStyleTableRecord
  2
Standard
 70
     0
340
11
  0
ENDTAB
  0
TABLE
  2
BLOCK_RECORD
  5
1
330
0
100
AcDbSymbolTable
 70
     1
  0
BLOCK_RECORD
  5
1E
330
1
100
AcDbSymbolTableRecord
100
AcDbBlockTableRecord
  2
*Model_Space
340
21
  0
BLOCK_RECORD
  5
1A
330
1
100
AcDbSymbolTableRecord
100
AcDbBlockTableRecord
  2
*Paper_Space
340
1D
  0
ENDTAB
  0
ENDSEC
  0
SECTION
  2
BLOCKS
  0
BLOCK
  5
1F
330
1E
100
AcDbEntity
  8
0
100
AcDbBlockBegin
  2
*Model_Space
 70
     0
 10
0.0
 20
0.0
 30
0.0
  3
*Model_Space
  1

  0
ENDBLK
  5
20
330
1E
100
AcDbEntity
  8
0
100
AcDbBlockEnd
  0
BLOCK
  5
1B
330
1A
100
AcDbEntity
 67
     1
  8
0
100
AcDbBlockBegin
  2
*Paper_Space
 70
     0
 10
0.0
 20
0.0
 30
0.0
  3
*Paper_Space
  1

  0
ENDBLK
  5
1C
330
1A
100
AcDbEntity
 67
     1
  8
0
100
AcDbBlockEnd
  0
ENDSEC
  0
SECTION
  2
ENTITIES
  0
LINE
  5
3A
330
1E
100
AcDbEntity
  8
0
100
AcDbLine
 10
23.09765
 20
-0.181999999999991
 30
0.0
 11
27.03445
 21
-0.1231339999999932
 31
0.0
  0
LINE
  5
388
330
1E
100
AcDbEntity
  8
0
100
AcDbLine
 10
52.91755000000001
 20
182.169
 30
0.0
 11
53.63955
 21
181.371
 31
0.0
  0
LINE
  5
389
330
1E
100
AcDbEntity
  8
0
100
AcDbLine
 10
51.97755000000002
 20
183.109
 30
0.0
 11
52.91755000000001
 21
182.169
 31
0.0
  0
LINE
  5
38A
330
1E
100
AcDbEntity
  8
0
100
AcDbLine
 10
51.17955000000002
 20
183.8309999999999
 30
0.0
 11
51.97755000000002
 21
183.109
 31
0.0
  0
LINE
  5
38B
330
1E
100
AcDbEntity
  8
0
100
AcDbLine
 10
50.82655000000001
 20
184.0589999999999
 30
0.0
 11
51.17955000000002
 21
183.8309999999999
 31
0.0
  0
LINE
  5
38C
330
1E
100
AcDbEntity
  8
0
100
AcDbLine
 10
53.63955
 20
181.371
 30
0.0
 11
53.86755
 21
181.018
 31
0.0
  0
LINE
  5
38D
330
1E
100
AcDbEntity
  8
0
100
AcDbLine
 10
45.44754999999999
 20
172.5979999999999
 30
0.0
 11
53.86755
 21
181.018
 31
0.0
  0
LINE
  5
38E
330
1E
100
AcDbEntity
  8
0
100
AcDbLine
 10
42.40654999999999
 20
175.639
 30
0.0
 11
50.82655000000001
 21
184.0589999999999
 31
0.0
  0
LINE
  5
38F
330
1E
100
AcDbEntity
  8
0
100
AcDbLine
 10
39.43555
 20
172.6679999999999
 30
0.0
 11
40.86255000000001
 21
174.0939999999999
 31
0.0
  0
LINE
  5
390
330
1E
100
AcDbEntity
  8
0
100
AcDbLine
 10
40.86255000000001
 20
174.0939999999999
 30
0.0
 11
42.40654999999999
 21
175.639
 31
0.0
  0
LINE
  5
391
330
1E
100
AcDbEntity
  8
0
100
AcDbLine
 10
35.52545
 20
173.8399999999999
 30
0.0
 11
37.60295000000001
 21
172.4339999999999
 31
0.0
  0
LINE
  5
392
330
1E
100
AcDbEntity
  8
0
100
AcDbLine
 10
37.72678836684899
 20
170.9589156085469
 30
0.0
 11
38.26655
 21
171.4979999999999
 31
0.0
  0
LINE
  5
393
330
1E
100
AcDbEntity
  8
0
100
AcDbLine
 10
38.26655
 20
171.4979999999999
 30
0.0
 11
39.43555
 21
172.6679999999999
 31
0.0
  0
LINE
  5
394
330
1E
100
AcDbEntity
  8
0
100
AcDbLine
 10
41.30654999999999
 20
168.4579999999999
 30
0.0
 11
42.47654999999999
 21
169.6269999999999
 31
0.0
  0
LINE
  5
395
330
1E
100
AcDbEntity
  8
0
100
AcDbLine
 10
43.90255
 20
171.0539999999999
 30
0.0
 11
45.44754999999999
 21
172.5979999999999
 31
0.0
  0
LINE
  5
396
330
1E
100
AcDbEntity
  8
0
100
AcDbLine
 10
42.47654999999999
 20
169.6269999999999
 30
0.0
 11
43.90255
 21
171.0539999999999
 31
0.0
  0
LINE
  5
397
330
1E
100
AcDbEntity
  8
0
100
AcDbLine
 10
44.08055
 20
92.32509999999999
 30
0.0
 11
44.20555
 21
102.0529
 31
0.0
  0
LINE
  5
398
330
1E
100
AcDbEntity
  8
0
100
AcDbLine
 10
44.20555
 20
102.0529
 30
0.0
 11
44.26965
 21
107.0025999999999
 31
0.0
  0
LINE
  5
399
330
1E
100
AcDbEntity
  8
0
100
AcDbLine
 10
44.17155000000001
 20
164.834
 30
0.0
 11
45.00115
 21
163.1709999999999
 31
0.0
  0
LINE
  5
39A
330
1E
100
AcDbEntity
  8
0
100
AcDbLine
 10
45.69065000000001
 20
161.4739999999999
 30
0.0
 11
46.23905
 21
159.757
 31
0.0
  0
LINE
  5
39B
330
1E
100
AcDbEntity
  8
0
100
AcDbLine
 10
45.69065000000001
 20
161.4739999999999
 30
0.0
 11
46.23905
 21
159.758
 31
0.0
  0
LINE
  5
39C
330
1E
100
AcDbEntity
  8
0
100
AcDbLine
 10
45.00115
 20
163.1709999999999
 30
0.0
 11
45.69065000000001
 21
161.4739999999999
 31
0.0
  0
LINE
  5
39D
330
1E
100
AcDbEntity
  8
0
100
AcDbLine
 10
46.23905
 20
159.758
 30
0.0
 11
46.64935000000001
 21
158.04
 31
0.0
  0
LINE
  5
39E
330
1E
100
AcDbEntity
  8
0
100
AcDbLine
 10
47.07864999999999
 20
152.044
 30
0.0
 11
47.09764999999999
 21
154.2469999999999
 31
0.0
  0
LINE
  5
39F
330
1E
100
AcDbEntity
  8
0
100
AcDbLine
 10
47.07864999999999
 20
154.6559999999999
 30
0.0
 11
47.09764999999999
 21
154.2469999999999
 31
0.0
  0
LINE
  5
3A0
330
1E
100
AcDbEntity
  8
0
100
AcDbLine
 10
46.64935000000001
 20
158.04
 30
0.0
 11
46.92755
 21
156.3349999999999
 31
0.0
  0
LINE
  5
3A1
330
1E
100
AcDbEntity
  8
0
100
AcDbLine
 10
46.92755
 20
156.3349999999999
 30
0.0
 11
47.07864999999999
 21
154.6559999999999
 31
0.0
  0
LINE
  5
3A2
330
1E
100
AcDbEntity
  8
0
100
AcDbLine
 10
46.68034999999998
 20
148.8169999999999
 30
0.0
 11
47.07864999999999
 21
152.044
 31
0.0
  0
LINE
  5
3A3
330
1E
100
AcDbEntity
  8
0
100
AcDbLine
 10
44.90439035005159
 20
143.4245656847059
 30
0.0
 11
45.80175000000001
 21
145.5409999999999
 31
0.0
  0
LINE
  5
3A4
330
1E
100
AcDbEntity
  8
0
100
AcDbLine
 10
45.80175000000001
 20
145.5409999999999
 30
0.0
 11
46.68034999999998
 21
148.8169999999999
 31
0.0
  0
LINE
  5
3A5
330
1E
100
AcDbEntity
  8
0
100
AcDbLine
 10
46.23905
 20
159.757
 30
0.0
 11
46.64935000000001
 21
158.04
 31
0.0
  0
LINE
  5
3A6
330
1E
100
AcDbEntity
  8
0
100
AcDbLine
 10
45.09125000000001
 20
149.756
 30
0.0
 11
45.13324999999999
 21
150.381
 31
0.0
  0
LINE
  5
3A7
330
1E
100
AcDbEntity
  8
0
100
AcDbLine
 10
45.13324999999999
 20
150.381
 30
0.0
 11
45.17425000000002
 21
150.905
 31
0.0
  0
LINE
  5
3A8
330
1E
100
AcDbEntity
  8
0
100
AcDbLine
 10
45.17425000000002
 20
150.905
 30
0.0
 11
45.21435000000001
 21
151.3199999999999
 31
0.0
  0
LINE
  5
3A9
330
1E
100
AcDbEntity
  8
0
100
AcDbLine
 10
45.1158374439462
 20
152.4392017937219
 30
0.0
 11
45.11624999999999
 21
152.5179999999999
 31
0.0
  0
LINE
  5
3AA
330
1E
100
AcDbEntity
  8
0
100
AcDbLine
 10
44.78005
 20
157.088
 30
0.0
 11
44.92615000000002
 21
156.1049999999999
 31
0.0
  0
LINE
  5
3AB
330
1E
100
AcDbEntity
  8
0
100
AcDbLine
 10
45.1160486577181
 20
152.7826241610729
 30
0.0
 11
45.11925
 21
153.0959999999999
 31
0.0
  0
LINE
  5
3AC
330
1E
100
AcDbEntity
  8
0
100
AcDbLine
 10
45.11725
 20
153.34
 30
0.0
 11
45.11925
 21
153.0959999999999
 31
0.0
  0
LINE
  5
3AD
330
1E
100
AcDbEntity
  8
0
100
AcDbLine
 10
44.92615000000002
 20
156.1049999999999
 30
0.0
 11
45.03015
 21
155.119
 31
0.0
  0
LINE
  5
3AE
330
1E
100
AcDbEntity
  8
0
100
AcDbLine
 10
45.02415
 20
154.8309999999999
 30
0.0
 11
45.08325000000001
 21
153.8269999999999
 31
0.0
  0
LINE
  5
3AF
330
1E
100
AcDbEntity
  8
0
100
AcDbLine
 10
45.02415
 20
154.8309999999999
 30
0.0
 11
45.04502561156151
 21
154.419445682059
 31
0.0
  0
LINE
  5
3B0
330
1E
100
AcDbEntity
  8
0
100
AcDbLine
 10
45.10394075387999
 20
153.2579572561079
 30
0.0
 11
45.11525000000001
 21
153.035
 31
0.0
  0
LINE
  5
3B1
330
1E
100
AcDbEntity
  8
0
100
AcDbLine
 10
45.10025
 20
153.458
 30
0.0
 11
45.11525000000001
 21
153.035
 31
0.0
  0
LINE
  5
3B2
330
1E
100
AcDbEntity
  8
0
100
AcDbLine
 10
45.03015
 20
155.119
 30
0.0
 11
45.11725
 21
153.34
 31
0.0
  0
LINE
  5
3B3
330
1E
100
AcDbEntity
  8
0
100
AcDbLine
 10
45.08325000000001
 20
153.8269999999999
 30
0.0
 11
45.10025
 21
153.458
 31
0.0
  0
LINE
  5
3B4
330
1E
100
AcDbEntity
  8
0
100
AcDbLine
 10
45.11525000000001
 20
152.9349999999999
 30
0.0
 11
45.11525000000001
 21
153.035
 31
0.0
  0
LINE
  5
3B5
330
1E
100
AcDbEntity
  8
0
100
AcDbLine
 10
45.11525000000001
 20
152.9349999999999
 30
0.0
 11
45.116096362404
 21
152.7098676005419
 31
0.0
  0
LINE
  5
3B6
330
1E
100
AcDbEntity
  8
0
100
AcDbLine
 10
45.11525000000001
 20
153.035
 30
0.0
 11
45.11525000000001
 21
152.9349999999999
 31
0.0
  0
LINE
  5
3B7
330
1E
100
AcDbEntity
  8
0
100
AcDbLine
 10
45.10325000000001
 20
152.9989999999999
 30
0.0
 11
45.11725
 21
152.025
 31
0.0
  0
LINE
  5
3B8
330
1E
100
AcDbEntity
  8
0
100
AcDbLine
 10
45.10325000000001
 20
152.9989999999999
 30
0.0
 11
45.11225
 21
152.5419999999999
 31
0.0
  0
LINE
  5
3B9
330
1E
100
AcDbEntity
  8
0
100
AcDbLine
 10
45.11124999999999
 20
152.864
 30
0.0
 11
45.1139041786743
 21
152.5428443804039
 31
0.0
  0
LINE
  5
3BA
330
1E
100
AcDbEntity
  8
0
100
AcDbLine
 10
45.11124999999999
 20
152.864
 30
0.0
 11
45.1139041786743
 21
152.5428443804039
 31
0.0
  0
LINE
  5
3BB
330
1E
100
AcDbEntity
  8
0
100
AcDbLine
 10
45.11124999999999
 20
152.864
 30
0.0
 11
45.11624999999999
 21
152.5179999999999
 31
0.0
  0
LINE
  5
3BC
330
1E
100
AcDbEntity
  8
0
100
AcDbLine
 10
45.11624999999999
 20
152.6689999999989
 30
0.0
 11
45.11725
 21
152.4029999999999
 31
0.0
  0
LINE
  5
3BD
330
1E
100
AcDbEntity
  8
0
100
AcDbLine
 10
45.11425000000001
 20
152.6079999999999
 30
0.0
 11
45.11441394472361
 21
152.493894472362
 31
0.0
  0
LINE
  5
3BE
330
1E
100
AcDbEntity
  8
0
100
AcDbLine
 10
45.11425000000001
 20
152.6079999999999
 30
0.0
 11
45.11725
 21
152.289
 31
0.0
  0
LINE
  5
3BF
330
1E
100
AcDbEntity
  8
0
100
AcDbLine
 10
45.11425000000001
 20
152.5209999999999
 30
0.0
 11
45.11725
 21
152.025
 31
0.0
  0
LINE
  5
3C0
330
1E
100
AcDbEntity
  8
0
100
AcDbLine
 10
45.11425000000001
 20
152.5209999999999
 30
0.0
 11
45.11624999999999
 21
151.8369999999999
 31
0.0
  0
LINE
  5
3C1
330
1E
100
AcDbEntity
  8
0
100
AcDbLine
 10
45.11225
 20
152.5419999999999
 30
0.0
 11
45.11725
 21
152.025
 31
0.0
  0
LINE
  5
3C2
330
1E
100
AcDbEntity
  8
0
100
AcDbLine
 10
44.58884999999999
 20
158.063
 30
0.0
 11
44.78005
 21
157.088
 31
0.0
  0
LINE
  5
3C3
330
1E
100
AcDbEntity
  8
0
100
AcDbLine
 10
44.35274999999999
 20
159.0289999999999
 30
0.0
 11
44.58884999999999
 21
158.063
 31
0.0
  0
LINE
  5
3C4
330
1E
100
AcDbEntity
  8
0
100
AcDbLine
 10
45.11668934426229
 20
152.3486163934429
 30
0.0
 11
45.11725
 21
152.4029999999999
 31
0.0
  0
LINE
  5
3C5
330
1E
100
AcDbEntity
  8
0
100
AcDbLine
 10
45.11124999999999
 20
151.3519999999999
 30
0.0
 11
45.11525000000001
 21
151.9849999999999
 31
0.0
  0
LINE
  5
3C6
330
1E
100
AcDbEntity
  8
0
100
AcDbLine
 10
45.11624999999999
 20
151.8369999999999
 30
0.0
 11
45.11725
 21
152.289
 31
0.0
  0
LINE
  5
3C7
330
1E
100
AcDbEntity
  8
0
100
AcDbLine
 10
45.11124999999999
 20
151.279
 30
0.0
 11
45.11325000000001
 21
151.419
 31
0.0
  0
LINE
  5
3C8
330
1E
100
AcDbEntity
  8
0
100
AcDbLine
 10
45.11124999999999
 20
151.279
 30
0.0
 11
45.11725
 21
152.025
 31
0.0
  0
LINE
  5
3C9
330
1E
100
AcDbEntity
  8
0
100
AcDbLine
 10
45.10625
 20
150.9509999999999
 30
0.0
 11
45.11124999999999
 21
151.3519999999999
 31
0.0
  0
LINE
  5
3CA
330
1E
100
AcDbEntity
  8
0
100
AcDbLine
 10
45.10625
 20
150.9509999999999
 30
0.0
 11
45.11525000000001
 21
151.9849999999999
 31
0.0
  0
LINE
  5
3CB
330
1E
100
AcDbEntity
  8
0
100
AcDbLine
 10
45.10625
 20
150.9509999999999
 30
0.0
 11
45.11325000000001
 21
151.419
 31
0.0
  0
LINE
  5
3CC
330
1E
100
AcDbEntity
  8
0
100
AcDbLine
 10
45.08024999999999
 20
149.8819999999999
 30
0.0
 11
45.10625
 21
150.9509999999999
 31
0.0
  0
LINE
  5
3CD
330
1E
100
AcDbEntity
  8
0
100
AcDbLine
 10
45.0637896365523
 20
149.2809472990059
 30
0.0
 11
45.09125000000001
 21
149.756
 31
0.0
  0
LINE
  5
3CE
330
1E
100
AcDbEntity
  8
0
100
AcDbLine
 10
44.99615000000001
 20
146.7449999999999
 30
0.0
 11
45.04014999999999
 21
148.3859999999999
 31
0.0
  0
LINE
  5
3CF
330
1E
100
AcDbEntity
  8
0
100
AcDbLine
 10
45.04915000000001
 20
148.7719999999999
 30
0.0
 11
45.08024999999999
 21
149.8819999999999
 31
0.0
  0
LINE
  5
3D0
330
1E
100
AcDbEntity
  8
0
100
AcDbLine
 10
45.04915000000001
 20
148.7719999999999
 30
0.0
 11
45.07925000000001
 21
149.8659999999999
 31
0.0
  0
LINE
  5
3D1
330
1E
100
AcDbEntity
  8
0
100
AcDbLine
 10
44.94514999999999
 20
144.9049999999999
 30
0.0
 11
44.99615000000001
 21
146.7449999999999
 31
0.0
  0
LINE
  5
3D2
330
1E
100
AcDbEntity
  8
0
100
AcDbLine
 10
44.91205
 20
143.6989999999999
 30
0.0
 11
44.94514999999999
 21
144.9049999999999
 31
0.0
  0
LINE
  5
3D3
330
1E
100
AcDbEntity
  8
0
100
AcDbLine
 10
44.46775000000001
 20
122.2947
 30
0.0
 11
44.54685000000002
 21
128.018
 31
0.0
  0
LINE
  5
3D4
330
1E
100
AcDbEntity
  8
0
100
AcDbLine
 10
44.54685000000002
 20
128.018
 30
0.0
 11
44.59185
 21
131.0579999999999
 31
0.0
  0
LINE
  5
3D5
330
1E
100
AcDbEntity
  8
0
100
AcDbLine
 10
44.59185
 20
131.0579999999999
 30
0.0
 11
44.6322488362728
 21
133.583508824191
 31
0.0
  0
LINE
  5
3D6
330
1E
100
AcDbEntity
  8
0
100
AcDbLine
 10
44.59185
 20
131.0579999999999
 30
0.0
 11
44.63227865856909
 21
133.5845971650869
 31
0.0
  0
LINE
  5
3D7
330
1E
100
AcDbEntity
  8
0
100
AcDbLine
 10
44.62385000000002
 20
133.2769999999999
 30
0.0
 11
45.07225
 21
149.641
 31
0.0
  0
LINE
  5
3D8
330
1E
100
AcDbEntity
  8
0
100
AcDbLine
 10
44.76305
 20
138.3259999999999
 30
0.0
 11
44.80405
 21
139.7929999999999
 31
0.0
  0
LINE
  5
3D9
330
1E
100
AcDbEntity
  8
0
100
AcDbLine
 10
44.87705
 20
142.4449999999999
 30
0.0
 11
44.91205
 21
143.6989999999999
 31
0.0
  0
LINE
  5
3DA
330
1E
100
AcDbEntity
  8
0
100
AcDbLine
 10
44.84105000000001
 20
141.143
 30
0.0
 11
44.87705
 21
142.4449999999999
 31
0.0
  0
LINE
  5
3DB
330
1E
100
AcDbEntity
  8
0
100
AcDbLine
 10
44.80405
 20
139.7929999999999
 30
0.0
 11
44.84105000000001
 21
141.143
 31
0.0
  0
LINE
  5
3DC
330
1E
100
AcDbEntity
  8
0
100
AcDbLine
 10
44.72095
 20
136.8059999999999
 30
0.0
 11
44.76305
 21
138.3259999999999
 31
0.0
  0
LINE
  5
3DD
330
1E
100
AcDbEntity
  8
0
100
AcDbLine
 10
44.67295
 20
135.0849999999999
 30
0.0
 11
44.72095
 21
136.8059999999999
 31
0.0
  0
LINE
  5
3DE
330
1E
100
AcDbEntity
  8
0
100
AcDbLine
 10
44.67295
 20
135.0849999999999
 30
0.0
 11
45.07225
 21
149.641
 31
0.0
  0
LINE
  5
3DF
330
1E
100
AcDbEntity
  8
0
100
AcDbLine
 10
44.58884999999999
 20
132.0109999999999
 30
0.0
 11
44.62385000000002
 21
133.2769999999999
 31
0.0
  0
LINE
  5
3E0
330
1E
100
AcDbEntity
  8
0
100
AcDbLine
 10
44.26965
 20
107.0025999999999
 30
0.0
 11
44.36475
 21
114.4295999999999
 31
0.0
  0
LINE
  5
3E1
330
1E
100
AcDbEntity
  8
0
100
AcDbLine
 10
44.36475
 20
114.4295999999999
 30
0.0
 11
44.46775000000001
 21
122.2947
 31
0.0
  0
LINE
  5
3E2
330
1E
100
AcDbEntity
  8
0
100
AcDbLine
 10
44.44975000000001
 20
126.9509999999999
 30
0.0
 11
44.58884999999999
 21
132.0109999999999
 31
0.0
  0
LINE
  5
3E3
330
1E
100
AcDbEntity
  8
0
100
AcDbLine
 10
44.12455000000001
 20
115.0751999999999
 30
0.0
 11
44.44975000000001
 21
126.9509999999999
 31
0.0
  0
LINE
  5
3E4
330
1E
100
AcDbEntity
  8
0
100
AcDbLine
 10
43.85235000000001
 20
74.5497
 30
0.0
 11
44.08055
 21
92.32509999999999
 31
0.0
  0
LINE
  5
3E5
330
1E
100
AcDbEntity
  8
0
100
AcDbLine
 10
43.20385
 20
166.447
 30
0.0
 11
44.17155000000001
 21
164.834
 31
0.0
  0
LINE
  5
3E6
330
1E
100
AcDbEntity
  8
0
100
AcDbLine
 10
43.53415
 20
93.73189999999999
 30
0.0
 11
43.62314999999999
 21
96.88569999999998
 31
0.0
  0
LINE
  5
3E7
330
1E
100
AcDbEntity
  8
0
100
AcDbLine
 10
43.62314999999999
 20
96.88569999999998
 30
0.0
 11
43.79835000000001
 21
103.1992999999999
 31
0.0
  0
LINE
  5
3E8
330
1E
100
AcDbEntity
  8
0
100
AcDbLine
 10
43.95645
 20
160.3279999999999
 30
0.0
 11
44.35274999999999
 21
159.0289999999999
 31
0.0
  0
LINE
  5
3E9
330
1E
100
AcDbEntity
  8
0
100
AcDbLine
 10
43.90634999999998
 20
107.1582
 30
0.0
 11
44.12455000000001
 21
115.0751999999999
 31
0.0
  0
LINE
  5
3EA
330
1E
100
AcDbEntity
  8
0
100
AcDbLine
 10
43.79835000000001
 20
103.1992999999999
 30
0.0
 11
43.90634999999998
 21
107.1582
 31
0.0
  0
LINE
  5
3EB
330
1E
100
AcDbEntity
  8
0
100
AcDbLine
 10
43.47605
 20
161.6009999999999
 30
0.0
 11
43.95645
 21
160.3279999999999
 31
0.0
  0
LINE
  5
3EC
330
1E
100
AcDbEntity
  8
0
100
AcDbLine
 10
43.26094999999999
 20
84.32339999999999
 30
0.0
 11
43.32995000000001
 21
86.66309999999999
 31
0.0
  0
LINE
  5
3ED
330
1E
100
AcDbEntity
  8
0
100
AcDbLine
 10
43.39905
 20
89.0127
 30
0.0
 11
43.53415
 21
93.73189999999999
 31
0.0
  0
LINE
  5
3EE
330
1E
100
AcDbEntity
  8
0
100
AcDbLine
 10
43.32995000000001
 20
86.66309999999999
 30
0.0
 11
43.39905
 21
89.0127
 31
0.0
  0
LINE
  5
3EF
330
1E
100
AcDbEntity
  8
0
100
AcDbLine
 10
42.10315000000001
 20
167.9899999999999
 30
0.0
 11
43.20385
 21
166.447
 31
0.0
  0
LINE
  5
3F0
330
1E
100
AcDbEntity
  8
0
100
AcDbLine
 10
42.96974999999998
 20
75.1454
 30
0.0
 11
43.04475
 21
77.40119999999999
 31
0.0
  0
LINE
  5
3F1
330
1E
100
AcDbEntity
  8
0
100
AcDbLine
 10
43.04475
 20
77.40119999999999
 30
0.0
 11
43.11784999999999
 21
79.68799999999998
 31
0.0
  0
LINE
  5
3F2
330
1E
100
AcDbEntity
  8
0
100
AcDbLine
 10
43.11784999999999
 20
79.68799999999998
 30
0.0
 11
43.18984999999999
 21
81.99669999999999
 31
0.0
  0
LINE
  5
3F3
330
1E
100
AcDbEntity
  8
0
100
AcDbLine
 10
43.18984999999999
 20
81.99669999999999
 30
0.0
 11
43.26094999999999
 21
84.32339999999999
 31
0.0
  0
LINE
  5
3F4
330
1E
100
AcDbEntity
  8
0
100
AcDbLine
 10
42.95175000000002
 20
74.7244
 30
0.0
 11
42.96974999999998
 21
75.1454
 31
0.0
  0
LINE
  5
3F5
330
1E
100
AcDbEntity
  8
0
100
AcDbLine
 10
42.26825
 20
164.0609999999999
 30
0.0
 11
42.91465000000001
 21
162.8439999999999
 31
0.0
  0
LINE
  5
3F6
330
1E
100
AcDbEntity
  8
0
100
AcDbLine
 10
42.91465000000001
 20
162.8439999999999
 30
0.0
 11
43.47605
 21
161.6009999999999
 31
0.0
  0
LINE
  5
3F7
330
1E
100
AcDbEntity
  8
0
100
AcDbLine
 10
43.71325
 20
37.10679999999999
 30
0.0
 11
43.75924999999999
 21
40.8253
 31
0.0
  0
LINE
  5
3F8
330
1E
100
AcDbEntity
  8
0
100
AcDbLine
 10
43.75924999999999
 20
40.8253
 30
0.0
 11
43.85235000000001
 21
74.5497
 31
0.0
  0
LINE
  5
3F9
330
1E
100
AcDbEntity
  8
0
100
AcDbLine
 10
42.21915
 20
2.063870000000008
 30
0.0
 11
42.79964999999999
 21
2.847080000000008
 31
0.0
  0
LINE
  5
3FA
330
1E
100
AcDbEntity
  8
0
100
AcDbLine
 10
43.59615
 20
27.07469999999999
 30
0.0
 11
43.62115000000001
 21
29.29659999999998
 31
0.0
  0
LINE
  5
3FB
330
1E
100
AcDbEntity
  8
0
100
AcDbLine
 10
43.62115000000001
 20
29.29659999999998
 30
0.0
 11
43.64724999999999
 21
31.55849999999999
 31
0.0
  0
LINE
  5
3FC
330
1E
100
AcDbEntity
  8
0
100
AcDbLine
 10
43.64724999999999
 20
31.55849999999999
 30
0.0
 11
43.67925000000001
 21
34.32119999999999
 31
0.0
  0
LINE
  5
3FD
330
1E
100
AcDbEntity
  8
0
100
AcDbLine
 10
43.67925000000001
 20
34.32119999999999
 30
0.0
 11
43.71325
 21
37.10679999999999
 31
0.0
  0
LINE
  5
3FE
330
1E
100
AcDbEntity
  8
0
100
AcDbLine
 10
43.57515000000002
 20
25.11219999999998
 30
0.0
 11
43.59615
 21
27.07469999999999
 31
0.0
  0
LINE
  5
3FF
330
1E
100
AcDbEntity
  8
0
100
AcDbLine
 10
42.26125
 20
72.29089999999999
 30
0.0
 11
42.33325
 21
72.3947
 31
0.0
  0
LINE
  5
400
330
1E
100
AcDbEntity
  8
0
100
AcDbLine
 10
42.33325
 20
72.3947
 30
0.0
 11
42.68654999999999
 21
73.13999999999999
 31
0.0
  0
LINE
  5
401
330
1E
100
AcDbEntity
  8
0
100
AcDbLine
 10
42.68654999999999
 20
73.13999999999999
 30
0.0
 11
42.82665000000001
 21
73.66979999999999
 31
0.0
  0
LINE
  5
402
330
1E
100
AcDbEntity
  8
0
100
AcDbLine
 10
42.82665000000001
 20
73.66979999999999
 30
0.0
 11
42.95175000000002
 21
74.7244
 31
0.0
  0
LINE
  5
403
330
1E
100
AcDbEntity
  8
0
100
AcDbLine
 10
41.75985000000001
 20
71.6464
 30
0.0
 11
42.26125
 21
72.29089999999999
 31
0.0
  0
LINE
  5
404
330
1E
100
AcDbEntity
  8
0
100
AcDbLine
 10
43.55615000000002
 20
23.19459999999998
 30
0.0
 11
43.57515000000002
 21
25.11219999999998
 31
0.0
  0
LINE
  5
405
330
1E
100
AcDbEntity
  8
0
100
AcDbLine
 10
43.20684999999999
 20
4.139130000000008
 30
0.0
 11
43.23195
 21
4.467380000000009
 31
0.0
  0
LINE
  5
406
330
1E
100
AcDbEntity
  8
0
100
AcDbLine
 10
43.23195
 20
4.467380000000009
 30
0.0
 11
43.30194999999998
 21
5.371310000000008
 31
0.0
  0
LINE
  5
407
330
1E
100
AcDbEntity
  8
0
100
AcDbLine
 10
43.53814999999999
 20
21.32489999999998
 30
0.0
 11
43.55615000000002
 21
23.19459999999998
 31
0.0
  0
LINE
  5
408
330
1E
100
AcDbEntity
  8
0
100
AcDbLine
 10
43.52114999999999
 20
19.50799999999999
 30
0.0
 11
43.53814999999999
 21
21.32489999999998
 31
0.0
  0
LINE
  5
409
330
1E
100
AcDbEntity
  8
0
100
AcDbLine
 10
43.50715
 20
17.91659999999998
 30
0.0
 11
43.52114999999999
 21
19.50799999999999
 31
0.0
  0
LINE
  5
40A
330
1E
100
AcDbEntity
  8
0
100
AcDbLine
 10
43.49505
 20
16.37119999999998
 30
0.0
 11
43.50715
 21
17.91659999999998
 31
0.0
  0
LINE
  5
40B
330
1E
100
AcDbEntity
  8
0
100
AcDbLine
 10
43.48805
 20
15.96809999999999
 30
0.0
 11
43.49505
 21
16.37119999999998
 31
0.0
  0
LINE
  5
40C
330
1E
100
AcDbEntity
  8
0
100
AcDbLine
 10
43.43304999999999
 20
12.98289999999998
 30
0.0
 11
43.48805
 21
15.96809999999999
 31
0.0
  0
LINE
  5
40D
330
1E
100
AcDbEntity
  8
0
100
AcDbLine
 10
43.39004999999999
 20
10.54449999999998
 30
0.0
 11
43.43304999999999
 21
12.98289999999998
 31
0.0
  0
LINE
  5
40E
330
1E
100
AcDbEntity
  8
0
100
AcDbLine
 10
43.34795000000001
 20
8.105070000000011
 30
0.0
 11
43.39004999999999
 21
10.54449999999998
 31
0.0
  0
LINE
  5
40F
330
1E
100
AcDbEntity
  8
0
100
AcDbLine
 10
43.30595000000001
 20
5.666640000000008
 30
0.0
 11
43.34795000000001
 21
8.105070000000011
 31
0.0
  0
LINE
  5
410
330
1E
100
AcDbEntity
  8
0
100
AcDbLine
 10
43.30194999999998
 20
5.371310000000008
 30
0.0
 11
43.30595000000001
 21
5.666640000000008
 31
0.0
  0
LINE
  5
411
330
1E
100
AcDbEntity
  8
0
100
AcDbLine
 10
42.79964999999999
 20
2.847080000000008
 30
0.0
 11
43.10685000000002
 21
3.607340000000007
 31
0.0
  0
LINE
  5
412
330
1E
100
AcDbEntity
  8
0
100
AcDbLine
 10
43.10685000000002
 20
3.607340000000007
 30
0.0
 11
43.20684999999999
 21
4.139130000000008
 31
0.0
  0
LINE
  5
413
330
1E
100
AcDbEntity
  8
0
100
AcDbLine
 10
42.09015
 20
1.941150000000007
 30
0.0
 11
42.21915
 21
2.063870000000008
 31
0.0
  0
LINE
  5
414
330
1E
100
AcDbEntity
  8
0
100
AcDbLine
 10
41.41264999999999
 20
1.444280000000009
 30
0.0
 11
42.09015
 21
1.941150000000007
 31
0.0
  0
LINE
  5
415
330
1E
100
AcDbEntity
  8
0
100
AcDbLine
 10
41.52557523436259
 20
168.6768380333079
 30
0.0
 11
42.10315000000001
 21
167.9899999999999
 31
0.0
  0
LINE
  5
416
330
1E
100
AcDbEntity
  8
0
100
AcDbLine
 10
41.51365
 20
165.282
 30
0.0
 11
42.26825
 21
164.0609999999999
 31
0.0
  0
LINE
  5
417
330
1E
100
AcDbEntity
  8
0
100
AcDbLine
 10
40.79559500897421
 20
167.9470450089739
 30
0.0
 11
41.30654999999999
 21
168.4579999999999
 31
0.0
  0
LINE
  5
418
330
1E
100
AcDbEntity
  8
0
100
AcDbLine
 10
38.73475
 20
168.672
 30
0.0
 11
39.74345000000001
 21
167.5959999999999
 31
0.0
  0
LINE
  5
419
330
1E
100
AcDbEntity
  8
0
100
AcDbLine
 10
38.80075000000001
 20
0.7508690000000087
 30
0.0
 11
40.01565000000001
 21
0.9344500000000088
 31
0.0
  0
LINE
  5
41A
330
1E
100
AcDbEntity
  8
0
100
AcDbLine
 10
40.60205
 20
1.090090000000007
 30
0.0
 11
41.41264999999999
 21
1.444280000000009
 31
0.0
  0
LINE
  5
41B
330
1E
100
AcDbEntity
  8
0
100
AcDbLine
 10
40.45194999999999
 20
70.76639999999999
 30
0.0
 11
41.15645000000002
 21
71.14249999999998
 31
0.0
  0
LINE
  5
41C
330
1E
100
AcDbEntity
  8
0
100
AcDbLine
 10
41.15645000000002
 20
71.14249999999998
 30
0.0
 11
41.75985000000001
 21
71.6464
 31
0.0
  0
LINE
  5
41D
330
1E
100
AcDbEntity
  8
0
100
AcDbLine
 10
39.74345000000001
 20
167.5959999999999
 30
0.0
 11
40.67104999999999
 21
166.464
 31
0.0
  0
LINE
  5
41E
330
1E
100
AcDbEntity
  8
0
100
AcDbLine
 10
40.67104999999999
 20
166.464
 30
0.0
 11
41.51365
 21
165.282
 31
0.0
  0
LINE
  5
41F
330
1E
100
AcDbEntity
  8
0
100
AcDbLine
 10
39.94155000000001
 20
70.59379999999999
 30
0.0
 11
40.45194999999999
 21
70.76639999999999
 31
0.0
  0
LINE
  5
420
330
1E
100
AcDbEntity
  8
0
100
AcDbLine
 10
38.87285000000001
 20
70.39919999999999
 30
0.0
 11
39.94155000000001
 21
70.59379999999999
 31
0.0
  0
LINE
  5
421
330
1E
100
AcDbEntity
  8
0
100
AcDbLine
 10
40.01565000000001
 20
0.9344500000000088
 30
0.0
 11
40.60205
 21
1.090090000000007
 31
0.0
  0
LINE
  5
422
330
1E
100
AcDbEntity
  8
0
100
AcDbLine
 10
37.60295000000001
 20
172.4339999999999
 30
0.0
 11
38.47150192211621
 21
171.703127244547
 31
0.0
  0
LINE
  5
423
330
1E
100
AcDbEntity
  8
0
100
AcDbLine
 10
37.26765
 20
170.006
 30
0.0
 11
38.73475
 21
168.672
 31
0.0
  0
LINE
  5
424
330
1E
100
AcDbEntity
  8
0
100
AcDbLine
 10
35.67555
 20
171.2099999999999
 30
0.0
 11
37.26765
 21
170.006
 31
0.0
  0
LINE
  5
425
330
1E
100
AcDbEntity
  8
0
100
AcDbLine
 10
34.89005
 20
0.3437990000000077
 30
0.0
 11
38.80075000000001
 21
0.7508690000000087
 31
0.0
  0
LINE
  5
426
330
1E
100
AcDbEntity
  8
0
100
AcDbLine
 10
34.94504999999999
 20
69.96719999999999
 30
0.0
 11
38.87285000000001
 21
70.39919999999999
 31
0.0
  0
LINE
  5
427
330
1E
100
AcDbEntity
  8
0
100
AcDbLine
 10
32.59435
 20
175.3429999999999
 30
0.0
 11
35.52545
 21
173.8399999999999
 31
0.0
  0
LINE
  5
428
330
1E
100
AcDbEntity
  8
0
100
AcDbLine
 10
33.97135000000001
 20
172.2699999999999
 30
0.0
 11
35.67555
 21
171.2099999999999
 31
0.0
  0
LINE
  5
429
330
1E
100
AcDbEntity
  8
0
100
AcDbLine
 10
32.73245000000001
 20
172.9149999999999
 30
0.0
 11
33.97135000000001
 21
172.2699999999999
 31
0.0
  0
LINE
  5
42A
330
1E
100
AcDbEntity
  8
0
100
AcDbLine
 10
29.56625000000001
 20
176.41
 30
0.0
 11
32.59435
 21
175.3429999999999
 31
0.0
  0
LINE
  5
42B
330
1E
100
AcDbEntity
  8
0
100
AcDbLine
 10
26.28795000000001
 20
177.083
 30
0.0
 11
29.56625000000001
 21
176.41
 31
0.0
  0
LINE
  5
42C
330
1E
100
AcDbEntity
  8
0
100
AcDbLine
 10
26.10275
 20
174.9039999999999
 30
0.0
 11
27.46275
 21
174.6759999999999
 31
0.0
  0
LINE
  5
42D
330
1E
100
AcDbEntity
  8
0
100
AcDbLine
 10
28.81365
 20
174.363
 30
0.0
 11
30.14665
 21
173.964
 31
0.0
  0
LINE
  5
42E
330
1E
100
AcDbEntity
  8
0
100
AcDbLine
 10
27.46275
 20
174.6759999999999
 30
0.0
 11
28.81365
 21
174.363
 31
0.0
  0
LINE
  5
42F
330
1E
100
AcDbEntity
  8
0
100
AcDbLine
 10
31.45555
 20
173.4799999999999
 30
0.0
 11
32.73245000000001
 21
172.9149999999999
 31
0.0
  0
LINE
  5
430
330
1E
100
AcDbEntity
  8
0
100
AcDbLine
 10
30.14665
 20
173.964
 30
0.0
 11
31.45555
 21
173.4799999999999
 31
0.0
  0
LINE
  5
431
330
1E
100
AcDbEntity
  8
0
100
AcDbLine
 10
31.00325000000001
 20
69.67489999999999
 30
0.0
 11
34.94504999999999
 21
69.96719999999999
 31
0.0
  0
LINE
  5
432
330
1E
100
AcDbEntity
  8
0
100
AcDbLine
 10
27.05245000000001
 20
69.5063
 30
0.0
 11
31.00325000000001
 21
69.67489999999999
 31
0.0
  0
LINE
  5
433
330
1E
100
AcDbEntity
  8
0
100
AcDbLine
 10
16.62905
 20
176.41
 30
0.0
 11
19.90735
 21
177.083
 31
0.0
  0
LINE
  5
434
330
1E
100
AcDbEntity
  8
0
100
AcDbLine
 10
19.90735
 20
177.083
 30
0.0
 11
23.09765
 21
177.2949999999999
 31
0.0
  0
LINE
  5
435
330
1E
100
AcDbEntity
  8
0
100
AcDbLine
 10
23.09765
 20
177.2949999999999
 30
0.0
 11
26.28795000000001
 21
177.083
 31
0.0
  0
LINE
  5
436
330
1E
100
AcDbEntity
  8
0
100
AcDbLine
 10
13.60094999999999
 20
175.3429999999999
 30
0.0
 11
16.62905
 21
176.41
 31
0.0
  0
LINE
  5
437
330
1E
100
AcDbEntity
  8
0
100
AcDbLine
 10
23.09765
 20
175.1079999999999
 30
0.0
 11
24.74085
 21
175.0469999999999
 31
0.0
  0
LINE
  5
438
330
1E
100
AcDbEntity
  8
0
100
AcDbLine
 10
24.74085
 20
175.0469999999999
 30
0.0
 11
26.10275
 21
174.9039999999999
 31
0.0
  0
LINE
  5
439
330
1E
100
AcDbEntity
  8
0
100
AcDbLine
 10
23.09765
 20
69.44939999999999
 30
0.0
 11
27.05245000000001
 21
69.5063
 31
0.0
  0
LINE
  5
43A
330
1E
100
AcDbEntity
  8
0
100
AcDbLine
 10
23.09765
 20
69.44939999999999
 30
0.0
 11
27.05245000000001
 21
69.5063
 31
0.0
  0
LINE
  5
43B
330
1E
100
AcDbEntity
  8
0
100
AcDbLine
 10
21.45445
 20
175.0469999999999
 30
0.0
 11
23.09765
 21
175.1079999999999
 31
0.0
  0
LINE
  5
43C
330
1E
100
AcDbEntity
  8
0
100
AcDbLine
 10
20.09255
 20
174.9039999999999
 30
0.0
 11
21.45445
 21
175.0469999999999
 31
0.0
  0
LINE
  5
43D
330
1E
100
AcDbEntity
  8
0
100
AcDbLine
 10
18.73255
 20
174.6759999999999
 30
0.0
 11
20.09255
 21
174.9039999999999
 31
0.0
  0
LINE
  5
43E
330
1E
100
AcDbEntity
  8
0
100
AcDbLine
 10
19.14285000000001
 20
69.5063
 30
0.0
 11
23.09765
 21
69.44939999999999
 31
0.0
  0
LINE
  5
43F
330
1E
100
AcDbEntity
  8
0
100
AcDbLine
 10
19.14285000000001
 20
69.5063
 30
0.0
 11
23.09765
 21
69.44939999999999
 31
0.0
  0
LINE
  5
440
330
1E
100
AcDbEntity
  8
0
100
AcDbLine
 10
17.38165
 20
174.363
 30
0.0
 11
18.73255
 21
174.6759999999999
 31
0.0
  0
LINE
  5
441
330
1E
100
AcDbEntity
  8
0
100
AcDbLine
 10
16.04865000000001
 20
173.964
 30
0.0
 11
17.38165
 21
174.363
 31
0.0
  0
LINE
  5
442
330
1E
100
AcDbEntity
  8
0
100
AcDbLine
 10
14.73975
 20
173.4799999999999
 30
0.0
 11
16.04865000000001
 21
173.964
 31
0.0
  0
LINE
  5
443
330
1E
100
AcDbEntity
  8
0
100
AcDbLine
 10
15.19205000000001
 20
69.67489999999999
 30
0.0
 11
19.14285000000001
 21
69.5063
 31
0.0
  0
LINE
  5
444
330
1E
100
AcDbEntity
  8
0
100
AcDbLine
 10
10.66985000000001
 20
173.8399999999999
 30
0.0
 11
13.60094999999999
 21
175.3429999999999
 31
0.0
  0
LINE
  5
445
330
1E
100
AcDbEntity
  8
0
100
AcDbLine
 10
4.092190000000002
 20
167.9899999999999
 30
0.0
 11
5.319060000000007
 21
169.449
 31
0.0
  0
LINE
  5
446
330
1E
100
AcDbEntity
  8
0
100
AcDbLine
 10
5.319060000000007
 20
169.449
 30
0.0
 11
6.660009999999999
 21
170.8079999999999
 31
0.0
  0
LINE
  5
447
330
1E
100
AcDbEntity
  8
0
100
AcDbLine
 10
6.660009999999999
 20
170.8079999999999
 30
0.0
 11
8.592380000000005
 21
172.4339999999999
 31
0.0
  0
LINE
  5
448
330
1E
100
AcDbEntity
  8
0
100
AcDbLine
 10
8.592380000000005
 20
172.4339999999999
 30
0.0
 11
10.66985000000001
 21
173.8399999999999
 31
0.0
  0
LINE
  5
449
330
1E
100
AcDbEntity
  8
0
100
AcDbLine
 10
13.46285
 20
172.9149999999999
 30
0.0
 11
14.73975
 21
173.4799999999999
 31
0.0
  0
LINE
  5
44A
330
1E
100
AcDbEntity
  8
0
100
AcDbLine
 10
12.22395
 20
172.2699999999999
 30
0.0
 11
13.46285
 21
172.9149999999999
 31
0.0
  0
LINE
  5
44B
330
1E
100
AcDbEntity
  8
0
100
AcDbLine
 10
8.927610000000001
 20
170.006
 30
0.0
 11
10.51975
 21
171.2099999999999
 31
0.0
  0
LINE
  5
44C
330
1E
100
AcDbEntity
  8
0
100
AcDbLine
 10
10.51975
 20
171.2099999999999
 30
0.0
 11
12.22395
 21
172.2699999999999
 31
0.0
  0
LINE
  5
44D
330
1E
100
AcDbEntity
  8
0
100
AcDbLine
 10
11.25025
 20
69.96719999999999
 30
0.0
 11
15.19205000000001
 21
69.67489999999999
 31
0.0
  0
LINE
  5
44E
330
1E
100
AcDbEntity
  8
0
100
AcDbLine
 10
6.45186000000001
 20
167.5959999999999
 30
0.0
 11
7.460570000000004
 21
168.672
 31
0.0
  0
LINE
  5
44F
330
1E
100
AcDbEntity
  8
0
100
AcDbLine
 10
7.460570000000004
 20
168.672
 30
0.0
 11
8.927610000000001
 21
170.006
 31
0.0
  0
LINE
  5
450
330
1E
100
AcDbEntity
  8
0
100
AcDbLine
 10
5.524200000000007
 20
166.464
 30
0.0
 11
6.45186000000001
 21
167.5959999999999
 31
0.0
  0
LINE
  5
451
330
1E
100
AcDbEntity
  8
0
100
AcDbLine
 10
4.681600000000003
 20
165.282
 30
0.0
 11
5.524200000000007
 21
166.464
 31
0.0
  0
LINE
  5
452
330
1E
100
AcDbEntity
  8
0
100
AcDbLine
 10
6.253720000000001
 20
70.59379999999999
 30
0.0
 11
7.322479999999998
 21
70.39919999999999
 31
0.0
  0
LINE
  5
453
330
1E
100
AcDbEntity
  8
0
100
AcDbLine
 10
7.322479999999998
 20
70.39919999999999
 30
0.0
 11
11.25025
 21
69.96719999999999
 31
0.0
  0
LINE
  5
454
330
1E
100
AcDbEntity
  8
0
100
AcDbLine
 10
4.43543000000001
 20
71.6464
 30
0.0
 11
5.038859999999999
 21
71.14249999999998
 31
0.0
  0
LINE
  5
455
330
1E
100
AcDbEntity
  8
0
100
AcDbLine
 10
5.038859999999999
 20
71.14249999999998
 30
0.0
 11
5.743360000000009
 21
70.76639999999999
 31
0.0
  0
LINE
  5
456
330
1E
100
AcDbEntity
  8
0
100
AcDbLine
 10
5.743360000000009
 20
70.76639999999999
 30
0.0
 11
6.253720000000001
 21
70.59379999999999
 31
0.0
  0
LINE
  5
457
330
1E
100
AcDbEntity
  8
0
100
AcDbLine
 10
2.991410000000001
 20
166.447
 30
0.0
 11
4.092190000000002
 21
167.9899999999999
 31
0.0
  0
LINE
  5
458
330
1E
100
AcDbEntity
  8
0
100
AcDbLine
 10
-0.8833369999999973
 20
154.6559999999999
 30
0.0
 11
-0.7322290000000038
 21
156.3349999999999
 31
0.0
  0
LINE
  5
459
330
1E
100
AcDbEntity
  8
0
100
AcDbLine
 10
-0.7322290000000038
 20
156.3349999999999
 30
0.0
 11
-0.454031999999998
 21
158.04
 31
0.0
  0
LINE
  5
45A
330
1E
100
AcDbEntity
  8
0
100
AcDbLine
 10
2.023720000000011
 20
164.834
 30
0.0
 11
2.991410000000001
 21
166.447
 31
0.0
  0
LINE
  5
45B
330
1E
100
AcDbEntity
  8
0
100
AcDbLine
 10
2.719220000000007
 20
161.6009999999999
 30
0.0
 11
3.28061000000001
 21
162.8439999999999
 31
0.0
  0
LINE
  5
45C
330
1E
100
AcDbEntity
  8
0
100
AcDbLine
 10
3.28061000000001
 20
162.8439999999999
 30
0.0
 11
3.92707
 21
164.0609999999999
 31
0.0
  0
LINE
  5
45D
330
1E
100
AcDbEntity
  8
0
100
AcDbLine
 10
3.92707
 20
164.0609999999999
 30
0.0
 11
4.681600000000003
 21
165.282
 31
0.0
  0
LINE
  5
45E
330
1E
100
AcDbEntity
  8
0
100
AcDbLine
 10
2.238880000000008
 20
160.3279999999999
 30
0.0
 11
2.719220000000007
 21
161.6009999999999
 31
0.0
  0
LINE
  5
45F
330
1E
100
AcDbEntity
  8
0
100
AcDbLine
 10
0.5046499999999981
 20
161.4739999999999
 30
0.0
 11
1.194130000000001
 21
163.1709999999999
 31
0.0
  0
LINE
  5
460
330
1E
100
AcDbEntity
  8
0
100
AcDbLine
 10
1.194130000000001
 20
163.1709999999999
 30
0.0
 11
2.023720000000011
 21
164.834
 31
0.0
  0
LINE
  5
461
330
1E
100
AcDbEntity
  8
0
100
AcDbLine
 10
-0.454031999999998
 20
158.04
 30
0.0
 11
-0.0437419999999946
 21
159.757
 31
0.0
  0
LINE
  5
462
330
1E
100
AcDbEntity
  8
0
100
AcDbLine
 10
-0.454031999999998
 20
158.04
 30
0.0
 11
-0.0437419999999946
 21
159.758
 31
0.0
  0
LINE
  5
463
330
1E
100
AcDbEntity
  8
0
100
AcDbLine
 10
-0.0437419999999946
 20
159.758
 30
0.0
 11
0.5046499999999981
 21
161.4739999999999
 31
0.0
  0
LINE
  5
464
330
1E
100
AcDbEntity
  8
0
100
AcDbLine
 10
-0.0437419999999946
 20
159.757
 30
0.0
 11
0.5046499999999981
 21
161.4739999999999
 31
0.0
  0
LINE
  5
465
330
1E
100
AcDbEntity
  8
0
100
AcDbLine
 10
1.842590000000001
 20
159.0289999999999
 30
0.0
 11
2.238880000000008
 21
160.3279999999999
 31
0.0
  0
LINE
  5
466
330
1E
100
AcDbEntity
  8
0
100
AcDbLine
 10
1.606430000000003
 20
158.063
 30
0.0
 11
1.842590000000001
 21
159.0289999999999
 31
0.0
  0
LINE
  5
467
330
1E
100
AcDbEntity
  8
0
100
AcDbLine
 10
1.415289999999998
 20
157.088
 30
0.0
 11
1.606430000000003
 21
158.063
 31
0.0
  0
LINE
  5
468
330
1E
100
AcDbEntity
  8
0
100
AcDbLine
 10
-0.485053999999991
 20
148.8169999999999
 30
0.0
 11
0.3935700000000111
 21
145.5409999999999
 31
0.0
  0
LINE
  5
469
330
1E
100
AcDbEntity
  8
0
100
AcDbLine
 10
0.3935700000000111
 20
145.5409999999999
 30
0.0
 11
1.290859899236707
 21
143.424713488212
 31
0.0
  0
LINE
  5
46A
330
1E
100
AcDbEntity
  8
0
100
AcDbLine
 10
1.078050000000004
 20
153.34
 30
0.0
 11
1.165109999999998
 21
155.119
 31
0.0
  0
LINE
  5
46B
330
1E
100
AcDbEntity
  8
0
100
AcDbLine
 10
1.080049999999999
 20
153.035
 30
0.0
 11
1.080049999999999
 21
152.9349999999999
 31
0.0
  0
LINE
  5
46C
330
1E
100
AcDbEntity
  8
0
100
AcDbLine
 10
1.080049999999999
 20
153.035
 30
0.0
 11
1.095060000000003
 21
153.458
 31
0.0
  0
LINE
  5
46D
330
1E
100
AcDbEntity
  8
0
100
AcDbLine
 10
1.080049999999999
 20
153.035
 30
0.0
 11
1.091379259726451
 21
153.2584253922119
 31
0.0
  0
LINE
  5
46E
330
1E
100
AcDbEntity
  8
0
100
AcDbLine
 10
1.150198446036654
 20
154.418404074688
 30
0.0
 11
1.171120000000001
 21
154.8309999999999
 31
0.0
  0
LINE
  5
46F
330
1E
100
AcDbEntity
  8
0
100
AcDbLine
 10
1.269190000000008
 20
156.1049999999999
 30
0.0
 11
1.415289999999998
 21
157.088
 31
0.0
  0
LINE
  5
470
330
1E
100
AcDbEntity
  8
0
100
AcDbLine
 10
1.165109999999998
 20
155.119
 30
0.0
 11
1.269190000000008
 21
156.1049999999999
 31
0.0
  0
LINE
  5
471
330
1E
100
AcDbEntity
  8
0
100
AcDbLine
 10
1.112080000000005
 20
153.8269999999999
 30
0.0
 11
1.171120000000001
 21
154.8309999999999
 31
0.0
  0
LINE
  5
472
330
1E
100
AcDbEntity
  8
0
100
AcDbLine
 10
1.095060000000003
 20
153.458
 30
0.0
 11
1.112080000000005
 21
153.8269999999999
 31
0.0
  0
LINE
  5
473
330
1E
100
AcDbEntity
  8
0
100
AcDbLine
 10
1.080049999999999
 20
152.9349999999999
 30
0.0
 11
1.080049999999999
 21
153.035
 31
0.0
  0
LINE
  5
474
330
1E
100
AcDbEntity
  8
0
100
AcDbLine
 10
1.082059999999998
 20
151.419
 30
0.0
 11
1.089060000000003
 21
150.9509999999999
 31
0.0
  0
LINE
  5
475
330
1E
100
AcDbEntity
  8
0
100
AcDbLine
 10
1.082059999999998
 20
151.419
 30
0.0
 11
1.084060000000008
 21
151.279
 31
0.0
  0
LINE
  5
476
330
1E
100
AcDbEntity
  8
0
100
AcDbLine
 10
1.081405010879208
 20
152.543387541301
 30
0.0
 11
1.084060000000008
 21
152.864
 31
0.0
  0
LINE
  5
477
330
1E
100
AcDbEntity
  8
0
100
AcDbLine
 10
1.08088605527638
 20
152.493894472362
 30
0.0
 11
1.081050000000004
 21
152.6079999999999
 31
0.0
  0
LINE
  5
478
330
1E
100
AcDbEntity
  8
0
100
AcDbLine
 10
1.081405010879208
 20
152.543387541301
 30
0.0
 11
1.084060000000008
 21
152.864
 31
0.0
  0
LINE
  5
479
330
1E
100
AcDbEntity
  8
0
100
AcDbLine
 10
1.083060000000003
 20
152.5419999999999
 30
0.0
 11
1.092060000000003
 21
152.9989999999999
 31
0.0
  0
LINE
  5
47A
330
1E
100
AcDbEntity
  8
0
100
AcDbLine
 10
1.089060000000003
 20
150.9509999999999
 30
0.0
 11
1.115080000000006
 21
149.8819999999999
 31
0.0
  0
LINE
  5
47B
330
1E
100
AcDbEntity
  8
0
100
AcDbLine
 10
1.084060000000008
 20
151.3519999999999
 30
0.0
 11
1.089060000000003
 21
150.9509999999999
 31
0.0
  0
LINE
  5
47C
330
1E
100
AcDbEntity
  8
0
100
AcDbLine
 10
1.079203606600302
 20
152.7098593556769
 30
0.0
 11
1.080049999999999
 21
152.9349999999999
 31
0.0
  0
LINE
  5
47D
330
1E
100
AcDbEntity
  8
0
100
AcDbLine
 10
1.079050000000009
 20
152.5179999999999
 30
0.0
 11
1.084060000000008
 21
152.864
 31
0.0
  0
LINE
  5
47E
330
1E
100
AcDbEntity
  8
0
100
AcDbLine
 10
1.079050000000009
 20
152.5179999999999
 30
0.0
 11
1.079462556053812
 21
152.4392017937219
 31
0.0
  0
LINE
  5
47F
330
1E
100
AcDbEntity
  8
0
100
AcDbLine
 10
1.080049999999999
 20
151.9849999999999
 30
0.0
 11
1.084060000000008
 21
151.3519999999999
 31
0.0
  0
LINE
  5
480
330
1E
100
AcDbEntity
  8
0
100
AcDbLine
 10
1.080049999999999
 20
151.9849999999999
 30
0.0
 11
1.089060000000003
 21
150.9509999999999
 31
0.0
  0
LINE
  5
481
330
1E
100
AcDbEntity
  8
0
100
AcDbLine
 10
1.079050000000009
 20
151.8369999999999
 30
0.0
 11
1.081050000000004
 21
152.5209999999999
 31
0.0
  0
LINE
  5
482
330
1E
100
AcDbEntity
  8
0
100
AcDbLine
 10
1.076050000000009
 20
153.0959999999999
 30
0.0
 11
1.078050000000004
 21
153.34
 31
0.0
  0
LINE
  5
483
330
1E
100
AcDbEntity
  8
0
100
AcDbLine
 10
1.076050000000009
 20
153.0959999999999
 30
0.0
 11
1.079252182846232
 21
152.782889779409
 31
0.0
  0
LINE
  5
484
330
1E
100
AcDbEntity
  8
0
100
AcDbLine
 10
1.078050000000004
 20
152.4029999999999
 30
0.0
 11
1.078610655737705
 21
152.3486163934429
 31
0.0
  0
LINE
  5
485
330
1E
100
AcDbEntity
  8
0
100
AcDbLine
 10
1.078050000000004
 20
152.4029999999999
 30
0.0
 11
1.079050000000009
 21
152.669
 31
0.0
  0
LINE
  5
486
330
1E
100
AcDbEntity
  8
0
100
AcDbLine
 10
1.078050000000004
 20
152.025
 30
0.0
 11
1.081050000000004
 21
152.5209999999999
 31
0.0
  0
LINE
  5
487
330
1E
100
AcDbEntity
  8
0
100
AcDbLine
 10
1.078050000000004
 20
152.025
 30
0.0
 11
1.092060000000003
 21
152.9989999999999
 31
0.0
  0
LINE
  5
488
330
1E
100
AcDbEntity
  8
0
100
AcDbLine
 10
1.078050000000004
 20
152.025
 30
0.0
 11
1.083060000000003
 21
152.5419999999999
 31
0.0
  0
LINE
  5
489
330
1E
100
AcDbEntity
  8
0
100
AcDbLine
 10
1.078050000000004
 20
152.025
 30
0.0
 11
1.084060000000008
 21
151.279
 31
0.0
  0
LINE
  5
48A
330
1E
100
AcDbEntity
  8
0
100
AcDbLine
 10
1.078050000000004
 20
152.289
 30
0.0
 11
1.079050000000009
 21
151.8369999999999
 31
0.0
  0
LINE
  5
48B
330
1E
100
AcDbEntity
  8
0
100
AcDbLine
 10
1.078050000000004
 20
152.289
 30
0.0
 11
1.081050000000004
 21
152.6079999999999
 31
0.0
  0
LINE
  5
48C
330
1E
100
AcDbEntity
  8
0
100
AcDbLine
 10
1.115080000000006
 20
149.8819999999999
 30
0.0
 11
1.146100000000004
 21
148.7719999999999
 31
0.0
  0
LINE
  5
48D
330
1E
100
AcDbEntity
  8
0
100
AcDbLine
 10
1.199139999999999
 20
146.7449999999999
 30
0.0
 11
1.250170000000011
 21
144.9049999999999
 31
0.0
  0
LINE
  5
48E
330
1E
100
AcDbEntity
  8
0
100
AcDbLine
 10
1.155110000000007
 20
148.3859999999999
 30
0.0
 11
1.199139999999999
 21
146.7449999999999
 31
0.0
  0
LINE
  5
48F
330
1E
100
AcDbEntity
  8
0
100
AcDbLine
 10
1.123080000000001
 20
149.641
 30
0.0
 11
1.522370000000009
 21
135.0849999999999
 31
0.0
  0
LINE
  5
490
330
1E
100
AcDbEntity
  8
0
100
AcDbLine
 10
1.123080000000001
 20
149.641
 30
0.0
 11
1.571400000000011
 21
133.2769999999999
 31
0.0
  0
LINE
  5
491
330
1E
100
AcDbEntity
  8
0
100
AcDbLine
 10
1.603419999999999
 20
131.0579999999999
 30
0.0
 11
1.64846
 21
128.018
 31
0.0
  0
LINE
  5
492
330
1E
100
AcDbEntity
  8
0
100
AcDbLine
 10
2.114789999999999
 20
92.32509999999999
 30
0.0
 11
2.342950000000001
 21
74.5497
 31
0.0
  0
LINE
  5
493
330
1E
100
AcDbEntity
  8
0
100
AcDbLine
 10
1.727510000000009
 20
122.2947
 30
0.0
 11
1.83059
 21
114.4295999999999
 31
0.0
  0
LINE
  5
494
330
1E
100
AcDbEntity
  8
0
100
AcDbLine
 10
1.83059
 20
114.4295999999999
 30
0.0
 11
1.925650000000004
 21
107.0025999999999
 31
0.0
  0
LINE
  5
495
330
1E
100
AcDbEntity
  8
0
100
AcDbLine
 10
1.745530000000002
 20
126.9509999999999
 30
0.0
 11
2.070760000000007
 21
115.0751999999999
 31
0.0
  0
LINE
  5
496
330
1E
100
AcDbEntity
  8
0
100
AcDbLine
 10
2.070760000000007
 20
115.0751999999999
 30
0.0
 11
2.288910000000001
 21
107.1582
 31
0.0
  0
LINE
  5
497
330
1E
100
AcDbEntity
  8
0
100
AcDbLine
 10
1.925650000000004
 20
107.0025999999999
 30
0.0
 11
1.989699999999999
 21
102.0529
 31
0.0
  0
LINE
  5
498
330
1E
100
AcDbEntity
  8
0
100
AcDbLine
 10
1.989699999999999
 20
102.0529
 30
0.0
 11
2.114789999999999
 21
92.32509999999999
 31
0.0
  0
LINE
  5
499
330
1E
100
AcDbEntity
  8
0
100
AcDbLine
 10
2.396990000000002
 20
103.1992999999999
 30
0.0
 11
2.572110000000009
 21
96.88569999999998
 31
0.0
  0
LINE
  5
49A
330
1E
100
AcDbEntity
  8
0
100
AcDbLine
 10
2.288910000000001
 20
107.1582
 30
0.0
 11
2.396990000000002
 21
103.1992999999999
 31
0.0
  0
LINE
  5
49B
330
1E
100
AcDbEntity
  8
0
100
AcDbLine
 10
2.572110000000009
 20
96.88569999999998
 30
0.0
 11
2.661169999999998
 21
93.73189999999999
 31
0.0
  0
LINE
  5
49C
330
1E
100
AcDbEntity
  8
0
100
AcDbLine
 10
2.661169999999998
 20
93.73189999999999
 30
0.0
 11
2.796270000000006
 21
89.0127
 31
0.0
  0
LINE
  5
49D
330
1E
100
AcDbEntity
  8
0
100
AcDbLine
 10
1.64846
 20
128.018
 30
0.0
 11
1.727510000000009
 21
122.2947
 31
0.0
  0
LINE
  5
49E
330
1E
100
AcDbEntity
  8
0
100
AcDbLine
 10
1.606430000000003
 20
132.0109999999999
 30
0.0
 11
1.745530000000002
 21
126.9509999999999
 31
0.0
  0
LINE
  5
49F
330
1E
100
AcDbEntity
  8
0
100
AcDbLine
 10
2.436019999999999
 20
40.8253
 30
0.0
 11
2.48205
 21
37.10679999999999
 31
0.0
  0
LINE
  5
4A0
330
1E
100
AcDbEntity
  8
0
100
AcDbLine
 10
2.48205
 20
37.10679999999999
 30
0.0
 11
2.516069999999999
 21
34.32119999999999
 31
0.0
  0
LINE
  5
4A1
330
1E
100
AcDbEntity
  8
0
100
AcDbLine
 10
3.934080000000008
 20
72.29089999999999
 30
0.0
 11
4.43543000000001
 21
71.6464
 31
0.0
  0
LINE
  5
4A2
330
1E
100
AcDbEntity
  8
0
100
AcDbLine
 10
3.862030000000004
 20
72.3947
 30
0.0
 11
3.934080000000008
 21
72.29089999999999
 31
0.0
  0
LINE
  5
4A3
330
1E
100
AcDbEntity
  8
0
100
AcDbLine
 10
2.796270000000006
 20
89.0127
 30
0.0
 11
2.865320000000011
 21
86.66309999999999
 31
0.0
  0
LINE
  5
4A4
330
1E
100
AcDbEntity
  8
0
100
AcDbLine
 10
2.865320000000011
 20
86.66309999999999
 30
0.0
 11
2.934370000000001
 21
84.32339999999999
 31
0.0
  0
LINE
  5
4A5
330
1E
100
AcDbEntity
  8
0
100
AcDbLine
 10
3.077470000000005
 20
79.68799999999998
 30
0.0
 11
3.15052
 21
77.40119999999999
 31
0.0
  0
LINE
  5
4A6
330
1E
100
AcDbEntity
  8
0
100
AcDbLine
 10
3.15052
 20
77.40119999999999
 30
0.0
 11
3.225570000000004
 21
75.1454
 31
0.0
  0
LINE
  5
4A7
330
1E
100
AcDbEntity
  8
0
100
AcDbLine
 10
3.225570000000004
 20
75.1454
 30
0.0
 11
3.243590000000011
 21
74.7244
 31
0.0
  0
LINE
  5
4A8
330
1E
100
AcDbEntity
  8
0
100
AcDbLine
 10
3.243590000000011
 20
74.7244
 30
0.0
 11
3.368680000000011
 21
73.66979999999999
 31
0.0
  0
LINE
  5
4A9
330
1E
100
AcDbEntity
  8
0
100
AcDbLine
 10
3.368680000000011
 20
73.66979999999999
 30
0.0
 11
3.508780000000001
 21
73.13999999999999
 31
0.0
  0
LINE
  5
4AA
330
1E
100
AcDbEntity
  8
0
100
AcDbLine
 10
3.508780000000001
 20
73.13999999999999
 30
0.0
 11
3.862030000000004
 21
72.3947
 31
0.0
  0
LINE
  5
4AB
330
1E
100
AcDbEntity
  8
0
100
AcDbLine
 10
3.00542
 20
81.99669999999999
 30
0.0
 11
3.077470000000005
 21
79.68799999999998
 31
0.0
  0
LINE
  5
4AC
330
1E
100
AcDbEntity
  8
0
100
AcDbLine
 10
2.934370000000001
 20
84.32339999999999
 30
0.0
 11
3.00542
 21
81.99669999999999
 31
0.0
  0
LINE
  5
4AD
330
1E
100
AcDbEntity
  8
0
100
AcDbLine
 10
2.548090000000001
 20
31.55849999999999
 30
0.0
 11
2.574110000000004
 21
29.29659999999998
 31
0.0
  0
LINE
  5
4AE
330
1E
100
AcDbEntity
  8
0
100
AcDbLine
 10
2.599130000000002
 20
27.07469999999999
 30
0.0
 11
2.620150000000009
 21
25.11219999999998
 31
0.0
  0
LINE
  5
4AF
330
1E
100
AcDbEntity
  8
0
100
AcDbLine
 10
2.574110000000004
 20
29.29659999999998
 30
0.0
 11
2.599130000000002
 21
27.07469999999999
 31
0.0
  0
LINE
  5
4B0
330
1E
100
AcDbEntity
  8
0
100
AcDbLine
 10
2.516069999999999
 20
34.32119999999999
 30
0.0
 11
2.548090000000001
 21
31.55849999999999
 31
0.0
  0
LINE
  5
4B1
330
1E
100
AcDbEntity
  8
0
100
AcDbLine
 10
2.342950000000001
 20
74.5497
 30
0.0
 11
2.436019999999999
 21
40.8253
 31
0.0
  0
LINE
  5
4B2
330
1E
100
AcDbEntity
  8
0
100
AcDbLine
 10
1.563177233771796
 20
133.5771368365419
 30
0.0
 11
1.603419999999999
 21
131.0579999999999
 31
0.0
  0
LINE
  5
4B3
330
1E
100
AcDbEntity
  8
0
100
AcDbLine
 10
1.563147575197561
 20
133.578219395671
 30
0.0
 11
1.603419999999999
 21
131.0579999999999
 31
0.0
  0
LINE
  5
4B4
330
1E
100
AcDbEntity
  8
0
100
AcDbLine
 10
1.354250000000007
 20
141.143
 30
0.0
 11
1.391280000000008
 21
139.7929999999999
 31
0.0
  0
LINE
  5
4B5
330
1E
100
AcDbEntity
  8
0
100
AcDbLine
 10
1.250170000000011
 20
144.9049999999999
 30
0.0
 11
1.283200000000007
 21
143.6989999999999
 31
0.0
  0
LINE
  5
4B6
330
1E
100
AcDbEntity
  8
0
100
AcDbLine
 10
1.283200000000007
 20
143.6989999999999
 30
0.0
 11
1.31822000000001
 21
142.4449999999999
 31
0.0
  0
LINE
  5
4B7
330
1E
100
AcDbEntity
  8
0
100
AcDbLine
 10
1.31822000000001
 20
142.4449999999999
 30
0.0
 11
1.354250000000007
 21
141.143
 31
0.0
  0
LINE
  5
4B8
330
1E
100
AcDbEntity
  8
0
100
AcDbLine
 10
1.391280000000008
 20
139.7929999999999
 30
0.0
 11
1.432300000000012
 21
138.3259999999999
 31
0.0
  0
LINE
  5
4B9
330
1E
100
AcDbEntity
  8
0
100
AcDbLine
 10
1.474330000000009
 20
136.8059999999999
 30
0.0
 11
1.522370000000009
 21
135.0849999999999
 31
0.0
  0
LINE
  5
4BA
330
1E
100
AcDbEntity
  8
0
100
AcDbLine
 10
1.432300000000012
 20
138.3259999999999
 30
0.0
 11
1.474330000000009
 21
136.8059999999999
 31
0.0
  0
LINE
  5
4BB
330
1E
100
AcDbEntity
  8
0
100
AcDbLine
 10
1.571400000000011
 20
133.2769999999999
 30
0.0
 11
1.606430000000003
 21
132.0109999999999
 31
0.0
  0
LINE
  5
4BC
330
1E
100
AcDbEntity
  8
0
100
AcDbLine
 10
-0.8833369999999973
 20
152.044
 30
0.0
 11
-0.485053999999991
 21
148.8169999999999
 31
0.0
  0
LINE
  5
4BD
330
1E
100
AcDbEntity
  8
0
100
AcDbLine
 10
-0.8833369999999973
 20
152.044
 30
0.0
 11
-0.485053999999991
 21
148.8169999999999
 31
0.0
  0
LINE
  5
4BE
330
1E
100
AcDbEntity
  8
0
100
AcDbLine
 10
-0.9023499999999984
 20
154.2469999999999
 30
0.0
 11
-0.8833369999999973
 21
152.044
 31
0.0
  0
LINE
  5
4BF
330
1E
100
AcDbEntity
  8
0
100
AcDbLine
 10
-0.9023499999999984
 20
154.2469999999999
 30
0.0
 11
-0.8833369999999973
 21
154.6559999999999
 31
0.0
  0
LINE
  5
4C0
330
1E
100
AcDbEntity
  8
0
100
AcDbLine
 10
2.657170000000007
 20
21.32489999999998
 30
0.0
 11
2.674180000000006
 21
19.50799999999999
 31
0.0
  0
LINE
  5
4C1
330
1E
100
AcDbEntity
  8
0
100
AcDbLine
 10
2.639160000000003
 20
23.19459999999998
 30
0.0
 11
2.657170000000007
 21
21.32489999999998
 31
0.0
  0
LINE
  5
4C2
330
1E
100
AcDbEntity
  8
0
100
AcDbLine
 10
2.620150000000009
 20
25.11219999999998
 30
0.0
 11
2.639160000000003
 21
23.19459999999998
 31
0.0
  0
LINE
  5
4C3
330
1E
100
AcDbEntity
  8
0
100
AcDbLine
 10
2.688190000000005
 20
17.91659999999998
 30
0.0
 11
2.700200000000009
 21
16.37119999999998
 31
0.0
  0
LINE
  5
4C4
330
1E
100
AcDbEntity
  8
0
100
AcDbLine
 10
2.674180000000006
 20
19.50799999999999
 30
0.0
 11
2.688190000000005
 21
17.91659999999998
 31
0.0
  0
LINE
  5
4C5
330
1E
100
AcDbEntity
  8
0
100
AcDbLine
 10
2.700200000000009
 20
16.37119999999998
 30
0.0
 11
2.707210000000003
 21
15.96809999999999
 31
0.0
  0
LINE
  5
4C6
330
1E
100
AcDbEntity
  8
0
100
AcDbLine
 10
2.707210000000003
 20
15.96809999999999
 30
0.0
 11
2.762250000000008
 21
12.98289999999998
 31
0.0
  0
LINE
  5
4C7
330
1E
100
AcDbEntity
  8
0
100
AcDbLine
 10
2.762250000000008
 20
12.98289999999998
 30
0.0
 11
2.80528000000001
 21
10.54449999999998
 31
0.0
  0
LINE
  5
4C8
330
1E
100
AcDbEntity
  8
0
100
AcDbLine
 10
7.394530000000003
 20
0.7508690000000087
 30
0.0
 11
11.30525
 21
0.3437990000000077
 31
0.0
  0
LINE
  5
4C9
330
1E
100
AcDbEntity
  8
0
100
AcDbLine
 10
11.30525
 20
0.3437990000000077
 30
0.0
 11
15.22905
 21
0.0524640000000076
 31
0.0
  0
LINE
  5
4CA
330
1E
100
AcDbEntity
  8
0
100
AcDbLine
 10
15.22905
 20
0.0524640000000076
 30
0.0
 11
19.16084999999999
 21
-0.1231339999999932
 31
0.0
  0
LINE
  5
4CB
330
1E
100
AcDbEntity
  8
0
100
AcDbLine
 10
19.16084999999999
 20
-0.1231339999999932
 30
0.0
 11
23.09765
 21
-0.1819999999999915
 31
0.0
  0
LINE
  5
4CC
330
1E
100
AcDbEntity
  8
0
100
AcDbLine
 10
30.96625
 20
0.0524640000000076
 30
0.0
 11
34.89005
 21
0.3437990000000077
 31
0.0
  0
LINE
  5
4CD
330
1E
100
AcDbEntity
  8
0
100
AcDbLine
 10
27.03445
 20
-0.1231339999999932
 30
0.0
 11
30.96625
 21
0.0524640000000076
 31
0.0
  0
LINE
  5
4CF
330
1E
100
AcDbEntity
  8
0
100
AcDbLine
 10
2.963390000000003
 20
4.467380000000009
 30
0.0
 11
2.988410000000001
 21
4.139130000000008
 31
0.0
  0
LINE
  5
4D0
330
1E
100
AcDbEntity
  8
0
100
AcDbLine
 10
2.893340000000009
 20
5.371310000000008
 30
0.0
 11
2.963390000000003
 21
4.467380000000009
 31
0.0
  0
LINE
  5
4D1
330
1E
100
AcDbEntity
  8
0
100
AcDbLine
 10
2.889340000000004
 20
5.666640000000008
 30
0.0
 11
2.893340000000009
 21
5.371310000000008
 31
0.0
  0
LINE
  5
4D2
330
1E
100
AcDbEntity
  8
0
100
AcDbLine
 10
2.847310000000007
 20
8.105070000000011
 30
0.0
 11
2.889340000000004
 21
5.666640000000008
 31
0.0
  0
LINE
  5
4D3
330
1E
100
AcDbEntity
  8
0
100
AcDbLine
 10
2.80528000000001
 20
10.54449999999998
 30
0.0
 11
2.847310000000007
 21
8.105070000000011
 31
0.0
  0
LINE
  5
4D4
330
1E
100
AcDbEntity
  8
0
100
AcDbLine
 10
4.10520000000001
 20
1.941150000000007
 30
0.0
 11
4.782679999999999
 21
1.444280000000009
 31
0.0
  0
LINE
  5
4D5
330
1E
100
AcDbEntity
  8
0
100
AcDbLine
 10
4.782679999999999
 20
1.444280000000009
 30
0.0
 11
5.593249999999997
 21
1.090090000000007
 31
0.0
  0
LINE
  5
4D6
330
1E
100
AcDbEntity
  8
0
100
AcDbLine
 10
6.179670000000001
 20
0.9344500000000088
 30
0.0
 11
7.394530000000003
 21
0.7508690000000087
 31
0.0
  0
LINE
  5
4D7
330
1E
100
AcDbEntity
  8
0
100
AcDbLine
 10
5.593249999999997
 20
1.090090000000007
 30
0.0
 11
6.179670000000001
 21
0.9344500000000088
 31
0.0
  0
LINE
  5
4D8
330
1E
100
AcDbEntity
  8
0
100
AcDbLine
 10
3.976110000000005
 20
2.063870000000008
 30
0.0
 11
4.10520000000001
 21
1.941150000000007
 31
0.0
  0
LINE
  5
4D9
330
1E
100
AcDbEntity
  8
0
100
AcDbLine
 10
3.088480000000004
 20
3.607340000000007
 30
0.0
 11
3.395690000000001
 21
2.847080000000008
 31
0.0
  0
LINE
  5
4DA
330
1E
100
AcDbEntity
  8
0
100
AcDbLine
 10
3.395690000000001
 20
2.847080000000008
 30
0.0
 11
3.976110000000005
 21
2.063870000000008
 31
0.0
  0
LINE
  5
4DB
330
1E
100
AcDbEntity
  8
0
100
AcDbLine
 10
2.988410000000001
 20
4.139130000000008
 30
0.0
 11
3.088480000000004
 21
3.607340000000007
 31
0.0
  0
ENDSEC
  0
SECTION
  2
OBJECTS
  0
DICTIONARY
  5
C
330
0
100
AcDbDictionary
281
     1
  3
ACAD_GROUP
350
D
  3
ACAD_LAYOUT
350
19
  3
ACAD_MLINESTYLE
350
16
  3
ACAD_PLOTSETTINGS
350
18
  3
ACAD_PLOTSTYLENAME
350
E
  3
AcDbVariableDictionary
350
4DD
  0
DICTIONARY
  5
D
102
{ACAD_REACTORS
330
C
102
}
330
C
100
AcDbDictionary
281
     1
  0
DICTIONARY
  5
19
102
{ACAD_REACTORS
330
C
102
}
330
C
100
AcDbDictionary
281
     1
  3
Layout1
350
1D
  3
Model
350
21
  0
DICTIONARY
  5
16
102
{ACAD_REACTORS
330
C
102
}
330
C
100
AcDbDictionary
281
     1
  3
Standard
350
17
  0
DICTIONARY
  5
18
102
{ACAD_REACTORS
330
C
102
}
330
C
100
AcDbDictionary
281
     1
  0
ACDBDICTIONARYWDFLT
  5
E
102
{ACAD_REACTORS
330
C
102
}
330
C
100
AcDbDictionary
281
     1
  3
Normal
350
F
100
AcDbDictionaryWithDefault
340
F
  0
DICTIONARY
  5
4DD
102
{ACAD_REACTORS
330
C
102
}
330
C
100
AcDbDictionary
281
     1
  3
DIMASSOC
350
4DE
  0
LAYOUT
  5
1D
102
{ACAD_REACTORS
330
19
102
}
330
19
100
AcDbPlotSettings
  1

  2
C:\Programme\AutoCAD LT 2002 Deu\plotters\DWF ePlot (optimized for plotting).pc3
  4

  6

 40
0.0
 41
0.0
 42
0.0
 43
0.0
 44
0.0
 45
0.0
 46
0.0
 47
0.0
 48
0.0
 49
0.0
140
0.0
141
0.0
142
1.0
143
1.0
 70
   688
 72
     0
 73
     0
 74
     5
  7

 75
    16
147
1.0
148
0.0
149
0.0
100
AcDbLayout
  1
Layout1
 70
     1
 71
     1
 10
0.0
 20
0.0
 11
12.0
 21
9.0
 12
0.0
 22
0.0
 32
0.0
 14
1.000000000000000E+20
 24
1.000000000000000E+20
 34
1.000000000000000E+20
 15
-1.000000000000000E+20
 25
-1.000000000000000E+20
 35
-1.000000000000000E+20
146
0.0
 13
0.0
 23
0.0
 33
0.0
 16
1.0
 26
0.0
 36
0.0
 17
0.0
 27
1.0
 37
0.0
 76
     0
330
1A
  0
LAYOUT
  5
21
102
{ACAD_REACTORS
330
19
102
}
330
19
100
AcDbPlotSettings
  1

  2
C:\Programme\AutoCAD LT 2002 Deu\plotters\DWF ePlot (optimized for plotting).pc3
  4

  6

 40
0.0
 41
0.0
 42
0.0
 43
0.0
 44
0.0
 45
0.0
 46
0.0
 47
0.0
 48
0.0
 49
0.0
140
0.0
141
0.0
142
1.0
143
1.0
 70
  1712
 72
     0
 73
     0
 74
     0
  7

 75
     0
147
1.0
148
0.0
149
0.0
100
AcDbLayout
  1
Model
 70
     1
 71
     0
 10
0.0
 20
0.0
 11
12.0
 21
9.0
 12
0.0
 22
0.0
 32
0.0
 14
0.0
 24
0.0
 34
0.0
 15
0.0
 25
0.0
 35
0.0
146
0.0
 13
0.0
 23
0.0
 33
0.0
 16
1.0
 26
0.0
 36
0.0
 17
0.0
 27
1.0
 37
0.0
 76
     0
330
1E
  0
MLINESTYLE
  5
17
102
{ACAD_REACTORS
330
16
102
}
330
16
100
AcDbMlineStyle
  2
STANDARD
 70
     0
  3

 62
   256
 51
90.0
 52
90.0
 71
     2
 49
0.5
 62
   256
  6
BYLAYER
 49
-0.5
 62
   256
  6
BYLAYER
  0
ACDBPLACEHOLDER
  5
F
102
{ACAD_REACTORS
330
E
102
}
330
E
  0
DICTIONARYVAR
  5
4DE
102
{ACAD_REACTORS
330
4DD
102
}
330
4DD
100
DictionaryVariables
280
     0
  1
1
  0
ENDSEC
  0
EOF
