  0
SECTION
  2
HEADER
  9
$ACADVER
  1
AC1015
  9
$ACADMAINTVER
 70
    13
  9
$DWGCODEPAGE
  3
ANSI_1252
  9
$INSBASE
 10
0.0
 20
0.0
 30
0.0
  9
$EXTMIN
 10
0.115049999999998
 20
0.118000000000019
 30
0.0
  9
$EXTMAX
 10
54.88495
 20
157.882
 30
0.0
  9
$LIMMIN
 10
0.0
 20
0.0
  9
$LIMMAX
 10
12.0
 20
9.0
  9
$ORTHOMODE
 70
     0
  9
$REGENMODE
 70
     1
  9
$FILLMODE
 70
     1
  9
$QTEXTMODE
 70
     0
  9
$MIRRTEXT
 70
     1
  9
$LTSCALE
 40
1.0
  9
$ATTMODE
 70
     1
  9
$TEXTSIZE
 40
0.2
  9
$TRACEWID
 40
0.05
  9
$TEXTSTYLE
  7
Standard
  9
$CLAYER
  8
0
  9
$CELTYPE
  6
Continuous
  9
$CECOLOR
 62
   256
  9
$CELTSCALE
 40
1.0
  9
$DISPSILH
 70
     0
  9
$DIMSCALE
 40
1.0
  9
$DIMASZ
 40
0.18
  9
$DIMEXO
 40
0.0625
  9
$DIMDLI
 40
0.38
  9
$DIMRND
 40
0.0
  9
$DIMDLE
 40
0.0
  9
$DIMEXE
 40
0.18
  9
$DIMTP
 40
0.0
  9
$DIMTM
 40
0.0
  9
$DIMTXT
 40
0.18
  9
$DIMCEN
 40
0.09
  9
$DIMTSZ
 40
0.0
  9
$DIMTOL
 70
     0
  9
$DIMLIM
 70
     0
  9
$DIMTIH
 70
     1
  9
$DIMTOH
 70
     1
  9
$DIMSE1
 70
     0
  9
$DIMSE2
 70
     0
  9
$DIMTAD
 70
     0
  9
$DIMZIN
 70
     0
  9
$DIMBLK
  1

  9
$DIMASO
 70
     1
  9
$DIMSHO
 70
     1
  9
$DIMPOST
  1

  9
$DIMAPOST
  1

  9
$DIMALT
 70
     0
  9
$DIMALTD
 70
     2
  9
$DIMALTF
 40
25.4
  9
$DIMLFAC
 40
1.0
  9
$DIMTOFL
 70
     0
  9
$DIMTVP
 40
0.0
  9
$DIMTIX
 70
     0
  9
$DIMSOXD
 70
     0
  9
$DIMSAH
 70
     0
  9
$DIMBLK1
  1

  9
$DIMBLK2
  1

  9
$DIMSTYLE
  2
Standard
  9
$DIMCLRD
 70
     0
  9
$DIMCLRE
 70
     0
  9
$DIMCLRT
 70
     0
  9
$DIMTFAC
 40
1.0
  9
$DIMGAP
 40
0.09
  9
$DIMJUST
 70
     0
  9
$DIMSD1
 70
     0
  9
$DIMSD2
 70
     0
  9
$DIMTOLJ
 70
     1
  9
$DIMTZIN
 70
     0
  9
$DIMALTZ
 70
     0
  9
$DIMALTTZ
 70
     0
  9
$DIMUPT
 70
     0
  9
$DIMDEC
 70
     4
  9
$DIMTDEC
 70
     4
  9
$DIMALTU
 70
     2
  9
$DIMALTTD
 70
     2
  9
$DIMTXSTY
  7
Standard
  9
$DIMAUNIT
 70
     0
  9
$DIMADEC
 70
     0
  9
$DIMALTRND
 40
0.0
  9
$DIMAZIN
 70
     0
  9
$DIMDSEP
 70
    46
  9
$DIMATFIT
 70
     3
  9
$DIMFRAC
 70
     0
  9
$DIMLDRBLK
  1

  9
$DIMLUNIT
 70
     2
  9
$DIMLWD
 70
    -2
  9
$DIMLWE
 70
    -2
  9
$DIMTMOVE
 70
     0
  9
$LUNITS
 70
     2
  9
$LUPREC
 70
     4
  9
$SKETCHINC
 40
0.1
  9
$FILLETRAD
 40
0.0
  9
$AUNITS
 70
     0
  9
$AUPREC
 70
     0
  9
$MENU
  1
.
  9
$ELEVATION
 40
0.0
  9
$PELEVATION
 40
0.0
  9
$THICKNESS
 40
0.0
  9
$LIMCHECK
 70
     0
  9
$CHAMFERA
 40
0.0
  9
$CHAMFERB
 40
0.0
  9
$CHAMFERC
 40
0.0
  9
$CHAMFERD
 40
0.0
  9
$SKPOLY
 70
     0
  9
$TDCREATE
 40
2455653.884159606
  9
$TDUCREATE
 40
2455653.800826273
  9
$TDUPDATE
 40
2455653.889641562
  9
$TDUUPDATE
 40
2455653.806308229
  9
$TDINDWG
 40
0.0054821296
  9
$TDUSRTIMER
 40
0.0054821296
  9
$USRTIMER
 70
     1
  9
$ANGBASE
 50
0.0
  9
$ANGDIR
 70
     0
  9
$PDMODE
 70
     0
  9
$PDSIZE
 40
0.0
  9
$PLINEWID
 40
0.0
  9
$SPLFRAME
 70
     0
  9
$SPLINETYPE
 70
     6
  9
$SPLINESEGS
 70
     8
  9
$HANDSEED
  5
1E8
  9
$SURFTAB1
 70
     6
  9
$SURFTAB2
 70
     6
  9
$SURFTYPE
 70
     6
  9
$SURFU
 70
     6
  9
$SURFV
 70
     6
  9
$UCSBASE
  2

  9
$UCSNAME
  2

  9
$UCSORG
 10
0.0
 20
0.0
 30
0.0
  9
$UCSXDIR
 10
1.0
 20
0.0
 30
0.0
  9
$UCSYDIR
 10
0.0
 20
1.0
 30
0.0
  9
$UCSORTHOREF
  2

  9
$UCSORTHOVIEW
 70
     1
  9
$UCSORGTOP
 10
0.0
 20
0.0
 30
0.0
  9
$UCSORGBOTTOM
 10
0.0
 20
0.0
 30
0.0
  9
$UCSORGLEFT
 10
0.0
 20
0.0
 30
0.0
  9
$UCSORGRIGHT
 10
0.0
 20
0.0
 30
0.0
  9
$UCSORGFRONT
 10
0.0
 20
0.0
 30
0.0
  9
$UCSORGBACK
 10
0.0
 20
0.0
 30
0.0
  9
$PUCSBASE
  2

  9
$PUCSNAME
  2

  9
$PUCSORG
 10
0.0
 20
0.0
 30
0.0
  9
$PUCSXDIR
 10
1.0
 20
0.0
 30
0.0
  9
$PUCSYDIR
 10
0.0
 20
1.0
 30
0.0
  9
$PUCSORTHOREF
  2

  9
$PUCSORTHOVIEW
 70
     0
  9
$PUCSORGTOP
 10
0.0
 20
0.0
 30
0.0
  9
$PUCSORGBOTTOM
 10
0.0
 20
0.0
 30
0.0
  9
$PUCSORGLEFT
 10
0.0
 20
0.0
 30
0.0
  9
$PUCSORGRIGHT
 10
0.0
 20
0.0
 30
0.0
  9
$PUCSORGFRONT
 10
0.0
 20
0.0
 30
0.0
  9
$PUCSORGBACK
 10
0.0
 20
0.0
 30
0.0
  9
$USERI1
 70
     0
  9
$USERI2
 70
     0
  9
$USERI3
 70
     0
  9
$USERI4
 70
     0
  9
$USERI5
 70
     0
  9
$USERR1
 40
0.0
  9
$USERR2
 40
0.0
  9
$USERR3
 40
0.0
  9
$USERR4
 40
0.0
  9
$USERR5
 40
0.0
  9
$WORLDVIEW
 70
     1
  9
$SHADEDGE
 70
     3
  9
$SHADEDIF
 70
    70
  9
$TILEMODE
 70
     1
  9
$MAXACTVP
 70
    64
  9
$PINSBASE
 10
0.0
 20
0.0
 30
0.0
  9
$PLIMCHECK
 70
     0
  9
$PEXTMIN
 10
1.000000000000000E+20
 20
1.000000000000000E+20
 30
1.000000000000000E+20
  9
$PEXTMAX
 10
-1.000000000000000E+20
 20
-1.000000000000000E+20
 30
-1.000000000000000E+20
  9
$PLIMMIN
 10
0.0
 20
0.0
  9
$PLIMMAX
 10
12.0
 20
9.0
  9
$UNITMODE
 70
     0
  9
$VISRETAIN
 70
     1
  9
$PLINEGEN
 70
     0
  9
$PSLTSCALE
 70
     1
  9
$TREEDEPTH
 70
  3020
  9
$CMLSTYLE
  2
Standard
  9
$CMLJUST
 70
     0
  9
$CMLSCALE
 40
1.0
  9
$PROXYGRAPHICS
 70
     1
  9
$MEASUREMENT
 70
     0
  9
$CELWEIGHT
370
    -1
  9
$ENDCAPS
280
     0
  9
$JOINSTYLE
280
     0
  9
$LWDISPLAY
290
     0
  9
$INSUNITS
 70
     0
  9
$HYPERLINKBASE
  1

  9
$STYLESHEET
  1

  9
$XEDIT
290
     1
  9
$CEPSNTYPE
380
     0
  9
$PSTYLEMODE
290
     1
  9
$FINGERPRINTGUID
  2
{A71B1853-D40C-49A7-9B33-4D15CCA3495F}
  9
$VERSIONGUID
  2
{0F5DED26-05DE-4C82-AE5D-22F6022D6AD0}
  9
$EXTNAMES
290
     1
  9
$PSVPSCALE
 40
0.0
  9
$OLESTARTUP
290
     0
  0
ENDSEC
  0
SECTION
  2
CLASSES
  0
CLASS
  1
ACDBDICTIONARYWDFLT
  2
AcDbDictionaryWithDefault
  3
AutoCAD 2000
 90
        0
280
     0
281
     0
  0
CLASS
  1
ACDBPLACEHOLDER
  2
AcDbPlaceHolder
  3
AutoCAD 2000
 90
        0
280
     0
281
     0
  0
CLASS
  1
LAYOUT
  2
AcDbLayout
  3
AutoCAD 2000
 90
        0
280
     0
281
     0
  0
CLASS
  1
DICTIONARYVAR
  2
AcDbDictionaryVar
  3
AutoCAD 2000
 90
        0
280
     0
281
     0
  0
ENDSEC
  0
SECTION
  2
TABLES
  0
TABLE
  2
VPORT
  5
8
330
0
100
AcDbSymbolTable
 70
     3
  0
VPORT
  5
1E7
330
8
100
AcDbSymbolTableRecord
100
AcDbViewportTableRecord
  2
*Active
 70
     0
 10
0.0
 20
0.0
 11
1.0
 21
1.0
 12
27.5
 22
79.00000000000002
 13
0.0
 23
0.0
 14
1.0
 24
1.0
 15
0.0
 25
0.0
 16
0.0
 26
0.0
 36
1.0
 17
0.0
 27
0.0
 37
0.0
 40
158.8311747463359
 41
2.073363431151241
 42
50.0
 43
0.0
 44
0.0
 50
0.0
 51
0.0
 71
     0
 72
   100
 73
     1
 74
     3
 75
     0
 76
     0
 77
     0
 78
     0
281
     0
 65
     1
110
0.0
120
0.0
130
0.0
111
1.0
121
0.0
131
0.0
112
0.0
122
1.0
132
0.0
 79
     1
146
0.0
  0
ENDTAB
  0
TABLE
  2
LTYPE
  5
5
330
0
100
AcDbSymbolTable
 70
     1
  0
LTYPE
  5
13
330
5
100
AcDbSymbolTableRecord
100
AcDbLinetypeTableRecord
  2
ByBlock
 70
     0
  3

 72
    65
 73
     0
 40
0.0
  0
LTYPE
  5
14
330
5
100
AcDbSymbolTableRecord
100
AcDbLinetypeTableRecord
  2
ByLayer
 70
     0
  3

 72
    65
 73
     0
 40
0.0
  0
LTYPE
  5
15
330
5
100
AcDbSymbolTableRecord
100
AcDbLinetypeTableRecord
  2
Continuous
 70
     0
  3
Solid line
 72
    65
 73
     0
 40
0.0
  0
ENDTAB
  0
TABLE
  2
LAYER
  5
2
330
0
100
AcDbSymbolTable
 70
     1
  0
LAYER
  5
10
330
2
100
AcDbSymbolTableRecord
100
AcDbLayerTableRecord
  2
0
 70
     0
 62
     7
  6
Continuous
370
    -3
390
F
  0
ENDTAB
  0
TABLE
  2
STYLE
  5
3
330
0
100
AcDbSymbolTable
 70
     1
  0
STYLE
  5
11
330
3
100
AcDbSymbolTableRecord
100
AcDbTextStyleTableRecord
  2
Standard
 70
     0
 40
0.0
 41
1.0
 50
0.0
 71
     0
 42
0.2
  3
txt
  4

  0
ENDTAB
  0
TABLE
  2
VIEW
  5
6
330
0
100
AcDbSymbolTable
 70
     0
  0
ENDTAB
  0
TABLE
  2
UCS
  5
7
330
0
100
AcDbSymbolTable
 70
     0
  0
ENDTAB
  0
TABLE
  2
APPID
  5
9
330
0
100
AcDbSymbolTable
 70
     1
  0
APPID
  5
12
330
9
100
AcDbSymbolTableRecord
100
AcDbRegAppTableRecord
  2
ACAD
 70
     0
  0
ENDTAB
  0
TABLE
  2
DIMSTYLE
  5
A
330
0
100
AcDbSymbolTable
 70
     1
100
AcDbDimStyleTable
 71
     0
  0
DIMSTYLE
105
1E0
330
A
100
AcDbSymbolTableRecord
100
AcDbDimStyleTableRecord
  2
Standard
 70
     0
340
11
  0
ENDTAB
  0
TABLE
  2
BLOCK_RECORD
  5
1
330
0
100
AcDbSymbolTable
 70
     0
  0
BLOCK_RECORD
  5
1E
330
1
100
AcDbSymbolTableRecord
100
AcDbBlockTableRecord
  2
*Model_Space
340
21
  0
BLOCK_RECORD
  5
1A
330
1
100
AcDbSymbolTableRecord
100
AcDbBlockTableRecord
  2
*Paper_Space
340
1D
  0
ENDTAB
  0
ENDSEC
  0
SECTION
  2
BLOCKS
  0
BLOCK
  5
1F
330
1E
100
AcDbEntity
  8
0
100
AcDbBlockBegin
  2
*Model_Space
 70
     0
 10
0.0
 20
0.0
 30
0.0
  3
*Model_Space
  1

  0
ENDBLK
  5
20
330
1E
100
AcDbEntity
  8
0
100
AcDbBlockEnd
  0
BLOCK
  5
1B
330
1A
100
AcDbEntity
 67
     1
  8
0
100
AcDbBlockBegin
  2
*Paper_Space
 70
     0
 10
0.0
 20
0.0
 30
0.0
  3
*Paper_Space
  1

  0
ENDBLK
  5
1C
330
1A
100
AcDbEntity
 67
     1
  8
0
100
AcDbBlockEnd
  0
ENDSEC
  0
SECTION
  2
ENTITIES
  0
LINE
  5
22
330
1E
100
AcDbEntity
  8
0
100
AcDbLine
 10
4.005809999999999
 20
4.43913000000002
 30
0.0
 11
4.105879999999999
 21
3.90734000000002
 31
0.0
  0
LINE
  5
23
330
1E
100
AcDbEntity
  8
0
100
AcDbLine
 10
4.41309
 20
3.14708000000002
 30
0.0
 11
4.993509999999999
 21
2.363870000000019
 31
0.0
  0
LINE
  5
24
330
1E
100
AcDbEntity
  8
0
100
AcDbLine
 10
4.105879999999999
 20
3.90734000000002
 30
0.0
 11
4.41309
 21
3.14708000000002
 31
0.0
  0
LINE
  5
25
330
1E
100
AcDbEntity
  8
0
100
AcDbLine
 10
4.993509999999999
 20
2.363870000000019
 30
0.0
 11
5.1226
 21
2.24115000000002
 31
0.0
  0
LINE
  5
26
330
1E
100
AcDbEntity
  8
0
100
AcDbLine
 10
6.610649999999999
 20
1.39009000000002
 30
0.0
 11
7.19707
 21
1.23445000000002
 31
0.0
  0
LINE
  5
27
330
1E
100
AcDbEntity
  8
0
100
AcDbLine
 10
7.19707
 20
1.23445000000002
 30
0.0
 11
8.411929999999999
 21
1.05086900000002
 31
0.0
  0
LINE
  5
29
330
1E
100
AcDbEntity
  8
0
100
AcDbLine
 10
5.80008
 20
1.74428000000002
 30
0.0
 11
6.610649999999999
 21
1.39009000000002
 31
0.0
  0
LINE
  5
2A
330
1E
100
AcDbEntity
  8
0
100
AcDbLine
 10
5.1226
 20
2.24115000000002
 30
0.0
 11
5.80008
 21
1.74428000000002
 31
0.0
  0
LINE
  5
2B
330
1E
100
AcDbEntity
  8
0
100
AcDbLine
 10
3.82268
 20
10.8445
 30
0.0
 11
3.864709999999999
 21
8.405070000000019
 31
0.0
  0
LINE
  5
2C
330
1E
100
AcDbEntity
  8
0
100
AcDbLine
 10
3.864709999999999
 20
8.405070000000019
 30
0.0
 11
3.90674
 21
5.966640000000019
 31
0.0
  0
LINE
  5
2D
330
1E
100
AcDbEntity
  8
0
100
AcDbLine
 10
3.90674
 20
5.966640000000019
 30
0.0
 11
3.91074
 21
5.671310000000018
 31
0.0
  0
LINE
  5
2E
330
1E
100
AcDbEntity
  8
0
100
AcDbLine
 10
3.91074
 20
5.671310000000018
 30
0.0
 11
3.98079
 21
4.767380000000019
 31
0.0
  0
LINE
  5
2F
330
1E
100
AcDbEntity
  8
0
100
AcDbLine
 10
3.98079
 20
4.767380000000019
 30
0.0
 11
4.005809999999999
 21
4.43913000000002
 31
0.0
  0
LINE
  5
31
330
1E
100
AcDbEntity
  8
0
100
AcDbLine
 10
24.11505
 20
0.118000000000019
 30
0.0
 11
28.05185
 21
0.176866000000019
 31
0.0
  0
LINE
  5
32
330
1E
100
AcDbEntity
  8
0
100
AcDbLine
 10
28.05185
 20
0.176866000000019
 30
0.0
 11
31.98365
 21
0.352464000000019
 31
0.0
  0
LINE
  5
33
330
1E
100
AcDbEntity
  8
0
100
AcDbLine
 10
31.98365
 20
0.352464000000019
 30
0.0
 11
35.90745
 21
0.6437990000000191
 31
0.0
  0
LINE
  5
34
330
1E
100
AcDbEntity
  8
0
100
AcDbLine
 10
20.17824999999999
 20
0.176866000000019
 30
0.0
 11
24.11505
 21
0.118000000000019
 31
0.0
  0
LINE
  5
35
330
1E
100
AcDbEntity
  8
0
100
AcDbLine
 10
16.24645
 20
0.352464000000019
 30
0.0
 11
20.17824999999999
 21
0.176866000000019
 31
0.0
  0
LINE
  5
44
330
1E
100
AcDbEntity
  8
0
100
AcDbLine
 10
12.32264999999999
 20
0.6437990000000191
 30
0.0
 11
16.24645
 21
0.352464000000019
 31
0.0
  0
LINE
  5
45
330
1E
100
AcDbEntity
  8
0
100
AcDbLine
 10
8.411929999999999
 20
1.05086900000002
 30
0.0
 11
12.32264999999999
 21
0.6437990000000191
 31
0.0
  0
LINE
  5
46
330
1E
100
AcDbEntity
  8
0
100
AcDbLine
 10
3.77965
 20
13.28289999999999
 30
0.0
 11
3.82268
 21
10.8445
 31
0.0
  0
LINE
  5
48
330
1E
100
AcDbEntity
  8
0
100
AcDbLine
 10
3.724609999999999
 20
16.2681
 30
0.0
 11
3.77965
 21
13.28289999999999
 31
0.0
  0
LINE
  5
49
330
1E
100
AcDbEntity
  8
0
100
AcDbLine
 10
3.7176
 20
16.67119999999999
 30
0.0
 11
3.724609999999999
 21
16.2681
 31
0.0
  0
LINE
  5
4A
330
1E
100
AcDbEntity
  8
0
100
AcDbLine
 10
3.69158
 20
19.808
 30
0.0
 11
3.705589999999999
 21
18.21659999999999
 31
0.0
  0
LINE
  5
4B
330
1E
100
AcDbEntity
  8
0
100
AcDbLine
 10
3.705589999999999
 20
18.21659999999999
 30
0.0
 11
3.7176
 21
16.67119999999999
 31
0.0
  0
LINE
  5
4C
330
1E
100
AcDbEntity
  8
0
100
AcDbLine
 10
3.63755
 20
25.4122
 30
0.0
 11
3.656559999999999
 21
23.4946
 31
0.0
  0
LINE
  5
4D
330
1E
100
AcDbEntity
  8
0
100
AcDbLine
 10
3.656559999999999
 20
23.4946
 30
0.0
 11
3.674569999999999
 21
21.6249
 31
0.0
  0
LINE
  5
4E
330
1E
100
AcDbEntity
  8
0
100
AcDbLine
 10
3.674569999999999
 20
21.6249
 30
0.0
 11
3.69158
 21
19.808
 31
0.0
  0
LINE
  5
55
330
1E
100
AcDbEntity
  8
0
100
AcDbLine
 10
0.115049999999998
 20
128.0699999999999
 30
0.0
 11
0.134062999999998
 21
128.4789999999999
 31
0.0
  0
LINE
  5
56
330
1E
100
AcDbEntity
  8
0
100
AcDbLine
 10
0.115049999999998
 20
128.0699999999999
 30
0.0
 11
0.134062999999998
 21
125.867
 31
0.0
  0
LINE
  5
57
330
1E
100
AcDbEntity
  8
0
100
AcDbLine
 10
0.134062999999998
 20
125.867
 30
0.0
 11
0.532345999999998
 21
122.6399999999999
 31
0.0
  0
LINE
  5
58
330
1E
100
AcDbEntity
  8
0
100
AcDbLine
 10
0.134062999999998
 20
125.867
 30
0.0
 11
0.532345999999998
 21
122.6399999999999
 31
0.0
  0
LINE
  5
59
330
1E
100
AcDbEntity
  8
0
100
AcDbLine
 10
2.588799999999999
 20
107.0999999999999
 30
0.0
 11
2.623829999999999
 21
105.834
 31
0.0
  0
LINE
  5
5A
330
1E
100
AcDbEntity
  8
0
100
AcDbLine
 10
2.449699999999999
 20
112.149
 30
0.0
 11
2.49173
 21
110.6289999999999
 31
0.0
  0
LINE
  5
5B
330
1E
100
AcDbEntity
  8
0
100
AcDbLine
 10
2.49173
 20
110.6289999999999
 30
0.0
 11
2.539769999999999
 21
108.9079999999999
 31
0.0
  0
LINE
  5
5C
330
1E
100
AcDbEntity
  8
0
100
AcDbLine
 10
2.408679999999999
 20
113.616
 30
0.0
 11
2.449699999999999
 21
112.149
 31
0.0
  0
LINE
  5
5D
330
1E
100
AcDbEntity
  8
0
100
AcDbLine
 10
2.33562
 20
116.2679999999999
 30
0.0
 11
2.371649999999999
 21
114.966
 31
0.0
  0
LINE
  5
5E
330
1E
100
AcDbEntity
  8
0
100
AcDbLine
 10
2.3006
 20
117.522
 30
0.0
 11
2.33562
 21
116.2679999999999
 31
0.0
  0
LINE
  5
5F
330
1E
100
AcDbEntity
  8
0
100
AcDbLine
 10
2.26757
 20
118.7279999999999
 30
0.0
 11
2.3006
 21
117.522
 31
0.0
  0
LINE
  5
60
330
1E
100
AcDbEntity
  8
0
100
AcDbLine
 10
2.371649999999999
 20
114.966
 30
0.0
 11
2.408679999999999
 21
113.616
 31
0.0
  0
LINE
  5
61
330
1E
100
AcDbEntity
  8
0
100
AcDbLine
 10
2.580547575197549
 20
107.4012193956709
 30
0.0
 11
2.62082
 21
104.881
 31
0.0
  0
LINE
  5
62
330
1E
100
AcDbEntity
  8
0
100
AcDbLine
 10
2.580577233771789
 20
107.4001368365419
 30
0.0
 11
2.62082
 21
104.881
 31
0.0
  0
LINE
  5
63
330
1E
100
AcDbEntity
  8
0
100
AcDbLine
 10
3.360349999999999
 20
48.3727
 30
0.0
 11
3.453419999999999
 21
41.1253
 31
0.0
  0
LINE
  5
64
330
1E
100
AcDbEntity
  8
0
100
AcDbLine
 10
3.533469999999999
 20
34.6212
 30
0.0
 11
3.56549
 21
31.8585
 31
0.0
  0
LINE
  5
65
330
1E
100
AcDbEntity
  8
0
100
AcDbLine
 10
3.591509999999999
 20
29.59659999999999
 30
0.0
 11
3.61653
 21
27.3747
 31
0.0
  0
LINE
  5
66
330
1E
100
AcDbEntity
  8
0
100
AcDbLine
 10
3.61653
 20
27.3747
 30
0.0
 11
3.63755
 21
25.4122
 31
0.0
  0
LINE
  5
67
330
1E
100
AcDbEntity
  8
0
100
AcDbLine
 10
3.56549
 20
31.8585
 30
0.0
 11
3.591509999999999
 21
29.59659999999999
 31
0.0
  0
LINE
  5
68
330
1E
100
AcDbEntity
  8
0
100
AcDbLine
 10
3.951769999999999
 20
58.1464
 30
0.0
 11
4.022819999999999
 21
55.8197
 31
0.0
  0
LINE
  5
69
330
1E
100
AcDbEntity
  8
0
100
AcDbLine
 10
4.022819999999999
 20
55.8197
 30
0.0
 11
4.094869999999999
 21
53.511
 31
0.0
  0
LINE
  5
6A
330
1E
100
AcDbEntity
  8
0
100
AcDbLine
 10
4.52618
 20
46.96299999999999
 30
0.0
 11
4.87943
 21
46.2177
 31
0.0
  0
LINE
  5
6B
330
1E
100
AcDbEntity
  8
0
100
AcDbLine
 10
4.38608
 20
47.4928
 30
0.0
 11
4.52618
 21
46.96299999999999
 31
0.0
  0
LINE
  5
6C
330
1E
100
AcDbEntity
  8
0
100
AcDbLine
 10
4.26099
 20
48.5474
 30
0.0
 11
4.38608
 21
47.4928
 31
0.0
  0
LINE
  5
6D
330
1E
100
AcDbEntity
  8
0
100
AcDbLine
 10
4.242969999999999
 20
48.9684
 30
0.0
 11
4.26099
 21
48.5474
 31
0.0
  0
LINE
  5
6E
330
1E
100
AcDbEntity
  8
0
100
AcDbLine
 10
4.167919999999999
 20
51.2242
 30
0.0
 11
4.242969999999999
 21
48.9684
 31
0.0
  0
LINE
  5
6F
330
1E
100
AcDbEntity
  8
0
100
AcDbLine
 10
4.094869999999999
 20
53.511
 30
0.0
 11
4.167919999999999
 21
51.2242
 31
0.0
  0
LINE
  5
70
330
1E
100
AcDbEntity
  8
0
100
AcDbLine
 10
3.882719999999999
 20
60.4861
 30
0.0
 11
3.951769999999999
 21
58.1464
 31
0.0
  0
LINE
  5
71
330
1E
100
AcDbEntity
  8
0
100
AcDbLine
 10
3.813669999999999
 20
62.8357
 30
0.0
 11
3.882719999999999
 21
60.4861
 31
0.0
  0
LINE
  5
72
330
1E
100
AcDbEntity
  8
0
100
AcDbLine
 10
4.87943
 20
46.2177
 30
0.0
 11
4.95148
 21
46.1139
 31
0.0
  0
LINE
  5
73
330
1E
100
AcDbEntity
  8
0
100
AcDbLine
 10
4.95148
 20
46.1139
 30
0.0
 11
5.45283
 21
45.4694
 31
0.0
  0
LINE
  5
74
330
1E
100
AcDbEntity
  8
0
100
AcDbLine
 10
3.499449999999999
 20
37.40679999999999
 30
0.0
 11
3.533469999999999
 21
34.6212
 31
0.0
  0
LINE
  5
75
330
1E
100
AcDbEntity
  8
0
100
AcDbLine
 10
3.453419999999999
 20
41.1253
 30
0.0
 11
3.499449999999999
 21
37.40679999999999
 31
0.0
  0
LINE
  5
76
330
1E
100
AcDbEntity
  8
0
100
AcDbLine
 10
2.623829999999999
 20
105.834
 30
0.0
 11
2.762929999999999
 21
100.774
 31
0.0
  0
LINE
  5
77
330
1E
100
AcDbEntity
  8
0
100
AcDbLine
 10
2.665859999999999
 20
101.841
 30
0.0
 11
2.744909999999999
 21
96.11769999999999
 31
0.0
  0
LINE
  5
78
330
1E
100
AcDbEntity
  8
0
100
AcDbLine
 10
3.678569999999999
 20
67.5549
 30
0.0
 11
3.813669999999999
 21
62.8357
 31
0.0
  0
LINE
  5
79
330
1E
100
AcDbEntity
  8
0
100
AcDbLine
 10
3.589509999999999
 20
70.70869999999999
 30
0.0
 11
3.678569999999999
 21
67.5549
 31
0.0
  0
LINE
  5
7A
330
1E
100
AcDbEntity
  8
0
100
AcDbLine
 10
3.306309999999999
 20
80.98119999999999
 30
0.0
 11
3.41439
 21
77.0223
 31
0.0
  0
LINE
  5
7B
330
1E
100
AcDbEntity
  8
0
100
AcDbLine
 10
3.41439
 20
77.0223
 30
0.0
 11
3.589509999999999
 21
70.70869999999999
 31
0.0
  0
LINE
  5
7C
330
1E
100
AcDbEntity
  8
0
100
AcDbLine
 10
3.007099999999999
 20
75.8759
 30
0.0
 11
3.13219
 21
66.1481
 31
0.0
  0
LINE
  5
7D
330
1E
100
AcDbEntity
  8
0
100
AcDbLine
 10
2.943049999999999
 20
80.82559999999999
 30
0.0
 11
3.007099999999999
 21
75.8759
 31
0.0
  0
LINE
  5
7E
330
1E
100
AcDbEntity
  8
0
100
AcDbLine
 10
3.088159999999999
 20
88.8982
 30
0.0
 11
3.306309999999999
 21
80.98119999999999
 31
0.0
  0
LINE
  5
7F
330
1E
100
AcDbEntity
  8
0
100
AcDbLine
 10
2.762929999999999
 20
100.774
 30
0.0
 11
3.088159999999999
 21
88.8982
 31
0.0
  0
LINE
  5
80
330
1E
100
AcDbEntity
  8
0
100
AcDbLine
 10
2.84799
 20
88.2526
 30
0.0
 11
2.943049999999999
 21
80.82559999999999
 31
0.0
  0
LINE
  5
81
330
1E
100
AcDbEntity
  8
0
100
AcDbLine
 10
2.744909999999999
 20
96.11769999999999
 30
0.0
 11
2.84799
 21
88.2526
 31
0.0
  0
LINE
  5
82
330
1E
100
AcDbEntity
  8
0
100
AcDbLine
 10
3.13219
 20
66.1481
 30
0.0
 11
3.360349999999999
 21
48.3727
 31
0.0
  0
LINE
  5
83
330
1E
100
AcDbEntity
  8
0
100
AcDbLine
 10
2.62082
 20
104.881
 30
0.0
 11
2.665859999999999
 21
101.841
 31
0.0
  0
LINE
  5
84
330
1E
100
AcDbEntity
  8
0
100
AcDbLine
 10
2.140479999999999
 20
123.4639999999999
 30
0.0
 11
2.588799999999999
 21
107.0999999999999
 31
0.0
  0
LINE
  5
85
330
1E
100
AcDbEntity
  8
0
100
AcDbLine
 10
2.140479999999999
 20
123.4639999999999
 30
0.0
 11
2.539769999999999
 21
108.9079999999999
 31
0.0
  0
LINE
  5
86
330
1E
100
AcDbEntity
  8
0
100
AcDbLine
 10
2.172509999999999
 20
122.209
 30
0.0
 11
2.21654
 21
120.568
 31
0.0
  0
LINE
  5
87
330
1E
100
AcDbEntity
  8
0
100
AcDbLine
 10
2.21654
 20
120.568
 30
0.0
 11
2.26757
 21
118.7279999999999
 31
0.0
  0
LINE
  5
88
330
1E
100
AcDbEntity
  8
0
100
AcDbLine
 10
2.132479999999999
 20
123.7049999999999
 30
0.0
 11
2.163499999999999
 21
122.595
 31
0.0
  0
LINE
  5
8C
330
1E
100
AcDbEntity
  8
0
100
AcDbLine
 10
2.09545
 20
126.112
 30
0.0
 11
2.09845
 21
126.431
 31
0.0
  0
LINE
  5
8D
330
1E
100
AcDbEntity
  8
0
100
AcDbLine
 10
2.09545
 20
126.112
 30
0.0
 11
2.096449999999999
 21
125.6599999999999
 31
0.0
  0
LINE
  5
8E
330
1E
100
AcDbEntity
  8
0
100
AcDbLine
 10
2.09545
 20
125.848
 30
0.0
 11
2.101459999999999
 21
125.102
 31
0.0
  0
LINE
  5
8F
330
1E
100
AcDbEntity
  8
0
100
AcDbLine
 10
2.09545
 20
125.848
 30
0.0
 11
2.100459999999999
 21
126.3649999999999
 31
0.0
  0
LINE
  5
90
330
1E
100
AcDbEntity
  8
0
100
AcDbLine
 10
2.09545
 20
125.848
 30
0.0
 11
2.109459999999999
 21
126.822
 31
0.0
  0
LINE
  5
91
330
1E
100
AcDbEntity
  8
0
100
AcDbLine
 10
2.09545
 20
125.848
 30
0.0
 11
2.09845
 21
126.3439999999999
 31
0.0
  0
LINE
  5
92
330
1E
100
AcDbEntity
  8
0
100
AcDbLine
 10
2.09545
 20
126.2259999999999
 30
0.0
 11
2.096449999999999
 21
126.492
 31
0.0
  0
LINE
  5
93
330
1E
100
AcDbEntity
  8
0
100
AcDbLine
 10
2.09545
 20
126.2259999999999
 30
0.0
 11
2.096010655737699
 21
126.1716163934429
 31
0.0
  0
LINE
  5
94
330
1E
100
AcDbEntity
  8
0
100
AcDbLine
 10
2.093449999999999
 20
126.919
 30
0.0
 11
2.096652182846229
 21
126.605889779409
 31
0.0
  0
LINE
  5
95
330
1E
100
AcDbEntity
  8
0
100
AcDbLine
 10
2.093449999999999
 20
126.919
 30
0.0
 11
2.09545
 21
127.163
 31
0.0
  0
LINE
  5
96
330
1E
100
AcDbEntity
  8
0
100
AcDbLine
 10
2.096449999999999
 20
125.6599999999999
 30
0.0
 11
2.09845
 21
126.3439999999999
 31
0.0
  0
LINE
  5
97
330
1E
100
AcDbEntity
  8
0
100
AcDbLine
 10
2.097449999999999
 20
125.8079999999999
 30
0.0
 11
2.106459999999999
 21
124.774
 31
0.0
  0
LINE
  5
98
330
1E
100
AcDbEntity
  8
0
100
AcDbLine
 10
2.097449999999999
 20
125.8079999999999
 30
0.0
 11
2.101459999999999
 21
125.1749999999999
 31
0.0
  0
LINE
  5
99
330
1E
100
AcDbEntity
  8
0
100
AcDbLine
 10
2.096449999999999
 20
126.341
 30
0.0
 11
2.09686255605381
 21
126.262201793722
 31
0.0
  0
LINE
  5
9A
330
1E
100
AcDbEntity
  8
0
100
AcDbLine
 10
2.096449999999999
 20
126.341
 30
0.0
 11
2.101459999999999
 21
126.687
 31
0.0
  0
LINE
  5
9B
330
1E
100
AcDbEntity
  8
0
100
AcDbLine
 10
2.096603606600289
 20
126.5328593556769
 30
0.0
 11
2.097449999999999
 21
126.7579999999999
 31
0.0
  0
LINE
  5
9C
330
1E
100
AcDbEntity
  8
0
100
AcDbLine
 10
2.101459999999999
 20
125.1749999999999
 30
0.0
 11
2.106459999999999
 21
124.774
 31
0.0
  0
LINE
  5
9D
330
1E
100
AcDbEntity
  8
0
100
AcDbLine
 10
2.106459999999999
 20
124.774
 30
0.0
 11
2.132479999999999
 21
123.7049999999999
 31
0.0
  0
LINE
  5
9E
330
1E
100
AcDbEntity
  8
0
100
AcDbLine
 10
2.100459999999999
 20
126.3649999999999
 30
0.0
 11
2.109459999999999
 21
126.822
 31
0.0
  0
LINE
  5
9F
330
1E
100
AcDbEntity
  8
0
100
AcDbLine
 10
2.098805010879199
 20
126.366387541301
 30
0.0
 11
2.101459999999999
 21
126.687
 31
0.0
  0
LINE
  5
A0
330
1E
100
AcDbEntity
  8
0
100
AcDbLine
 10
2.098286055276379
 20
126.316894472362
 30
0.0
 11
2.09845
 21
126.431
 31
0.0
  0
LINE
  5
A1
330
1E
100
AcDbEntity
  8
0
100
AcDbLine
 10
2.098805010879199
 20
126.366387541301
 30
0.0
 11
2.101459999999999
 21
126.687
 31
0.0
  0
LINE
  5
A2
330
1E
100
AcDbEntity
  8
0
100
AcDbLine
 10
2.099459999999999
 20
125.242
 30
0.0
 11
2.101459999999999
 21
125.102
 31
0.0
  0
LINE
  5
A3
330
1E
100
AcDbEntity
  8
0
100
AcDbLine
 10
2.099459999999999
 20
125.242
 30
0.0
 11
2.106459999999999
 21
124.774
 31
0.0
  0
LINE
  5
A4
330
1E
100
AcDbEntity
  8
0
100
AcDbLine
 10
2.097449999999999
 20
126.7579999999999
 30
0.0
 11
2.097449999999999
 21
126.8579999999999
 31
0.0
  0
LINE
  5
A5
330
1E
100
AcDbEntity
  8
0
100
AcDbLine
 10
2.11246
 20
127.2809999999999
 30
0.0
 11
2.12948
 21
127.65
 31
0.0
  0
LINE
  5
A6
330
1E
100
AcDbEntity
  8
0
100
AcDbLine
 10
2.12948
 20
127.65
 30
0.0
 11
2.18852
 21
128.654
 31
0.0
  0
LINE
  5
A7
330
1E
100
AcDbEntity
  8
0
100
AcDbLine
 10
2.182509999999999
 20
128.942
 30
0.0
 11
2.28659
 21
129.9279999999999
 31
0.0
  0
LINE
  5
A8
330
1E
100
AcDbEntity
  8
0
100
AcDbLine
 10
2.28659
 20
129.9279999999999
 30
0.0
 11
2.43269
 21
130.9109999999999
 31
0.0
  0
LINE
  5
A9
330
1E
100
AcDbEntity
  8
0
100
AcDbLine
 10
2.167598446036649
 20
128.241404074688
 30
0.0
 11
2.18852
 21
128.654
 31
0.0
  0
LINE
  5
AA
330
1E
100
AcDbEntity
  8
0
100
AcDbLine
 10
2.097449999999999
 20
126.8579999999999
 30
0.0
 11
2.108779259726449
 21
127.081425392212
 31
0.0
  0
LINE
  5
AB
330
1E
100
AcDbEntity
  8
0
100
AcDbLine
 10
2.097449999999999
 20
126.8579999999999
 30
0.0
 11
2.11246
 21
127.2809999999999
 31
0.0
  0
LINE
  5
AC
330
1E
100
AcDbEntity
  8
0
100
AcDbLine
 10
2.097449999999999
 20
126.8579999999999
 30
0.0
 11
2.097449999999999
 21
126.7579999999999
 31
0.0
  0
LINE
  5
AD
330
1E
100
AcDbEntity
  8
0
100
AcDbLine
 10
2.09545
 20
127.163
 30
0.0
 11
2.182509999999999
 21
128.942
 31
0.0
  0
LINE
  5
B0
330
1E
100
AcDbEntity
  8
0
100
AcDbLine
 10
1.41097
 20
119.364
 30
0.0
 11
2.3082598992367
 21
117.247713488212
 31
0.0
  0
LINE
  5
B1
330
1E
100
AcDbEntity
  8
0
100
AcDbLine
 10
0.532345999999998
 20
122.6399999999999
 30
0.0
 11
1.41097
 21
119.364
 31
0.0
  0
LINE
  5
B2
330
1E
100
AcDbEntity
  8
0
100
AcDbLine
 10
2.43269
 20
130.9109999999999
 30
0.0
 11
2.623829999999999
 21
131.8859999999999
 31
0.0
  0
LINE
  5
B3
330
1E
100
AcDbEntity
  8
0
100
AcDbLine
 10
2.623829999999999
 20
131.8859999999999
 30
0.0
 11
2.85999
 21
132.852
 31
0.0
  0
LINE
  5
B4
330
1E
100
AcDbEntity
  8
0
100
AcDbLine
 10
2.85999
 20
132.852
 30
0.0
 11
3.256279999999999
 21
134.151
 31
0.0
  0
LINE
  5
B5
330
1E
100
AcDbEntity
  8
0
100
AcDbLine
 10
0.9736579999999978
 20
133.58
 30
0.0
 11
1.522049999999999
 21
135.297
 31
0.0
  0
LINE
  5
B6
330
1E
100
AcDbEntity
  8
0
100
AcDbLine
 10
0.9736579999999978
 20
133.581
 30
0.0
 11
1.522049999999999
 21
135.297
 31
0.0
  0
LINE
  5
B7
330
1E
100
AcDbEntity
  8
0
100
AcDbLine
 10
0.5633679999999979
 20
131.8629999999999
 30
0.0
 11
0.9736579999999978
 21
133.581
 31
0.0
  0
LINE
  5
B8
330
1E
100
AcDbEntity
  8
0
100
AcDbLine
 10
0.5633679999999979
 20
131.8629999999999
 30
0.0
 11
0.9736579999999978
 21
133.58
 31
0.0
  0
LINE
  5
B9
330
1E
100
AcDbEntity
  8
0
100
AcDbLine
 10
2.211529999999999
 20
136.9939999999999
 30
0.0
 11
3.04112
 21
138.657
 31
0.0
  0
LINE
  5
BA
330
1E
100
AcDbEntity
  8
0
100
AcDbLine
 10
1.522049999999999
 20
135.297
 30
0.0
 11
2.211529999999999
 21
136.9939999999999
 31
0.0
  0
LINE
  5
BB
330
1E
100
AcDbEntity
  8
0
100
AcDbLine
 10
3.256279999999999
 20
134.151
 30
0.0
 11
3.736619999999999
 21
135.424
 31
0.0
  0
LINE
  5
BC
330
1E
100
AcDbEntity
  8
0
100
AcDbLine
 10
4.944469999999999
 20
137.8839999999999
 30
0.0
 11
5.698999999999999
 21
139.1049999999999
 31
0.0
  0
LINE
  5
BD
330
1E
100
AcDbEntity
  8
0
100
AcDbLine
 10
4.298009999999999
 20
136.667
 30
0.0
 11
4.944469999999999
 21
137.8839999999999
 31
0.0
  0
LINE
  5
BE
330
1E
100
AcDbEntity
  8
0
100
AcDbLine
 10
3.736619999999999
 20
135.424
 30
0.0
 11
4.298009999999999
 21
136.667
 31
0.0
  0
LINE
  5
BF
330
1E
100
AcDbEntity
  8
0
100
AcDbLine
 10
3.04112
 20
138.657
 30
0.0
 11
4.008809999999999
 21
140.27
 31
0.0
  0
LINE
  5
C0
330
1E
100
AcDbEntity
  8
0
100
AcDbLine
 10
0.285170999999998
 20
130.1579999999999
 30
0.0
 11
0.5633679999999979
 21
131.8629999999999
 31
0.0
  0
LINE
  5
C1
330
1E
100
AcDbEntity
  8
0
100
AcDbLine
 10
0.134062999999998
 20
128.4789999999999
 30
0.0
 11
0.285170999999998
 21
130.1579999999999
 31
0.0
  0
LINE
  5
C2
330
1E
100
AcDbEntity
  8
0
100
AcDbLine
 10
4.008809999999999
 20
140.27
 30
0.0
 11
5.109589999999999
 21
141.8129999999999
 31
0.0
  0
LINE
  5
C3
330
1E
100
AcDbEntity
  8
0
100
AcDbLine
 10
6.76076
 20
44.5894
 30
0.0
 11
7.271119999999999
 21
44.4168
 31
0.0
  0
LINE
  5
C4
330
1E
100
AcDbEntity
  8
0
100
AcDbLine
 10
6.056259999999999
 20
44.9655
 30
0.0
 11
6.76076
 21
44.5894
 31
0.0
  0
LINE
  5
C5
330
1E
100
AcDbEntity
  8
0
100
AcDbLine
 10
5.45283
 20
45.4694
 30
0.0
 11
6.056259999999999
 21
44.9655
 31
0.0
  0
LINE
  5
C6
330
1E
100
AcDbEntity
  8
0
100
AcDbLine
 10
8.33988
 20
44.2222
 30
0.0
 11
12.26765
 21
43.79019999999999
 31
0.0
  0
LINE
  5
C7
330
1E
100
AcDbEntity
  8
0
100
AcDbLine
 10
7.271119999999999
 20
44.4168
 30
0.0
 11
8.33988
 21
44.2222
 31
0.0
  0
LINE
  5
C8
330
1E
100
AcDbEntity
  8
0
100
AcDbLine
 10
5.698999999999999
 20
139.1049999999999
 30
0.0
 11
6.541599999999999
 21
140.287
 31
0.0
  0
LINE
  5
C9
330
1E
100
AcDbEntity
  8
0
100
AcDbLine
 10
6.541599999999999
 20
140.287
 30
0.0
 11
7.46926
 21
141.4189999999999
 31
0.0
  0
LINE
  5
CA
330
1E
100
AcDbEntity
  8
0
100
AcDbLine
 10
8.477969999999999
 20
142.495
 30
0.0
 11
9.945009999999999
 21
143.829
 31
0.0
  0
LINE
  5
CB
330
1E
100
AcDbEntity
  8
0
100
AcDbLine
 10
7.46926
 20
141.4189999999999
 30
0.0
 11
8.477969999999999
 21
142.495
 31
0.0
  0
LINE
  5
CF
330
1E
100
AcDbEntity
  8
0
100
AcDbLine
 10
12.26765
 20
43.79019999999999
 30
0.0
 11
16.20945
 21
43.4979
 31
0.0
  0
LINE
  5
D0
330
1E
100
AcDbEntity
  8
0
100
AcDbLine
 10
11.53715
 20
145.0329999999999
 30
0.0
 11
13.24135
 21
146.0929999999999
 31
0.0
  0
LINE
  5
D1
330
1E
100
AcDbEntity
  8
0
100
AcDbLine
 10
9.945009999999999
 20
143.829
 30
0.0
 11
11.53715
 21
145.0329999999999
 31
0.0
  0
LINE
  5
D2
330
1E
100
AcDbEntity
  8
0
100
AcDbLine
 10
13.24135
 20
146.0929999999999
 30
0.0
 11
14.48025
 21
146.738
 31
0.0
  0
LINE
  5
D3
330
1E
100
AcDbEntity
  8
0
100
AcDbLine
 10
14.48025
 20
146.738
 30
0.0
 11
15.75714999999999
 21
147.303
 31
0.0
  0
LINE
  5
D4
330
1E
100
AcDbEntity
  8
0
100
AcDbLine
 10
9.60978
 20
146.257
 30
0.0
 11
11.68725
 21
147.6629999999999
 31
0.0
  0
LINE
  5
D5
330
1E
100
AcDbEntity
  8
0
100
AcDbLine
 10
7.67741
 20
144.6309999999999
 30
0.0
 11
9.60978
 21
146.257
 31
0.0
  0
LINE
  5
D6
330
1E
100
AcDbEntity
  8
0
100
AcDbLine
 10
6.336459999999999
 20
143.272
 30
0.0
 11
7.67741
 21
144.6309999999999
 31
0.0
  0
LINE
  5
D7
330
1E
100
AcDbEntity
  8
0
100
AcDbLine
 10
5.109589999999999
 20
141.8129999999999
 30
0.0
 11
6.336459999999999
 21
143.272
 31
0.0
  0
LINE
  5
D8
330
1E
100
AcDbEntity
  8
0
100
AcDbLine
 10
11.68725
 20
147.6629999999999
 30
0.0
 11
14.61834999999999
 21
149.1659999999999
 31
0.0
  0
LINE
  5
DB
330
1E
100
AcDbEntity
  8
0
100
AcDbLine
 10
16.20945
 20
43.4979
 30
0.0
 11
20.16025
 21
43.3293
 31
0.0
  0
LINE
  5
DC
330
1E
100
AcDbEntity
  8
0
100
AcDbLine
 10
15.75714999999999
 20
147.303
 30
0.0
 11
17.06605
 21
147.787
 31
0.0
  0
LINE
  5
E9
330
1E
100
AcDbEntity
  8
0
100
AcDbLine
 10
17.06605
 20
147.787
 30
0.0
 11
18.39904999999999
 21
148.186
 31
0.0
  0
LINE
  5
EA
330
1E
100
AcDbEntity
  8
0
100
AcDbLine
 10
18.39904999999999
 20
148.186
 30
0.0
 11
19.74994999999999
 21
148.4989999999999
 31
0.0
  0
LINE
  5
EB
330
1E
100
AcDbEntity
  8
0
100
AcDbLine
 10
20.16025
 20
43.3293
 30
0.0
 11
24.11505
 21
43.27239999999999
 31
0.0
  0
LINE
  5
EE
330
1E
100
AcDbEntity
  8
0
100
AcDbLine
 10
20.16025
 20
43.3293
 30
0.0
 11
24.11505
 21
43.27239999999999
 31
0.0
  0
LINE
  5
EF
330
1E
100
AcDbEntity
  8
0
100
AcDbLine
 10
19.74994999999999
 20
148.4989999999999
 30
0.0
 11
21.10995
 21
148.727
 31
0.0
  0
LINE
  5
F0
330
1E
100
AcDbEntity
  8
0
100
AcDbLine
 10
21.10995
 20
148.727
 30
0.0
 11
22.47184999999999
 21
148.87
 31
0.0
  0
LINE
  5
F1
330
1E
100
AcDbEntity
  8
0
100
AcDbLine
 10
22.47184999999999
 20
148.87
 30
0.0
 11
24.11505
 21
148.931
 31
0.0
  0
LINE
  5
F2
330
1E
100
AcDbEntity
  8
0
100
AcDbLine
 10
24.11505
 20
43.27239999999999
 30
0.0
 11
28.06985
 21
43.3293
 31
0.0
  0
LINE
  5
F3
330
1E
100
AcDbEntity
  8
0
100
AcDbLine
 10
24.11505
 20
43.27239999999999
 30
0.0
 11
28.06985
 21
43.3293
 31
0.0
  0
LINE
  5
109
330
1E
100
AcDbEntity
  8
0
100
AcDbLine
 10
25.75825
 20
148.87
 30
0.0
 11
27.12015
 21
148.727
 31
0.0
  0
LINE
  5
10D
330
1E
100
AcDbEntity
  8
0
100
AcDbLine
 10
24.11505
 20
148.931
 30
0.0
 11
25.75825
 21
148.87
 31
0.0
  0
LINE
  5
114
330
1E
100
AcDbEntity
  8
0
100
AcDbLine
 10
14.61834999999999
 20
149.1659999999999
 30
0.0
 11
17.64645
 21
150.233
 31
0.0
  0
LINE
  5
116
330
1E
100
AcDbEntity
  8
0
100
AcDbLine
 10
24.11505
 20
151.1179999999999
 30
0.0
 11
27.30535
 21
150.906
 31
0.0
  0
LINE
  5
118
330
1E
100
AcDbEntity
  8
0
100
AcDbLine
 10
20.92474999999999
 20
150.906
 30
0.0
 11
24.11505
 21
151.1179999999999
 31
0.0
  0
LINE
  5
119
330
1E
100
AcDbEntity
  8
0
100
AcDbLine
 10
17.64645
 20
150.233
 30
0.0
 11
20.92474999999999
 21
150.906
 31
0.0
  0
LINE
  5
11A
330
1E
100
AcDbEntity
  8
0
100
AcDbLine
 10
28.06985
 20
43.3293
 30
0.0
 11
32.02065
 21
43.4979
 31
0.0
  0
LINE
  5
11F
330
1E
100
AcDbEntity
  8
0
100
AcDbLine
 10
32.02065
 20
43.4979
 30
0.0
 11
35.96244999999999
 21
43.79019999999999
 31
0.0
  0
LINE
  5
126
330
1E
100
AcDbEntity
  8
0
100
AcDbLine
 10
31.16405
 20
147.787
 30
0.0
 11
32.47294999999999
 21
147.303
 31
0.0
  0
LINE
  5
127
330
1E
100
AcDbEntity
  8
0
100
AcDbLine
 10
32.47294999999999
 20
147.303
 30
0.0
 11
33.74985
 21
146.738
 31
0.0
  0
LINE
  5
128
330
1E
100
AcDbEntity
  8
0
100
AcDbLine
 10
28.48015
 20
148.4989999999999
 30
0.0
 11
29.83105
 21
148.186
 31
0.0
  0
LINE
  5
129
330
1E
100
AcDbEntity
  8
0
100
AcDbLine
 10
29.83105
 20
148.186
 30
0.0
 11
31.16405
 21
147.787
 31
0.0
  0
LINE
  5
12A
330
1E
100
AcDbEntity
  8
0
100
AcDbLine
 10
27.12015
 20
148.727
 30
0.0
 11
28.48015
 21
148.4989999999999
 31
0.0
  0
LINE
  5
12B
330
1E
100
AcDbEntity
  8
0
100
AcDbLine
 10
27.30535
 20
150.906
 30
0.0
 11
30.58365
 21
150.233
 31
0.0
  0
LINE
  5
12C
330
1E
100
AcDbEntity
  8
0
100
AcDbLine
 10
30.58365
 20
150.233
 30
0.0
 11
33.61175
 21
149.1659999999999
 31
0.0
  0
LINE
  5
12D
330
1E
100
AcDbEntity
  8
0
100
AcDbLine
 10
33.74985
 20
146.738
 30
0.0
 11
34.98875
 21
146.0929999999999
 31
0.0
  0
LINE
  5
12E
330
1E
100
AcDbEntity
  8
0
100
AcDbLine
 10
34.98875
 20
146.0929999999999
 30
0.0
 11
36.69295
 21
145.0329999999999
 31
0.0
  0
LINE
  5
12F
330
1E
100
AcDbEntity
  8
0
100
AcDbLine
 10
33.61175
 20
149.1659999999999
 30
0.0
 11
36.54285
 21
147.6629999999999
 31
0.0
  0
LINE
  5
130
330
1E
100
AcDbEntity
  8
0
100
AcDbLine
 10
35.96244999999999
 20
43.79019999999999
 30
0.0
 11
39.89025
 21
44.2222
 31
0.0
  0
LINE
  5
131
330
1E
100
AcDbEntity
  8
0
100
AcDbLine
 10
35.90745
 20
0.6437990000000191
 30
0.0
 11
39.81815
 21
1.05086900000002
 31
0.0
  0
LINE
  5
132
330
1E
100
AcDbEntity
  8
0
100
AcDbLine
 10
36.69295
 20
145.0329999999999
 30
0.0
 11
38.28504999999999
 21
143.829
 31
0.0
  0
LINE
  5
133
330
1E
100
AcDbEntity
  8
0
100
AcDbLine
 10
38.28504999999999
 20
143.829
 30
0.0
 11
39.75215
 21
142.495
 31
0.0
  0
LINE
  5
134
330
1E
100
AcDbEntity
  8
0
100
AcDbLine
 10
38.62035
 20
146.257
 30
0.0
 11
39.4889019221162
 21
145.526127244547
 31
0.0
  0
LINE
  5
135
330
1E
100
AcDbEntity
  8
0
100
AcDbLine
 10
41.03305
 20
1.23445000000002
 30
0.0
 11
41.61945
 21
1.39009000000002
 31
0.0
  0
LINE
  5
136
330
1E
100
AcDbEntity
  8
0
100
AcDbLine
 10
39.89025
 20
44.2222
 30
0.0
 11
40.95895
 21
44.4168
 31
0.0
  0
LINE
  5
137
330
1E
100
AcDbEntity
  8
0
100
AcDbLine
 10
40.95895
 20
44.4168
 30
0.0
 11
41.46935
 21
44.5894
 31
0.0
  0
LINE
  5
138
330
1E
100
AcDbEntity
  8
0
100
AcDbLine
 10
41.68845
 20
140.287
 30
0.0
 11
42.53105
 21
139.1049999999999
 31
0.0
  0
LINE
  5
139
330
1E
100
AcDbEntity
  8
0
100
AcDbLine
 10
40.76084999999999
 20
141.4189999999999
 30
0.0
 11
41.68845
 21
140.287
 31
0.0
  0
LINE
  5
13A
330
1E
100
AcDbEntity
  8
0
100
AcDbLine
 10
42.17385
 20
44.9655
 30
0.0
 11
42.77725
 21
45.4694
 31
0.0
  0
LINE
  5
13B
330
1E
100
AcDbEntity
  8
0
100
AcDbLine
 10
41.46935
 20
44.5894
 30
0.0
 11
42.17385
 21
44.9655
 31
0.0
  0
LINE
  5
13C
330
1E
100
AcDbEntity
  8
0
100
AcDbLine
 10
41.61945
 20
1.39009000000002
 30
0.0
 11
42.43005
 21
1.74428000000002
 31
0.0
  0
LINE
  5
13D
330
1E
100
AcDbEntity
  8
0
100
AcDbLine
 10
39.81815
 20
1.05086900000002
 30
0.0
 11
41.03305
 21
1.23445000000002
 31
0.0
  0
LINE
  5
13E
330
1E
100
AcDbEntity
  8
0
100
AcDbLine
 10
39.75215
 20
142.495
 30
0.0
 11
40.76084999999999
 21
141.4189999999999
 31
0.0
  0
LINE
  5
146
330
1E
100
AcDbEntity
  8
0
100
AcDbLine
 10
41.8129950089742
 20
141.7700450089739
 30
0.0
 11
42.32395
 21
142.281
 31
0.0
  0
LINE
  5
147
330
1E
100
AcDbEntity
  8
0
100
AcDbLine
 10
42.53105
 20
139.1049999999999
 30
0.0
 11
43.28565
 21
137.8839999999999
 31
0.0
  0
LINE
  5
148
330
1E
100
AcDbEntity
  8
0
100
AcDbLine
 10
42.54297523436259
 20
142.4998380333079
 30
0.0
 11
43.12054999999999
 21
141.8129999999999
 31
0.0
  0
LINE
  5
149
330
1E
100
AcDbEntity
  8
0
100
AcDbLine
 10
42.43005
 20
1.74428000000002
 30
0.0
 11
43.10755
 21
2.24115000000002
 31
0.0
  0
LINE
  5
14B
330
1E
100
AcDbEntity
  8
0
100
AcDbLine
 10
43.10755
 20
2.24115000000002
 30
0.0
 11
43.23655
 21
2.363870000000019
 31
0.0
  0
LINE
  5
14C
330
1E
100
AcDbEntity
  8
0
100
AcDbLine
 10
44.12425
 20
3.90734000000002
 30
0.0
 11
44.22424999999999
 21
4.43913000000002
 31
0.0
  0
LINE
  5
14D
330
1E
100
AcDbEntity
  8
0
100
AcDbLine
 10
43.81705
 20
3.14708000000002
 30
0.0
 11
44.12425
 21
3.90734000000002
 31
0.0
  0
LINE
  5
14E
330
1E
100
AcDbEntity
  8
0
100
AcDbLine
 10
44.31935
 20
5.671310000000018
 30
0.0
 11
44.32335
 21
5.966640000000019
 31
0.0
  0
LINE
  5
14F
330
1E
100
AcDbEntity
  8
0
100
AcDbLine
 10
44.32335
 20
5.966640000000019
 30
0.0
 11
44.36535
 21
8.405070000000019
 31
0.0
  0
LINE
  5
150
330
1E
100
AcDbEntity
  8
0
100
AcDbLine
 10
44.36535
 20
8.405070000000019
 30
0.0
 11
44.40744999999999
 21
10.8445
 31
0.0
  0
LINE
  5
151
330
1E
100
AcDbEntity
  8
0
100
AcDbLine
 10
44.40744999999999
 20
10.8445
 30
0.0
 11
44.45044999999999
 21
13.28289999999999
 31
0.0
  0
LINE
  5
152
330
1E
100
AcDbEntity
  8
0
100
AcDbLine
 10
44.45044999999999
 20
13.28289999999999
 30
0.0
 11
44.50545
 21
16.2681
 31
0.0
  0
LINE
  5
153
330
1E
100
AcDbEntity
  8
0
100
AcDbLine
 10
44.50545
 20
16.2681
 30
0.0
 11
44.51245
 21
16.67119999999999
 31
0.0
  0
LINE
  5
154
330
1E
100
AcDbEntity
  8
0
100
AcDbLine
 10
44.51245
 20
16.67119999999999
 30
0.0
 11
44.52454999999999
 21
18.21659999999999
 31
0.0
  0
LINE
  5
155
330
1E
100
AcDbEntity
  8
0
100
AcDbLine
 10
44.52454999999999
 20
18.21659999999999
 30
0.0
 11
44.53854999999999
 21
19.808
 31
0.0
  0
LINE
  5
156
330
1E
100
AcDbEntity
  8
0
100
AcDbLine
 10
44.53854999999999
 20
19.808
 30
0.0
 11
44.55554999999999
 21
21.6249
 31
0.0
  0
LINE
  5
157
330
1E
100
AcDbEntity
  8
0
100
AcDbLine
 10
44.55554999999999
 20
21.6249
 30
0.0
 11
44.57354999999999
 21
23.4946
 31
0.0
  0
LINE
  5
158
330
1E
100
AcDbEntity
  8
0
100
AcDbLine
 10
44.24935
 20
4.767380000000019
 30
0.0
 11
44.31935
 21
5.671310000000018
 31
0.0
  0
LINE
  5
159
330
1E
100
AcDbEntity
  8
0
100
AcDbLine
 10
44.22424999999999
 20
4.43913000000002
 30
0.0
 11
44.24935
 21
4.767380000000019
 31
0.0
  0
LINE
  5
15A
330
1E
100
AcDbEntity
  8
0
100
AcDbLine
 10
44.57354999999999
 20
23.4946
 30
0.0
 11
44.59255
 21
25.4122
 31
0.0
  0
LINE
  5
15B
330
1E
100
AcDbEntity
  8
0
100
AcDbLine
 10
42.77725
 20
45.4694
 30
0.0
 11
43.27865
 21
46.1139
 31
0.0
  0
LINE
  5
15C
330
1E
100
AcDbEntity
  8
0
100
AcDbLine
 10
43.84405
 20
47.4928
 30
0.0
 11
43.96914999999999
 21
48.5474
 31
0.0
  0
LINE
  5
15D
330
1E
100
AcDbEntity
  8
0
100
AcDbLine
 10
43.70395
 20
46.96299999999999
 30
0.0
 11
43.84405
 21
47.4928
 31
0.0
  0
LINE
  5
15E
330
1E
100
AcDbEntity
  8
0
100
AcDbLine
 10
43.35065
 20
46.2177
 30
0.0
 11
43.70395
 21
46.96299999999999
 31
0.0
  0
LINE
  5
15F
330
1E
100
AcDbEntity
  8
0
100
AcDbLine
 10
43.27865
 20
46.1139
 30
0.0
 11
43.35065
 21
46.2177
 31
0.0
  0
LINE
  5
160
330
1E
100
AcDbEntity
  8
0
100
AcDbLine
 10
44.59255
 20
25.4122
 30
0.0
 11
44.61355
 21
27.3747
 31
0.0
  0
LINE
  5
161
330
1E
100
AcDbEntity
  8
0
100
AcDbLine
 10
44.69664999999999
 20
34.6212
 30
0.0
 11
44.73065
 21
37.40679999999999
 31
0.0
  0
LINE
  5
162
330
1E
100
AcDbEntity
  8
0
100
AcDbLine
 10
44.66465
 20
31.8585
 30
0.0
 11
44.69664999999999
 21
34.6212
 31
0.0
  0
LINE
  5
163
330
1E
100
AcDbEntity
  8
0
100
AcDbLine
 10
44.63855
 20
29.59659999999999
 30
0.0
 11
44.66465
 21
31.8585
 31
0.0
  0
LINE
  5
164
330
1E
100
AcDbEntity
  8
0
100
AcDbLine
 10
44.61355
 20
27.3747
 30
0.0
 11
44.63855
 21
29.59659999999999
 31
0.0
  0
LINE
  5
165
330
1E
100
AcDbEntity
  8
0
100
AcDbLine
 10
43.23655
 20
2.363870000000019
 30
0.0
 11
43.81705
 21
3.14708000000002
 31
0.0
  0
LINE
  5
166
330
1E
100
AcDbEntity
  8
0
100
AcDbLine
 10
44.77665
 20
41.1253
 30
0.0
 11
44.86975
 21
48.3727
 31
0.0
  0
LINE
  5
167
330
1E
100
AcDbEntity
  8
0
100
AcDbLine
 10
44.73065
 20
37.40679999999999
 30
0.0
 11
44.77665
 21
41.1253
 31
0.0
  0
LINE
  5
168
330
1E
100
AcDbEntity
  8
0
100
AcDbLine
 10
43.93205
 20
136.667
 30
0.0
 11
44.49345
 21
135.424
 31
0.0
  0
LINE
  5
169
330
1E
100
AcDbEntity
  8
0
100
AcDbLine
 10
43.28565
 20
137.8839999999999
 30
0.0
 11
43.93205
 21
136.667
 31
0.0
  0
LINE
  5
16A
330
1E
100
AcDbEntity
  8
0
100
AcDbLine
 10
43.96914999999999
 20
48.5474
 30
0.0
 11
43.98715
 21
48.9684
 31
0.0
  0
LINE
  5
16B
330
1E
100
AcDbEntity
  8
0
100
AcDbLine
 10
44.20725
 20
55.8197
 30
0.0
 11
44.27835
 21
58.1464
 31
0.0
  0
LINE
  5
16C
330
1E
100
AcDbEntity
  8
0
100
AcDbLine
 10
44.13524999999999
 20
53.511
 30
0.0
 11
44.20725
 21
55.8197
 31
0.0
  0
LINE
  5
16D
330
1E
100
AcDbEntity
  8
0
100
AcDbLine
 10
44.06215
 20
51.2242
 30
0.0
 11
44.13524999999999
 21
53.511
 31
0.0
  0
LINE
  5
16E
330
1E
100
AcDbEntity
  8
0
100
AcDbLine
 10
43.98715
 20
48.9684
 30
0.0
 11
44.06215
 21
51.2242
 31
0.0
  0
LINE
  5
16F
330
1E
100
AcDbEntity
  8
0
100
AcDbLine
 10
43.12054999999999
 20
141.8129999999999
 30
0.0
 11
44.22125
 21
140.27
 31
0.0
  0
LINE
  5
170
330
1E
100
AcDbEntity
  8
0
100
AcDbLine
 10
44.34734999999999
 20
60.4861
 30
0.0
 11
44.41645
 21
62.8357
 31
0.0
  0
LINE
  5
171
330
1E
100
AcDbEntity
  8
0
100
AcDbLine
 10
44.41645
 20
62.8357
 30
0.0
 11
44.55155
 21
67.5549
 31
0.0
  0
LINE
  5
172
330
1E
100
AcDbEntity
  8
0
100
AcDbLine
 10
44.27835
 20
58.1464
 30
0.0
 11
44.34734999999999
 21
60.4861
 31
0.0
  0
LINE
  5
173
330
1E
100
AcDbEntity
  8
0
100
AcDbLine
 10
44.49345
 20
135.424
 30
0.0
 11
44.97385
 21
134.151
 31
0.0
  0
LINE
  5
174
330
1E
100
AcDbEntity
  8
0
100
AcDbLine
 10
44.81575
 20
77.0223
 30
0.0
 11
44.92375
 21
80.98119999999999
 31
0.0
  0
LINE
  5
175
330
1E
100
AcDbEntity
  8
0
100
AcDbLine
 10
44.92375
 20
80.98119999999999
 30
0.0
 11
45.14194999999999
 21
88.8982
 31
0.0
  0
LINE
  5
176
330
1E
100
AcDbEntity
  8
0
100
AcDbLine
 10
44.97385
 20
134.151
 30
0.0
 11
45.37015
 21
132.852
 31
0.0
  0
LINE
  5
177
330
1E
100
AcDbEntity
  8
0
100
AcDbLine
 10
44.64055
 20
70.70869999999999
 30
0.0
 11
44.81575
 21
77.0223
 31
0.0
  0
LINE
  5
178
330
1E
100
AcDbEntity
  8
0
100
AcDbLine
 10
44.55155
 20
67.5549
 30
0.0
 11
44.64055
 21
70.70869999999999
 31
0.0
  0
LINE
  5
179
330
1E
100
AcDbEntity
  8
0
100
AcDbLine
 10
44.22125
 20
140.27
 30
0.0
 11
45.18894999999999
 21
138.657
 31
0.0
  0
LINE
  5
17A
330
1E
100
AcDbEntity
  8
0
100
AcDbLine
 10
44.86975
 20
48.3727
 30
0.0
 11
45.09794999999999
 21
66.1481
 31
0.0
  0
LINE
  5
17B
330
1E
100
AcDbEntity
  8
0
100
AcDbLine
 10
45.14194999999999
 20
88.8982
 30
0.0
 11
45.46714999999999
 21
100.774
 31
0.0
  0
LINE
  5
17C
330
1E
100
AcDbEntity
  8
0
100
AcDbLine
 10
45.46714999999999
 20
100.774
 30
0.0
 11
45.60625
 21
105.834
 31
0.0
  0
LINE
  5
17D
330
1E
100
AcDbEntity
  8
0
100
AcDbLine
 10
45.38215
 20
88.2526
 30
0.0
 11
45.48515
 21
96.11769999999999
 31
0.0
  0
LINE
  5
17E
330
1E
100
AcDbEntity
  8
0
100
AcDbLine
 10
45.28705
 20
80.82559999999999
 30
0.0
 11
45.38215
 21
88.2526
 31
0.0
  0
LINE
  5
17F
330
1E
100
AcDbEntity
  8
0
100
AcDbLine
 10
45.60625
 20
105.834
 30
0.0
 11
45.64124999999999
 21
107.0999999999999
 31
0.0
  0
LINE
  5
180
330
1E
100
AcDbEntity
  8
0
100
AcDbLine
 10
45.69035
 20
108.9079999999999
 30
0.0
 11
46.08965
 21
123.4639999999999
 31
0.0
  0
LINE
  5
181
330
1E
100
AcDbEntity
  8
0
100
AcDbLine
 10
45.69035
 20
108.9079999999999
 30
0.0
 11
45.73834999999999
 21
110.6289999999999
 31
0.0
  0
LINE
  5
182
330
1E
100
AcDbEntity
  8
0
100
AcDbLine
 10
45.73834999999999
 20
110.6289999999999
 30
0.0
 11
45.78045
 21
112.149
 31
0.0
  0
LINE
  5
183
330
1E
100
AcDbEntity
  8
0
100
AcDbLine
 10
45.82144999999999
 20
113.616
 30
0.0
 11
45.85844999999999
 21
114.966
 31
0.0
  0
LINE
  5
184
330
1E
100
AcDbEntity
  8
0
100
AcDbLine
 10
45.85844999999999
 20
114.966
 30
0.0
 11
45.89445
 21
116.2679999999999
 31
0.0
  0
LINE
  5
185
330
1E
100
AcDbEntity
  8
0
100
AcDbLine
 10
45.89445
 20
116.2679999999999
 30
0.0
 11
45.92945
 21
117.522
 31
0.0
  0
LINE
  5
186
330
1E
100
AcDbEntity
  8
0
100
AcDbLine
 10
45.78045
 20
112.149
 30
0.0
 11
45.82144999999999
 21
113.616
 31
0.0
  0
LINE
  5
187
330
1E
100
AcDbEntity
  8
0
100
AcDbLine
 10
45.64124999999999
 20
107.0999999999999
 30
0.0
 11
46.08965
 21
123.4639999999999
 31
0.0
  0
LINE
  5
188
330
1E
100
AcDbEntity
  8
0
100
AcDbLine
 10
45.60925
 20
104.881
 30
0.0
 11
45.64967865856909
 21
107.407597165087
 31
0.0
  0
LINE
  5
189
330
1E
100
AcDbEntity
  8
0
100
AcDbLine
 10
45.60925
 20
104.881
 30
0.0
 11
45.64964883627279
 21
107.406508824191
 31
0.0
  0
LINE
  5
18A
330
1E
100
AcDbEntity
  8
0
100
AcDbLine
 10
45.56424999999999
 20
101.841
 30
0.0
 11
45.60925
 21
104.881
 31
0.0
  0
LINE
  5
18B
330
1E
100
AcDbEntity
  8
0
100
AcDbLine
 10
45.48515
 20
96.11769999999999
 30
0.0
 11
45.56424999999999
 21
101.841
 31
0.0
  0
LINE
  5
18C
330
1E
100
AcDbEntity
  8
0
100
AcDbLine
 10
45.92945
 20
117.522
 30
0.0
 11
45.96255
 21
118.7279999999999
 31
0.0
  0
LINE
  5
18D
330
1E
100
AcDbEntity
  8
0
100
AcDbLine
 10
45.96255
 20
118.7279999999999
 30
0.0
 11
46.01355
 21
120.568
 31
0.0
  0
LINE
  5
18E
330
1E
100
AcDbEntity
  8
0
100
AcDbLine
 10
46.06654999999999
 20
122.595
 30
0.0
 11
46.09664999999999
 21
123.689
 31
0.0
  0
LINE
  5
18F
330
1E
100
AcDbEntity
  8
0
100
AcDbLine
 10
46.06654999999999
 20
122.595
 30
0.0
 11
46.09765
 21
123.7049999999999
 31
0.0
  0
LINE
  5
190
330
1E
100
AcDbEntity
  8
0
100
AcDbLine
 10
46.01355
 20
120.568
 30
0.0
 11
46.05755
 21
122.209
 31
0.0
  0
LINE
  5
191
330
1E
100
AcDbEntity
  8
0
100
AcDbLine
 10
46.08118963655229
 20
123.103947299006
 30
0.0
 11
46.10864999999999
 21
123.5789999999999
 31
0.0
  0
LINE
  5
192
330
1E
100
AcDbEntity
  8
0
100
AcDbLine
 10
46.09765
 20
123.7049999999999
 30
0.0
 11
46.12364999999999
 21
124.774
 31
0.0
  0
LINE
  5
193
330
1E
100
AcDbEntity
  8
0
100
AcDbLine
 10
46.12364999999999
 20
124.774
 30
0.0
 11
46.13065
 21
125.242
 31
0.0
  0
LINE
  5
194
330
1E
100
AcDbEntity
  8
0
100
AcDbLine
 10
46.12364999999999
 20
124.774
 30
0.0
 11
46.13265
 21
125.8079999999999
 31
0.0
  0
LINE
  5
195
330
1E
100
AcDbEntity
  8
0
100
AcDbLine
 10
46.12364999999999
 20
124.774
 30
0.0
 11
46.12865
 21
125.1749999999999
 31
0.0
  0
LINE
  5
196
330
1E
100
AcDbEntity
  8
0
100
AcDbLine
 10
46.12865
 20
125.102
 30
0.0
 11
46.13465
 21
125.848
 31
0.0
  0
LINE
  5
197
330
1E
100
AcDbEntity
  8
0
100
AcDbLine
 10
46.12865
 20
125.102
 30
0.0
 11
46.13065
 21
125.242
 31
0.0
  0
LINE
  5
198
330
1E
100
AcDbEntity
  8
0
100
AcDbLine
 10
46.13365
 20
125.6599999999999
 30
0.0
 11
46.13465
 21
126.112
 31
0.0
  0
LINE
  5
199
330
1E
100
AcDbEntity
  8
0
100
AcDbLine
 10
46.12865
 20
125.1749999999999
 30
0.0
 11
46.13265
 21
125.8079999999999
 31
0.0
  0
LINE
  5
19A
330
1E
100
AcDbEntity
  8
0
100
AcDbLine
 10
46.13408934426229
 20
126.1716163934429
 30
0.0
 11
46.13465
 21
126.2259999999999
 31
0.0
  0
LINE
  5
19B
330
1E
100
AcDbEntity
  8
0
100
AcDbLine
 10
45.37015
 20
132.852
 30
0.0
 11
45.60625
 21
131.8859999999999
 31
0.0
  0
LINE
  5
19C
330
1E
100
AcDbEntity
  8
0
100
AcDbLine
 10
45.60625
 20
131.8859999999999
 30
0.0
 11
45.79744999999999
 21
130.9109999999999
 31
0.0
  0
LINE
  5
19D
330
1E
100
AcDbEntity
  8
0
100
AcDbLine
 10
46.12964999999999
 20
126.3649999999999
 30
0.0
 11
46.13465
 21
125.848
 31
0.0
  0
LINE
  5
19E
330
1E
100
AcDbEntity
  8
0
100
AcDbLine
 10
46.13165
 20
126.3439999999999
 30
0.0
 11
46.13365
 21
125.6599999999999
 31
0.0
  0
LINE
  5
19F
330
1E
100
AcDbEntity
  8
0
100
AcDbLine
 10
46.13165
 20
126.3439999999999
 30
0.0
 11
46.13465
 21
125.848
 31
0.0
  0
LINE
  5
1A0
330
1E
100
AcDbEntity
  8
0
100
AcDbLine
 10
46.13165
 20
126.431
 30
0.0
 11
46.13465
 21
126.112
 31
0.0
  0
LINE
  5
1A1
330
1E
100
AcDbEntity
  8
0
100
AcDbLine
 10
46.13165
 20
126.431
 30
0.0
 11
46.1318139447236
 21
126.316894472362
 31
0.0
  0
LINE
  5
1A2
330
1E
100
AcDbEntity
  8
0
100
AcDbLine
 10
46.13365
 20
126.491999999999
 30
0.0
 11
46.13465
 21
126.2259999999999
 31
0.0
  0
LINE
  5
1A3
330
1E
100
AcDbEntity
  8
0
100
AcDbLine
 10
46.12865
 20
126.687
 30
0.0
 11
46.13365
 21
126.341
 31
0.0
  0
LINE
  5
1A4
330
1E
100
AcDbEntity
  8
0
100
AcDbLine
 10
46.12865
 20
126.687
 30
0.0
 11
46.1313041786743
 21
126.3658443804039
 31
0.0
  0
LINE
  5
1A5
330
1E
100
AcDbEntity
  8
0
100
AcDbLine
 10
46.12865
 20
126.687
 30
0.0
 11
46.1313041786743
 21
126.3658443804039
 31
0.0
  0
LINE
  5
1A6
330
1E
100
AcDbEntity
  8
0
100
AcDbLine
 10
46.12065
 20
126.822
 30
0.0
 11
46.12964999999999
 21
126.3649999999999
 31
0.0
  0
LINE
  5
1A7
330
1E
100
AcDbEntity
  8
0
100
AcDbLine
 10
46.12065
 20
126.822
 30
0.0
 11
46.13465
 21
125.848
 31
0.0
  0
LINE
  5
1A8
330
1E
100
AcDbEntity
  8
0
100
AcDbLine
 10
46.13265
 20
126.8579999999999
 30
0.0
 11
46.13265
 21
126.7579999999999
 31
0.0
  0
LINE
  5
1A9
330
1E
100
AcDbEntity
  8
0
100
AcDbLine
 10
46.13265
 20
126.7579999999999
 30
0.0
 11
46.133496362404
 21
126.5328676005419
 31
0.0
  0
LINE
  5
1AA
330
1E
100
AcDbEntity
  8
0
100
AcDbLine
 10
46.13265
 20
126.7579999999999
 30
0.0
 11
46.13265
 21
126.8579999999999
 31
0.0
  0
LINE
  5
1AB
330
1E
100
AcDbEntity
  8
0
100
AcDbLine
 10
46.10065
 20
127.65
 30
0.0
 11
46.11765
 21
127.2809999999999
 31
0.0
  0
LINE
  5
1AC
330
1E
100
AcDbEntity
  8
0
100
AcDbLine
 10
46.04754999999999
 20
128.942
 30
0.0
 11
46.13465
 21
127.163
 31
0.0
  0
LINE
  5
1AD
330
1E
100
AcDbEntity
  8
0
100
AcDbLine
 10
46.11765
 20
127.2809999999999
 30
0.0
 11
46.13265
 21
126.8579999999999
 31
0.0
  0
LINE
  5
1AE
330
1E
100
AcDbEntity
  8
0
100
AcDbLine
 10
46.12134075388
 20
127.0809572561079
 30
0.0
 11
46.13265
 21
126.8579999999999
 31
0.0
  0
LINE
  5
1AF
330
1E
100
AcDbEntity
  8
0
100
AcDbLine
 10
46.04155
 20
128.654
 30
0.0
 11
46.06242561156149
 21
128.242445682059
 31
0.0
  0
LINE
  5
1B0
330
1E
100
AcDbEntity
  8
0
100
AcDbLine
 10
46.04155
 20
128.654
 30
0.0
 11
46.10065
 21
127.65
 31
0.0
  0
LINE
  5
1B1
330
1E
100
AcDbEntity
  8
0
100
AcDbLine
 10
45.94355
 20
129.9279999999999
 30
0.0
 11
46.04754999999999
 21
128.942
 31
0.0
  0
LINE
  5
1B2
330
1E
100
AcDbEntity
  8
0
100
AcDbLine
 10
46.13465
 20
127.163
 30
0.0
 11
46.13665
 21
126.919
 31
0.0
  0
LINE
  5
1B3
330
1E
100
AcDbEntity
  8
0
100
AcDbLine
 10
46.1334486577181
 20
126.6056241610729
 30
0.0
 11
46.13665
 21
126.919
 31
0.0
  0
LINE
  5
1B4
330
1E
100
AcDbEntity
  8
0
100
AcDbLine
 10
45.79744999999999
 20
130.9109999999999
 30
0.0
 11
45.94355
 21
129.9279999999999
 31
0.0
  0
LINE
  5
1B5
330
1E
100
AcDbEntity
  8
0
100
AcDbLine
 10
46.1332374439462
 20
126.262201793722
 30
0.0
 11
46.13365
 21
126.341
 31
0.0
  0
LINE
  5
1B6
330
1E
100
AcDbEntity
  8
0
100
AcDbLine
 10
46.19165
 20
124.7279999999999
 30
0.0
 11
46.23174999999999
 21
125.1429999999999
 31
0.0
  0
LINE
  5
1B7
330
1E
100
AcDbEntity
  8
0
100
AcDbLine
 10
46.15065
 20
124.204
 30
0.0
 11
46.19165
 21
124.7279999999999
 31
0.0
  0
LINE
  5
1B8
330
1E
100
AcDbEntity
  8
0
100
AcDbLine
 10
46.10864999999999
 20
123.5789999999999
 30
0.0
 11
46.15065
 21
124.204
 31
0.0
  0
LINE
  5
1B9
330
1E
100
AcDbEntity
  8
0
100
AcDbLine
 10
47.25645
 20
133.58
 30
0.0
 11
47.66675
 21
131.8629999999999
 31
0.0
  0
LINE
  5
1BA
330
1E
100
AcDbEntity
  8
0
100
AcDbLine
 10
46.81915
 20
119.364
 30
0.0
 11
47.69775
 21
122.6399999999999
 31
0.0
  0
LINE
  5
1BB
330
1E
100
AcDbEntity
  8
0
100
AcDbLine
 10
45.9217903500516
 20
117.247565684706
 30
0.0
 11
46.81915
 21
119.364
 31
0.0
  0
LINE
  5
1BC
330
1E
100
AcDbEntity
  8
0
100
AcDbLine
 10
47.69775
 20
122.6399999999999
 30
0.0
 11
48.09605
 21
125.867
 31
0.0
  0
LINE
  5
1BD
330
1E
100
AcDbEntity
  8
0
100
AcDbLine
 10
47.94495
 20
130.1579999999999
 30
0.0
 11
48.09605
 21
128.4789999999999
 31
0.0
  0
LINE
  5
1BE
330
1E
100
AcDbEntity
  8
0
100
AcDbLine
 10
47.66675
 20
131.8629999999999
 30
0.0
 11
47.94495
 21
130.1579999999999
 31
0.0
  0
LINE
  5
1BF
330
1E
100
AcDbEntity
  8
0
100
AcDbLine
 10
48.09605
 20
128.4789999999999
 30
0.0
 11
48.11505
 21
128.0699999999999
 31
0.0
  0
LINE
  5
1C0
330
1E
100
AcDbEntity
  8
0
100
AcDbLine
 10
48.09605
 20
125.867
 30
0.0
 11
48.11505
 21
128.0699999999999
 31
0.0
  0
LINE
  5
1C1
330
1E
100
AcDbEntity
  8
0
100
AcDbLine
 10
47.25645
 20
133.581
 30
0.0
 11
47.66675
 21
131.8629999999999
 31
0.0
  0
LINE
  5
1C2
330
1E
100
AcDbEntity
  8
0
100
AcDbLine
 10
46.01854999999999
 20
136.9939999999999
 30
0.0
 11
46.70805
 21
135.297
 31
0.0
  0
LINE
  5
1C3
330
1E
100
AcDbEntity
  8
0
100
AcDbLine
 10
46.70805
 20
135.297
 30
0.0
 11
47.25645
 21
133.581
 31
0.0
  0
LINE
  5
1C4
330
1E
100
AcDbEntity
  8
0
100
AcDbLine
 10
46.70805
 20
135.297
 30
0.0
 11
47.25645
 21
133.58
 31
0.0
  0
LINE
  5
1C5
330
1E
100
AcDbEntity
  8
0
100
AcDbLine
 10
45.18894999999999
 20
138.657
 30
0.0
 11
46.01854999999999
 21
136.9939999999999
 31
0.0
  0
LINE
  5
1C6
330
1E
100
AcDbEntity
  8
0
100
AcDbLine
 10
45.22294999999999
 20
75.8759
 30
0.0
 11
45.28705
 21
80.82559999999999
 31
0.0
  0
LINE
  5
1C7
330
1E
100
AcDbEntity
  8
0
100
AcDbLine
 10
45.09794999999999
 20
66.1481
 30
0.0
 11
45.22294999999999
 21
75.8759
 31
0.0
  0
LINE
  5
1C8
330
1E
100
AcDbEntity
  8
0
100
AcDbLine
 10
43.49395
 20
143.4499999999999
 30
0.0
 11
44.91995
 21
144.877
 31
0.0
  0
LINE
  5
1CA
330
1E
100
AcDbEntity
  8
0
100
AcDbLine
 10
44.91995
 20
144.877
 30
0.0
 11
46.46495
 21
146.421
 31
0.0
  0
LINE
  5
1CB
330
1E
100
AcDbEntity
  8
0
100
AcDbLine
 10
42.32395
 20
142.281
 30
0.0
 11
43.49395
 21
143.4499999999999
 31
0.0
  0
LINE
  5
1CE
330
1E
100
AcDbEntity
  8
0
100
AcDbLine
 10
39.28395
 20
145.321
 30
0.0
 11
40.45295
 21
146.491
 31
0.0
  0
LINE
  5
1CF
330
1E
100
AcDbEntity
  8
0
100
AcDbLine
 10
38.74418836684899
 20
144.781915608547
 30
0.0
 11
39.28395
 21
145.321
 31
0.0
  0
LINE
  5
1D0
330
1E
100
AcDbEntity
  8
0
100
AcDbLine
 10
36.54285
 20
147.6629999999999
 30
0.0
 11
38.62035
 21
146.257
 31
0.0
  0
LINE
  5
1D3
330
1E
100
AcDbEntity
  8
0
100
AcDbLine
 10
41.87994999999999
 20
147.917
 30
0.0
 11
43.42394999999999
 21
149.462
 31
0.0
  0
LINE
  5
1D4
330
1E
100
AcDbEntity
  8
0
100
AcDbLine
 10
40.45295
 20
146.491
 30
0.0
 11
41.87994999999999
 21
147.917
 31
0.0
  0
LINE
  5
1D7
330
1E
100
AcDbEntity
  8
0
100
AcDbLine
 10
43.42394999999999
 20
149.462
 30
0.0
 11
51.84395
 21
157.882
 31
0.0
  0
LINE
  5
1DA
330
1E
100
AcDbEntity
  8
0
100
AcDbLine
 10
46.46495
 20
146.421
 30
0.0
 11
54.88495
 21
154.841
 31
0.0
  0
LINE
  5
1DB
330
1E
100
AcDbEntity
  8
0
100
AcDbLine
 10
54.65695
 20
155.1939999999999
 30
0.0
 11
54.88495
 21
154.841
 31
0.0
  0
LINE
  5
1DC
330
1E
100
AcDbEntity
  8
0
100
AcDbLine
 10
51.84395
 20
157.882
 30
0.0
 11
52.19695
 21
157.654
 31
0.0
  0
LINE
  5
1DD
330
1E
100
AcDbEntity
  8
0
100
AcDbLine
 10
52.19695
 20
157.654
 30
0.0
 11
52.99495
 21
156.932
 31
0.0
  0
LINE
  5
1DE
330
1E
100
AcDbEntity
  8
0
100
AcDbLine
 10
52.99495
 20
156.932
 30
0.0
 11
53.93495
 21
155.992
 31
0.0
  0
LINE
  5
1DF
330
1E
100
AcDbEntity
  8
0
100
AcDbLine
 10
53.93495
 20
155.992
 30
0.0
 11
54.65695
 21
155.1939999999999
 31
0.0
  0
ENDSEC
  0
SECTION
  2
OBJECTS
  0
DICTIONARY
  5
C
330
0
100
AcDbDictionary
281
     1
  3
ACAD_GROUP
350
D
  3
ACAD_LAYOUT
350
19
  3
ACAD_MLINESTYLE
350
16
  3
ACAD_PLOTSETTINGS
350
18
  3
ACAD_PLOTSTYLENAME
350
E
  3
AcDbVariableDictionary
350
1E5
  0
DICTIONARY
  5
D
102
{ACAD_REACTORS
330
C
102
}
330
C
100
AcDbDictionary
281
     1
  0
DICTIONARY
  5
19
102
{ACAD_REACTORS
330
C
102
}
330
C
100
AcDbDictionary
281
     1
  3
Layout1
350
1D
  3
Model
350
21
  0
DICTIONARY
  5
16
102
{ACAD_REACTORS
330
C
102
}
330
C
100
AcDbDictionary
281
     1
  3
Standard
350
17
  0
DICTIONARY
  5
18
102
{ACAD_REACTORS
330
C
102
}
330
C
100
AcDbDictionary
281
     1
  0
ACDBDICTIONARYWDFLT
  5
E
102
{ACAD_REACTORS
330
C
102
}
330
C
100
AcDbDictionary
281
     1
  3
Normal
350
F
100
AcDbDictionaryWithDefault
340
F
  0
DICTIONARY
  5
1E5
102
{ACAD_REACTORS
330
C
102
}
330
C
100
AcDbDictionary
281
     1
  3
DIMASSOC
350
1E6
  0
LAYOUT
  5
1D
102
{ACAD_REACTORS
330
19
102
}
330
19
100
AcDbPlotSettings
  1

  2
C:\Programme\AutoCAD LT 2002 Deu\plotters\DWF ePlot (optimized for plotting).pc3
  4

  6

 40
0.0
 41
0.0
 42
0.0
 43
0.0
 44
0.0
 45
0.0
 46
0.0
 47
0.0
 48
0.0
 49
0.0
140
0.0
141
0.0
142
1.0
143
1.0
 70
   688
 72
     0
 73
     0
 74
     5
  7

 75
    16
147
1.0
148
0.0
149
0.0
100
AcDbLayout
  1
Layout1
 70
     1
 71
     1
 10
0.0
 20
0.0
 11
12.0
 21
9.0
 12
0.0
 22
0.0
 32
0.0
 14
1.000000000000000E+20
 24
1.000000000000000E+20
 34
1.000000000000000E+20
 15
-1.000000000000000E+20
 25
-1.000000000000000E+20
 35
-1.000000000000000E+20
146
0.0
 13
0.0
 23
0.0
 33
0.0
 16
1.0
 26
0.0
 36
0.0
 17
0.0
 27
1.0
 37
0.0
 76
     0
330
1A
  0
LAYOUT
  5
21
102
{ACAD_REACTORS
330
19
102
}
330
19
100
AcDbPlotSettings
  1

  2
C:\Programme\AutoCAD LT 2002 Deu\plotters\DWF ePlot (optimized for plotting).pc3
  4

  6

 40
0.0
 41
0.0
 42
0.0
 43
0.0
 44
0.0
 45
0.0
 46
0.0
 47
0.0
 48
0.0
 49
0.0
140
0.0
141
0.0
142
1.0
143
1.0
 70
  1712
 72
     0
 73
     0
 74
     0
  7

 75
     0
147
1.0
148
0.0
149
0.0
100
AcDbLayout
  1
Model
 70
     1
 71
     0
 10
0.0
 20
0.0
 11
12.0
 21
9.0
 12
0.0
 22
0.0
 32
0.0
 14
0.0
 24
0.0
 34
0.0
 15
0.0
 25
0.0
 35
0.0
146
0.0
 13
0.0
 23
0.0
 33
0.0
 16
1.0
 26
0.0
 36
0.0
 17
0.0
 27
1.0
 37
0.0
 76
     0
330
1E
  0
MLINESTYLE
  5
17
102
{ACAD_REACTORS
330
16
102
}
330
16
100
AcDbMlineStyle
  2
STANDARD
 70
     0
  3

 62
   256
 51
90.0
 52
90.0
 71
     2
 49
0.5
 62
   256
  6
BYLAYER
 49
-0.5
 62
   256
  6
BYLAYER
  0
ACDBPLACEHOLDER
  5
F
102
{ACAD_REACTORS
330
E
102
}
330
E
  0
DICTIONARYVAR
  5
1E6
102
{ACAD_REACTORS
330
1E5
102
}
330
1E5
100
DictionaryVariables
280
     0
  1
1
  0
ENDSEC
  0
EOF
