  0
SECTION
  2
HEADER
  9
$ACADVER
  1
AC1015
  9
$ACADMAINTVER
 70
    13
  9
$DWGCODEPAGE
  3
ANSI_1252
  9
$INSBASE
 10
0.0
 20
0.0
 30
0.0
  9
$EXTMIN
 10
-0.0672374999999984
 20
0.203761999999985
 30
0.0
  9
$EXTMAX
 10
198.0672375
 20
165.7962379999999
 30
0.0
  9
$LIMMIN
 10
0.0
 20
0.0
  9
$LIMMAX
 10
12.0
 20
9.0
  9
$ORTHOMODE
 70
     0
  9
$REGENMODE
 70
     1
  9
$FILLMODE
 70
     1
  9
$QTEXTMODE
 70
     0
  9
$MIRRTEXT
 70
     1
  9
$LTSCALE
 40
1.0
  9
$ATTMODE
 70
     1
  9
$TEXTSIZE
 40
0.2
  9
$TRACEWID
 40
0.05
  9
$TEXTSTYLE
  7
Standard
  9
$CLAYER
  8
0
  9
$CELTYPE
  6
Continuous
  9
$CECOLOR
 62
   256
  9
$CELTSCALE
 40
1.0
  9
$DISPSILH
 70
     0
  9
$DIMSCALE
 40
1.0
  9
$DIMASZ
 40
0.18
  9
$DIMEXO
 40
0.0625
  9
$DIMDLI
 40
0.38
  9
$DIMRND
 40
0.0
  9
$DIMDLE
 40
0.0
  9
$DIMEXE
 40
0.18
  9
$DIMTP
 40
0.0
  9
$DIMTM
 40
0.0
  9
$DIMTXT
 40
0.18
  9
$DIMCEN
 40
0.09
  9
$DIMTSZ
 40
0.0
  9
$DIMTOL
 70
     0
  9
$DIMLIM
 70
     0
  9
$DIMTIH
 70
     1
  9
$DIMTOH
 70
     1
  9
$DIMSE1
 70
     0
  9
$DIMSE2
 70
     0
  9
$DIMTAD
 70
     0
  9
$DIMZIN
 70
     0
  9
$DIMBLK
  1

  9
$DIMASO
 70
     1
  9
$DIMSHO
 70
     1
  9
$DIMPOST
  1

  9
$DIMAPOST
  1

  9
$DIMALT
 70
     0
  9
$DIMALTD
 70
     2
  9
$DIMALTF
 40
25.4
  9
$DIMLFAC
 40
1.0
  9
$DIMTOFL
 70
     0
  9
$DIMTVP
 40
0.0
  9
$DIMTIX
 70
     0
  9
$DIMSOXD
 70
     0
  9
$DIMSAH
 70
     0
  9
$DIMBLK1
  1

  9
$DIMBLK2
  1

  9
$DIMSTYLE
  2
Standard
  9
$DIMCLRD
 70
     0
  9
$DIMCLRE
 70
     0
  9
$DIMCLRT
 70
     0
  9
$DIMTFAC
 40
1.0
  9
$DIMGAP
 40
0.09
  9
$DIMJUST
 70
     0
  9
$DIMSD1
 70
     0
  9
$DIMSD2
 70
     0
  9
$DIMTOLJ
 70
     1
  9
$DIMTZIN
 70
     0
  9
$DIMALTZ
 70
     0
  9
$DIMALTTZ
 70
     0
  9
$DIMUPT
 70
     0
  9
$DIMDEC
 70
     4
  9
$DIMTDEC
 70
     4
  9
$DIMALTU
 70
     2
  9
$DIMALTTD
 70
     2
  9
$DIMTXSTY
  7
Standard
  9
$DIMAUNIT
 70
     0
  9
$DIMADEC
 70
     0
  9
$DIMALTRND
 40
0.0
  9
$DIMAZIN
 70
     0
  9
$DIMDSEP
 70
    46
  9
$DIMATFIT
 70
     3
  9
$DIMFRAC
 70
     0
  9
$DIMLDRBLK
  1

  9
$DIMLUNIT
 70
     2
  9
$DIMLWD
 70
    -2
  9
$DIMLWE
 70
    -2
  9
$DIMTMOVE
 70
     0
  9
$LUNITS
 70
     2
  9
$LUPREC
 70
     4
  9
$SKETCHINC
 40
0.1
  9
$FILLETRAD
 40
0.0
  9
$AUNITS
 70
     0
  9
$AUPREC
 70
     0
  9
$MENU
  1
.
  9
$ELEVATION
 40
0.0
  9
$PELEVATION
 40
0.0
  9
$THICKNESS
 40
0.0
  9
$LIMCHECK
 70
     0
  9
$CHAMFERA
 40
0.0
  9
$CHAMFERB
 40
0.0
  9
$CHAMFERC
 40
0.0
  9
$CHAMFERD
 40
0.0
  9
$SKPOLY
 70
     0
  9
$TDCREATE
 40
2455656.860718622
  9
$TDUCREATE
 40
2455656.777385289
  9
$TDUPDATE
 40
2455656.863102337
  9
$TDUUPDATE
 40
2455656.779769005
  9
$TDINDWG
 40
0.0023837153
  9
$TDUSRTIMER
 40
0.0023837153
  9
$USRTIMER
 70
     1
  9
$ANGBASE
 50
0.0
  9
$ANGDIR
 70
     0
  9
$PDMODE
 70
     0
  9
$PDSIZE
 40
0.0
  9
$PLINEWID
 40
0.0
  9
$SPLFRAME
 70
     0
  9
$SPLINETYPE
 70
     6
  9
$SPLINESEGS
 70
     8
  9
$HANDSEED
  5
5D3
  9
$SURFTAB1
 70
     6
  9
$SURFTAB2
 70
     6
  9
$SURFTYPE
 70
     6
  9
$SURFU
 70
     6
  9
$SURFV
 70
     6
  9
$UCSBASE
  2

  9
$UCSNAME
  2

  9
$UCSORG
 10
0.0
 20
0.0
 30
0.0
  9
$UCSXDIR
 10
1.0
 20
0.0
 30
0.0
  9
$UCSYDIR
 10
0.0
 20
1.0
 30
0.0
  9
$UCSORTHOREF
  2

  9
$UCSORTHOVIEW
 70
     1
  9
$UCSORGTOP
 10
0.0
 20
0.0
 30
0.0
  9
$UCSORGBOTTOM
 10
0.0
 20
0.0
 30
0.0
  9
$UCSORGLEFT
 10
0.0
 20
0.0
 30
0.0
  9
$UCSORGRIGHT
 10
0.0
 20
0.0
 30
0.0
  9
$UCSORGFRONT
 10
0.0
 20
0.0
 30
0.0
  9
$UCSORGBACK
 10
0.0
 20
0.0
 30
0.0
  9
$PUCSBASE
  2

  9
$PUCSNAME
  2

  9
$PUCSORG
 10
0.0
 20
0.0
 30
0.0
  9
$PUCSXDIR
 10
1.0
 20
0.0
 30
0.0
  9
$PUCSYDIR
 10
0.0
 20
1.0
 30
0.0
  9
$PUCSORTHOREF
  2

  9
$PUCSORTHOVIEW
 70
     0
  9
$PUCSORGTOP
 10
0.0
 20
0.0
 30
0.0
  9
$PUCSORGBOTTOM
 10
0.0
 20
0.0
 30
0.0
  9
$PUCSORGLEFT
 10
0.0
 20
0.0
 30
0.0
  9
$PUCSORGRIGHT
 10
0.0
 20
0.0
 30
0.0
  9
$PUCSORGFRONT
 10
0.0
 20
0.0
 30
0.0
  9
$PUCSORGBACK
 10
0.0
 20
0.0
 30
0.0
  9
$USERI1
 70
     0
  9
$USERI2
 70
     0
  9
$USERI3
 70
     0
  9
$USERI4
 70
     0
  9
$USERI5
 70
     0
  9
$USERR1
 40
0.0
  9
$USERR2
 40
0.0
  9
$USERR3
 40
0.0
  9
$USERR4
 40
0.0
  9
$USERR5
 40
0.0
  9
$WORLDVIEW
 70
     1
  9
$SHADEDGE
 70
     3
  9
$SHADEDIF
 70
    70
  9
$TILEMODE
 70
     1
  9
$MAXACTVP
 70
    64
  9
$PINSBASE
 10
0.0
 20
0.0
 30
0.0
  9
$PLIMCHECK
 70
     0
  9
$PEXTMIN
 10
1.000000000000000E+20
 20
1.000000000000000E+20
 30
1.000000000000000E+20
  9
$PEXTMAX
 10
-1.000000000000000E+20
 20
-1.000000000000000E+20
 30
-1.000000000000000E+20
  9
$PLIMMIN
 10
0.0
 20
0.0
  9
$PLIMMAX
 10
12.0
 20
9.0
  9
$UNITMODE
 70
     0
  9
$VISRETAIN
 70
     1
  9
$PLINEGEN
 70
     0
  9
$PSLTSCALE
 70
     1
  9
$TREEDEPTH
 70
  3020
  9
$CMLSTYLE
  2
Standard
  9
$CMLJUST
 70
     0
  9
$CMLSCALE
 40
1.0
  9
$PROXYGRAPHICS
 70
     1
  9
$MEASUREMENT
 70
     0
  9
$CELWEIGHT
370
    -1
  9
$ENDCAPS
280
     0
  9
$JOINSTYLE
280
     0
  9
$LWDISPLAY
290
     0
  9
$INSUNITS
 70
     0
  9
$HYPERLINKBASE
  1

  9
$STYLESHEET
  1

  9
$XEDIT
290
     1
  9
$CEPSNTYPE
380
     0
  9
$PSTYLEMODE
290
     1
  9
$FINGERPRINTGUID
  2
{4BCAAD23-ACFA-4708-841D-C2ED8C1F9FF8}
  9
$VERSIONGUID
  2
{933FE498-162F-4B3B-8D59-C3AD026C4025}
  9
$EXTNAMES
290
     1
  9
$PSVPSCALE
 40
0.0
  9
$OLESTARTUP
290
     0
  0
ENDSEC
  0
SECTION
  2
CLASSES
  0
CLASS
  1
ACDBDICTIONARYWDFLT
  2
AcDbDictionaryWithDefault
  3
AutoCAD 2000
 90
        0
280
     0
281
     0
  0
CLASS
  1
ACDBPLACEHOLDER
  2
AcDbPlaceHolder
  3
AutoCAD 2000
 90
        0
280
     0
281
     0
  0
CLASS
  1
LAYOUT
  2
AcDbLayout
  3
AutoCAD 2000
 90
        0
280
     0
281
     0
  0
CLASS
  1
DICTIONARYVAR
  2
AcDbDictionaryVar
  3
AutoCAD 2000
 90
        0
280
     0
281
     0
  0
ENDSEC
  0
SECTION
  2
TABLES
  0
TABLE
  2
VPORT
  5
8
330
0
100
AcDbSymbolTable
 70
     4
  0
VPORT
  5
5D2
330
8
100
AcDbSymbolTableRecord
100
AcDbViewportTableRecord
  2
*Active
 70
     0
 10
0.0
 20
0.0
 11
1.0
 21
1.0
 12
99.0
 22
82.99999999999998
 13
0.0
 23
0.0
 14
1.0
 24
1.0
 15
0.0
 25
0.0
 16
0.0
 26
0.0
 36
1.0
 17
0.0
 27
0.0
 37
0.0
 40
166.7126054881623
 41
2.073363431151241
 42
50.0
 43
0.0
 44
0.0
 50
0.0
 51
0.0
 71
     0
 72
   100
 73
     1
 74
     3
 75
     0
 76
     0
 77
     0
 78
     0
281
     0
 65
     1
110
0.0
120
0.0
130
0.0
111
1.0
121
0.0
131
0.0
112
0.0
122
1.0
132
0.0
 79
     1
146
0.0
  0
ENDTAB
  0
TABLE
  2
LTYPE
  5
5
330
0
100
AcDbSymbolTable
 70
     1
  0
LTYPE
  5
13
330
5
100
AcDbSymbolTableRecord
100
AcDbLinetypeTableRecord
  2
ByBlock
 70
     0
  3

 72
    65
 73
     0
 40
0.0
  0
LTYPE
  5
14
330
5
100
AcDbSymbolTableRecord
100
AcDbLinetypeTableRecord
  2
ByLayer
 70
     0
  3

 72
    65
 73
     0
 40
0.0
  0
LTYPE
  5
15
330
5
100
AcDbSymbolTableRecord
100
AcDbLinetypeTableRecord
  2
Continuous
 70
     0
  3
Solid line
 72
    65
 73
     0
 40
0.0
  0
ENDTAB
  0
TABLE
  2
LAYER
  5
2
330
0
100
AcDbSymbolTable
 70
     1
  0
LAYER
  5
10
330
2
100
AcDbSymbolTableRecord
100
AcDbLayerTableRecord
  2
0
 70
     0
 62
     7
  6
Continuous
370
    -3
390
F
  0
ENDTAB
  0
TABLE
  2
STYLE
  5
3
330
0
100
AcDbSymbolTable
 70
     1
  0
STYLE
  5
11
330
3
100
AcDbSymbolTableRecord
100
AcDbTextStyleTableRecord
  2
Standard
 70
     0
 40
0.0
 41
1.0
 50
0.0
 71
     0
 42
0.2
  3
txt
  4

  0
ENDTAB
  0
TABLE
  2
VIEW
  5
6
330
0
100
AcDbSymbolTable
 70
     0
  0
ENDTAB
  0
TABLE
  2
UCS
  5
7
330
0
100
AcDbSymbolTable
 70
     0
  0
ENDTAB
  0
TABLE
  2
APPID
  5
9
330
0
100
AcDbSymbolTable
 70
     1
  0
APPID
  5
12
330
9
100
AcDbSymbolTableRecord
100
AcDbRegAppTableRecord
  2
ACAD
 70
     0
  0
ENDTAB
  0
TABLE
  2
DIMSTYLE
  5
A
330
0
100
AcDbSymbolTable
 70
     1
100
AcDbDimStyleTable
 71
     0
  0
DIMSTYLE
105
5CA
330
A
100
AcDbSymbolTableRecord
100
AcDbDimStyleTableRecord
  2
Standard
 70
     0
340
11
  0
ENDTAB
  0
TABLE
  2
BLOCK_RECORD
  5
1
330
0
100
AcDbSymbolTable
 70
     0
  0
BLOCK_RECORD
  5
1E
330
1
100
AcDbSymbolTableRecord
100
AcDbBlockTableRecord
  2
*Model_Space
340
21
  0
BLOCK_RECORD
  5
1A
330
1
100
AcDbSymbolTableRecord
100
AcDbBlockTableRecord
  2
*Paper_Space
340
1D
  0
ENDTAB
  0
ENDSEC
  0
SECTION
  2
BLOCKS
  0
BLOCK
  5
1F
330
1E
100
AcDbEntity
  8
0
100
AcDbBlockBegin
  2
*Model_Space
 70
     0
 10
0.0
 20
0.0
 30
0.0
  3
*Model_Space
  1

  0
ENDBLK
  5
20
330
1E
100
AcDbEntity
  8
0
100
AcDbBlockEnd
  0
BLOCK
  5
1B
330
1A
100
AcDbEntity
 67
     1
  8
0
100
AcDbBlockBegin
  2
*Paper_Space
 70
     0
 10
0.0
 20
0.0
 30
0.0
  3
*Paper_Space
  1

  0
ENDBLK
  5
1C
330
1A
100
AcDbEntity
 67
     1
  8
0
100
AcDbBlockEnd
  0
ENDSEC
  0
SECTION
  2
ENTITIES
  0
LINE
  5
22
330
1E
100
AcDbEntity
  8
0
100
AcDbLine
 10
0.0658015000000015
 20
147.8712379999999
 30
0.0
 11
1.531367499999999
 21
145.4102379999999
 31
0.0
  0
LINE
  5
23
330
1E
100
AcDbEntity
  8
0
100
AcDbLine
 10
-0.0672374999999984
 20
150.6412379999999
 30
0.0
 11
0.6652505000000021
 21
152.9102379999999
 31
0.0
  0
LINE
  5
24
330
1E
100
AcDbEntity
  8
0
100
AcDbLine
 10
0.6652505000000021
 20
152.9102379999999
 30
0.0
 11
1.831247499999999
 21
154.9292379999999
 31
0.0
  0
LINE
  5
25
330
1E
100
AcDbEntity
  8
0
100
AcDbLine
 10
0.6652505000000021
 20
152.9102379999999
 30
0.0
 11
1.831247499999999
 21
154.9292379999999
 31
0.0
  0
LINE
  5
26
330
1E
100
AcDbEntity
  8
0
100
AcDbLine
 10
-0.0672374999999983
 20
150.6412379999999
 30
0.0
 11
0.6652505000000021
 21
152.9102379999999
 31
0.0
  0
LINE
  5
27
330
1E
100
AcDbEntity
  8
0
100
AcDbLine
 10
-0.0672374999999983
 20
150.6412379999999
 30
0.0
 11
0.0658015000000015
 21
147.8712379999999
 31
0.0
  0
LINE
  5
28
330
1E
100
AcDbEntity
  8
0
100
AcDbLine
 10
-0.0672374999999983
 20
150.6412379999999
 30
0.0
 11
0.0658015000000015
 21
147.8712379999999
 31
0.0
  0
LINE
  5
29
330
1E
100
AcDbEntity
  8
0
100
AcDbLine
 10
0.0658015000000015
 20
147.8712379999999
 30
0.0
 11
1.531367499999999
 21
145.4102379999999
 31
0.0
  0
LINE
  5
2A
330
1E
100
AcDbEntity
  8
0
100
AcDbLine
 10
1.831247499999999
 20
154.9292379999999
 30
0.0
 11
2.41441579363073
 21
154.8782983930839
 31
0.0
  0
LINE
  5
2B
330
1E
100
AcDbEntity
  8
0
100
AcDbLine
 10
1.831247499999999
 20
154.9292379999999
 30
0.0
 11
3.390097499999999
 21
154.0292379999999
 31
0.0
  0
LINE
  5
2C
330
1E
100
AcDbEntity
  8
0
100
AcDbLine
 10
1.531367499999999
 20
145.4102379999999
 30
0.0
 11
3.4634275
 21
143.7562379999999
 31
0.0
  0
LINE
  5
2D
330
1E
100
AcDbEntity
  8
0
100
AcDbLine
 10
2.320167499999999
 20
155.2002379999999
 30
0.0
 11
2.3409675
 21
155.018238
 31
0.0
  0
LINE
  5
2E
330
1E
100
AcDbEntity
  8
0
100
AcDbLine
 10
2.320167499999999
 20
155.2002379999999
 30
0.0
 11
2.340947499999999
 21
155.018238
 31
0.0
  0
LINE
  5
2F
330
1E
100
AcDbEntity
  8
0
100
AcDbLine
 10
2.320167499999999
 20
155.2002379999999
 30
0.0
 11
2.370147499999999
 21
155.3822379999999
 31
0.0
  0
LINE
  5
30
330
1E
100
AcDbEntity
  8
0
100
AcDbLine
 10
2.340947499999999
 20
155.018238
 30
0.0
 11
2.425997499999999
 21
154.8562379999999
 31
0.0
  0
LINE
  5
31
330
1E
100
AcDbEntity
  8
0
100
AcDbLine
 10
73.1128375
 20
101.7922379999999
 30
0.0
 11
73.7190375
 21
101.442238
 31
0.0
  0
LINE
  5
32
330
1E
100
AcDbEntity
  8
0
100
AcDbLine
 10
72.49593749999999
 20
102.1492379999999
 30
0.0
 11
73.0214498751873
 21
103.059374714131
 31
0.0
  0
LINE
  5
33
330
1E
100
AcDbEntity
  8
0
100
AcDbLine
 10
66.51853749999999
 20
105.2202379999999
 30
0.0
 11
66.9408791975496
 21
105.9517537376639
 31
0.0
  0
LINE
  5
34
330
1E
100
AcDbEntity
  8
0
100
AcDbLine
 10
65.9062375
 20
105.5732379999999
 30
0.0
 11
66.0679157916376
 21
105.479968061355
 31
0.0
  0
LINE
  5
35
330
1E
100
AcDbEntity
  8
0
100
AcDbLine
 10
65.9062375
 20
105.5732379999999
 30
0.0
 11
66.06791579163751
 21
105.479968061355
 31
0.0
  0
LINE
  5
36
330
1E
100
AcDbEntity
  8
0
100
AcDbLine
 10
59.1179375
 20
109.1142379999999
 30
0.0
 11
59.2817369275076
 21
109.397922799383
 31
0.0
  0
LINE
  5
37
330
1E
100
AcDbEntity
  8
0
100
AcDbLine
 10
58.9971666403774
 20
109.18380030284
 30
0.0
 11
59.0811375
 21
109.1352379999999
 31
0.0
  0
LINE
  5
38
330
1E
100
AcDbEntity
  8
0
100
AcDbLine
 10
58.1030375000014
 20
109.7002721685639
 30
0.0
 11
58.6665375
 21
109.3742379999999
 31
0.0
  0
LINE
  5
39
330
1E
100
AcDbEntity
  8
0
100
AcDbLine
 10
58.1030375000014
 20
109.7002721685639
 30
0.0
 11
58.6665375
 21
109.3742379999999
 31
0.0
  0
LINE
  5
3A
330
1E
100
AcDbEntity
  8
0
100
AcDbLine
 10
57.4903375
 20
110.0532379999999
 30
0.0
 11
57.9419375
 21
109.7932379999999
 31
0.0
  0
LINE
  5
3B
330
1E
100
AcDbEntity
  8
0
100
AcDbLine
 10
57.4903375
 20
110.0532379999999
 30
0.0
 11
57.8590199032592
 21
110.6921557090259
 31
0.0
  0
LINE
  5
3C
330
1E
100
AcDbEntity
  8
0
100
AcDbLine
 10
57.4903375
 20
110.0532379999999
 30
0.0
 11
57.81027429147339
 21
110.607680739969
 31
0.0
  0
LINE
  5
3D
330
1E
100
AcDbEntity
  8
0
100
AcDbLine
 10
58.12913749999999
 20
110.0632379999999
 30
0.0
 11
58.7415375
 21
109.7102379999999
 31
0.0
  0
LINE
  5
3E
330
1E
100
AcDbEntity
  8
0
100
AcDbLine
 10
58.12913749999999
 20
110.0632379999999
 30
0.0
 11
58.49324641338601
 21
110.6938918092519
 31
0.0
  0
LINE
  5
3F
330
1E
100
AcDbEntity
  8
0
100
AcDbLine
 10
57.9419375
 20
109.7932379999999
 30
0.0
 11
58.1030375000015
 21
109.7002721685639
 31
0.0
  0
LINE
  5
40
330
1E
100
AcDbEntity
  8
0
100
AcDbLine
 10
57.9419375
 20
109.7932379999999
 30
0.0
 11
58.1030375000014
 21
109.7002721685639
 31
0.0
  0
LINE
  5
41
330
1E
100
AcDbEntity
  8
0
100
AcDbLine
 10
57.5271375
 20
110.0322379999999
 30
0.0
 11
58.0080375
 21
109.7552379999999
 31
0.0
  0
LINE
  5
42
330
1E
100
AcDbEntity
  8
0
100
AcDbLine
 10
57.5271375
 20
110.0322379999999
 30
0.0
 11
57.89664796544649
 21
110.672194462945
 31
0.0
  0
LINE
  5
43
330
1E
100
AcDbEntity
  8
0
100
AcDbLine
 10
58.0080375
 20
109.7552379999999
 30
0.0
 11
58.6665375
 21
109.3742379999999
 31
0.0
  0
LINE
  5
44
330
1E
100
AcDbEntity
  8
0
100
AcDbLine
 10
58.0080375
 20
109.7552379999999
 30
0.0
 11
58.1717079894976
 21
110.038699491194
 31
0.0
  0
LINE
  5
45
330
1E
100
AcDbEntity
  8
0
100
AcDbLine
 10
58.7415375
 20
109.7102379999999
 30
0.0
 11
59.35383749999999
 21
109.3562379999999
 31
0.0
  0
LINE
  5
46
330
1E
100
AcDbEntity
  8
0
100
AcDbLine
 10
58.7415375
 20
109.7102379999999
 30
0.0
 11
59.1338264639556
 21
110.3897009858009
 31
0.0
  0
LINE
  5
47
330
1E
100
AcDbEntity
  8
0
100
AcDbLine
 10
58.6665375
 20
109.3742379999999
 30
0.0
 11
59.1179375
 21
109.1142379999999
 31
0.0
  0
LINE
  5
48
330
1E
100
AcDbEntity
  8
0
100
AcDbLine
 10
58.6665375
 20
109.3742379999999
 30
0.0
 11
58.8306832248046
 21
109.658698580466
 31
0.0
  0
LINE
  5
49
330
1E
100
AcDbEntity
  8
0
100
AcDbLine
 10
58.6665375
 20
109.3742379999999
 30
0.0
 11
58.8939093518609
 21
109.2432750370319
 31
0.0
  0
LINE
  5
4A
330
1E
100
AcDbEntity
  8
0
100
AcDbLine
 10
59.35383749999999
 20
109.3562379999999
 30
0.0
 11
59.5988375
 21
109.2152379999999
 31
0.0
  0
LINE
  5
4B
330
1E
100
AcDbEntity
  8
0
100
AcDbLine
 10
59.35383749999999
 20
109.3562379999999
 30
0.0
 11
59.7747811530176
 21
110.0853322586029
 31
0.0
  0
LINE
  5
4C
330
1E
100
AcDbEntity
  8
0
100
AcDbLine
 10
58.8974375
 20
109.241238
 30
0.0
 11
59.50363750000001
 21
108.8912379999999
 31
0.0
  0
LINE
  5
4D
330
1E
100
AcDbEntity
  8
0
100
AcDbLine
 10
62.2428375
 20
107.6882379999999
 30
0.0
 11
62.5904375
 21
107.488238
 31
0.0
  0
LINE
  5
4E
330
1E
100
AcDbEntity
  8
0
100
AcDbLine
 10
62.4555375
 20
107.5662379999999
 30
0.0
 11
62.5904375
 21
107.488238
 31
0.0
  0
LINE
  5
4F
330
1E
100
AcDbEntity
  8
0
100
AcDbLine
 10
62.4555375
 20
107.5662379999999
 30
0.0
 11
62.8964428735581
 21
108.3299068999679
 31
0.0
  0
LINE
  5
50
330
1E
100
AcDbEntity
  8
0
100
AcDbLine
 10
61.8950375
 20
107.8892379999999
 30
0.0
 11
62.4555375
 21
107.5662379999999
 31
0.0
  0
LINE
  5
51
330
1E
100
AcDbEntity
  8
0
100
AcDbLine
 10
61.8950375
 20
107.8892379999999
 30
0.0
 11
62.05959910469299
 21
108.174266460004
 31
0.0
  0
LINE
  5
52
330
1E
100
AcDbEntity
  8
0
100
AcDbLine
 10
62.2428375
 20
107.6882379999999
 30
0.0
 11
62.5904375
 21
107.488238
 31
0.0
  0
LINE
  5
53
330
1E
100
AcDbEntity
  8
0
100
AcDbLine
 10
63.2984375
 20
107.0792379999999
 30
0.0
 11
63.7203752880188
 21
106.835482239631
 31
0.0
  0
LINE
  5
54
330
1E
100
AcDbEntity
  8
0
100
AcDbLine
 10
63.2984375
 20
107.0792379999999
 30
0.0
 11
63.7203752880189
 21
106.835482239631
 31
0.0
  0
LINE
  5
55
330
1E
100
AcDbEntity
  8
0
100
AcDbLine
 10
63.2777375
 20
107.0912379999999
 30
0.0
 11
63.7173375
 21
106.8372379999999
 31
0.0
  0
LINE
  5
56
330
1E
100
AcDbEntity
  8
0
100
AcDbLine
 10
63.2777375
 20
107.0912379999999
 30
0.0
 11
63.6798154257551
 21
107.7876559292819
 31
0.0
  0
LINE
  5
57
330
1E
100
AcDbEntity
  8
0
100
AcDbLine
 10
63.2777375
 20
107.0912379999999
 30
0.0
 11
63.56163297335999
 21
107.5829583482849
 31
0.0
  0
LINE
  5
58
330
1E
100
AcDbEntity
  8
0
100
AcDbLine
 10
63.7203752880189
 20
106.835482239631
 30
0.0
 11
64.37653749999999
 21
106.4562379999999
 31
0.0
  0
LINE
  5
59
330
1E
100
AcDbEntity
  8
0
100
AcDbLine
 10
63.720375288019
 20
106.835482239631
 30
0.0
 11
64.37653749999999
 21
106.4562379999999
 31
0.0
  0
LINE
  5
5A
330
1E
100
AcDbEntity
  8
0
100
AcDbLine
 10
63.7173375
 20
106.8372379999999
 30
0.0
 11
64.37653749999999
 21
106.4562379999999
 31
0.0
  0
LINE
  5
5B
330
1E
100
AcDbEntity
  8
0
100
AcDbLine
 10
63.7173375
 20
106.8372379999999
 30
0.0
 11
64.1361801374409
 21
107.562693200541
 31
0.0
  0
LINE
  5
5C
330
1E
100
AcDbEntity
  8
0
100
AcDbLine
 10
64.37653749999999
 20
106.4562379999999
 30
0.0
 11
64.8682375
 21
106.1732379999999
 31
0.0
  0
LINE
  5
5D
330
1E
100
AcDbEntity
  8
0
100
AcDbLine
 10
64.37653749999999
 20
106.4562379999999
 30
0.0
 11
64.82057151479271
 21
107.225325854132
 31
0.0
  0
LINE
  5
5E
330
1E
100
AcDbEntity
  8
0
100
AcDbLine
 10
65.29625920834121
 20
105.925507938657
 30
0.0
 11
65.9062375
 21
105.5732379999999
 31
0.0
  0
LINE
  5
5F
330
1E
100
AcDbEntity
  8
0
100
AcDbLine
 10
65.8918375
 20
105.9612379999999
 30
0.0
 11
66.4806375
 21
105.6222379999999
 31
0.0
  0
LINE
  5
60
330
1E
100
AcDbEntity
  8
0
100
AcDbLine
 10
65.8918375
 20
105.9612379999999
 30
0.0
 11
66.4174795332989
 21
106.872162960655
 31
0.0
  0
LINE
  5
61
330
1E
100
AcDbEntity
  8
0
100
AcDbLine
 10
65.29625920834121
 20
105.925507938657
 30
0.0
 11
65.9062375
 21
105.5732379999999
 31
0.0
  0
LINE
  5
62
330
1E
100
AcDbEntity
  8
0
100
AcDbLine
 10
64.9396375
 20
106.1312379999999
 30
0.0
 11
65.4579375
 21
105.8322379999999
 31
0.0
  0
LINE
  5
63
330
1E
100
AcDbEntity
  8
0
100
AcDbLine
 10
64.9396375
 20
106.1312379999999
 30
0.0
 11
65.1043425167656
 21
106.4165148564769
 31
0.0
  0
LINE
  5
64
330
1E
100
AcDbEntity
  8
0
100
AcDbLine
 10
64.9396375
 20
106.1312379999999
 30
0.0
 11
65.29625920834121
 21
105.925507938657
 31
0.0
  0
LINE
  5
65
330
1E
100
AcDbEntity
  8
0
100
AcDbLine
 10
64.9396375
 20
106.1312379999999
 30
0.0
 11
65.29625920834121
 21
105.925507938657
 31
0.0
  0
LINE
  5
66
330
1E
100
AcDbEntity
  8
0
100
AcDbLine
 10
65.4579375
 20
105.8322379999999
 30
0.0
 11
66.1107375
 21
105.455238
 31
0.0
  0
LINE
  5
67
330
1E
100
AcDbEntity
  8
0
100
AcDbLine
 10
65.4579375
 20
105.8322379999999
 30
0.0
 11
65.6223566027854
 21
106.11701963998
 31
0.0
  0
LINE
  5
68
330
1E
100
AcDbEntity
  8
0
100
AcDbLine
 10
64.88893749999999
 20
106.1612379999999
 30
0.0
 11
65.053349114315
 21
106.446006669596
 31
0.0
  0
LINE
  5
69
330
1E
100
AcDbEntity
  8
0
100
AcDbLine
 10
64.9630375
 20
106.4982379999999
 30
0.0
 11
65.26043749999999
 21
106.3262379999999
 31
0.0
  0
LINE
  5
6A
330
1E
100
AcDbEntity
  8
0
100
AcDbLine
 10
64.9630375
 20
106.4982379999999
 30
0.0
 11
65.4720882249579
 21
107.379864724726
 31
0.0
  0
LINE
  5
6B
330
1E
100
AcDbEntity
  8
0
100
AcDbLine
 10
65.26043749999999
 20
106.3262379999999
 30
0.0
 11
65.8918375
 21
105.9612379999999
 31
0.0
  0
LINE
  5
6C
330
1E
100
AcDbEntity
  8
0
100
AcDbLine
 10
65.26043749999999
 20
106.3262379999999
 30
0.0
 11
65.78343363208161
 21
107.232016823927
 31
0.0
  0
LINE
  5
6D
330
1E
100
AcDbEntity
  8
0
100
AcDbLine
 10
64.8480251719717
 20
106.184783994065
 30
0.0
 11
64.9396375
 21
106.1312379999999
 31
0.0
  0
LINE
  5
6E
330
1E
100
AcDbEntity
  8
0
100
AcDbLine
 10
64.8682375
 20
106.1732379999999
 30
0.0
 11
65.0326368892129
 21
106.457985495143
 31
0.0
  0
LINE
  5
6F
330
1E
100
AcDbEntity
  8
0
100
AcDbLine
 10
64.4493375
 20
106.4142379999999
 30
0.0
 11
64.88893749999999
 21
106.1612379999999
 31
0.0
  0
LINE
  5
70
330
1E
100
AcDbEntity
  8
0
100
AcDbLine
 10
62.8518115302859
 20
107.940950146776
 30
0.0
 11
63.56163297335999
 21
107.5829583482849
 31
0.0
  0
LINE
  5
71
330
1E
100
AcDbEntity
  8
0
100
AcDbLine
 10
62.5904375
 20
107.488238
 30
0.0
 11
63.03538707050289
 21
108.258911639799
 31
0.0
  0
LINE
  5
72
330
1E
100
AcDbEntity
  8
0
100
AcDbLine
 10
62.5082375
 20
107.9152379999999
 30
0.0
 11
63.03391794999539
 21
108.8256658034769
 31
0.0
  0
LINE
  5
73
330
1E
100
AcDbEntity
  8
0
100
AcDbLine
 10
61.6163736929247
 20
108.0502380000609
 30
0.0
 11
62.2428375
 21
107.6882379999999
 31
0.0
  0
LINE
  5
74
330
1E
100
AcDbEntity
  8
0
100
AcDbLine
 10
61.6163736929247
 20
108.0502380000609
 30
0.0
 11
61.76196625839599
 21
107.966107826674
 31
0.0
  0
LINE
  5
75
330
1E
100
AcDbEntity
  8
0
100
AcDbLine
 10
61.61637369292421
 20
108.0502380000609
 30
0.0
 11
62.2428375
 21
107.6882379999999
 31
0.0
  0
LINE
  5
76
330
1E
100
AcDbEntity
  8
0
100
AcDbLine
 10
61.61637369292421
 20
108.0502380000609
 30
0.0
 11
61.7619662583959
 21
107.966107826674
 31
0.0
  0
LINE
  5
77
330
1E
100
AcDbEntity
  8
0
100
AcDbLine
 10
61.24943749999999
 20
108.2622379999999
 30
0.0
 11
61.8950375
 21
107.8892379999999
 31
0.0
  0
LINE
  5
78
330
1E
100
AcDbEntity
  8
0
100
AcDbLine
 10
61.24943749999999
 20
108.2622379999999
 30
0.0
 11
61.4137910373832
 21
108.546906077611
 31
0.0
  0
LINE
  5
79
330
1E
100
AcDbEntity
  8
0
100
AcDbLine
 10
61.9068180755597
 20
108.2625041870389
 30
0.0
 11
62.31763749999999
 21
108.0252379999999
 31
0.0
  0
LINE
  5
7A
330
1E
100
AcDbEntity
  8
0
100
AcDbLine
 10
61.90681807555979
 20
108.2625041870389
 30
0.0
 11
62.31763749999999
 21
108.0252379999999
 31
0.0
  0
LINE
  5
7B
330
1E
100
AcDbEntity
  8
0
100
AcDbLine
 10
60.9018375
 20
108.4632379999999
 30
0.0
 11
61.24943749999999
 21
108.2622379999999
 31
0.0
  0
LINE
  5
7C
330
1E
100
AcDbEntity
  8
0
100
AcDbLine
 10
60.9018375
 20
108.4632379999999
 30
0.0
 11
61.0660846134181
 21
108.7477217462849
 31
0.0
  0
LINE
  5
7D
330
1E
100
AcDbEntity
  8
0
100
AcDbLine
 10
60.9018375
 20
108.4632379999999
 30
0.0
 11
61.0660628146488
 21
108.747683989788
 31
0.0
  0
LINE
  5
7E
330
1E
100
AcDbEntity
  8
0
100
AcDbLine
 10
61.5794375
 20
108.4512379999999
 30
0.0
 11
62.2108375
 21
108.0872379999999
 31
0.0
  0
LINE
  5
7F
330
1E
100
AcDbEntity
  8
0
100
AcDbLine
 10
61.5794375
 20
108.4512379999999
 30
0.0
 11
62.1052237960495
 21
109.3618491186269
 31
0.0
  0
LINE
  5
80
330
1E
100
AcDbEntity
  8
0
100
AcDbLine
 10
62.2108375
 20
108.0872379999999
 30
0.0
 11
62.5082375
 21
107.9152379999999
 31
0.0
  0
LINE
  5
81
330
1E
100
AcDbEntity
  8
0
100
AcDbLine
 10
62.2108375
 20
108.0872379999999
 30
0.0
 11
62.73638996455179
 21
108.997444145041
 31
0.0
  0
LINE
  5
82
330
1E
100
AcDbEntity
  8
0
100
AcDbLine
 10
62.2108375
 20
108.0872379999999
 30
0.0
 11
62.73638996455179
 21
108.997444145041
 31
0.0
  0
LINE
  5
83
330
1E
100
AcDbEntity
  8
0
100
AcDbLine
 10
62.31763749999999
 20
108.0252379999999
 30
0.0
 11
62.5082375
 21
107.9152379999999
 31
0.0
  0
LINE
  5
84
330
1E
100
AcDbEntity
  8
0
100
AcDbLine
 10
60.3696375
 20
108.3912379999999
 30
0.0
 11
60.7551811265326
 21
109.05896235051
 31
0.0
  0
LINE
  5
85
330
1E
100
AcDbEntity
  8
0
100
AcDbLine
 10
60.7412554985272
 20
109.034844506833
 30
0.0
 11
60.8450281937848
 21
108.97915753937
 31
0.0
  0
LINE
  5
86
330
1E
100
AcDbEntity
  8
0
100
AcDbLine
 10
59.5988375
 20
109.2152379999999
 30
0.0
 11
60.0309539420936
 21
109.9636840561879
 31
0.0
  0
LINE
  5
87
330
1E
100
AcDbEntity
  8
0
100
AcDbLine
 10
60.8000375
 20
108.9012379999999
 30
0.0
 11
60.9907375
 21
108.7912379999999
 31
0.0
  0
LINE
  5
88
330
1E
100
AcDbEntity
  8
0
100
AcDbLine
 10
60.8000375
 20
108.9012379999999
 30
0.0
 11
61.3258186232949
 21
109.811840159915
 31
0.0
  0
LINE
  5
89
330
1E
100
AcDbEntity
  8
0
100
AcDbLine
 10
60.8000375
 20
108.9012379999999
 30
0.0
 11
60.8450281937848
 21
108.97915753937
 31
0.0
  0
LINE
  5
8A
330
1E
100
AcDbEntity
  8
0
100
AcDbLine
 10
60.9907375
 20
108.7912379999999
 30
0.0
 11
61.5794375
 21
108.4512379999999
 31
0.0
  0
LINE
  5
8B
330
1E
100
AcDbEntity
  8
0
100
AcDbLine
 10
60.9907375
 20
108.7912379999999
 30
0.0
 11
61.516474884781
 21
109.7017644090309
 31
0.0
  0
LINE
  5
8C
330
1E
100
AcDbEntity
  8
0
100
AcDbLine
 10
60.1098375
 20
108.5412379999999
 30
0.0
 11
60.3696375
 21
108.3912379999999
 31
0.0
  0
LINE
  5
8D
330
1E
100
AcDbEntity
  8
0
100
AcDbLine
 10
60.1098375
 20
108.5412379999999
 30
0.0
 11
60.49055422595269
 21
109.2006026245719
 31
0.0
  0
LINE
  5
8E
330
1E
100
AcDbEntity
  8
0
100
AcDbLine
 10
59.50363750000001
 20
108.8912379999999
 30
0.0
 11
60.1098375
 21
108.5412379999999
 31
0.0
  0
LINE
  5
8F
330
1E
100
AcDbEntity
  8
0
100
AcDbLine
 10
59.50363750000001
 20
108.8912379999999
 30
0.0
 11
59.87309145793279
 21
109.531096597385
 31
0.0
  0
LINE
  5
90
330
1E
100
AcDbEntity
  8
0
100
AcDbLine
 10
65.9444125707996
 20
105.5512153371229
 30
0.0
 11
66.06791579163751
 21
105.479968061355
 31
0.0
  0
LINE
  5
91
330
1E
100
AcDbEntity
  8
0
100
AcDbLine
 10
65.9444125707996
 20
105.5512153371229
 30
0.0
 11
66.0679157916376
 21
105.479968061355
 31
0.0
  0
LINE
  5
92
330
1E
100
AcDbEntity
  8
0
100
AcDbLine
 10
66.1107375
 20
105.455238
 30
0.0
 11
66.51853749999999
 21
105.2202379999999
 31
0.0
  0
LINE
  5
93
330
1E
100
AcDbEntity
  8
0
100
AcDbLine
 10
66.1107375
 20
105.455238
 30
0.0
 11
66.27527082075819
 21
105.740217470895
 31
0.0
  0
LINE
  5
94
330
1E
100
AcDbEntity
  8
0
100
AcDbLine
 10
66.6712375
 20
105.5122379999999
 30
0.0
 11
67.19669741230929
 21
106.42228385349
 31
0.0
  0
LINE
  5
95
330
1E
100
AcDbEntity
  8
0
100
AcDbLine
 10
66.15377789485329
 20
105.4304354183659
 30
0.0
 11
66.4245375
 21
105.2742379999999
 31
0.0
  0
LINE
  5
96
330
1E
100
AcDbEntity
  8
0
100
AcDbLine
 10
66.4245375
 20
105.2742379999999
 30
0.0
 11
66.51853749999999
 21
105.2202379999999
 31
0.0
  0
LINE
  5
97
330
1E
100
AcDbEntity
  8
0
100
AcDbLine
 10
66.15377789485329
 20
105.4304354183659
 30
0.0
 11
66.4245375
 21
105.2742379999999
 31
0.0
  0
LINE
  5
98
330
1E
100
AcDbEntity
  8
0
100
AcDbLine
 10
66.4806375
 20
105.6222379999999
 30
0.0
 11
66.6712375
 21
105.5122379999999
 31
0.0
  0
LINE
  5
99
330
1E
100
AcDbEntity
  8
0
100
AcDbLine
 10
66.4806375
 20
105.6222379999999
 30
0.0
 11
67.00611574673451
 21
106.532315606945
 31
0.0
  0
LINE
  5
9A
330
1E
100
AcDbEntity
  8
0
100
AcDbLine
 10
66.1639046431864
 20
105.804596081623
 30
0.0
 11
66.37383749999999
 21
105.6832379999999
 31
0.0
  0
LINE
  5
9B
330
1E
100
AcDbEntity
  8
0
100
AcDbLine
 10
66.1639046431864
 20
105.804596081623
 30
0.0
 11
66.37383749999999
 21
105.6832379999999
 31
0.0
  0
LINE
  5
9C
330
1E
100
AcDbEntity
  8
0
100
AcDbLine
 10
66.37383749999999
 20
105.6832379999999
 30
0.0
 11
66.6712375
 21
105.5122379999999
 31
0.0
  0
LINE
  5
9D
330
1E
100
AcDbEntity
  8
0
100
AcDbLine
 10
66.51856113019571
 20
105.220278928613
 30
0.0
 11
67.0448375
 21
104.9162379999999
 31
0.0
  0
LINE
  5
9E
330
1E
100
AcDbEntity
  8
0
100
AcDbLine
 10
71.8775043009783
 20
102.505569990324
 30
0.0
 11
71.9783375
 21
102.4472379999999
 31
0.0
  0
LINE
  5
9F
330
1E
100
AcDbEntity
  8
0
100
AcDbLine
 10
71.8775043009783
 20
102.505569990324
 30
0.0
 11
71.9783375
 21
102.4472379999999
 31
0.0
  0
LINE
  5
A0
330
1E
100
AcDbEntity
  8
0
100
AcDbLine
 10
68.5901077127412
 20
104.4038762978869
 30
0.0
 11
68.9721375
 21
104.183238
 31
0.0
  0
LINE
  5
A1
330
1E
100
AcDbEntity
  8
0
100
AcDbLine
 10
68.3659375
 20
104.533238
 30
0.0
 11
68.7610375
 21
104.305238
 31
0.0
  0
LINE
  5
A2
330
1E
100
AcDbEntity
  8
0
100
AcDbLine
 10
68.3659375
 20
104.533238
 30
0.0
 11
68.8126707677427
 21
105.3069369033829
 31
0.0
  0
LINE
  5
A3
330
1E
100
AcDbEntity
  8
0
100
AcDbLine
 10
68.3659375
 20
104.533238
 30
0.0
 11
68.5901077127411
 21
104.4038762978869
 31
0.0
  0
LINE
  5
A4
330
1E
100
AcDbEntity
  8
0
100
AcDbLine
 10
68.3659375
 20
104.533238
 30
0.0
 11
68.5901077127413
 21
104.4038762978869
 31
0.0
  0
LINE
  5
A5
330
1E
100
AcDbEntity
  8
0
100
AcDbLine
 10
68.3659375
 20
104.533238
 30
0.0
 11
68.6461905987732
 21
105.018609318519
 31
0.0
  0
LINE
  5
A6
330
1E
100
AcDbEntity
  8
0
100
AcDbLine
 10
68.9721375
 20
104.183238
 30
0.0
 11
69.6270375
 21
103.805238
 31
0.0
  0
LINE
  5
A7
330
1E
100
AcDbEntity
  8
0
100
AcDbLine
 10
68.7610375
 20
104.305238
 30
0.0
 11
69.4159375
 21
103.927238
 31
0.0
  0
LINE
  5
A8
330
1E
100
AcDbEntity
  8
0
100
AcDbLine
 10
68.7610375
 20
104.305238
 30
0.0
 11
69.2194160276867
 21
105.099105369667
 31
0.0
  0
LINE
  5
A9
330
1E
100
AcDbEntity
  8
0
100
AcDbLine
 10
69.4159375
 20
103.927238
 30
0.0
 11
69.9440375
 21
103.6222379999999
 31
0.0
  0
LINE
  5
AA
330
1E
100
AcDbEntity
  8
0
100
AcDbLine
 10
69.4159375
 20
103.927238
 30
0.0
 11
69.89365321826179
 21
104.7545955174189
 31
0.0
  0
LINE
  5
AB
330
1E
100
AcDbEntity
  8
0
100
AcDbLine
 10
70.0221375
 20
103.577238
 30
0.0
 11
70.5093624024562
 21
104.421064506667
 31
0.0
  0
LINE
  5
AC
330
1E
100
AcDbEntity
  8
0
100
AcDbLine
 10
70.356369963744
 20
104.156096368843
 30
0.0
 11
71.23039651124731
 21
103.7152892634469
 31
0.0
  0
LINE
  5
AD
330
1E
100
AcDbEntity
  8
0
100
AcDbLine
 10
70.356369963744
 20
104.156096368843
 30
0.0
 11
71.23039651124731
 21
103.7152892634469
 31
0.0
  0
LINE
  5
AE
330
1E
100
AcDbEntity
  8
0
100
AcDbLine
 10
69.7979672872536
 20
103.7065997021159
 30
0.0
 11
69.9440375
 21
103.6222379999999
 31
0.0
  0
LINE
  5
AF
330
1E
100
AcDbEntity
  8
0
100
AcDbLine
 10
69.9440375
 20
103.6222379999999
 30
0.0
 11
70.0221375
 21
103.577238
 31
0.0
  0
LINE
  5
B0
330
1E
100
AcDbEntity
  8
0
100
AcDbLine
 10
69.9440375
 20
103.6222379999999
 30
0.0
 11
70.43742992789059
 21
104.476746065462
 31
0.0
  0
LINE
  5
B1
330
1E
100
AcDbEntity
  8
0
100
AcDbLine
 10
69.6270375
 20
103.805238
 30
0.0
 11
69.7979672872536
 21
103.7065997021159
 31
0.0
  0
LINE
  5
B2
330
1E
100
AcDbEntity
  8
0
100
AcDbLine
 10
70.8683375
 20
103.0882379999999
 30
0.0
 11
70.99366385078759
 21
103.0160517988369
 31
0.0
  0
LINE
  5
B3
330
1E
100
AcDbEntity
  8
0
100
AcDbLine
 10
70.8683375
 20
103.0882379999999
 30
0.0
 11
71.2847481345659
 21
103.8094210293019
 31
0.0
  0
LINE
  5
B4
330
1E
100
AcDbEntity
  8
0
100
AcDbLine
 10
70.8683375
 20
103.0882379999999
 30
0.0
 11
71.23039651124731
 21
103.7152892634469
 31
0.0
  0
LINE
  5
B5
330
1E
100
AcDbEntity
  8
0
100
AcDbLine
 10
71.28586315282349
 20
102.847101287261
 30
0.0
 11
71.3859375
 21
102.7892379999999
 31
0.0
  0
LINE
  5
B6
330
1E
100
AcDbEntity
  8
0
100
AcDbLine
 10
70.90513749999999
 20
103.0672379999999
 30
0.0
 11
71.3859375
 21
102.7892379999999
 31
0.0
  0
LINE
  5
B7
330
1E
100
AcDbEntity
  8
0
100
AcDbLine
 10
70.90513749999999
 20
103.0672379999999
 30
0.0
 11
71.32252156294879
 21
103.790106913311
 31
0.0
  0
LINE
  5
B8
330
1E
100
AcDbEntity
  8
0
100
AcDbLine
 10
71.3859375
 20
102.7892379999999
 30
0.0
 11
72.0444375
 21
102.409238
 31
0.0
  0
LINE
  5
B9
330
1E
100
AcDbEntity
  8
0
100
AcDbLine
 10
71.3859375
 20
102.7892379999999
 30
0.0
 11
71.8174517325603
 21
103.5370417531559
 31
0.0
  0
LINE
  5
BA
330
1E
100
AcDbEntity
  8
0
100
AcDbLine
 10
72.0444375
 20
102.409238
 30
0.0
 11
72.49593749999999
 21
102.1492379999999
 31
0.0
  0
LINE
  5
BB
330
1E
100
AcDbEntity
  8
0
100
AcDbLine
 10
72.0444375
 20
102.409238
 30
0.0
 11
72.57024172332942
 21
103.3198801669459
 31
0.0
  0
LINE
  5
BC
330
1E
100
AcDbEntity
  8
0
100
AcDbLine
 10
71.9783375
 20
102.4472379999999
 30
0.0
 11
72.45913749999999
 21
102.170238
 31
0.0
  0
LINE
  5
BD
330
1E
100
AcDbEntity
  8
0
100
AcDbLine
 10
67.7735593511286
 20
105.458712717496
 30
0.0
 11
68.6461905987732
 21
105.018609318519
 31
0.0
  0
LINE
  5
BE
330
1E
100
AcDbEntity
  8
0
100
AcDbLine
 10
67.7735593511286
 20
105.458712717496
 30
0.0
 11
68.6461905987732
 21
105.018609318519
 31
0.0
  0
LINE
  5
BF
330
1E
100
AcDbEntity
  8
0
100
AcDbLine
 10
67.3564375
 20
104.736238
 30
0.0
 11
67.7876839194254
 21
105.483177135897
 31
0.0
  0
LINE
  5
C0
330
1E
100
AcDbEntity
  8
0
100
AcDbLine
 10
67.0448375
 20
104.9162379999999
 30
0.0
 11
67.3564375
 21
104.736238
 31
0.0
  0
LINE
  5
C1
330
1E
100
AcDbEntity
  8
0
100
AcDbLine
 10
67.0448375
 20
104.9162379999999
 30
0.0
 11
67.4663940332766
 21
105.646393796115
 31
0.0
  0
LINE
  5
C2
330
1E
100
AcDbEntity
  8
0
100
AcDbLine
 10
72.35303749999999
 20
102.231238
 30
0.0
 11
72.50363749999999
 21
102.144238
 31
0.0
  0
LINE
  5
C3
330
1E
100
AcDbEntity
  8
0
100
AcDbLine
 10
72.8529375
 20
101.9422379999999
 30
0.0
 11
73.1128375
 21
101.7922379999999
 31
0.0
  0
LINE
  5
C4
330
1E
100
AcDbEntity
  8
0
100
AcDbLine
 10
72.90500994535159
 20
101.912970673271
 30
0.0
 11
73.35633749999999
 21
101.652238
 31
0.0
  0
LINE
  5
C5
330
1E
100
AcDbEntity
  8
0
100
AcDbLine
 10
72.90500994535149
 20
101.912970673271
 30
0.0
 11
73.35633749999999
 21
101.652238
 31
0.0
  0
LINE
  5
C6
330
1E
100
AcDbEntity
  8
0
100
AcDbLine
 10
72.50363749999999
 20
102.144238
 30
0.0
 11
73.0555375
 21
101.826238
 31
0.0
  0
LINE
  5
C7
330
1E
100
AcDbEntity
  8
0
100
AcDbLine
 10
72.50363749999999
 20
102.144238
 30
0.0
 11
72.9588788083392
 21
102.932672008544
 31
0.0
  0
LINE
  5
C8
330
1E
100
AcDbEntity
  8
0
100
AcDbLine
 10
73.0555375
 20
101.826238
 30
0.0
 11
73.6976375
 21
101.455238
 31
0.0
  0
LINE
  5
C9
330
1E
100
AcDbEntity
  8
0
100
AcDbLine
 10
73.0555375
 20
101.826238
 30
0.0
 11
73.52919114514209
 21
102.646560398825
 31
0.0
  0
LINE
  5
CA
330
1E
100
AcDbEntity
  8
0
100
AcDbLine
 10
80.33963749999999
 20
99.910238
 30
0.0
 11
83.20423750000001
 21
99.871238
 31
0.0
  0
LINE
  5
CB
330
1E
100
AcDbEntity
  8
0
100
AcDbLine
 10
77.9416375
 20
100.7562379999999
 30
0.0
 11
80.33963749999999
 21
99.910238
 31
0.0
  0
LINE
  5
CC
330
1E
100
AcDbEntity
  8
0
100
AcDbLine
 10
74.5850375
 20
100.9422379999999
 30
0.0
 11
75.07047415315608
 21
101.7834880069709
 31
0.0
  0
LINE
  5
CD
330
1E
100
AcDbEntity
  8
0
100
AcDbLine
 10
76.4095375
 20
101.103238
 30
0.0
 11
77.9416375
 21
100.7562379999999
 31
0.0
  0
LINE
  5
CE
330
1E
100
AcDbEntity
  8
0
100
AcDbLine
 10
74.3252375
 20
101.092238
 30
0.0
 11
74.5850375
 21
100.9422379999999
 31
0.0
  0
LINE
  5
CF
330
1E
100
AcDbEntity
  8
0
100
AcDbLine
 10
74.3252375
 20
101.092238
 30
0.0
 11
74.8026328195785
 21
101.919552569908
 31
0.0
  0
LINE
  5
D0
330
1E
100
AcDbEntity
  8
0
100
AcDbLine
 10
74.05873750000001
 20
101.246238
 30
0.0
 11
74.5667393153948
 21
102.126048114598
 31
0.0
  0
LINE
  5
D1
330
1E
100
AcDbEntity
  8
0
100
AcDbLine
 10
75.0682813717045
 20
101.7796879696239
 30
0.0
 11
76.4095375
 21
101.103238
 31
0.0
  0
LINE
  5
D2
330
1E
100
AcDbEntity
  8
0
100
AcDbLine
 10
73.7190375
 20
101.442238
 30
0.0
 11
74.3252375
 21
101.092238
 31
0.0
  0
LINE
  5
D3
330
1E
100
AcDbEntity
  8
0
100
AcDbLine
 10
73.6976375
 20
101.455238
 30
0.0
 11
74.05873750000001
 21
101.246238
 31
0.0
  0
LINE
  5
D4
330
1E
100
AcDbEntity
  8
0
100
AcDbLine
 10
73.6976375
 20
101.455238
 30
0.0
 11
74.1931727521915
 21
102.313457230337
 31
0.0
  0
LINE
  5
D5
330
1E
100
AcDbEntity
  8
0
100
AcDbLine
 10
73.90813749999999
 20
101.333238
 30
0.0
 11
74.05873750000001
 21
101.246238
 31
0.0
  0
LINE
  5
D6
330
1E
100
AcDbEntity
  8
0
100
AcDbLine
 10
73.35633749999999
 20
101.652238
 30
0.0
 11
73.90813749999999
 21
101.333238
 31
0.0
  0
LINE
  5
D7
330
1E
100
AcDbEntity
  8
0
100
AcDbLine
 10
57.6596375
 20
110.7142379999999
 30
0.0
 11
58.17705532526209
 21
111.610910606567
 31
0.0
  0
LINE
  5
D8
330
1E
100
AcDbEntity
  8
0
100
AcDbLine
 10
57.4354672872178
 20
110.8435997021369
 30
0.0
 11
57.5815375
 21
110.7592379999999
 31
0.0
  0
LINE
  5
D9
330
1E
100
AcDbEntity
  8
0
100
AcDbLine
 10
57.4354672872178
 20
110.8435997021369
 30
0.0
 11
57.5815375
 21
110.7592379999999
 31
0.0
  0
LINE
  5
DA
330
1E
100
AcDbEntity
  8
0
100
AcDbLine
 10
57.5815375
 20
110.7592379999999
 30
0.0
 11
57.6596375
 21
110.7142379999999
 31
0.0
  0
LINE
  5
DB
330
1E
100
AcDbEntity
  8
0
100
AcDbLine
 10
57.88423749999999
 20
110.2052379999999
 30
0.0
 11
58.12913749999999
 21
110.0632379999999
 31
0.0
  0
LINE
  5
DC
330
1E
100
AcDbEntity
  8
0
100
AcDbLine
 10
57.88423749999999
 20
110.2052379999999
 30
0.0
 11
58.2366989858176
 21
110.815717915414
 31
0.0
  0
LINE
  5
DD
330
1E
100
AcDbEntity
  8
0
100
AcDbLine
 10
54.2939375
 20
111.8992379999999
 30
0.0
 11
54.92533749999999
 21
111.5342379999999
 31
0.0
  0
LINE
  5
DE
330
1E
100
AcDbEntity
  8
0
100
AcDbLine
 10
54.2939375
 20
111.8992379999999
 30
0.0
 11
54.4579902135692
 21
112.183361466396
 31
0.0
  0
LINE
  5
DF
330
1E
100
AcDbEntity
  8
0
100
AcDbLine
 10
55.0118375
 20
111.8632379999999
 30
0.0
 11
55.6574375
 21
111.4902379999999
 31
0.0
  0
LINE
  5
E0
330
1E
100
AcDbEntity
  8
0
100
AcDbLine
 10
55.0118375
 20
111.8632379999999
 30
0.0
 11
55.3787899446488
 21
112.4988169394989
 31
0.0
  0
LINE
  5
E1
330
1E
100
AcDbEntity
  8
0
100
AcDbLine
 10
55.6574375
 20
111.4902379999999
 30
0.0
 11
56.0050375
 21
111.2902379999999
 31
0.0
  0
LINE
  5
E2
330
1E
100
AcDbEntity
  8
0
100
AcDbLine
 10
55.6574375
 20
111.4902379999999
 30
0.0
 11
56.04508476287329
 21
112.1616613406249
 31
0.0
  0
LINE
  5
E3
330
1E
100
AcDbEntity
  8
0
100
AcDbLine
 10
54.92533749999999
 20
111.5342379999999
 30
0.0
 11
55.5141375
 21
111.1942379999999
 31
0.0
  0
LINE
  5
E4
330
1E
100
AcDbEntity
  8
0
100
AcDbLine
 10
54.92533749999999
 20
111.5342379999999
 30
0.0
 11
55.0894204780869
 21
111.8184138816199
 31
0.0
  0
LINE
  5
E5
330
1E
100
AcDbEntity
  8
0
100
AcDbLine
 10
55.5141375
 20
111.1942379999999
 30
0.0
 11
55.7047375
 21
111.0842379999999
 31
0.0
  0
LINE
  5
E6
330
1E
100
AcDbEntity
  8
0
100
AcDbLine
 10
55.5141375
 20
111.1942379999999
 30
0.0
 11
55.6780862579615
 21
111.478357241679
 31
0.0
  0
LINE
  5
E7
330
1E
100
AcDbEntity
  8
0
100
AcDbLine
 10
57.0534375
 20
111.0642379999999
 30
0.0
 11
57.1955581462784
 21
110.982157338923
 31
0.0
  0
LINE
  5
E8
330
1E
100
AcDbEntity
  8
0
100
AcDbLine
 10
57.26453750000001
 20
110.9422379999999
 30
0.0
 11
57.6596375
 21
110.7142379999999
 31
0.0
  0
LINE
  5
E9
330
1E
100
AcDbEntity
  8
0
100
AcDbLine
 10
57.26453750000001
 20
110.9422379999999
 30
0.0
 11
57.7560631872596
 21
111.7940401561519
 31
0.0
  0
LINE
  5
EA
330
1E
100
AcDbEntity
  8
0
100
AcDbLine
 10
56.13118046867111
 20
111.508723570603
 30
0.0
 11
57.81027429147339
 21
110.607680739969
 31
0.0
  0
LINE
  5
EB
330
1E
100
AcDbEntity
  8
0
100
AcDbLine
 10
55.8688308274314
 20
111.368607777082
 30
0.0
 11
56.0050375
 21
111.2902379999999
 31
0.0
  0
LINE
  5
EC
330
1E
100
AcDbEntity
  8
0
100
AcDbLine
 10
56.3985375
 20
111.4422379999999
 30
0.0
 11
57.0534375
 21
111.0642379999999
 31
0.0
  0
LINE
  5
ED
330
1E
100
AcDbEntity
  8
0
100
AcDbLine
 10
56.267093073075
 20
111.518423203153
 30
0.0
 11
56.3985375
 21
111.4422379999999
 31
0.0
  0
LINE
  5
EE
330
1E
100
AcDbEntity
  8
0
100
AcDbLine
 10
56.0034375
 20
111.6712379999999
 30
0.0
 11
56.0815375
 21
111.6252379999999
 31
0.0
  0
LINE
  5
EF
330
1E
100
AcDbEntity
  8
0
100
AcDbLine
 10
56.0034375
 20
111.6712379999999
 30
0.0
 11
56.4613697460861
 21
112.4643324530069
 31
0.0
  0
LINE
  5
F0
330
1E
100
AcDbEntity
  8
0
100
AcDbLine
 10
56.0815375
 20
111.6252379999999
 30
0.0
 11
56.8315375
 21
111.1922379999999
 31
0.0
  0
LINE
  5
F1
330
1E
100
AcDbEntity
  8
0
100
AcDbLine
 10
56.0815375
 20
111.6252379999999
 30
0.0
 11
56.6096375
 21
111.321238
 31
0.0
  0
LINE
  5
F2
330
1E
100
AcDbEntity
  8
0
100
AcDbLine
 10
56.0815375
 20
111.6252379999999
 30
0.0
 11
56.5426189643784
 21
112.424281052478
 31
0.0
  0
LINE
  5
F3
330
1E
100
AcDbEntity
  8
0
100
AcDbLine
 10
56.6096375
 20
111.321238
 30
0.0
 11
57.26453750000001
 21
110.9422379999999
 31
0.0
  0
LINE
  5
F4
330
1E
100
AcDbEntity
  8
0
100
AcDbLine
 10
56.6096375
 20
111.321238
 30
0.0
 11
57.09057207886329
 21
112.154170273313
 31
0.0
  0
LINE
  5
F5
330
1E
100
AcDbEntity
  8
0
100
AcDbLine
 10
56.0050375
 20
111.2902379999999
 30
0.0
 11
56.1692866739089
 21
111.574725315152
 31
0.0
  0
LINE
  5
F6
330
1E
100
AcDbEntity
  8
0
100
AcDbLine
 10
55.7047375
 20
111.0842379999999
 30
0.0
 11
55.8688308274314
 21
111.368607777082
 31
0.0
  0
LINE
  5
F7
330
1E
100
AcDbEntity
  8
0
100
AcDbLine
 10
78.4339375
 20
110.976238
 30
0.0
 11
80.00233749999999
 21
110.0702379999999
 31
0.0
  0
LINE
  5
F8
330
1E
100
AcDbEntity
  8
0
100
AcDbLine
 10
80.00233749999999
 20
110.0702379999999
 30
0.0
 11
81.44943750000001
 21
109.2342379999999
 31
0.0
  0
LINE
  5
F9
330
1E
100
AcDbEntity
  8
0
100
AcDbLine
 10
178.161280790037
 20
3.8461323651286
 30
0.0
 11
178.619069019797
 21
3.198130142180839
 31
0.0
  0
LINE
  5
FA
330
1E
100
AcDbEntity
  8
0
100
AcDbLine
 10
178.161280790037
 20
3.8461323651286
 30
0.0
 11
178.619069019797
 21
3.198130142180839
 31
0.0
  0
LINE
  5
FB
330
1E
100
AcDbEntity
  8
0
100
AcDbLine
 10
178.1612374999999
 20
3.846097999999979
 30
0.0
 11
178.4272375
 21
4.05725799999999
 31
0.0
  0
LINE
  5
FC
330
1E
100
AcDbEntity
  8
0
100
AcDbLine
 10
177.2992375
 20
3.60037799999999
 30
0.0
 11
177.6382375
 21
3.85239799999999
 31
0.0
  0
LINE
  5
FD
330
1E
100
AcDbEntity
  8
0
100
AcDbLine
 10
177.2992375
 20
3.60037799999999
 30
0.0
 11
177.8182375
 21
4.33037799999999
 31
0.0
  0
LINE
  5
FE
330
1E
100
AcDbEntity
  8
0
100
AcDbLine
 10
177.2992375
 20
3.60037799999999
 30
0.0
 11
178.1612374999999
 21
3.846097999999979
 31
0.0
  0
LINE
  5
FF
330
1E
100
AcDbEntity
  8
0
100
AcDbLine
 10
175.6992375
 20
5.86432799999999
 30
0.0
 11
176.0392375
 21
6.11634799999999
 31
0.0
  0
LINE
  5
100
330
1E
100
AcDbEntity
  8
0
100
AcDbLine
 10
175.6992375
 20
5.86432799999999
 30
0.0
 11
176.2202375
 21
6.59519799999999
 31
0.0
  0
LINE
  5
101
330
1E
100
AcDbEntity
  8
0
100
AcDbLine
 10
175.6992375
 20
5.86432799999999
 30
0.0
 11
176.5622375
 21
6.11005799999999
 31
0.0
  0
LINE
  5
102
330
1E
100
AcDbEntity
  8
0
100
AcDbLine
 10
176.2202375
 20
6.59519799999999
 30
0.0
 11
176.4842375
 21
6.80648799999999
 31
0.0
  0
LINE
  5
103
330
1E
100
AcDbEntity
  8
0
100
AcDbLine
 10
176.0392375
 20
6.11634799999999
 30
0.0
 11
176.9272374999999
 21
6.76780799999999
 31
0.0
  0
LINE
  5
104
330
1E
100
AcDbEntity
  8
0
100
AcDbLine
 10
177.3621170861989
 20
4.977353796613429
 30
0.0
 11
177.8188400663399
 21
4.330859441444479
 31
0.0
  0
LINE
  5
105
330
1E
100
AcDbEntity
  8
0
100
AcDbLine
 10
177.3621170861989
 20
4.977353796613429
 30
0.0
 11
177.8188400663399
 21
4.330859441444479
 31
0.0
  0
LINE
  5
106
330
1E
100
AcDbEntity
  8
0
100
AcDbLine
 10
177.3622374999999
 20
4.97738799999999
 30
0.0
 11
177.6262374999999
 21
5.18955799999999
 31
0.0
  0
LINE
  5
107
330
1E
100
AcDbEntity
  8
0
100
AcDbLine
 10
176.8392374999999
 20
4.98455799999999
 30
0.0
 11
177.7262375
 21
5.63514799999999
 31
0.0
  0
LINE
  5
108
330
1E
100
AcDbEntity
  8
0
100
AcDbLine
 10
177.6262374999999
 20
5.18955799999999
 30
0.0
 11
178.4392374999999
 21
5.79978799999999
 31
0.0
  0
LINE
  5
109
330
1E
100
AcDbEntity
  8
0
100
AcDbLine
 10
177.0182375
 20
5.46302799999999
 30
0.0
 11
177.2842374999999
 21
5.67469799999999
 31
0.0
  0
LINE
  5
10A
330
1E
100
AcDbEntity
  8
0
100
AcDbLine
 10
176.561961401242
 20
6.109979383837869
 30
0.0
 11
177.01873024756
 21
5.463420104796669
 31
0.0
  0
LINE
  5
10B
330
1E
100
AcDbEntity
  8
0
100
AcDbLine
 10
176.561961401242
 20
6.109979383837869
 30
0.0
 11
177.01873024756
 21
5.463420104796669
 31
0.0
  0
LINE
  5
10C
330
1E
100
AcDbEntity
  8
0
100
AcDbLine
 10
176.5622375
 20
6.11005799999999
 30
0.0
 11
176.8272375
 21
6.32084799999999
 31
0.0
  0
LINE
  5
10D
330
1E
100
AcDbEntity
  8
0
100
AcDbLine
 10
176.8272375
 20
6.32084799999999
 30
0.0
 11
177.6402375
 21
6.93108799999999
 31
0.0
  0
LINE
  5
10E
330
1E
100
AcDbEntity
  8
0
100
AcDbLine
 10
177.2842374999999
 20
5.67469799999999
 30
0.0
 11
178.0962375
 21
6.28406799999999
 31
0.0
  0
LINE
  5
10F
330
1E
100
AcDbEntity
  8
0
100
AcDbLine
 10
177.7262375
 20
5.63514799999999
 30
0.0
 11
179.0802375
 21
6.651547999999981
 31
0.0
  0
LINE
  5
110
330
1E
100
AcDbEntity
  8
0
100
AcDbLine
 10
176.5002374999999
 20
4.73253799999999
 30
0.0
 11
177.3622374999999
 21
4.97738799999999
 31
0.0
  0
LINE
  5
111
330
1E
100
AcDbEntity
  8
0
100
AcDbLine
 10
176.5002374999999
 20
4.73253799999999
 30
0.0
 11
177.0182375
 21
5.46302799999999
 31
0.0
  0
LINE
  5
112
330
1E
100
AcDbEntity
  8
0
100
AcDbLine
 10
176.5002374999999
 20
4.73253799999999
 30
0.0
 11
176.8392374999999
 21
4.98455799999999
 31
0.0
  0
LINE
  5
113
330
1E
100
AcDbEntity
  8
0
100
AcDbLine
 10
177.8182375
 20
4.33037799999999
 30
0.0
 11
178.0842374999999
 21
4.54290799999999
 31
0.0
  0
LINE
  5
114
330
1E
100
AcDbEntity
  8
0
100
AcDbLine
 10
178.4392374999999
 20
5.79978799999999
 30
0.0
 11
179.7232375
 21
6.76750799999999
 31
0.0
  0
LINE
  5
115
330
1E
100
AcDbEntity
  8
0
100
AcDbLine
 10
178.0962375
 20
6.28406799999999
 30
0.0
 11
179.3812374999999
 21
7.25264799999999
 31
0.0
  0
LINE
  5
116
330
1E
100
AcDbEntity
  8
0
100
AcDbLine
 10
178.4272375
 20
4.05725799999999
 30
0.0
 11
179.2392375
 21
4.66712799999998
 31
0.0
  0
LINE
  5
117
330
1E
100
AcDbEntity
  8
0
100
AcDbLine
 10
178.0842374999999
 20
4.54290799999999
 30
0.0
 11
178.8962375
 21
5.15276799999998
 31
0.0
  0
LINE
  5
118
330
1E
100
AcDbEntity
  8
0
100
AcDbLine
 10
177.6382375
 20
3.85239799999999
 30
0.0
 11
178.5252374999999
 21
4.50297799999999
 31
0.0
  0
LINE
  5
119
330
1E
100
AcDbEntity
  8
0
100
AcDbLine
 10
178.6192374999999
 20
3.19857799999999
 30
0.0
 11
178.8842375
 21
3.41023799999999
 31
0.0
  0
LINE
  5
11A
330
1E
100
AcDbEntity
  8
0
100
AcDbLine
 10
178.8962375
 20
5.15276799999998
 30
0.0
 11
180.1802375
 21
6.12048799999999
 31
0.0
  0
LINE
  5
11B
330
1E
100
AcDbEntity
  8
0
100
AcDbLine
 10
178.5252374999999
 20
4.50297799999999
 30
0.0
 11
179.8792374999999
 21
5.52024799999998
 31
0.0
  0
LINE
  5
11C
330
1E
100
AcDbEntity
  8
0
100
AcDbLine
 10
178.8842375
 20
3.41023799999999
 30
0.0
 11
179.6962374999999
 21
4.02010799999999
 31
0.0
  0
LINE
  5
11D
330
1E
100
AcDbEntity
  8
0
100
AcDbLine
 10
178.4392374999999
 20
2.72009799999999
 30
0.0
 11
179.3262374999999
 21
3.37118799999999
 31
0.0
  0
LINE
  5
11E
330
1E
100
AcDbEntity
  8
0
100
AcDbLine
 10
178.0982375
 20
2.46771799999999
 30
0.0
 11
178.9612375
 21
2.71343799999999
 31
0.0
  0
LINE
  5
11F
330
1E
100
AcDbEntity
  8
0
100
AcDbLine
 10
178.0982375
 20
2.46771799999999
 30
0.0
 11
178.6192374999999
 21
3.19857799999999
 31
0.0
  0
LINE
  5
120
330
1E
100
AcDbEntity
  8
0
100
AcDbLine
 10
178.0982375
 20
2.46771799999999
 30
0.0
 11
178.4392374999999
 21
2.72009799999999
 31
0.0
  0
LINE
  5
121
330
1E
100
AcDbEntity
  8
0
100
AcDbLine
 10
178.961395762391
 20
2.71356440685925
 30
0.0
 11
179.418456547081
 21
2.06659188714926
 31
0.0
  0
LINE
  5
122
330
1E
100
AcDbEntity
  8
0
100
AcDbLine
 10
178.961395762391
 20
2.71356440685925
 30
0.0
 11
179.418456547081
 21
2.06659188714926
 31
0.0
  0
LINE
  5
123
330
1E
100
AcDbEntity
  8
0
100
AcDbLine
 10
179.0802375
 20
6.651547999999981
 30
0.0
 11
180.9122375
 21
8.018697999999981
 31
0.0
  0
LINE
  5
124
330
1E
100
AcDbEntity
  8
0
100
AcDbLine
 10
179.2392375
 20
4.66712799999998
 30
0.0
 11
180.5242374999999
 21
5.63521799999998
 31
0.0
  0
LINE
  5
125
330
1E
100
AcDbEntity
  8
0
100
AcDbLine
 10
179.2262374999999
 20
2.92509799999999
 30
0.0
 11
180.0382375
 21
3.53496799999999
 31
0.0
  0
LINE
  5
126
330
1E
100
AcDbEntity
  8
0
100
AcDbLine
 10
178.9612375
 20
2.71343799999999
 30
0.0
 11
179.2262374999999
 21
2.92509799999999
 31
0.0
  0
LINE
  5
127
330
1E
100
AcDbEntity
  8
0
100
AcDbLine
 10
179.3262374999999
 20
3.37118799999999
 30
0.0
 11
180.6792375
 21
4.38758799999999
 31
0.0
  0
LINE
  5
128
330
1E
100
AcDbEntity
  8
0
100
AcDbLine
 10
179.4182375
 20
2.066417999999989
 30
0.0
 11
179.6842374999999
 21
2.27757799999999
 31
0.0
  0
LINE
  5
129
330
1E
100
AcDbEntity
  8
0
100
AcDbLine
 10
179.6962374999999
 20
4.02010799999999
 30
0.0
 11
180.9812374999999
 21
4.98818799999998
 31
0.0
  0
LINE
  5
12A
330
1E
100
AcDbEntity
  8
0
100
AcDbLine
 10
179.6842374999999
 20
2.27757799999999
 30
0.0
 11
180.4962375
 21
2.887447999999979
 31
0.0
  0
LINE
  5
12B
330
1E
100
AcDbEntity
  8
0
100
AcDbLine
 10
179.2382375
 20
1.587937999999989
 30
0.0
 11
180.1252374999999
 21
2.23852799999999
 31
0.0
  0
LINE
  5
12C
330
1E
100
AcDbEntity
  8
0
100
AcDbLine
 10
178.8982374999999
 20
1.33505799999999
 30
0.0
 11
179.7612374999999
 21
1.580777999999989
 31
0.0
  0
LINE
  5
12D
330
1E
100
AcDbEntity
  8
0
100
AcDbLine
 10
178.8982374999999
 20
1.33505799999999
 30
0.0
 11
179.4182375
 21
2.066417999999989
 31
0.0
  0
LINE
  5
12E
330
1E
100
AcDbEntity
  8
0
100
AcDbLine
 10
178.8982374999999
 20
1.33505799999999
 30
0.0
 11
179.2382375
 21
1.587937999999989
 31
0.0
  0
LINE
  5
12F
330
1E
100
AcDbEntity
  8
0
100
AcDbLine
 10
180.5612375
 20
0.448977999999985
 30
0.0
 11
180.8262374999999
 21
0.660647999999985
 31
0.0
  0
LINE
  5
130
330
1E
100
AcDbEntity
  8
0
100
AcDbLine
 10
180.5612375
 20
0.448977999999985
 30
0.0
 11
180.8502374999999
 21
0.625187999999985
 31
0.0
  0
LINE
  5
131
330
1E
100
AcDbEntity
  8
0
100
AcDbLine
 10
179.7615108301999
 20
1.580996313472519
 30
0.0
 11
180.218211732009
 21
0.93453321032716
 31
0.0
  0
LINE
  5
132
330
1E
100
AcDbEntity
  8
0
100
AcDbLine
 10
179.7615108301999
 20
1.580996313472519
 30
0.0
 11
180.218211732009
 21
0.9345332103271609
 31
0.0
  0
LINE
  5
133
330
1E
100
AcDbEntity
  8
0
100
AcDbLine
 10
179.7612374999999
 20
1.580777999999989
 30
0.0
 11
180.0262375
 21
1.792437999999989
 31
0.0
  0
LINE
  5
134
330
1E
100
AcDbEntity
  8
0
100
AcDbLine
 10
180.0262375
 20
1.792437999999989
 30
0.0
 11
180.8382374999999
 21
2.40230799999999
 31
0.0
  0
LINE
  5
135
330
1E
100
AcDbEntity
  8
0
100
AcDbLine
 10
180.2172374999999
 20
0.9337579999999849
 30
0.0
 11
180.4832375
 21
1.14541799999999
 31
0.0
  0
LINE
  5
136
330
1E
100
AcDbEntity
  8
0
100
AcDbLine
 10
180.8502374999999
 20
0.625187999999985
 30
0.0
 11
181.6982375
 21
1.17907799999999
 31
0.0
  0
LINE
  5
137
330
1E
100
AcDbEntity
  8
0
100
AcDbLine
 10
180.8262374999999
 20
0.660647999999985
 30
0.0
 11
181.6382375
 21
1.27051799999999
 31
0.0
  0
LINE
  5
138
330
1E
100
AcDbEntity
  8
0
100
AcDbLine
 10
180.4832375
 20
1.14541799999999
 30
0.0
 11
181.2952375
 21
1.756157999999989
 31
0.0
  0
LINE
  5
139
330
1E
100
AcDbEntity
  8
0
100
AcDbLine
 10
180.0382375
 20
0.455277999999985
 30
0.0
 11
180.9242375
 21
1.10636799999999
 31
0.0
  0
LINE
  5
13A
330
1E
100
AcDbEntity
  8
0
100
AcDbLine
 10
181.6982375
 20
1.17907799999999
 30
0.0
 11
183.0382375
 21
2.073117999999989
 31
0.0
  0
LINE
  5
13B
330
1E
100
AcDbEntity
  8
0
100
AcDbLine
 10
181.6382375
 20
1.27051799999999
 30
0.0
 11
182.9222375
 21
2.23909799999999
 31
0.0
  0
LINE
  5
13C
330
1E
100
AcDbEntity
  8
0
100
AcDbLine
 10
183.0382375
 20
2.073117999999989
 30
0.0
 11
184.7962374999999
 21
3.253427999999979
 31
0.0
  0
LINE
  5
13D
330
1E
100
AcDbEntity
  8
0
100
AcDbLine
 10
183.0382375
 20
2.073117999999989
 30
0.0
 11
183.5322375
 21
2.40320799999999
 31
0.0
  0
LINE
  5
13E
330
1E
100
AcDbEntity
  8
0
100
AcDbLine
 10
181.2952375
 20
1.756157999999989
 30
0.0
 11
182.5802375
 21
2.72336799999999
 31
0.0
  0
LINE
  5
13F
330
1E
100
AcDbEntity
  8
0
100
AcDbLine
 10
180.9242375
 20
1.10636799999999
 30
0.0
 11
182.2782374999999
 21
2.123637999999989
 31
0.0
  0
LINE
  5
140
330
1E
100
AcDbEntity
  8
0
100
AcDbLine
 10
180.8382374999999
 20
2.40230799999999
 30
0.0
 11
182.1232374999999
 21
3.37038799999999
 31
0.0
  0
LINE
  5
141
330
1E
100
AcDbEntity
  8
0
100
AcDbLine
 10
180.4962375
 20
2.887447999999979
 30
0.0
 11
181.7802375
 21
3.856027999999979
 31
0.0
  0
LINE
  5
142
330
1E
100
AcDbEntity
  8
0
100
AcDbLine
 10
180.1252374999999
 20
2.23852799999999
 30
0.0
 11
181.4792375
 21
3.25492799999999
 31
0.0
  0
LINE
  5
143
330
1E
100
AcDbEntity
  8
0
100
AcDbLine
 10
180.0382375
 20
3.53496799999999
 30
0.0
 11
181.3232375
 21
4.50304799999999
 31
0.0
  0
LINE
  5
144
330
1E
100
AcDbEntity
  8
0
100
AcDbLine
 10
181.3232375
 20
4.50304799999999
 30
0.0
 11
183.0222374999999
 21
5.76350799999999
 31
0.0
  0
LINE
  5
145
330
1E
100
AcDbEntity
  8
0
100
AcDbLine
 10
180.9812374999999
 20
4.98818799999998
 30
0.0
 11
182.6802374999999
 21
6.24864799999998
 31
0.0
  0
LINE
  5
146
330
1E
100
AcDbEntity
  8
0
100
AcDbLine
 10
180.6792375
 20
4.38758799999999
 30
0.0
 11
182.5112374999999
 21
5.75474799999998
 31
0.0
  0
LINE
  5
147
330
1E
100
AcDbEntity
  8
0
100
AcDbLine
 10
182.1232374999999
 20
3.37038799999999
 30
0.0
 11
183.8222374999999
 21
4.63171799999999
 31
0.0
  0
LINE
  5
148
330
1E
100
AcDbEntity
  8
0
100
AcDbLine
 10
181.7802375
 20
3.856027999999979
 30
0.0
 11
183.4792375
 21
5.11735799999999
 31
0.0
  0
LINE
  5
149
330
1E
100
AcDbEntity
  8
0
100
AcDbLine
 10
181.4792375
 20
3.25492799999999
 30
0.0
 11
183.3112374999999
 21
4.62207799999999
 31
0.0
  0
LINE
  5
14A
330
1E
100
AcDbEntity
  8
0
100
AcDbLine
 10
183.174743929683
 20
2.164767547223489
 30
0.0
 11
183.5322375
 21
2.40320799999999
 31
0.0
  0
LINE
  5
14B
330
1E
100
AcDbEntity
  8
0
100
AcDbLine
 10
183.174743929683
 20
2.164767547223489
 30
0.0
 11
183.5322375
 21
2.40320799999999
 31
0.0
  0
LINE
  5
14C
330
1E
100
AcDbEntity
  8
0
100
AcDbLine
 10
183.5322375
 20
2.40320799999999
 30
0.0
 11
185.1522375
 21
3.482057999999979
 31
0.0
  0
LINE
  5
14D
330
1E
100
AcDbEntity
  8
0
100
AcDbLine
 10
183.8222374999999
 20
4.63171799999999
 30
0.0
 11
185.7682374999999
 21
6.128227999999981
 31
0.0
  0
LINE
  5
14E
330
1E
100
AcDbEntity
  8
0
100
AcDbLine
 10
183.3112374999999
 20
4.62207799999999
 30
0.0
 11
185.3912374999999
 21
6.223927999999981
 31
0.0
  0
LINE
  5
14F
330
1E
100
AcDbEntity
  8
0
100
AcDbLine
 10
182.9222375
 20
2.23909799999999
 30
0.0
 11
184.6212375
 21
3.499547999999979
 31
0.0
  0
LINE
  5
150
330
1E
100
AcDbEntity
  8
0
100
AcDbLine
 10
182.5802375
 20
2.72336799999999
 30
0.0
 11
184.2792374999999
 21
3.984687999999979
 31
0.0
  0
LINE
  5
151
330
1E
100
AcDbEntity
  8
0
100
AcDbLine
 10
182.2782374999999
 20
2.123637999999989
 30
0.0
 11
184.1102375
 21
3.489917999999979
 31
0.0
  0
LINE
  5
152
330
1E
100
AcDbEntity
  8
0
100
AcDbLine
 10
184.7962374999999
 20
3.253427999999979
 30
0.0
 11
186.8582375
 21
4.587067999999979
 31
0.0
  0
LINE
  5
153
330
1E
100
AcDbEntity
  8
0
100
AcDbLine
 10
184.7962374999999
 20
3.253427999999979
 30
0.0
 11
185.1522375
 21
3.482057999999979
 31
0.0
  0
LINE
  5
154
330
1E
100
AcDbEntity
  8
0
100
AcDbLine
 10
185.1522375
 20
3.482057999999979
 30
0.0
 11
185.912960567391
 21
3.975691119105499
 31
0.0
  0
LINE
  5
155
330
1E
100
AcDbEntity
  8
0
100
AcDbLine
 10
185.1522375
 20
3.482057999999979
 30
0.0
 11
185.912960567391
 21
3.975691119105509
 31
0.0
  0
LINE
  5
156
330
1E
100
AcDbEntity
  8
0
100
AcDbLine
 10
184.6212375
 20
3.499547999999979
 30
0.0
 11
186.5702374999999
 21
4.99592799999998
 31
0.0
  0
LINE
  5
157
330
1E
100
AcDbEntity
  8
0
100
AcDbLine
 10
186.8582375
 20
4.587067999999979
 30
0.0
 11
189.0522374999999
 21
6.01982799999998
 31
0.0
  0
LINE
  5
158
330
1E
100
AcDbEntity
  8
0
100
AcDbLine
 10
186.5702374999999
 20
4.99592799999998
 30
0.0
 11
188.6552374999999
 21
6.589807999999981
 31
0.0
  0
LINE
  5
159
330
1E
100
AcDbEntity
  8
0
100
AcDbLine
 10
184.2792374999999
 20
3.984687999999979
 30
0.0
 11
186.2262375
 21
5.48156799999999
 31
0.0
  0
LINE
  5
15A
330
1E
100
AcDbEntity
  8
0
100
AcDbLine
 10
184.1102375
 20
3.489917999999979
 30
0.0
 11
186.1902374999999
 21
5.09262799999999
 31
0.0
  0
LINE
  5
15B
330
1E
100
AcDbEntity
  8
0
100
AcDbLine
 10
180.5242374999999
 20
5.63521799999998
 30
0.0
 11
182.2232375
 21
6.895667999999981
 31
0.0
  0
LINE
  5
15C
330
1E
100
AcDbEntity
  8
0
100
AcDbLine
 10
179.8792374999999
 20
5.52024799999998
 30
0.0
 11
181.7122374999999
 21
6.88603799999998
 31
0.0
  0
LINE
  5
15D
330
1E
100
AcDbEntity
  8
0
100
AcDbLine
 10
180.1802375
 20
6.12048799999999
 30
0.0
 11
181.8802374999999
 21
7.38130799999999
 31
0.0
  0
LINE
  5
15E
330
1E
100
AcDbEntity
  8
0
100
AcDbLine
 10
183.0222374999999
 20
5.76350799999999
 30
0.0
 11
184.9692375
 21
7.260387999999981
 31
0.0
  0
LINE
  5
15F
330
1E
100
AcDbEntity
  8
0
100
AcDbLine
 10
182.5112374999999
 20
5.75474799999998
 30
0.0
 11
184.5912375
 21
7.35658799999998
 31
0.0
  0
LINE
  5
160
330
1E
100
AcDbEntity
  8
0
100
AcDbLine
 10
185.7682374999999
 20
6.128227999999981
 30
0.0
 11
187.8552374999999
 21
7.72246799999999
 31
0.0
  0
LINE
  5
161
330
1E
100
AcDbEntity
  8
0
100
AcDbLine
 10
183.4792375
 20
5.11735799999999
 30
0.0
 11
185.4262375
 21
6.61336799999998
 31
0.0
  0
LINE
  5
162
330
1E
100
AcDbEntity
  8
0
100
AcDbLine
 10
182.6802374999999
 20
6.24864799999998
 30
0.0
 11
184.6262375
 21
7.746027999999981
 31
0.0
  0
LINE
  5
163
330
1E
100
AcDbEntity
  8
0
100
AcDbLine
 10
185.4262375
 20
6.61336799999998
 30
0.0
 11
187.5132374999999
 21
8.20760799999998
 31
0.0
  0
LINE
  5
164
330
1E
100
AcDbEntity
  8
0
100
AcDbLine
 10
185.3912374999999
 20
6.223927999999981
 30
0.0
 11
187.6832375
 21
7.96485799999998
 31
0.0
  0
LINE
  5
165
330
1E
100
AcDbEntity
  8
0
100
AcDbLine
 10
188.835454413941
 20
5.87826093783874
 30
0.0
 11
189.0562375
 21
6.02229799999999
 31
0.0
  0
LINE
  5
166
330
1E
100
AcDbEntity
  8
0
100
AcDbLine
 10
189.0522374999999
 20
6.01982799999998
 30
0.0
 11
191.2582375
 21
7.45415799999998
 31
0.0
  0
LINE
  5
167
330
1E
100
AcDbEntity
  8
0
100
AcDbLine
 10
189.0562375
 20
6.02229799999999
 30
0.0
 11
191.0432375
 21
7.31383799999999
 31
0.0
  0
LINE
  5
168
330
1E
100
AcDbEntity
  8
0
100
AcDbLine
 10
188.835454413941
 20
5.878260937838759
 30
0.0
 11
189.0562375
 21
6.02229799999999
 31
0.0
  0
LINE
  5
169
330
1E
100
AcDbEntity
  8
0
100
AcDbLine
 10
188.6552374999999
 20
6.589807999999981
 30
0.0
 11
190.7392375
 21
8.18418799999999
 31
0.0
  0
LINE
  5
16A
330
1E
100
AcDbEntity
  8
0
100
AcDbLine
 10
186.2262375
 20
5.48156799999999
 30
0.0
 11
188.3122375
 21
7.075447999999981
 31
0.0
  0
LINE
  5
16B
330
1E
100
AcDbEntity
  8
0
100
AcDbLine
 10
186.1902374999999
 20
5.09262799999999
 30
0.0
 11
188.4822374999999
 21
6.83269799999999
 31
0.0
  0
LINE
  5
16C
330
1E
100
AcDbEntity
  8
0
100
AcDbLine
 10
179.6982374999999
 20
0.203761999999985
 30
0.0
 11
180.5612375
 21
0.448977999999985
 31
0.0
  0
LINE
  5
16D
330
1E
100
AcDbEntity
  8
0
100
AcDbLine
 10
179.6982374999999
 20
0.203761999999985
 30
0.0
 11
180.2172374999999
 21
0.9337579999999849
 31
0.0
  0
LINE
  5
16E
330
1E
100
AcDbEntity
  8
0
100
AcDbLine
 10
179.6982374999999
 20
0.203761999999985
 30
0.0
 11
180.0382375
 21
0.455277999999985
 31
0.0
  0
LINE
  5
16F
330
1E
100
AcDbEntity
  8
0
100
AcDbLine
 10
176.9272374999999
 20
6.76780799999999
 30
0.0
 11
178.2802374999999
 21
7.78420799999999
 31
0.0
  0
LINE
  5
170
330
1E
100
AcDbEntity
  8
0
100
AcDbLine
 10
179.7232375
 20
6.76750799999999
 30
0.0
 11
181.4232374999999
 21
8.02832799999998
 31
0.0
  0
LINE
  5
171
330
1E
100
AcDbEntity
  8
0
100
AcDbLine
 10
173.9532375
 20
6.79617799999999
 30
0.0
 11
174.1202375
 21
6.91252799999999
 31
0.0
  0
LINE
  5
172
330
1E
100
AcDbEntity
  8
0
100
AcDbLine
 10
173.7832375
 20
6.72709799999999
 30
0.0
 11
173.9532375
 21
6.79617799999999
 31
0.0
  0
LINE
  5
173
330
1E
100
AcDbEntity
  8
0
100
AcDbLine
 10
173.5612375
 20
6.70998799999999
 30
0.0
 11
173.7832375
 21
6.72709799999999
 31
0.0
  0
LINE
  5
174
330
1E
100
AcDbEntity
  8
0
100
AcDbLine
 10
136.8932374999999
 20
59.007438
 30
0.0
 11
142.4232375
 21
51.34813799999999
 31
0.0
  0
LINE
  5
175
330
1E
100
AcDbEntity
  8
0
100
AcDbLine
 10
142.4232375
 20
51.34813799999999
 30
0.0
 11
153.0532374999999
 21
36.190238
 31
0.0
  0
LINE
  5
176
330
1E
100
AcDbEntity
  8
0
100
AcDbLine
 10
126.8062374999999
 20
72.460238
 30
0.0
 11
136.8932374999999
 21
59.007438
 31
0.0
  0
LINE
  5
177
330
1E
100
AcDbEntity
  8
0
100
AcDbLine
 10
116.1882375
 20
85.78323799999999
 30
0.0
 11
126.8062374999999
 21
72.460238
 31
0.0
  0
LINE
  5
17B
330
1E
100
AcDbEntity
  8
0
100
AcDbLine
 10
145.6282375
 20
79.10673800000001
 30
0.0
 11
150.1632374999999
 21
73.997738
 31
0.0
  0
LINE
  5
17D
330
1E
100
AcDbEntity
  8
0
100
AcDbLine
 10
108.1562375
 20
94.85703800000001
 30
0.0
 11
111.0292374999999
 21
91.806438
 31
0.0
  0
LINE
  5
17E
330
1E
100
AcDbEntity
  8
0
100
AcDbLine
 10
111.0292374999999
 20
91.806438
 30
0.0
 11
116.1882375
 21
85.78323799999999
 31
0.0
  0
LINE
  5
184
330
1E
100
AcDbEntity
  8
0
100
AcDbLine
 10
137.0362375
 20
88.34093799999999
 30
0.0
 11
145.6282375
 21
79.10673800000001
 31
0.0
  0
LINE
  5
186
330
1E
100
AcDbEntity
  8
0
100
AcDbLine
 10
137.0262375
 20
94.03363799999999
 30
0.0
 11
142.9662375
 21
87.96663800000001
 31
0.0
  0
LINE
  5
187
330
1E
100
AcDbEntity
  8
0
100
AcDbLine
 10
142.9662375
 20
87.96663800000001
 30
0.0
 11
148.7612374999999
 21
81.781538
 31
0.0
  0
LINE
  5
188
330
1E
100
AcDbEntity
  8
0
100
AcDbLine
 10
142.9662375
 20
87.96663800000001
 30
0.0
 11
148.4852375
 21
82.075838
 31
0.0
  0
LINE
  5
189
330
1E
100
AcDbEntity
  8
0
100
AcDbLine
 10
148.7612374999999
 20
81.781538
 30
0.0
 11
154.4082375
 21
75.48573799999999
 31
0.0
  0
LINE
  5
18A
330
1E
100
AcDbEntity
  8
0
100
AcDbLine
 10
148.4852375
 20
82.075838
 30
0.0
 11
148.7612374999999
 21
81.781538
 31
0.0
  0
LINE
  5
18C
330
1E
100
AcDbEntity
  8
0
100
AcDbLine
 10
153.0532374999999
 20
36.190238
 30
0.0
 11
163.2202375
 21
21.379638
 31
0.0
  0
LINE
  5
18E
330
1E
100
AcDbEntity
  8
0
100
AcDbLine
 10
169.7732375
 20
49.717738
 30
0.0
 11
170.2602374999999
 21
49.070638
 31
0.0
  0
LINE
  5
18F
330
1E
100
AcDbEntity
  8
0
100
AcDbLine
 10
163.2202375
 20
21.379638
 30
0.0
 11
172.9442375
 21
7.24607799999999
 31
0.0
  0
LINE
  5
193
330
1E
100
AcDbEntity
  8
0
100
AcDbLine
 10
162.4622374999999
 20
59.220438
 30
0.0
 11
169.7732375
 21
49.717738
 31
0.0
  0
LINE
  5
194
330
1E
100
AcDbEntity
  8
0
100
AcDbLine
 10
161.9742374999999
 20
59.834838
 30
0.0
 11
162.4622374999999
 21
59.220438
 31
0.0
  0
LINE
  5
196
330
1E
100
AcDbEntity
  8
0
100
AcDbLine
 10
170.2602374999999
 20
49.070638
 30
0.0
 11
174.0442375
 21
43.89153799999999
 31
0.0
  0
LINE
  5
197
330
1E
100
AcDbEntity
  8
0
100
AcDbLine
 10
169.832329133094
 20
49.63712931989451
 30
0.0
 11
170.2602374999999
 21
49.070638
 31
0.0
  0
LINE
  5
198
330
1E
100
AcDbEntity
  8
0
100
AcDbLine
 10
172.9442375
 20
7.24607799999999
 30
0.0
 11
173.1942375
 21
6.92061799999999
 31
0.0
  0
LINE
  5
199
330
1E
100
AcDbEntity
  8
0
100
AcDbLine
 10
170.4292375
 20
55.994438
 30
0.0
 11
175.2162375
 21
49.632938
 31
0.0
  0
LINE
  5
19B
330
1E
100
AcDbEntity
  8
0
100
AcDbLine
 10
154.3442374999999
 20
69.12993799999999
 30
0.0
 11
161.9742374999999
 21
59.834838
 31
0.0
  0
LINE
  5
19D
330
1E
100
AcDbEntity
  8
0
100
AcDbLine
 10
159.9032374999999
 20
69.085738
 30
0.0
 11
160.1572375
 21
68.776138
 31
0.0
  0
LINE
  5
19E
330
1E
100
AcDbEntity
  8
0
100
AcDbLine
 10
160.1572375
 20
68.776138
 30
0.0
 11
165.2462374999999
 21
62.586338
 31
0.0
  0
LINE
  5
19F
330
1E
100
AcDbEntity
  8
0
100
AcDbLine
 10
165.2462374999999
 20
62.586338
 30
0.0
 11
170.4292375
 21
55.994438
 31
0.0
  0
LINE
  5
1A0
330
1E
100
AcDbEntity
  8
0
100
AcDbLine
 10
154.4082375
 20
75.48573799999999
 30
0.0
 11
159.9032374999999
 21
69.085738
 31
0.0
  0
LINE
  5
1A1
330
1E
100
AcDbEntity
  8
0
100
AcDbLine
 10
150.1632374999999
 20
73.997738
 30
0.0
 11
154.3442374999999
 21
69.12993799999999
 31
0.0
  0
LINE
  5
1A2
330
1E
100
AcDbEntity
  8
0
100
AcDbLine
 10
87.2678375
 20
102.910238
 30
0.0
 11
88.43383749999999
 21
104.9292379999999
 31
0.0
  0
LINE
  5
1A3
330
1E
100
AcDbEntity
  8
0
100
AcDbLine
 10
85.66923749999999
 20
101.141238
 30
0.0
 11
87.2678375
 21
102.910238
 31
0.0
  0
LINE
  5
1A4
330
1E
100
AcDbEntity
  8
0
100
AcDbLine
 10
83.20423750000001
 20
99.871238
 30
0.0
 11
85.66923749999999
 21
101.141238
 31
0.0
  0
LINE
  5
1A5
330
1E
100
AcDbEntity
  8
0
100
AcDbLine
 10
86.87493749999999
 20
105.8292379999999
 30
0.0
 11
88.43383749999999
 21
104.9292379999999
 31
0.0
  0
LINE
  5
1A6
330
1E
100
AcDbEntity
  8
0
100
AcDbLine
 10
82.63143750000001
 20
108.2792379999999
 30
0.0
 11
86.87493749999999
 21
105.8292379999999
 31
0.0
  0
LINE
  5
1A7
330
1E
100
AcDbEntity
  8
0
100
AcDbLine
 10
83.96253749999999
 20
107.7842379999999
 30
0.0
 11
85.95673750000001
 21
106.6282379999999
 31
0.0
  0
LINE
  5
1A8
330
1E
100
AcDbEntity
  8
0
100
AcDbLine
 10
85.95673750000001
 20
106.6282379999999
 30
0.0
 11
86.92243750000001
 21
106.1602379999999
 31
0.0
  0
LINE
  5
1A9
330
1E
100
AcDbEntity
  8
0
100
AcDbLine
 10
86.92243750000001
 20
106.1602379999999
 30
0.0
 11
87.74023750000001
 21
105.6432379999999
 31
0.0
  0
LINE
  5
1AA
330
1E
100
AcDbEntity
  8
0
100
AcDbLine
 10
87.74023750000001
 20
105.6432379999999
 30
0.0
 11
88.30333749999999
 21
105.2792379999999
 31
0.0
  0
LINE
  5
1AB
330
1E
100
AcDbEntity
  8
0
100
AcDbLine
 10
88.0939127446212
 20
105.414614684351
 30
0.0
 11
88.30333749999999
 21
105.2792379999999
 31
0.0
  0
LINE
  5
1AC
330
1E
100
AcDbEntity
  8
0
100
AcDbLine
 10
88.0939127446212
 20
105.414614684351
 30
0.0
 11
88.43383749999999
 21
104.9292379999999
 31
0.0
  0
LINE
  5
1AD
330
1E
100
AcDbEntity
  8
0
100
AcDbLine
 10
93.04613749999999
 20
104.966238
 30
0.0
 11
93.75893750000001
 21
104.669238
 31
0.0
  0
LINE
  5
1AE
330
1E
100
AcDbEntity
  8
0
100
AcDbLine
 10
93.04613749999999
 20
104.966238
 30
0.0
 11
93.75983750000001
 21
104.668238
 31
0.0
  0
LINE
  5
1AF
330
1E
100
AcDbEntity
  8
0
100
AcDbLine
 10
88.8308375
 20
105.0512379999999
 30
0.0
 11
91.27853749999999
 21
105.112238
 31
0.0
  0
LINE
  5
1B0
330
1E
100
AcDbEntity
  8
0
100
AcDbLine
 10
96.06143750000001
 20
103.865238
 30
0.0
 11
98.3532375
 21
102.7322379999999
 31
0.0
  0
LINE
  5
1B1
330
1E
100
AcDbEntity
  8
0
100
AcDbLine
 10
93.75983750000001
 20
104.668238
 30
0.0
 11
96.06143750000001
 21
103.865238
 31
0.0
  0
LINE
  5
1B2
330
1E
100
AcDbEntity
  8
0
100
AcDbLine
 10
91.2793375
 20
105.112238
 30
0.0
 11
93.75893750000001
 21
104.669238
 31
0.0
  0
LINE
  5
1B3
330
1E
100
AcDbEntity
  8
0
100
AcDbLine
 10
88.57633749999999
 20
105.1102379999999
 30
0.0
 11
88.6658375
 21
105.0552379999999
 31
0.0
  0
LINE
  5
1B4
330
1E
100
AcDbEntity
  8
0
100
AcDbLine
 10
88.6658375
 20
105.0552379999999
 30
0.0
 11
88.8308375
 21
105.0512379999999
 31
0.0
  0
LINE
  5
1B5
330
1E
100
AcDbEntity
  8
0
100
AcDbLine
 10
88.30333749999999
 20
105.2792379999999
 30
0.0
 11
88.57633749999999
 21
105.1102379999999
 31
0.0
  0
LINE
  5
1B6
330
1E
100
AcDbEntity
  8
0
100
AcDbLine
 10
82.77063750000001
 20
108.4732379999999
 30
0.0
 11
83.96253749999999
 21
107.7842379999999
 31
0.0
  0
LINE
  5
1B7
330
1E
100
AcDbEntity
  8
0
100
AcDbLine
 10
126.1172375
 20
99.29623800000001
 30
0.0
 11
128.1122375
 21
97.35803799999999
 31
0.0
  0
LINE
  5
1B9
330
1E
100
AcDbEntity
  8
0
100
AcDbLine
 10
128.1102375
 20
97.359038
 30
0.0
 11
128.1542374999999
 21
97.31513800000001
 31
0.0
  0
LINE
  5
1BA
330
1E
100
AcDbEntity
  8
0
100
AcDbLine
 10
103.5622374999999
 20
99.09543800000001
 30
0.0
 11
105.8972374999999
 21
97.048938
 31
0.0
  0
LINE
  5
1BB
330
1E
100
AcDbEntity
  8
0
100
AcDbLine
 10
124.2182375
 20
101.096238
 30
0.0
 11
126.1172375
 21
99.29623800000001
 31
0.0
  0
LINE
  5
1BD
330
1E
100
AcDbEntity
  8
0
100
AcDbLine
 10
100.9852374999999
 20
101.067238
 30
0.0
 11
103.5622374999999
 21
99.09543800000001
 31
0.0
  0
LINE
  5
1C1
330
1E
100
AcDbEntity
  8
0
100
AcDbLine
 10
128.1542374999999
 20
97.31513800000001
 30
0.0
 11
137.0362375
 21
88.34093799999999
 31
0.0
  0
LINE
  5
1C2
330
1E
100
AcDbEntity
  8
0
100
AcDbLine
 10
130.9452375
 20
99.978238
 30
0.0
 11
137.0262375
 21
94.03363799999999
 31
0.0
  0
LINE
  5
1C3
330
1E
100
AcDbEntity
  8
0
100
AcDbLine
 10
128.1292374999999
 20
97.340838
 30
0.0
 11
128.3912374999999
 21
97.084538
 31
0.0
  0
LINE
  5
1C4
330
1E
100
AcDbEntity
  8
0
100
AcDbLine
 10
119.1502374999999
 20
105.6852379999999
 30
0.0
 11
120.5972374999999
 21
104.4102379999999
 31
0.0
  0
LINE
  5
1C5
330
1E
100
AcDbEntity
  8
0
100
AcDbLine
 10
119.2402375
 20
105.6012379999999
 30
0.0
 11
120.5902374999999
 21
104.4102379999999
 31
0.0
  0
LINE
  5
1C6
330
1E
100
AcDbEntity
  8
0
100
AcDbLine
 10
115.9142375
 20
108.4252379999999
 30
0.0
 11
119.1502374999999
 21
105.6852379999999
 31
0.0
  0
LINE
  5
1C8
330
1E
100
AcDbEntity
  8
0
100
AcDbLine
 10
119.1022374999999
 20
110.7812379999999
 30
0.0
 11
122.0102374999999
 21
108.2012379999999
 31
0.0
  0
LINE
  5
1C9
330
1E
100
AcDbEntity
  8
0
100
AcDbLine
 10
112.7302374999999
 20
110.9592379999999
 30
0.0
 11
115.9142375
 21
108.4252379999999
 31
0.0
  0
LINE
  5
1CA
330
1E
100
AcDbEntity
  8
0
100
AcDbLine
 10
112.7302374999999
 20
110.9592379999999
 30
0.0
 11
115.9142375
 21
108.4252379999999
 31
0.0
  0
LINE
  5
1CC
330
1E
100
AcDbEntity
  8
0
100
AcDbLine
 10
124.9812375
 20
105.553238
 30
0.0
 11
130.9452375
 21
99.978238
 31
0.0
  0
LINE
  5
1CD
330
1E
100
AcDbEntity
  8
0
100
AcDbLine
 10
122.0102374999999
 20
108.2012379999999
 30
0.0
 11
124.9812375
 21
105.553238
 31
0.0
  0
LINE
  5
1CE
330
1E
100
AcDbEntity
  8
0
100
AcDbLine
 10
120.5972374999999
 20
104.4102379999999
 30
0.0
 11
124.2182375
 21
101.096238
 31
0.0
  0
LINE
  5
1D0
330
1E
100
AcDbEntity
  8
0
100
AcDbLine
 10
100.1142375
 20
101.618238
 30
0.0
 11
100.9852374999999
 21
101.067238
 31
0.0
  0
LINE
  5
1D1
330
1E
100
AcDbEntity
  8
0
100
AcDbLine
 10
98.3532375
 20
102.7322379999999
 30
0.0
 11
100.1142375
 21
101.618238
 31
0.0
  0
LINE
  5
1D2
330
1E
100
AcDbEntity
  8
0
100
AcDbLine
 10
105.8972374999999
 20
97.048938
 30
0.0
 11
108.1562375
 21
94.85703800000001
 31
0.0
  0
LINE
  5
1D3
330
1E
100
AcDbEntity
  8
0
100
AcDbLine
 10
176.4842375
 20
6.80648799999999
 30
0.0
 11
177.2972374999999
 21
7.41672799999999
 31
0.0
  0
LINE
  5
1D4
330
1E
100
AcDbEntity
  8
0
100
AcDbLine
 10
173.2032375
 20
6.91201799999999
 30
0.0
 11
173.3272375
 21
6.80193799999999
 31
0.0
  0
LINE
  5
1D5
330
1E
100
AcDbEntity
  8
0
100
AcDbLine
 10
175.762273086916
 20
7.241943404886509
 30
0.0
 11
176.2198666123919
 21
6.59421678712203
 31
0.0
  0
LINE
  5
1D6
330
1E
100
AcDbEntity
  8
0
100
AcDbLine
 10
175.762273086916
 20
7.241943404886509
 30
0.0
 11
176.2198666123919
 21
6.59421678712203
 31
0.0
  0
LINE
  5
1D7
330
1E
100
AcDbEntity
  8
0
100
AcDbLine
 10
175.7632375
 20
7.24221799999999
 30
0.0
 11
176.0272375
 21
7.45351799999999
 31
0.0
  0
LINE
  5
1D8
330
1E
100
AcDbEntity
  8
0
100
AcDbLine
 10
175.2402375
 20
7.24850799999999
 30
0.0
 11
176.1272375
 21
7.89909799999999
 31
0.0
  0
LINE
  5
1D9
330
1E
100
AcDbEntity
  8
0
100
AcDbLine
 10
176.0272375
 20
7.45351799999999
 30
0.0
 11
176.8402374999999
 21
8.063747999999989
 31
0.0
  0
LINE
  5
1DA
330
1E
100
AcDbEntity
  8
0
100
AcDbLine
 10
174.9002375
 20
6.99649799999999
 30
0.0
 11
175.7632375
 21
7.24221799999999
 31
0.0
  0
LINE
  5
1DB
330
1E
100
AcDbEntity
  8
0
100
AcDbLine
 10
174.9002375
 20
6.99649799999999
 30
0.0
 11
175.4192375
 21
7.72698799999999
 31
0.0
  0
LINE
  5
1DC
330
1E
100
AcDbEntity
  8
0
100
AcDbLine
 10
174.9002375
 20
6.99649799999999
 30
0.0
 11
175.2402375
 21
7.24850799999999
 31
0.0
  0
LINE
  5
1DD
330
1E
100
AcDbEntity
  8
0
100
AcDbLine
 10
175.4192375
 20
7.72698799999999
 30
0.0
 11
175.6852375
 21
7.93865799999999
 31
0.0
  0
LINE
  5
1DE
330
1E
100
AcDbEntity
  8
0
100
AcDbLine
 10
177.6402375
 20
6.93108799999999
 30
0.0
 11
178.9242375
 21
7.89879799999999
 31
0.0
  0
LINE
  5
1DF
330
1E
100
AcDbEntity
  8
0
100
AcDbLine
 10
177.2972374999999
 20
7.41672799999999
 30
0.0
 11
178.5802375
 21
8.38443799999999
 31
0.0
  0
LINE
  5
1E0
330
1E
100
AcDbEntity
  8
0
100
AcDbLine
 10
175.375906849109
 20
7.788847332718369
 30
0.0
 11
175.4194747015709
 21
7.72717675359624
 31
0.0
  0
LINE
  5
1E1
330
1E
100
AcDbEntity
  8
0
100
AcDbLine
 10
175.6852375
 20
7.93865799999999
 30
0.0
 11
176.4982374999999
 21
8.54888799999999
 31
0.0
  0
LINE
  5
1E2
330
1E
100
AcDbEntity
  8
0
100
AcDbLine
 10
176.8402374999999
 20
8.063747999999989
 30
0.0
 11
178.1242374999999
 21
9.031467999999989
 31
0.0
  0
LINE
  5
1E3
330
1E
100
AcDbEntity
  8
0
100
AcDbLine
 10
176.4982374999999
 20
8.54888799999999
 30
0.0
 11
176.887397383609
 21
8.84242617409431
 31
0.0
  0
LINE
  5
1E4
330
1E
100
AcDbEntity
  8
0
100
AcDbLine
 10
176.1272375
 20
7.89909799999999
 30
0.0
 11
177.4812374999999
 21
8.916367999999989
 31
0.0
  0
LINE
  5
1E5
330
1E
100
AcDbEntity
  8
0
100
AcDbLine
 10
178.1242374999999
 20
9.031467999999989
 30
0.0
 11
179.8242375
 21
10.292238
 31
0.0
  0
LINE
  5
1E6
330
1E
100
AcDbEntity
  8
0
100
AcDbLine
 10
177.4812374999999
 20
8.916367999999989
 30
0.0
 11
179.3132375
 21
10.282638
 31
0.0
  0
LINE
  5
1E7
330
1E
100
AcDbEntity
  8
0
100
AcDbLine
 10
179.3132375
 20
10.282638
 30
0.0
 11
181.3932375
 21
11.885338
 31
0.0
  0
LINE
  5
1E8
330
1E
100
AcDbEntity
  8
0
100
AcDbLine
 10
178.9242375
 20
7.89879799999999
 30
0.0
 11
180.6232375
 21
9.16098799999999
 31
0.0
  0
LINE
  5
1E9
330
1E
100
AcDbEntity
  8
0
100
AcDbLine
 10
178.5802375
 20
8.38443799999999
 30
0.0
 11
180.2812375
 21
9.645237999999981
 31
0.0
  0
LINE
  5
1EA
330
1E
100
AcDbEntity
  8
0
100
AcDbLine
 10
178.2802374999999
 20
7.78420799999999
 30
0.0
 11
180.1122375
 21
9.15135799999998
 31
0.0
  0
LINE
  5
1EB
330
1E
100
AcDbEntity
  8
0
100
AcDbLine
 10
179.3812374999999
 20
7.25264799999999
 30
0.0
 11
181.0812374999999
 21
8.51346799999999
 31
0.0
  0
LINE
  5
1EC
330
1E
100
AcDbEntity
  8
0
100
AcDbLine
 10
174.1202375
 20
6.91252799999999
 30
0.0
 11
174.6072374999999
 21
7.25157799999999
 31
0.0
  0
LINE
  5
1ED
330
1E
100
AcDbEntity
  8
0
100
AcDbLine
 10
179.8242375
 20
10.292238
 30
0.0
 11
181.7702375
 21
11.788838
 31
0.0
  0
LINE
  5
1EE
330
1E
100
AcDbEntity
  8
0
100
AcDbLine
 10
180.6232375
 20
9.16098799999999
 30
0.0
 11
182.5702374999999
 21
10.657038
 31
0.0
  0
LINE
  5
1EF
330
1E
100
AcDbEntity
  8
0
100
AcDbLine
 10
180.2812375
 20
9.645237999999981
 30
0.0
 11
182.2282375
 21
11.142138
 31
0.0
  0
LINE
  5
1F0
330
1E
100
AcDbEntity
  8
0
100
AcDbLine
 10
180.1122375
 20
9.15135799999998
 30
0.0
 11
182.1922374999999
 21
10.753238
 31
0.0
  0
LINE
  5
1F1
330
1E
100
AcDbEntity
  8
0
100
AcDbLine
 10
181.4232374999999
 20
8.02832799999998
 30
0.0
 11
183.3702375
 21
9.52433799999998
 31
0.0
  0
LINE
  5
1F2
330
1E
100
AcDbEntity
  8
0
100
AcDbLine
 10
181.0812374999999
 20
8.51346799999999
 30
0.0
 11
183.0272375
 21
10.009938
 31
0.0
  0
LINE
  5
1F3
330
1E
100
AcDbEntity
  8
0
100
AcDbLine
 10
180.9122375
 20
8.018697999999981
 30
0.0
 11
182.9912375
 21
9.62053799999998
 31
0.0
  0
LINE
  5
1F4
330
1E
100
AcDbEntity
  8
0
100
AcDbLine
 10
181.8802374999999
 20
7.38130799999999
 30
0.0
 11
183.8272375
 21
8.877317999999981
 31
0.0
  0
LINE
  5
1F5
330
1E
100
AcDbEntity
  8
0
100
AcDbLine
 10
181.7122374999999
 20
6.88603799999998
 30
0.0
 11
183.7912374999999
 21
8.48924799999998
 31
0.0
  0
LINE
  5
1F6
330
1E
100
AcDbEntity
  8
0
100
AcDbLine
 10
179.6662374999999
 20
10.778438
 30
0.0
 11
180.8392375
 21
11.595638
 31
0.0
  0
LINE
  5
1F7
330
1E
100
AcDbEntity
  8
0
100
AcDbLine
 10
181.7702375
 20
11.788838
 30
0.0
 11
183.8562375
 21
13.383538
 31
0.0
  0
LINE
  5
1F8
330
1E
100
AcDbEntity
  8
0
100
AcDbLine
 10
181.3932375
 20
11.885338
 30
0.0
 11
182.948159508427
 21
13.0658440152109
 31
0.0
  0
LINE
  5
1F9
330
1E
100
AcDbEntity
  8
0
100
AcDbLine
 10
181.3932375
 20
11.885338
 30
0.0
 11
182.948159508427
 21
13.0658440152109
 31
0.0
  0
LINE
  5
1FA
330
1E
100
AcDbEntity
  8
0
100
AcDbLine
 10
180.8392375
 20
11.595638
 30
0.0
 11
182.1292374999999
 21
12.494838
 31
0.0
  0
LINE
  5
1FB
330
1E
100
AcDbEntity
  8
0
100
AcDbLine
 10
182.2232375
 20
6.895667999999981
 30
0.0
 11
184.1692375
 21
8.39217799999999
 31
0.0
  0
LINE
  5
1FC
330
1E
100
AcDbEntity
  8
0
100
AcDbLine
 10
184.9692375
 20
7.260387999999981
 30
0.0
 11
187.0552375
 21
8.855127999999981
 31
0.0
  0
LINE
  5
1FD
330
1E
100
AcDbEntity
  8
0
100
AcDbLine
 10
184.1692375
 20
8.39217799999999
 30
0.0
 11
186.2562374999999
 21
9.98643799999999
 31
0.0
  0
LINE
  5
1FE
330
1E
100
AcDbEntity
  8
0
100
AcDbLine
 10
183.3702375
 20
9.52433799999998
 30
0.0
 11
185.4552375
 21
11.118738
 31
0.0
  0
LINE
  5
1FF
330
1E
100
AcDbEntity
  8
0
100
AcDbLine
 10
182.5702374999999
 20
10.657038
 30
0.0
 11
184.6562374999999
 21
12.250838
 31
0.0
  0
LINE
  5
200
330
1E
100
AcDbEntity
  8
0
100
AcDbLine
 10
182.2282375
 20
11.142138
 30
0.0
 11
184.3122375
 21
12.736538
 31
0.0
  0
LINE
  5
201
330
1E
100
AcDbEntity
  8
0
100
AcDbLine
 10
182.1922374999999
 20
10.753238
 30
0.0
 11
184.4842374999999
 21
12.494138
 31
0.0
  0
LINE
  5
202
330
1E
100
AcDbEntity
  8
0
100
AcDbLine
 10
183.0272375
 20
10.009938
 30
0.0
 11
185.1122374999999
 21
11.60383799999999
 31
0.0
  0
LINE
  5
203
330
1E
100
AcDbEntity
  8
0
100
AcDbLine
 10
182.9912375
 20
9.62053799999998
 30
0.0
 11
185.2842374999999
 21
11.36143799999999
 31
0.0
  0
LINE
  5
204
330
1E
100
AcDbEntity
  8
0
100
AcDbLine
 10
183.8562375
 20
13.383538
 30
0.0
 11
185.9412374999999
 21
14.977438
 31
0.0
  0
LINE
  5
205
330
1E
100
AcDbEntity
  8
0
100
AcDbLine
 10
184.3122375
 20
12.736538
 30
0.0
 11
186.3992375
 21
14.330738
 31
0.0
  0
LINE
  5
206
330
1E
100
AcDbEntity
  8
0
100
AcDbLine
 10
184.4842374999999
 20
12.494138
 30
0.0
 11
186.7782374999999
 21
14.234538
 31
0.0
  0
LINE
  5
207
330
1E
100
AcDbEntity
  8
0
100
AcDbLine
 10
183.8272375
 20
8.877317999999981
 30
0.0
 11
185.9132375
 21
10.472038
 31
0.0
  0
LINE
  5
208
330
1E
100
AcDbEntity
  8
0
100
AcDbLine
 10
183.7912374999999
 20
8.48924799999998
 30
0.0
 11
186.0842375
 21
10.228838
 31
0.0
  0
LINE
  5
209
330
1E
100
AcDbEntity
  8
0
100
AcDbLine
 10
184.6562374999999
 20
12.250838
 30
0.0
 11
186.7412375
 21
13.845638
 31
0.0
  0
LINE
  5
20A
330
1E
100
AcDbEntity
  8
0
100
AcDbLine
 10
185.1122374999999
 20
11.60383799999999
 30
0.0
 11
187.1982374999999
 21
13.198638
 31
0.0
  0
LINE
  5
20B
330
1E
100
AcDbEntity
  8
0
100
AcDbLine
 10
185.2842374999999
 20
11.36143799999999
 30
0.0
 11
187.5772375
 21
13.102438
 31
0.0
  0
LINE
  5
20C
330
1E
100
AcDbEntity
  8
0
100
AcDbLine
 10
185.4552375
 20
11.118738
 30
0.0
 11
187.5412374999999
 21
12.712938
 31
0.0
  0
LINE
  5
20D
330
1E
100
AcDbEntity
  8
0
100
AcDbLine
 10
185.9132375
 20
10.472038
 30
0.0
 11
187.9982374999999
 21
12.065938
 31
0.0
  0
LINE
  5
20E
330
1E
100
AcDbEntity
  8
0
100
AcDbLine
 10
186.0842375
 20
10.228838
 30
0.0
 11
188.3772375
 21
11.969738
 31
0.0
  0
LINE
  5
20F
330
1E
100
AcDbEntity
  8
0
100
AcDbLine
 10
186.2562374999999
 20
9.98643799999999
 30
0.0
 11
188.3412374999999
 21
11.581638
 31
0.0
  0
LINE
  5
210
330
1E
100
AcDbEntity
  8
0
100
AcDbLine
 10
184.6262375
 20
7.746027999999981
 30
0.0
 11
186.7122374999999
 21
9.339437999999981
 31
0.0
  0
LINE
  5
211
330
1E
100
AcDbEntity
  8
0
100
AcDbLine
 10
184.5912375
 20
7.35658799999998
 30
0.0
 11
186.8832375
 21
9.097517999999981
 31
0.0
  0
LINE
  5
212
330
1E
100
AcDbEntity
  8
0
100
AcDbLine
 10
182.1292374999999
 20
12.494838
 30
0.0
 11
184.2502375
 21
13.973738
 31
0.0
  0
LINE
  5
213
330
1E
100
AcDbEntity
  8
0
100
AcDbLine
 10
185.9412374999999
 20
14.977438
 30
0.0
 11
187.8882375
 21
16.47433799999999
 31
0.0
  0
LINE
  5
214
330
1E
100
AcDbEntity
  8
0
100
AcDbLine
 10
186.3992375
 20
14.330738
 30
0.0
 11
188.3452375
 21
15.827238
 31
0.0
  0
LINE
  5
215
330
1E
100
AcDbEntity
  8
0
100
AcDbLine
 10
184.2502375
 20
13.973738
 30
0.0
 11
186.4122374999999
 21
15.480538
 31
0.0
  0
LINE
  5
216
330
1E
100
AcDbEntity
  8
0
100
AcDbLine
 10
186.7782374999999
 20
14.234538
 30
0.0
 11
188.8562375
 21
15.83693799999999
 31
0.0
  0
LINE
  5
217
330
1E
100
AcDbEntity
  8
0
100
AcDbLine
 10
186.7412375
 20
13.845638
 30
0.0
 11
188.6882375
 21
15.34163799999999
 31
0.0
  0
LINE
  5
218
330
1E
100
AcDbEntity
  8
0
100
AcDbLine
 10
186.7122374999999
 20
9.339437999999981
 30
0.0
 11
188.7982374999999
 21
10.934138
 31
0.0
  0
LINE
  5
219
330
1E
100
AcDbEntity
  8
0
100
AcDbLine
 10
186.8832375
 20
9.097517999999981
 30
0.0
 11
189.1762375
 21
10.838438
 31
0.0
  0
LINE
  5
21A
330
1E
100
AcDbEntity
  8
0
100
AcDbLine
 10
187.1982374999999
 20
13.198638
 30
0.0
 11
189.1452375
 21
14.694638
 31
0.0
  0
LINE
  5
21B
330
1E
100
AcDbEntity
  8
0
100
AcDbLine
 10
187.5772375
 20
13.102438
 30
0.0
 11
189.6562375
 21
14.704238
 31
0.0
  0
LINE
  5
21C
330
1E
100
AcDbEntity
  8
0
100
AcDbLine
 10
187.5412374999999
 20
12.712938
 30
0.0
 11
189.4872375
 21
14.209438
 31
0.0
  0
LINE
  5
21D
330
1E
100
AcDbEntity
  8
0
100
AcDbLine
 10
187.0552375
 20
8.855127999999981
 30
0.0
 11
189.1412374999999
 21
10.44903799999999
 31
0.0
  0
LINE
  5
21E
330
1E
100
AcDbEntity
  8
0
100
AcDbLine
 10
187.5132374999999
 20
8.20760799999998
 30
0.0
 11
189.5972375
 21
9.80203799999999
 31
0.0
  0
LINE
  5
21F
330
1E
100
AcDbEntity
  8
0
100
AcDbLine
 10
187.8882375
 20
16.47433799999999
 30
0.0
 11
188.669309839457
 21
17.0537750668933
 31
0.0
  0
LINE
  5
220
330
1E
100
AcDbEntity
  8
0
100
AcDbLine
 10
187.9982374999999
 20
12.065938
 30
0.0
 11
189.9452374999999
 21
13.562838
 31
0.0
  0
LINE
  5
221
330
1E
100
AcDbEntity
  8
0
100
AcDbLine
 10
188.3452375
 20
15.827238
 30
0.0
 11
190.0442375
 21
17.088638
 31
0.0
  0
LINE
  5
222
330
1E
100
AcDbEntity
  8
0
100
AcDbLine
 10
188.8562375
 20
15.83693799999999
 30
0.0
 11
190.6892374999999
 21
17.202738
 31
0.0
  0
LINE
  5
223
330
1E
100
AcDbEntity
  8
0
100
AcDbLine
 10
188.6882375
 20
15.34163799999999
 30
0.0
 11
190.3882375
 21
16.602938
 31
0.0
  0
LINE
  5
224
330
1E
100
AcDbEntity
  8
0
100
AcDbLine
 10
188.3772375
 20
11.969738
 30
0.0
 11
190.4572374999999
 21
13.572438
 31
0.0
  0
LINE
  5
225
330
1E
100
AcDbEntity
  8
0
100
AcDbLine
 10
188.3412374999999
 20
11.581638
 30
0.0
 11
190.2882375
 21
13.077638
 31
0.0
  0
LINE
  5
226
330
1E
100
AcDbEntity
  8
0
100
AcDbLine
 10
188.7982374999999
 20
10.934138
 30
0.0
 11
190.7442375
 21
12.430638
 31
0.0
  0
LINE
  5
227
330
1E
100
AcDbEntity
  8
0
100
AcDbLine
 10
189.1452375
 20
14.694638
 30
0.0
 11
190.8442374999999
 21
15.955938
 31
0.0
  0
LINE
  5
228
330
1E
100
AcDbEntity
  8
0
100
AcDbLine
 10
189.6562375
 20
14.704238
 30
0.0
 11
191.4882374999999
 21
16.071438
 31
0.0
  0
LINE
  5
229
330
1E
100
AcDbEntity
  8
0
100
AcDbLine
 10
189.4872375
 20
14.209438
 30
0.0
 11
191.1872375
 21
15.470838
 31
0.0
  0
LINE
  5
22A
330
1E
100
AcDbEntity
  8
0
100
AcDbLine
 10
189.9452374999999
 20
13.562838
 30
0.0
 11
191.6442375
 21
14.823238
 31
0.0
  0
LINE
  5
22B
330
1E
100
AcDbEntity
  8
0
100
AcDbLine
 10
189.1762375
 20
10.838438
 30
0.0
 11
191.2552374999999
 21
12.440338
 31
0.0
  0
LINE
  5
22C
330
1E
100
AcDbEntity
  8
0
100
AcDbLine
 10
189.1412374999999
 20
10.44903799999999
 30
0.0
 11
191.0872374999999
 21
11.945038
 31
0.0
  0
LINE
  5
22D
330
1E
100
AcDbEntity
  8
0
100
AcDbLine
 10
189.5972375
 20
9.80203799999999
 30
0.0
 11
191.5442374999999
 21
11.298038
 31
0.0
  0
LINE
  5
22E
330
1E
100
AcDbEntity
  8
0
100
AcDbLine
 10
190.3882375
 20
16.602938
 30
0.0
 11
191.6722374999999
 21
17.570138
 31
0.0
  0
LINE
  5
22F
330
1E
100
AcDbEntity
  8
0
100
AcDbLine
 10
190.2882375
 20
13.077638
 30
0.0
 11
191.9882375
 21
14.338538
 31
0.0
  0
LINE
  5
230
330
1E
100
AcDbEntity
  8
0
100
AcDbLine
 10
189.9762374999999
 20
9.705837999999991
 30
0.0
 11
192.0552374999999
 21
11.307638
 31
0.0
  0
LINE
  5
231
330
1E
100
AcDbEntity
  8
0
100
AcDbLine
 10
189.9402375
 20
9.31634799999999
 30
0.0
 11
191.8872375
 21
10.813738
 31
0.0
  0
LINE
  5
232
330
1E
100
AcDbEntity
  8
0
100
AcDbLine
 10
187.6832375
 20
7.96485799999998
 30
0.0
 11
189.9762374999999
 21
9.705837999999991
 31
0.0
  0
LINE
  5
233
330
1E
100
AcDbEntity
  8
0
100
AcDbLine
 10
187.8552374999999
 20
7.72246799999999
 30
0.0
 11
189.9402375
 21
9.31634799999999
 31
0.0
  0
LINE
  5
234
330
1E
100
AcDbEntity
  8
0
100
AcDbLine
 10
190.4572374999999
 20
13.572438
 30
0.0
 11
192.2882375
 21
14.938738
 31
0.0
  0
LINE
  5
235
330
1E
100
AcDbEntity
  8
0
100
AcDbLine
 10
190.3972375
 20
8.66932799999998
 30
0.0
 11
192.3432374999999
 21
10.166738
 31
0.0
  0
LINE
  5
236
330
1E
100
AcDbEntity
  8
0
100
AcDbLine
 10
188.3122375
 20
7.075447999999981
 30
0.0
 11
190.3972375
 21
8.66932799999998
 31
0.0
  0
LINE
  5
237
330
1E
100
AcDbEntity
  8
0
100
AcDbLine
 10
191.2582375
 20
7.45415799999998
 30
0.0
 11
193.3152374999999
 21
8.791657999999991
 31
0.0
  0
LINE
  5
238
330
1E
100
AcDbEntity
  8
0
100
AcDbLine
 10
192.9622374999999
 20
8.55793799999998
 30
0.0
 11
193.2187565069779
 21
8.728924247852669
 31
0.0
  0
LINE
  5
239
330
1E
100
AcDbEntity
  8
0
100
AcDbLine
 10
192.9622374999999
 20
8.55793799999998
 30
0.0
 11
193.2187565069779
 21
8.728924247852669
 31
0.0
  0
LINE
  5
23A
330
1E
100
AcDbEntity
  8
0
100
AcDbLine
 10
191.0432375
 20
7.31383799999999
 30
0.0
 11
192.9622374999999
 21
8.55793799999998
 31
0.0
  0
LINE
  5
23B
330
1E
100
AcDbEntity
  8
0
100
AcDbLine
 10
190.8442374999999
 20
15.955938
 30
0.0
 11
192.1292374999999
 21
16.924038
 31
0.0
  0
LINE
  5
23C
330
1E
100
AcDbEntity
  8
0
100
AcDbLine
 10
190.7442375
 20
12.430638
 30
0.0
 11
192.4442375
 21
13.691438
 31
0.0
  0
LINE
  5
23D
330
1E
100
AcDbEntity
  8
0
100
AcDbLine
 10
191.4882374999999
 20
16.071438
 30
0.0
 11
192.8422375
 21
17.087838
 31
0.0
  0
LINE
  5
23E
330
1E
100
AcDbEntity
  8
0
100
AcDbLine
 10
191.1872375
 20
15.470838
 30
0.0
 11
192.4722375
 21
16.438838
 31
0.0
  0
LINE
  5
23F
330
1E
100
AcDbEntity
  8
0
100
AcDbLine
 10
191.6442375
 20
14.823238
 30
0.0
 11
192.9282374999999
 21
15.791838
 31
0.0
  0
LINE
  5
240
330
1E
100
AcDbEntity
  8
0
100
AcDbLine
 10
191.2552374999999
 20
12.440338
 30
0.0
 11
193.0872374999999
 21
13.806538
 31
0.0
  0
LINE
  5
241
330
1E
100
AcDbEntity
  8
0
100
AcDbLine
 10
191.0872374999999
 20
11.945038
 30
0.0
 11
192.7872374999999
 21
13.206338
 31
0.0
  0
LINE
  5
242
330
1E
100
AcDbEntity
  8
0
100
AcDbLine
 10
191.5442374999999
 20
11.298038
 30
0.0
 11
193.2442374999999
 21
12.558838
 31
0.0
  0
LINE
  5
243
330
1E
100
AcDbEntity
  8
0
100
AcDbLine
 10
192.1292374999999
 20
16.924038
 30
0.0
 11
192.9412375
 21
17.533938
 31
0.0
  0
LINE
  5
244
330
1E
100
AcDbEntity
  8
0
100
AcDbLine
 10
192.2882375
 20
14.938738
 30
0.0
 11
193.6422375
 21
15.956038
 31
0.0
  0
LINE
  5
245
330
1E
100
AcDbEntity
  8
0
100
AcDbLine
 10
191.9882375
 20
14.338538
 30
0.0
 11
193.2722374999999
 21
15.306238
 31
0.0
  0
LINE
  5
246
330
1E
100
AcDbEntity
  8
0
100
AcDbLine
 10
192.4722375
 20
16.438838
 30
0.0
 11
193.2852374999999
 21
17.04913799999999
 31
0.0
  0
LINE
  5
247
330
1E
100
AcDbEntity
  8
0
100
AcDbLine
 10
192.4442375
 20
13.691438
 30
0.0
 11
193.7282375
 21
14.659238
 31
0.0
  0
LINE
  5
248
330
1E
100
AcDbEntity
  8
0
100
AcDbLine
 10
192.0552374999999
 20
11.307638
 30
0.0
 11
193.8872375
 21
12.674738
 31
0.0
  0
LINE
  5
249
330
1E
100
AcDbEntity
  8
0
100
AcDbLine
 10
191.8872375
 20
10.813738
 30
0.0
 11
193.5862375
 21
12.073638
 31
0.0
  0
LINE
  5
24A
330
1E
100
AcDbEntity
  8
0
100
AcDbLine
 10
192.3432374999999
 20
10.166738
 30
0.0
 11
194.0442375
 21
11.427538
 31
0.0
  0
LINE
  5
24B
330
1E
100
AcDbEntity
  8
0
100
AcDbLine
 10
193.3152374999999
 20
8.791657999999991
 30
0.0
 11
195.0732375
 21
9.972837999999981
 31
0.0
  0
LINE
  5
24C
330
1E
100
AcDbEntity
  8
0
100
AcDbLine
 10
193.6113906918109
 20
8.99063992667982
 30
0.0
 11
194.5802375
 21
9.636437999999991
 31
0.0
  0
LINE
  5
24D
330
1E
100
AcDbEntity
  8
0
100
AcDbLine
 10
193.6113906918109
 20
8.99063992667981
 30
0.0
 11
194.5802375
 21
9.636437999999991
 31
0.0
  0
LINE
  5
24E
330
1E
100
AcDbEntity
  8
0
100
AcDbLine
 10
192.9282374999999
 20
15.791838
 30
0.0
 11
193.7412375
 21
16.402138
 31
0.0
  0
LINE
  5
24F
330
1E
100
AcDbEntity
  8
0
100
AcDbLine
 10
193.6422375
 20
15.956038
 30
0.0
 11
194.5292375
 21
16.606638
 31
0.0
  0
LINE
  5
250
330
1E
100
AcDbEntity
  8
0
100
AcDbLine
 10
193.2722374999999
 20
15.306238
 30
0.0
 11
194.0852375
 21
15.916438
 31
0.0
  0
LINE
  5
251
330
1E
100
AcDbEntity
  8
0
100
AcDbLine
 10
193.7412375
 20
16.402138
 30
0.0
 11
194.0062375
 21
16.612938
 31
0.0
  0
LINE
  5
252
330
1E
100
AcDbEntity
  8
0
100
AcDbLine
 10
193.7282375
 20
14.659238
 30
0.0
 11
194.5412375
 21
15.269438
 31
0.0
  0
LINE
  5
253
330
1E
100
AcDbEntity
  8
0
100
AcDbLine
 10
193.0872374999999
 20
13.806538
 30
0.0
 11
194.4422375
 21
14.823338
 31
0.0
  0
LINE
  5
254
330
1E
100
AcDbEntity
  8
0
100
AcDbLine
 10
192.7872374999999
 20
13.206338
 30
0.0
 11
194.0712375
 21
14.174038
 31
0.0
  0
LINE
  5
255
330
1E
100
AcDbEntity
  8
0
100
AcDbLine
 10
193.2442374999999
 20
12.558838
 30
0.0
 11
194.5292375
 21
13.527438
 31
0.0
  0
LINE
  5
256
330
1E
100
AcDbEntity
  8
0
100
AcDbLine
 10
194.0062375
 20
16.612938
 30
0.0
 11
194.8692375
 21
16.85863799999999
 31
0.0
  0
LINE
  5
257
330
1E
100
AcDbEntity
  8
0
100
AcDbLine
 10
193.8872375
 20
12.674738
 30
0.0
 11
195.2412375
 21
13.691238
 31
0.0
  0
LINE
  5
258
330
1E
100
AcDbEntity
  8
0
100
AcDbLine
 10
193.5862375
 20
12.073638
 30
0.0
 11
194.8712375
 21
13.042238
 31
0.0
  0
LINE
  5
259
330
1E
100
AcDbEntity
  8
0
100
AcDbLine
 10
194.0852375
 20
15.916438
 30
0.0
 11
194.3492374999999
 21
16.127738
 31
0.0
  0
LINE
  5
25A
330
1E
100
AcDbEntity
  8
0
100
AcDbLine
 10
194.0712375
 20
14.174038
 30
0.0
 11
194.8842375
 21
14.784338
 31
0.0
  0
LINE
  5
25B
330
1E
100
AcDbEntity
  8
0
100
AcDbLine
 10
194.0442375
 20
11.427538
 30
0.0
 11
195.3282375
 21
12.395238
 31
0.0
  0
LINE
  5
25C
330
1E
100
AcDbEntity
  8
0
100
AcDbLine
 10
192.8552374999999
 20
10.176338
 30
0.0
 11
194.6872375
 21
11.542138
 31
0.0
  0
LINE
  5
25D
330
1E
100
AcDbEntity
  8
0
100
AcDbLine
 10
192.6872375
 20
9.68053799999998
 30
0.0
 11
194.3872374999999
 21
10.941938
 31
0.0
  0
LINE
  5
25E
330
1E
100
AcDbEntity
  8
0
100
AcDbLine
 10
190.7762375
 20
8.57312799999998
 30
0.0
 11
192.8552374999999
 21
10.176338
 31
0.0
  0
LINE
  5
25F
330
1E
100
AcDbEntity
  8
0
100
AcDbLine
 10
190.7392375
 20
8.18418799999999
 30
0.0
 11
192.6872375
 21
9.68053799999998
 31
0.0
  0
LINE
  5
260
330
1E
100
AcDbEntity
  8
0
100
AcDbLine
 10
188.4822374999999
 20
6.83269799999999
 30
0.0
 11
190.7762375
 21
8.57312799999998
 31
0.0
  0
LINE
  5
261
330
1E
100
AcDbEntity
  8
0
100
AcDbLine
 10
186.4122374999999
 20
15.480538
 30
0.0
 11
188.5842375
 21
16.994438
 31
0.0
  0
LINE
  5
262
330
1E
100
AcDbEntity
  8
0
100
AcDbLine
 10
190.0442375
 20
17.088638
 30
0.0
 11
191.3292375
 21
18.055838
 31
0.0
  0
LINE
  5
263
330
1E
100
AcDbEntity
  8
0
100
AcDbLine
 10
190.6892374999999
 20
17.202738
 30
0.0
 11
192.0432375
 21
18.21993799999999
 31
0.0
  0
LINE
  5
264
330
1E
100
AcDbEntity
  8
0
100
AcDbLine
 10
190.8922374999999
 20
18.612038
 30
0.0
 11
191.0822375
 21
18.78393799999999
 31
0.0
  0
LINE
  5
265
330
1E
100
AcDbEntity
  8
0
100
AcDbLine
 10
190.7352375
 20
18.494738
 30
0.0
 11
190.8922374999999
 21
18.612038
 31
0.0
  0
LINE
  5
266
330
1E
100
AcDbEntity
  8
0
100
AcDbLine
 10
193.2852374999999
 20
17.04913799999999
 30
0.0
 11
193.5502375
 21
17.259938
 31
0.0
  0
LINE
  5
267
330
1E
100
AcDbEntity
  8
0
100
AcDbLine
 10
193.5498613802769
 20
17.2596388074055
 30
0.0
 11
194.0066091831359
 21
16.6130438198685
 31
0.0
  0
LINE
  5
268
330
1E
100
AcDbEntity
  8
0
100
AcDbLine
 10
193.5498613802769
 20
17.2596388074055
 30
0.0
 11
194.0066091831359
 21
16.6130438198685
 31
0.0
  0
LINE
  5
269
330
1E
100
AcDbEntity
  8
0
100
AcDbLine
 10
191.3292375
 20
18.055838
 30
0.0
 11
192.1412374999999
 21
18.66653799999999
 31
0.0
  0
LINE
  5
26A
330
1E
100
AcDbEntity
  8
0
100
AcDbLine
 10
192.4842375
 20
18.180938
 30
0.0
 11
192.7502374999999
 21
18.392538
 31
0.0
  0
LINE
  5
26B
330
1E
100
AcDbEntity
  8
0
100
AcDbLine
 10
192.749825171367
 20
18.3922099972226
 30
0.0
 11
193.2068468749359
 21
17.7452272621675
 31
0.0
  0
LINE
  5
26C
330
1E
100
AcDbEntity
  8
0
100
AcDbLine
 10
192.749825171367
 20
18.3922099972226
 30
0.0
 11
193.2068468749359
 21
17.7452272621675
 31
0.0
  0
LINE
  5
26D
330
1E
100
AcDbEntity
  8
0
100
AcDbLine
 10
191.9715042908739
 20
19.4940398842473
 30
0.0
 11
192.4073495315829
 21
18.8770356070051
 31
0.0
  0
LINE
  5
26E
330
1E
100
AcDbEntity
  8
0
100
AcDbLine
 10
191.9715042908739
 20
19.4940398842473
 30
0.0
 11
192.4073495315829
 21
18.8770356070051
 31
0.0
  0
LINE
  5
26F
330
1E
100
AcDbEntity
  8
0
100
AcDbLine
 10
192.4082375
 20
18.877738
 30
0.0
 11
193.2692375
 21
19.122538
 31
0.0
  0
LINE
  5
270
330
1E
100
AcDbEntity
  8
0
100
AcDbLine
 10
192.1412374999999
 20
18.66653799999999
 30
0.0
 11
192.4082375
 21
18.877738
 31
0.0
  0
LINE
  5
271
330
1E
100
AcDbEntity
  8
0
100
AcDbLine
 10
192.7502374999999
 20
18.392538
 30
0.0
 11
193.2692375
 21
19.122538
 31
0.0
  0
LINE
  5
272
330
1E
100
AcDbEntity
  8
0
100
AcDbLine
 10
192.9292374999999
 20
18.871038
 30
0.0
 11
193.2692375
 21
19.122538
 31
0.0
  0
LINE
  5
273
330
1E
100
AcDbEntity
  8
0
100
AcDbLine
 10
192.0432375
 20
18.21993799999999
 30
0.0
 11
192.9292374999999
 21
18.871038
 31
0.0
  0
LINE
  5
274
330
1E
100
AcDbEntity
  8
0
100
AcDbLine
 10
191.6722374999999
 20
17.570138
 30
0.0
 11
192.4842375
 21
18.180938
 31
0.0
  0
LINE
  5
275
330
1E
100
AcDbEntity
  8
0
100
AcDbLine
 10
193.2072374999999
 20
17.745538
 30
0.0
 11
194.0692375
 21
17.991238
 31
0.0
  0
LINE
  5
276
330
1E
100
AcDbEntity
  8
0
100
AcDbLine
 10
192.9412375
 20
17.533938
 30
0.0
 11
193.2072374999999
 21
17.745538
 31
0.0
  0
LINE
  5
277
330
1E
100
AcDbEntity
  8
0
100
AcDbLine
 10
193.5502375
 20
17.259938
 30
0.0
 11
194.0692375
 21
17.991238
 31
0.0
  0
LINE
  5
278
330
1E
100
AcDbEntity
  8
0
100
AcDbLine
 10
193.7292375
 20
17.739238
 30
0.0
 11
194.0692375
 21
17.991238
 31
0.0
  0
LINE
  5
279
330
1E
100
AcDbEntity
  8
0
100
AcDbLine
 10
192.8422375
 20
17.087838
 30
0.0
 11
193.7292375
 21
17.739238
 31
0.0
  0
LINE
  5
27A
330
1E
100
AcDbEntity
  8
0
100
AcDbLine
 10
191.1992375
 20
18.86643799999999
 30
0.0
 11
192.4852375
 21
19.911538
 31
0.0
  0
LINE
  5
27B
330
1E
100
AcDbEntity
  8
0
100
AcDbLine
 10
192.142273230644
 20
19.6328195257357
 30
0.0
 11
194.1492374999999
 21
21.071938
 31
0.0
  0
LINE
  5
27C
330
1E
100
AcDbEntity
  8
0
100
AcDbLine
 10
192.142273230644
 20
19.6328195257357
 30
0.0
 11
194.1492374999999
 21
21.071938
 31
0.0
  0
LINE
  5
27D
330
1E
100
AcDbEntity
  8
0
100
AcDbLine
 10
191.0822375
 20
18.78393799999999
 30
0.0
 11
191.1992375
 21
18.86643799999999
 31
0.0
  0
LINE
  5
27E
330
1E
100
AcDbEntity
  8
0
100
AcDbLine
 10
193.3842375
 20
20.53683799999999
 30
0.0
 11
193.9502375
 21
20.932938
 31
0.0
  0
LINE
  5
27F
330
1E
100
AcDbEntity
  8
0
100
AcDbLine
 10
192.4852375
 20
19.911538
 30
0.0
 11
193.3842375
 21
20.53683799999999
 31
0.0
  0
LINE
  5
280
330
1E
100
AcDbEntity
  8
0
100
AcDbLine
 10
193.9502375
 20
20.932938
 30
0.0
 11
194.1492374999999
 21
21.071938
 31
0.0
  0
LINE
  5
281
330
1E
100
AcDbEntity
  8
0
100
AcDbLine
 10
188.5842375
 20
16.994438
 30
0.0
 11
190.7352375
 21
18.494738
 31
0.0
  0
LINE
  5
282
330
1E
100
AcDbEntity
  8
0
100
AcDbLine
 10
195.0732375
 20
9.972837999999981
 30
0.0
 11
196.4112375
 21
10.852638
 31
0.0
  0
LINE
  5
283
330
1E
100
AcDbEntity
  8
0
100
AcDbLine
 10
196.4112375
 20
10.852638
 30
0.0
 11
197.2622375
 21
11.416638
 31
0.0
  0
LINE
  5
284
330
1E
100
AcDbEntity
  8
0
100
AcDbLine
 10
195.7822375
 20
10.435738
 30
0.0
 11
196.4162374999999
 21
10.855938
 31
0.0
  0
LINE
  5
285
330
1E
100
AcDbEntity
  8
0
100
AcDbLine
 10
194.5802375
 20
9.636437999999991
 30
0.0
 11
195.7822375
 21
10.435738
 31
0.0
  0
LINE
  5
286
330
1E
100
AcDbEntity
  8
0
100
AcDbLine
 10
195.6712375
 20
11.909638
 30
0.0
 11
196.4832375
 21
12.520338
 31
0.0
  0
LINE
  5
287
330
1E
100
AcDbEntity
  8
0
100
AcDbLine
 10
194.6872375
 20
11.542138
 30
0.0
 11
196.0412374999999
 21
12.559438
 31
0.0
  0
LINE
  5
288
330
1E
100
AcDbEntity
  8
0
100
AcDbLine
 10
194.3872374999999
 20
10.941938
 30
0.0
 11
195.6712375
 21
11.909638
 31
0.0
  0
LINE
  5
289
330
1E
100
AcDbEntity
  8
0
100
AcDbLine
 10
197.2622375
 20
11.416638
 30
0.0
 11
197.5482375
 21
11.599338
 31
0.0
  0
LINE
  5
28A
330
1E
100
AcDbEntity
  8
0
100
AcDbLine
 10
197.5482375
 20
11.599338
 30
0.0
 11
198.0672375
 21
12.329838
 31
0.0
  0
LINE
  5
28B
330
1E
100
AcDbEntity
  8
0
100
AcDbLine
 10
197.366668180871
 20
11.8563765908906
 30
0.0
 11
197.7162374999999
 21
12.093738
 31
0.0
  0
LINE
  5
28C
330
1E
100
AcDbEntity
  8
0
100
AcDbLine
 10
194.349302283974
 20
16.12791036136269
 30
0.0
 11
194.8059722336309
 21
15.4814255867038
 31
0.0
  0
LINE
  5
28D
330
1E
100
AcDbEntity
  8
0
100
AcDbLine
 10
194.3492374999999
 20
16.127738
 30
0.0
 11
194.8692375
 21
16.85863799999999
 31
0.0
  0
LINE
  5
28E
330
1E
100
AcDbEntity
  8
0
100
AcDbLine
 10
194.5292375
 20
16.606638
 30
0.0
 11
194.8692375
 21
16.85863799999999
 31
0.0
  0
LINE
  5
28F
330
1E
100
AcDbEntity
  8
0
100
AcDbLine
 10
194.8062375
 20
15.481638
 30
0.0
 11
195.6682374999999
 21
15.72643799999999
 31
0.0
  0
LINE
  5
290
330
1E
100
AcDbEntity
  8
0
100
AcDbLine
 10
194.5412375
 20
15.269438
 30
0.0
 11
194.8062375
 21
15.481638
 31
0.0
  0
LINE
  5
291
330
1E
100
AcDbEntity
  8
0
100
AcDbLine
 10
194.4422375
 20
14.823338
 30
0.0
 11
195.3292375
 21
15.473938
 31
0.0
  0
LINE
  5
292
330
1E
100
AcDbEntity
  8
0
100
AcDbLine
 10
194.5292375
 20
13.527438
 30
0.0
 11
195.3402374999999
 21
14.137238
 31
0.0
  0
LINE
  5
293
330
1E
100
AcDbEntity
  8
0
100
AcDbLine
 10
195.6832374999999
 20
13.651638
 30
0.0
 11
195.9482375
 21
13.863838
 31
0.0
  0
LINE
  5
294
330
1E
100
AcDbEntity
  8
0
100
AcDbLine
 10
195.1490316151929
 20
14.9957736029238
 30
0.0
 11
195.60605307061
 21
14.3487912191659
 31
0.0
  0
LINE
  5
295
330
1E
100
AcDbEntity
  8
0
100
AcDbLine
 10
195.1490316151929
 20
14.9957736029238
 30
0.0
 11
195.60605307061
 21
14.3487912191659
 31
0.0
  0
LINE
  5
296
330
1E
100
AcDbEntity
  8
0
100
AcDbLine
 10
195.1492374999999
 20
14.995938
 30
0.0
 11
195.6682374999999
 21
15.72643799999999
 31
0.0
  0
LINE
  5
297
330
1E
100
AcDbEntity
  8
0
100
AcDbLine
 10
195.3292375
 20
15.473938
 30
0.0
 11
195.6682374999999
 21
15.72643799999999
 31
0.0
  0
LINE
  5
298
330
1E
100
AcDbEntity
  8
0
100
AcDbLine
 10
194.8842375
 20
14.784338
 30
0.0
 11
195.1492374999999
 21
14.995938
 31
0.0
  0
LINE
  5
299
330
1E
100
AcDbEntity
  8
0
100
AcDbLine
 10
195.6062374999999
 20
14.348938
 30
0.0
 11
196.4682374999999
 21
14.59463799999999
 31
0.0
  0
LINE
  5
29A
330
1E
100
AcDbEntity
  8
0
100
AcDbLine
 10
195.3402374999999
 20
14.137238
 30
0.0
 11
195.6062374999999
 21
14.348938
 31
0.0
  0
LINE
  5
29B
330
1E
100
AcDbEntity
  8
0
100
AcDbLine
 10
195.948370439546
 20
13.8641896654951
 30
0.0
 11
196.405936042602
 21
13.21643695917909
 31
0.0
  0
LINE
  5
29C
330
1E
100
AcDbEntity
  8
0
100
AcDbLine
 10
195.948370439546
 20
13.8641896654951
 30
0.0
 11
196.405936042602
 21
13.21643695917909
 31
0.0
  0
LINE
  5
29D
330
1E
100
AcDbEntity
  8
0
100
AcDbLine
 10
195.9482375
 20
13.863838
 30
0.0
 11
196.4682374999999
 21
14.59463799999999
 31
0.0
  0
LINE
  5
29E
330
1E
100
AcDbEntity
  8
0
100
AcDbLine
 10
195.2412375
 20
13.691238
 30
0.0
 11
196.1292375
 21
14.342638
 31
0.0
  0
LINE
  5
29F
330
1E
100
AcDbEntity
  8
0
100
AcDbLine
 10
194.8712375
 20
13.042238
 30
0.0
 11
195.6832374999999
 21
13.651638
 31
0.0
  0
LINE
  5
2A0
330
1E
100
AcDbEntity
  8
0
100
AcDbLine
 10
195.3282375
 20
12.395238
 30
0.0
 11
196.1412374999999
 21
13.005438
 31
0.0
  0
LINE
  5
2A1
330
1E
100
AcDbEntity
  8
0
100
AcDbLine
 10
196.1292375
 20
14.342638
 30
0.0
 11
196.4682374999999
 21
14.59463799999999
 31
0.0
  0
LINE
  5
2A2
330
1E
100
AcDbEntity
  8
0
100
AcDbLine
 10
196.7484141419319
 20
12.7316078675398
 30
0.0
 11
197.5482375
 21
11.599338
 31
0.0
  0
LINE
  5
2A3
330
1E
100
AcDbEntity
  8
0
100
AcDbLine
 10
196.7484141419319
 20
12.7316078675398
 30
0.0
 11
197.5482375
 21
11.599338
 31
0.0
  0
LINE
  5
2A4
330
1E
100
AcDbEntity
  8
0
100
AcDbLine
 10
196.4052374999999
 20
13.216238
 30
0.0
 11
197.2682374999999
 21
13.462038
 31
0.0
  0
LINE
  5
2A5
330
1E
100
AcDbEntity
  8
0
100
AcDbLine
 10
196.1412374999999
 20
13.005438
 30
0.0
 11
196.4052374999999
 21
13.216238
 31
0.0
  0
LINE
  5
2A6
330
1E
100
AcDbEntity
  8
0
100
AcDbLine
 10
196.7482374999999
 20
12.73113799999999
 30
0.0
 11
197.2682374999999
 21
13.462038
 31
0.0
  0
LINE
  5
2A7
330
1E
100
AcDbEntity
  8
0
100
AcDbLine
 10
196.9282374999999
 20
13.209938
 30
0.0
 11
197.2682374999999
 21
13.462038
 31
0.0
  0
LINE
  5
2A8
330
1E
100
AcDbEntity
  8
0
100
AcDbLine
 10
196.4832375
 20
12.520338
 30
0.0
 11
196.7482374999999
 21
12.73113799999999
 31
0.0
  0
LINE
  5
2A9
330
1E
100
AcDbEntity
  8
0
100
AcDbLine
 10
196.0412374999999
 20
12.559438
 30
0.0
 11
196.9282374999999
 21
13.209938
 31
0.0
  0
LINE
  5
2AA
330
1E
100
AcDbEntity
  8
0
100
AcDbLine
 10
197.2052375
 20
12.084938
 30
0.0
 11
198.0672375
 21
12.329838
 31
0.0
  0
LINE
  5
2AB
330
1E
100
AcDbEntity
  8
0
100
AcDbLine
 10
197.7162374999999
 20
12.093738
 30
0.0
 11
198.0672375
 21
12.329838
 31
0.0
  0
LINE
  5
2AC
330
1E
100
AcDbEntity
  8
0
100
AcDbLine
 10
194.1482374999999
 20
21.313938
 30
0.0
 11
194.1492374999999
 21
21.071938
 31
0.0
  0
LINE
  5
2AD
330
1E
100
AcDbEntity
  8
0
100
AcDbLine
 10
194.0912375
 20
21.486238
 30
0.0
 11
194.1482374999999
 21
21.313938
 31
0.0
  0
LINE
  5
2AE
330
1E
100
AcDbEntity
  8
0
100
AcDbLine
 10
174.0442375
 20
43.89153799999999
 30
0.0
 11
191.1992375
 21
18.86643799999999
 31
0.0
  0
LINE
  5
2AF
330
1E
100
AcDbEntity
  8
0
100
AcDbLine
 10
175.2162375
 20
49.632938
 30
0.0
 11
175.4552375
 21
49.314838
 31
0.0
  0
LINE
  5
2B2
330
1E
100
AcDbEntity
  8
0
100
AcDbLine
 10
180.3172375
 20
42.55403799999999
 30
0.0
 11
184.7892375
 21
36.044738
 31
0.0
  0
LINE
  5
2B3
330
1E
100
AcDbEntity
  8
0
100
AcDbLine
 10
189.5392375
 20
28.815338
 30
0.0
 11
193.8952375
 21
21.847938
 31
0.0
  0
LINE
  5
2B4
330
1E
100
AcDbEntity
  8
0
100
AcDbLine
 10
185.0132375
 20
35.719538
 30
0.0
 11
189.5392375
 21
28.815338
 31
0.0
  0
LINE
  5
2B5
330
1E
100
AcDbEntity
  8
0
100
AcDbLine
 10
184.7892375
 20
36.044738
 30
0.0
 11
185.0132375
 21
35.719538
 31
0.0
  0
LINE
  5
2B6
330
1E
100
AcDbEntity
  8
0
100
AcDbLine
 10
175.6872375
 20
48.99263799999999
 30
0.0
 11
180.3172375
 21
42.55403799999999
 31
0.0
  0
LINE
  5
2B7
330
1E
100
AcDbEntity
  8
0
100
AcDbLine
 10
175.4552375
 20
49.314838
 30
0.0
 11
180.3172375
 21
42.55403799999999
 31
0.0
  0
LINE
  5
2B8
330
1E
100
AcDbEntity
  8
0
100
AcDbLine
 10
175.4552375
 20
49.314838
 30
0.0
 11
175.6872375
 21
48.99263799999999
 31
0.0
  0
LINE
  5
2B9
330
1E
100
AcDbEntity
  8
0
100
AcDbLine
 10
193.8952375
 20
21.847938
 30
0.0
 11
194.0912375
 21
21.486238
 31
0.0
  0
LINE
  5
2BA
330
1E
100
AcDbEntity
  8
0
100
AcDbLine
 10
173.1942375
 20
6.92061799999999
 30
0.0
 11
173.3272375
 21
6.80193799999999
 31
0.0
  0
LINE
  5
2BB
330
1E
100
AcDbEntity
  8
0
100
AcDbLine
 10
173.3272375
 20
6.80193799999999
 30
0.0
 11
173.5452375
 21
6.70868799999999
 31
0.0
  0
LINE
  5
2BC
330
1E
100
AcDbEntity
  8
0
100
AcDbLine
 10
173.3272375
 20
6.80193799999999
 30
0.0
 11
173.5302375
 21
6.71495799999999
 31
0.0
  0
LINE
  5
2BD
330
1E
100
AcDbEntity
  8
0
100
AcDbLine
 10
81.44943750000001
 20
109.2342379999999
 30
0.0
 11
82.77063750000001
 21
108.4732379999999
 31
0.0
  0
LINE
  5
2BE
330
1E
100
AcDbEntity
  8
0
100
AcDbLine
 10
31.8910375
 20
124.5682379999999
 30
0.0
 11
32.1697766743856
 21
125.050987347595
 31
0.0
  0
LINE
  5
2BF
330
1E
100
AcDbEntity
  8
0
100
AcDbLine
 10
31.8910375
 20
124.5682379999999
 30
0.0
 11
32.1603671919752
 21
125.034691032214
 31
0.0
  0
LINE
  5
2C0
330
1E
100
AcDbEntity
  8
0
100
AcDbLine
 10
31.6461375
 20
124.7092379999999
 30
0.0
 11
31.8910375
 21
124.5682379999999
 31
0.0
  0
LINE
  5
2C1
330
1E
100
AcDbEntity
  8
0
100
AcDbLine
 10
31.6461375
 20
124.7092379999999
 30
0.0
 11
31.99035858071389
 21
125.305395689386
 31
0.0
  0
LINE
  5
2C2
330
1E
100
AcDbEntity
  8
0
100
AcDbLine
 10
33.0630375
 20
124.5352379999999
 30
0.0
 11
33.58133749999999
 21
124.2362379999999
 31
0.0
  0
LINE
  5
2C3
330
1E
100
AcDbEntity
  8
0
100
AcDbLine
 10
32.4102375
 20
124.9122379999999
 30
0.0
 11
33.0630375
 21
124.5352379999999
 31
0.0
  0
LINE
  5
2C4
330
1E
100
AcDbEntity
  8
0
100
AcDbLine
 10
32.6148375
 20
124.794238
 30
0.0
 11
33.2676375
 21
124.4172379999999
 31
0.0
  0
LINE
  5
2C5
330
1E
100
AcDbEntity
  8
0
100
AcDbLine
 10
32.6148375
 20
124.794238
 30
0.0
 11
33.0416962008525
 21
125.533577400405
 31
0.0
  0
LINE
  5
2C6
330
1E
100
AcDbEntity
  8
0
100
AcDbLine
 10
33.67553749999999
 20
124.1822379999999
 30
0.0
 11
33.8397508455049
 21
124.4666632586669
 31
0.0
  0
LINE
  5
2C7
330
1E
100
AcDbEntity
  8
0
100
AcDbLine
 10
33.58133749999999
 20
124.2362379999999
 30
0.0
 11
33.67553749999999
 21
124.1822379999999
 31
0.0
  0
LINE
  5
2C8
330
1E
100
AcDbEntity
  8
0
100
AcDbLine
 10
33.2676375
 20
124.4172379999999
 30
0.0
 11
33.67553749999999
 21
124.1822379999999
 31
0.0
  0
LINE
  5
2C9
330
1E
100
AcDbEntity
  8
0
100
AcDbLine
 10
33.2676375
 20
124.4172379999999
 30
0.0
 11
33.4321646272693
 21
124.70220674348
 31
0.0
  0
LINE
  5
2CA
330
1E
100
AcDbEntity
  8
0
100
AcDbLine
 10
33.2676375
 20
124.4172379999999
 30
0.0
 11
33.4321646272693
 21
124.70220674348
 31
0.0
  0
LINE
  5
2CB
330
1E
100
AcDbEntity
  8
0
100
AcDbLine
 10
35.30913749999999
 20
122.8602379999999
 30
0.0
 11
35.4597375
 21
122.7732379999999
 31
0.0
  0
LINE
  5
2CC
330
1E
100
AcDbEntity
  8
0
100
AcDbLine
 10
35.30913749999999
 20
122.8602379999999
 30
0.0
 11
35.6702375
 21
122.6512379999999
 31
0.0
  0
LINE
  5
2CD
330
1E
100
AcDbEntity
  8
0
100
AcDbLine
 10
35.30913749999999
 20
122.8602379999999
 30
0.0
 11
35.69671190282809
 21
123.531479459054
 31
0.0
  0
LINE
  5
2CE
330
1E
100
AcDbEntity
  8
0
100
AcDbLine
 10
34.93193749999999
 20
123.8362379999999
 30
0.0
 11
35.457703041753
 21
124.746813174189
 31
0.0
  0
LINE
  5
2CF
330
1E
100
AcDbEntity
  8
0
100
AcDbLine
 10
34.7813375
 20
123.9232379999999
 30
0.0
 11
34.93193749999999
 21
123.8362379999999
 31
0.0
  0
LINE
  5
2D0
330
1E
100
AcDbEntity
  8
0
100
AcDbLine
 10
34.4084571638592
 20
124.138764050424
 30
0.0
 11
34.7813375
 21
123.9232379999999
 31
0.0
  0
LINE
  5
2D1
330
1E
100
AcDbEntity
  8
0
100
AcDbLine
 10
34.5707375
 20
124.0452379999999
 30
0.0
 11
34.93193749999999
 21
123.8362379999999
 31
0.0
  0
LINE
  5
2D2
330
1E
100
AcDbEntity
  8
0
100
AcDbLine
 10
34.5707375
 20
124.0452379999999
 30
0.0
 11
35.0963030995477
 21
124.955466893587
 31
0.0
  0
LINE
  5
2D3
330
1E
100
AcDbEntity
  8
0
100
AcDbLine
 10
33.92873749999999
 20
124.4152379999999
 30
0.0
 11
34.5707375
 21
124.0452379999999
 31
0.0
  0
LINE
  5
2D4
330
1E
100
AcDbEntity
  8
0
100
AcDbLine
 10
33.92873749999999
 20
124.4152379999999
 30
0.0
 11
34.45434384552319
 21
125.326101114601
 31
0.0
  0
LINE
  5
2D5
330
1E
100
AcDbEntity
  8
0
100
AcDbLine
 10
33.37673749999999
 20
124.7342379999999
 30
0.0
 11
33.92873749999999
 21
124.4152379999999
 31
0.0
  0
LINE
  5
2D6
330
1E
100
AcDbEntity
  8
0
100
AcDbLine
 10
33.37673749999999
 20
124.7342379999999
 30
0.0
 11
33.902456450102
 21
125.6447324819459
 31
0.0
  0
LINE
  5
2D7
330
1E
100
AcDbEntity
  8
0
100
AcDbLine
 10
33.2261375
 20
124.821238
 30
0.0
 11
33.37673749999999
 21
124.7342379999999
 31
0.0
  0
LINE
  5
2D8
330
1E
100
AcDbEntity
  8
0
100
AcDbLine
 10
33.2261375
 20
124.821238
 30
0.0
 11
33.751834229109
 21
125.731693997331
 31
0.0
  0
LINE
  5
2D9
330
1E
100
AcDbEntity
  8
0
100
AcDbLine
 10
24.7390078454104
 20
128.962715073052
 30
0.0
 11
24.93703749999999
 21
128.8482379999999
 31
0.0
  0
LINE
  5
2DA
330
1E
100
AcDbEntity
  8
0
100
AcDbLine
 10
24.7390078454104
 20
128.962715073052
 30
0.0
 11
24.93703749999999
 21
128.8482379999999
 31
0.0
  0
LINE
  5
2DB
330
1E
100
AcDbEntity
  8
0
100
AcDbLine
 10
24.4550375
 20
129.126238
 30
0.0
 11
24.7390078454104
 21
128.962715073052
 31
0.0
  0
LINE
  5
2DC
330
1E
100
AcDbEntity
  8
0
100
AcDbLine
 10
24.4550375
 20
129.126238
 30
0.0
 11
24.7390078454104
 21
128.962715073052
 31
0.0
  0
LINE
  5
2DD
330
1E
100
AcDbEntity
  8
0
100
AcDbLine
 10
25.2426375
 20
129.0502379999999
 30
0.0
 11
25.5875223459895
 21
129.64759481792
 31
0.0
  0
LINE
  5
2DE
330
1E
100
AcDbEntity
  8
0
100
AcDbLine
 10
25.1077375
 20
129.1282379999999
 30
0.0
 11
25.2426375
 21
129.0502379999999
 31
0.0
  0
LINE
  5
2DF
330
1E
100
AcDbEntity
  8
0
100
AcDbLine
 10
25.1077375
 20
129.1282379999999
 30
0.0
 11
25.4568735503256
 21
129.7329581043149
 31
0.0
  0
LINE
  5
2E0
330
1E
100
AcDbEntity
  8
0
100
AcDbLine
 10
25.2344375
 20
128.6762379999999
 30
0.0
 11
25.59803537357399
 21
129.306344341765
 31
0.0
  0
LINE
  5
2E1
330
1E
100
AcDbEntity
  8
0
100
AcDbLine
 10
25.2344375
 20
128.6762379999999
 30
0.0
 11
25.4916544026517
 21
129.121988685989
 31
0.0
  0
LINE
  5
2E2
330
1E
100
AcDbEntity
  8
0
100
AcDbLine
 10
24.93703749999999
 20
128.8482379999999
 30
0.0
 11
25.2344375
 21
128.6762379999999
 31
0.0
  0
LINE
  5
2E3
330
1E
100
AcDbEntity
  8
0
100
AcDbLine
 10
24.93703749999999
 20
128.8482379999999
 30
0.0
 11
25.1009682784106
 21
129.13215028647
 31
0.0
  0
LINE
  5
2E4
330
1E
100
AcDbEntity
  8
0
100
AcDbLine
 10
24.2494375
 20
129.624238
 30
0.0
 11
24.528101307219
 21
129.463237999856
 31
0.0
  0
LINE
  5
2E5
330
1E
100
AcDbEntity
  8
0
100
AcDbLine
 10
24.5471375
 20
129.4522379999999
 30
0.0
 11
25.1077375
 21
129.1282379999999
 31
0.0
  0
LINE
  5
2E6
330
1E
100
AcDbEntity
  8
0
100
AcDbLine
 10
24.5471375
 20
129.4522379999999
 30
0.0
 11
24.91399982181819
 21
130.087660842506
 31
0.0
  0
LINE
  5
2E7
330
1E
100
AcDbEntity
  8
0
100
AcDbLine
 10
23.8237375
 20
129.4912379999999
 30
0.0
 11
24.4550375
 21
129.126238
 31
0.0
  0
LINE
  5
2E8
330
1E
100
AcDbEntity
  8
0
100
AcDbLine
 10
24.3056375
 20
129.2132379999999
 30
0.0
 11
24.93703749999999
 21
128.8482379999999
 31
0.0
  0
LINE
  5
2E9
330
1E
100
AcDbEntity
  8
0
100
AcDbLine
 10
24.3056375
 20
129.2132379999999
 30
0.0
 11
24.46952740133889
 21
129.4970794913269
 31
0.0
  0
LINE
  5
2EA
330
1E
100
AcDbEntity
  8
0
100
AcDbLine
 10
23.71693749999999
 20
129.553238
 30
0.0
 11
24.3056375
 21
129.2132379999999
 31
0.0
  0
LINE
  5
2EB
330
1E
100
AcDbEntity
  8
0
100
AcDbLine
 10
23.71693749999999
 20
129.553238
 30
0.0
 11
23.8806445241751
 21
129.8367627657299
 31
0.0
  0
LINE
  5
2EC
330
1E
100
AcDbEntity
  8
0
100
AcDbLine
 10
23.6889375
 20
129.947238
 30
0.0
 11
24.2494375
 21
129.624238
 31
0.0
  0
LINE
  5
2ED
330
1E
100
AcDbEntity
  8
0
100
AcDbLine
 10
23.9016375
 20
129.8252379999999
 30
0.0
 11
24.5471375
 21
129.4522379999999
 31
0.0
  0
LINE
  5
2EE
330
1E
100
AcDbEntity
  8
0
100
AcDbLine
 10
23.9016375
 20
129.8252379999999
 30
0.0
 11
24.2889392120306
 21
130.4960628302699
 31
0.0
  0
LINE
  5
2EF
330
1E
100
AcDbEntity
  8
0
100
AcDbLine
 10
23.5540375
 20
130.025238
 30
0.0
 11
23.6889375
 21
129.947238
 31
0.0
  0
LINE
  5
2F0
330
1E
100
AcDbEntity
  8
0
100
AcDbLine
 10
23.5540375
 20
130.025238
 30
0.0
 11
23.9016375
 21
129.8252379999999
 31
0.0
  0
LINE
  5
2F1
330
1E
100
AcDbEntity
  8
0
100
AcDbLine
 10
23.5540375
 20
130.025238
 30
0.0
 11
23.7184950465041
 21
130.3100862263139
 31
0.0
  0
LINE
  5
2F2
330
1E
100
AcDbEntity
  8
0
100
AcDbLine
 10
23.5540375
 20
130.025238
 30
0.0
 11
23.6804294437722
 21
130.24415480722
 31
0.0
  0
LINE
  5
2F3
330
1E
100
AcDbEntity
  8
0
100
AcDbLine
 10
23.5263375
 20
129.6632379999999
 30
0.0
 11
23.8237375
 21
129.4912379999999
 31
0.0
  0
LINE
  5
2F4
330
1E
100
AcDbEntity
  8
0
100
AcDbLine
 10
23.5263375
 20
129.6632379999999
 30
0.0
 11
23.71693749999999
 21
129.553238
 31
0.0
  0
LINE
  5
2F5
330
1E
100
AcDbEntity
  8
0
100
AcDbLine
 10
23.5263375
 20
129.6632379999999
 30
0.0
 11
23.6899740304355
 21
129.946640677376
 31
0.0
  0
LINE
  5
2F6
330
1E
100
AcDbEntity
  8
0
100
AcDbLine
 10
31.0337375
 20
125.0632379999999
 30
0.0
 11
31.6461375
 21
124.7092379999999
 31
0.0
  0
LINE
  5
2F7
330
1E
100
AcDbEntity
  8
0
100
AcDbLine
 10
31.0337375
 20
125.0632379999999
 30
0.0
 11
31.3907593781451
 21
125.681565435072
 31
0.0
  0
LINE
  5
2F8
330
1E
100
AcDbEntity
  8
0
100
AcDbLine
 10
32.09653749999999
 20
125.0932379999999
 30
0.0
 11
32.6148375
 21
124.794238
 31
0.0
  0
LINE
  5
2F9
330
1E
100
AcDbEntity
  8
0
100
AcDbLine
 10
32.09653749999999
 20
125.0932379999999
 30
0.0
 11
32.5884160524126
 21
125.9451948496229
 31
0.0
  0
LINE
  5
2FA
330
1E
100
AcDbEntity
  8
0
100
AcDbLine
 10
30.4213375
 20
125.4162379999999
 30
0.0
 11
31.0337375
 21
125.0632379999999
 31
0.0
  0
LINE
  5
2FB
330
1E
100
AcDbEntity
  8
0
100
AcDbLine
 10
30.4213375
 20
125.4162379999999
 30
0.0
 11
30.79158403511449
 21
126.057469264568
 31
0.0
  0
LINE
  5
2FC
330
1E
100
AcDbEntity
  8
0
100
AcDbLine
 10
30.1044375
 20
125.865238
 30
0.0
 11
30.2753672872325
 21
125.766599702129
 31
0.0
  0
LINE
  5
2FD
330
1E
100
AcDbEntity
  8
0
100
AcDbLine
 10
30.1044375
 20
125.865238
 30
0.0
 11
30.2753672872325
 21
125.766599702129
 31
0.0
  0
LINE
  5
2FE
330
1E
100
AcDbEntity
  8
0
100
AcDbLine
 10
30.4995375
 20
125.6372379999999
 30
0.0
 11
30.8424573505816
 21
126.2311420843849
 31
0.0
  0
LINE
  5
2FF
330
1E
100
AcDbEntity
  8
0
100
AcDbLine
 10
30.4214375
 20
125.6822379999999
 30
0.0
 11
30.4995375
 21
125.6372379999999
 31
0.0
  0
LINE
  5
300
330
1E
100
AcDbEntity
  8
0
100
AcDbLine
 10
30.4214375
 20
125.6822379999999
 30
0.0
 11
30.8089821795511
 21
126.3534279812059
 31
0.0
  0
LINE
  5
301
330
1E
100
AcDbEntity
  8
0
100
AcDbLine
 10
29.4496375
 20
126.2432379999999
 30
0.0
 11
30.1044375
 21
125.865238
 31
0.0
  0
LINE
  5
302
330
1E
100
AcDbEntity
  8
0
100
AcDbLine
 10
29.8933375
 20
125.987238
 30
0.0
 11
30.4214375
 21
125.6822379999999
 31
0.0
  0
LINE
  5
303
330
1E
100
AcDbEntity
  8
0
100
AcDbLine
 10
29.8933375
 20
125.987238
 30
0.0
 11
30.28083963484849
 21
126.658354297888
 31
0.0
  0
LINE
  5
304
330
1E
100
AcDbEntity
  8
0
100
AcDbLine
 10
30.17633749999999
 20
125.5582379999999
 30
0.0
 11
30.4213375
 21
125.4162379999999
 31
0.0
  0
LINE
  5
305
330
1E
100
AcDbEntity
  8
0
100
AcDbLine
 10
30.17633749999999
 20
125.5582379999999
 30
0.0
 11
30.2913242200126
 21
125.7573839011479
 31
0.0
  0
LINE
  5
306
330
1E
100
AcDbEntity
  8
0
100
AcDbLine
 10
28.8585375
 20
126.3182379999999
 30
0.0
 11
28.9737857109446
 21
126.5179603687789
 31
0.0
  0
LINE
  5
307
330
1E
100
AcDbEntity
  8
0
100
AcDbLine
 10
29.18960041793289
 20
126.3934203708209
 30
0.0
 11
29.4496375
 21
126.2432379999999
 31
0.0
  0
LINE
  5
308
330
1E
100
AcDbEntity
  8
0
100
AcDbLine
 10
29.1896004179328
 20
126.3934203708209
 30
0.0
 11
29.4496375
 21
126.2432379999999
 31
0.0
  0
LINE
  5
309
330
1E
100
AcDbEntity
  8
0
100
AcDbLine
 10
29.23843749999999
 20
126.3652379999999
 30
0.0
 11
29.8933375
 21
125.987238
 31
0.0
  0
LINE
  5
30A
330
1E
100
AcDbEntity
  8
0
100
AcDbLine
 10
29.23843749999999
 20
126.3652379999999
 30
0.0
 11
29.6160508473115
 21
127.019227872287
 31
0.0
  0
LINE
  5
30B
330
1E
100
AcDbEntity
  8
0
100
AcDbLine
 10
32.0024375
 20
125.1482379999999
 30
0.0
 11
32.09653749999999
 21
125.0932379999999
 31
0.0
  0
LINE
  5
30C
330
1E
100
AcDbEntity
  8
0
100
AcDbLine
 10
32.0024375
 20
125.1482379999999
 30
0.0
 11
32.5058499060398
 21
126.020172028039
 31
0.0
  0
LINE
  5
30D
330
1E
100
AcDbEntity
  8
0
100
AcDbLine
 10
27.2680375
 20
127.2372379999999
 30
0.0
 11
27.7596375
 21
126.9532379999999
 31
0.0
  0
LINE
  5
30E
330
1E
100
AcDbEntity
  8
0
100
AcDbLine
 10
27.2680375
 20
127.2372379999999
 30
0.0
 11
27.6347165318562
 21
127.8722906932419
 31
0.0
  0
LINE
  5
30F
330
1E
100
AcDbEntity
  8
0
100
AcDbLine
 10
25.74313749999999
 20
128.1172379999999
 30
0.0
 11
25.94913749999999
 21
127.9982379999999
 31
0.0
  0
LINE
  5
310
330
1E
100
AcDbEntity
  8
0
100
AcDbLine
 10
25.74313749999999
 20
128.1172379999999
 30
0.0
 11
26.1137592871799
 21
128.7591191649279
 31
0.0
  0
LINE
  5
311
330
1E
100
AcDbEntity
  8
0
100
AcDbLine
 10
26.5304375
 20
127.6632379999999
 30
0.0
 11
27.1569375
 21
127.3012379999999
 31
0.0
  0
LINE
  5
312
330
1E
100
AcDbEntity
  8
0
100
AcDbLine
 10
26.5304375
 20
127.6632379999999
 30
0.0
 11
26.88620465580669
 21
128.2793923770809
 31
0.0
  0
LINE
  5
313
330
1E
100
AcDbEntity
  8
0
100
AcDbLine
 10
26.5304375
 20
127.6632379999999
 30
0.0
 11
26.88620465580669
 21
128.2793923770809
 31
0.0
  0
LINE
  5
314
330
1E
100
AcDbEntity
  8
0
100
AcDbLine
 10
27.1569375
 20
127.3012379999999
 30
0.0
 11
27.4685375
 21
127.1212379999999
 31
0.0
  0
LINE
  5
315
330
1E
100
AcDbEntity
  8
0
100
AcDbLine
 10
27.1569375
 20
127.3012379999999
 30
0.0
 11
27.5011925285723
 21
127.897454483801
 31
0.0
  0
LINE
  5
316
330
1E
100
AcDbEntity
  8
0
100
AcDbLine
 10
26.6813375
 20
127.5752379999999
 30
0.0
 11
27.2195087903232
 21
127.2650928387089
 31
0.0
  0
LINE
  5
317
330
1E
100
AcDbEntity
  8
0
100
AcDbLine
 10
25.95007508064139
 20
127.997697677422
 30
0.0
 11
26.0547375
 21
127.9372379999999
 31
0.0
  0
LINE
  5
318
330
1E
100
AcDbEntity
  8
0
100
AcDbLine
 10
26.0547375
 20
127.9372379999999
 30
0.0
 11
26.6813375
 21
127.5752379999999
 31
0.0
  0
LINE
  5
319
330
1E
100
AcDbEntity
  8
0
100
AcDbLine
 10
25.95007508064139
 20
127.997697677422
 30
0.0
 11
26.0547375
 21
127.9372379999999
 31
0.0
  0
LINE
  5
31A
330
1E
100
AcDbEntity
  8
0
100
AcDbLine
 10
25.94913749999999
 20
127.9982379999999
 30
0.0
 11
26.5304375
 21
127.6632379999999
 31
0.0
  0
LINE
  5
31B
330
1E
100
AcDbEntity
  8
0
100
AcDbLine
 10
25.94913749999999
 20
127.9982379999999
 30
0.0
 11
26.3159614249758
 21
128.6335416341399
 31
0.0
  0
LINE
  5
31C
330
1E
100
AcDbEntity
  8
0
100
AcDbLine
 10
27.2473375
 20
127.2492379999999
 30
0.0
 11
27.6144245486682
 21
127.88499733898
 31
0.0
  0
LINE
  5
31D
330
1E
100
AcDbEntity
  8
0
100
AcDbLine
 10
27.6899752881137
 20
126.993482239576
 30
0.0
 11
28.3461375
 21
126.6142379999999
 31
0.0
  0
LINE
  5
31E
330
1E
100
AcDbEntity
  8
0
100
AcDbLine
 10
27.6615375
 20
127.6542379999999
 30
0.0
 11
27.84998639872999
 21
127.545392184992
 31
0.0
  0
LINE
  5
31F
330
1E
100
AcDbEntity
  8
0
100
AcDbLine
 10
27.6408375
 20
127.6662379999999
 30
0.0
 11
28.08043749999999
 21
127.4122379999999
 31
0.0
  0
LINE
  5
320
330
1E
100
AcDbEntity
  8
0
100
AcDbLine
 10
27.6408375
 20
127.6662379999999
 30
0.0
 11
27.8051555324677
 21
127.950844581423
 31
0.0
  0
LINE
  5
321
330
1E
100
AcDbEntity
  8
0
100
AcDbLine
 10
27.6899752881137
 20
126.993482239576
 30
0.0
 11
28.3461375
 21
126.6142379999999
 31
0.0
  0
LINE
  5
322
330
1E
100
AcDbEntity
  8
0
100
AcDbLine
 10
28.08043749999999
 20
127.4122379999999
 30
0.0
 11
28.7397375
 21
127.0312379999999
 31
0.0
  0
LINE
  5
323
330
1E
100
AcDbEntity
  8
0
100
AcDbLine
 10
28.08043749999999
 20
127.4122379999999
 30
0.0
 11
28.2449411319075
 21
127.6971660484059
 31
0.0
  0
LINE
  5
324
330
1E
100
AcDbEntity
  8
0
100
AcDbLine
 10
27.7596375
 20
126.9532379999999
 30
0.0
 11
28.4188375
 21
126.5722379999999
 31
0.0
  0
LINE
  5
325
330
1E
100
AcDbEntity
  8
0
100
AcDbLine
 10
27.7596375
 20
126.9532379999999
 30
0.0
 11
28.0386162348874
 21
127.436402243263
 31
0.0
  0
LINE
  5
326
330
1E
100
AcDbEntity
  8
0
100
AcDbLine
 10
27.9664421728947
 20
127.857942939921
 30
0.0
 11
28.0299375
 21
127.821238
 31
0.0
  0
LINE
  5
327
330
1E
100
AcDbEntity
  8
0
100
AcDbLine
 10
27.9664421728947
 20
127.857942939921
 30
0.0
 11
28.0299375
 21
127.821238
 31
0.0
  0
LINE
  5
328
330
1E
100
AcDbEntity
  8
0
100
AcDbLine
 10
28.0299375
 20
127.821238
 30
0.0
 11
28.68843749999999
 21
127.4412379999999
 31
0.0
  0
LINE
  5
329
330
1E
100
AcDbEntity
  8
0
100
AcDbLine
 10
28.4397755951647
 20
126.560142761947
 30
0.0
 11
28.83773749999999
 21
126.330238
 31
0.0
  0
LINE
  5
32A
330
1E
100
AcDbEntity
  8
0
100
AcDbLine
 10
28.9737857109446
 20
126.5179603687789
 30
0.0
 11
29.1896004179328
 21
126.3934203708209
 31
0.0
  0
LINE
  5
32B
330
1E
100
AcDbEntity
  8
0
100
AcDbLine
 10
28.9737857109446
 20
126.5179603687789
 30
0.0
 11
29.1896004179328
 21
126.3934203708209
 31
0.0
  0
LINE
  5
32C
330
1E
100
AcDbEntity
  8
0
100
AcDbLine
 10
28.43977559516559
 20
126.560142761947
 30
0.0
 11
28.83773749999999
 21
126.330238
 31
0.0
  0
LINE
  5
32D
330
1E
100
AcDbEntity
  8
0
100
AcDbLine
 10
28.7478429691639
 20
127.026571914212
 30
0.0
 11
28.8124375
 21
126.9892379999999
 31
0.0
  0
LINE
  5
32E
330
1E
100
AcDbEntity
  8
0
100
AcDbLine
 10
28.7478429691639
 20
127.026571914212
 30
0.0
 11
28.8124375
 21
126.9892379999999
 31
0.0
  0
LINE
  5
32F
330
1E
100
AcDbEntity
  8
0
100
AcDbLine
 10
28.8124375
 20
126.9892379999999
 30
0.0
 11
29.2521375
 21
126.7362379999999
 31
0.0
  0
LINE
  5
330
330
1E
100
AcDbEntity
  8
0
100
AcDbLine
 10
28.7397375
 20
127.0312379999999
 30
0.0
 11
29.23133749999999
 21
126.7482379999999
 31
0.0
  0
LINE
  5
331
330
1E
100
AcDbEntity
  8
0
100
AcDbLine
 10
28.7397375
 20
127.0312379999999
 30
0.0
 11
28.9043682373169
 21
127.316386200969
 31
0.0
  0
LINE
  5
332
330
1E
100
AcDbEntity
  8
0
100
AcDbLine
 10
28.8433375
 20
126.5932379999999
 30
0.0
 11
29.23843749999999
 21
126.3652379999999
 31
0.0
  0
LINE
  5
333
330
1E
100
AcDbEntity
  8
0
100
AcDbLine
 10
28.8433375
 20
126.5932379999999
 30
0.0
 11
29.0072611624216
 21
126.877137962264
 31
0.0
  0
LINE
  5
334
330
1E
100
AcDbEntity
  8
0
100
AcDbLine
 10
28.3461375
 20
126.6142379999999
 30
0.0
 11
28.4157997119921
 21
126.573993760363
 31
0.0
  0
LINE
  5
335
330
1E
100
AcDbEntity
  8
0
100
AcDbLine
 10
28.3461375
 20
126.6142379999999
 30
0.0
 11
28.415799711992
 21
126.573993760363
 31
0.0
  0
LINE
  5
336
330
1E
100
AcDbEntity
  8
0
100
AcDbLine
 10
28.4188375
 20
126.5722379999999
 30
0.0
 11
28.8585375
 21
126.3182379999999
 31
0.0
  0
LINE
  5
337
330
1E
100
AcDbEntity
  8
0
100
AcDbLine
 10
28.4188375
 20
126.5722379999999
 30
0.0
 11
28.6978428406495
 21
127.0554483218759
 31
0.0
  0
LINE
  5
338
330
1E
100
AcDbEntity
  8
0
100
AcDbLine
 10
29.2521375
 20
126.7362379999999
 30
0.0
 11
29.6646824754879
 21
127.4507853530419
 31
0.0
  0
LINE
  5
339
330
1E
100
AcDbEntity
  8
0
100
AcDbLine
 10
29.23133749999999
 20
126.7482379999999
 30
0.0
 11
29.64467524023989
 21
127.464158458979
 31
0.0
  0
LINE
  5
33A
330
1E
100
AcDbEntity
  8
0
100
AcDbLine
 10
29.2060375
 20
127.1422379999999
 30
0.0
 11
29.73173701981449
 21
128.052698830563
 31
0.0
  0
LINE
  5
33B
330
1E
100
AcDbEntity
  8
0
100
AcDbLine
 10
28.68843749999999
 20
127.4412379999999
 30
0.0
 11
29.1692375
 21
127.163238
 31
0.0
  0
LINE
  5
33C
330
1E
100
AcDbEntity
  8
0
100
AcDbLine
 10
28.7546375
 20
127.4032379999999
 30
0.0
 11
29.2060375
 21
127.1422379999999
 31
0.0
  0
LINE
  5
33D
330
1E
100
AcDbEntity
  8
0
100
AcDbLine
 10
28.7546375
 20
127.4032379999999
 30
0.0
 11
29.2801713721376
 21
128.3134119447749
 31
0.0
  0
LINE
  5
33E
330
1E
100
AcDbEntity
  8
0
100
AcDbLine
 10
28.0961375
 20
127.7832379999999
 30
0.0
 11
28.7546375
 21
127.4032379999999
 31
0.0
  0
LINE
  5
33F
330
1E
100
AcDbEntity
  8
0
100
AcDbLine
 10
28.0961375
 20
127.7832379999999
 30
0.0
 11
28.6217525392972
 21
128.6935525184609
 31
0.0
  0
LINE
  5
340
330
1E
100
AcDbEntity
  8
0
100
AcDbLine
 10
27.6152375
 20
128.0602379999999
 30
0.0
 11
28.0961375
 21
127.7832379999999
 31
0.0
  0
LINE
  5
341
330
1E
100
AcDbEntity
  8
0
100
AcDbLine
 10
27.6152375
 20
128.0602379999999
 30
0.0
 11
28.14088965517369
 21
128.9711805016199
 31
0.0
  0
LINE
  5
342
330
1E
100
AcDbEntity
  8
0
100
AcDbLine
 10
27.5784375
 20
128.0822379999999
 30
0.0
 11
28.1040075160203
 21
128.992474542491
 31
0.0
  0
LINE
  5
343
330
1E
100
AcDbEntity
  8
0
100
AcDbLine
 10
25.4916544026517
 20
129.121988685989
 30
0.0
 11
26.1821909604921
 21
128.694158489149
 31
0.0
  0
LINE
  5
344
330
1E
100
AcDbEntity
  8
0
100
AcDbLine
 10
32.2356375
 20
124.991238
 30
0.0
 11
33.6212375
 21
124.1912379999999
 31
0.0
  0
LINE
  5
345
330
1E
100
AcDbEntity
  8
0
100
AcDbLine
 10
37.56593749999999
 20
121.2912379999999
 30
0.0
 11
37.8450503791939
 21
121.774634568255
 31
0.0
  0
LINE
  5
346
330
1E
100
AcDbEntity
  8
0
100
AcDbLine
 10
37.5451375
 20
121.303238
 30
0.0
 11
37.8242456087076
 21
121.786626306234
 31
0.0
  0
LINE
  5
347
330
1E
100
AcDbEntity
  8
0
100
AcDbLine
 10
37.0534375
 20
121.5872379999999
 30
0.0
 11
37.5451375
 21
121.303238
 31
0.0
  0
LINE
  5
348
330
1E
100
AcDbEntity
  8
0
100
AcDbLine
 10
37.0534375
 20
121.5872379999999
 30
0.0
 11
37.33239784305429
 21
122.070370390384
 31
0.0
  0
LINE
  5
349
330
1E
100
AcDbEntity
  8
0
100
AcDbLine
 10
37.0534375
 20
121.5872379999999
 30
0.0
 11
37.33239784305429
 21
122.070370390384
 31
0.0
  0
LINE
  5
34A
330
1E
100
AcDbEntity
  8
0
100
AcDbLine
 10
38.3050375
 20
121.5092379999999
 30
0.0
 11
38.60284495473329
 21
122.025054556108
 31
0.0
  0
LINE
  5
34B
330
1E
100
AcDbEntity
  8
0
100
AcDbLine
 10
37.9934375
 20
121.6892379999999
 30
0.0
 11
38.3050375
 21
121.5092379999999
 31
0.0
  0
LINE
  5
34C
330
1E
100
AcDbEntity
  8
0
100
AcDbLine
 10
37.9934375
 20
121.6892379999999
 30
0.0
 11
38.3068913362857
 21
122.232154826836
 31
0.0
  0
LINE
  5
34D
330
1E
100
AcDbEntity
  8
0
100
AcDbLine
 10
39.7700375
 20
120.6412379999999
 30
0.0
 11
42.02163749999999
 21
119.3412379999999
 31
0.0
  0
LINE
  5
34E
330
1E
100
AcDbEntity
  8
0
100
AcDbLine
 10
41.573961237811
 20
119.6214417201119
 30
0.0
 11
42.1167375
 21
119.3082379999999
 31
0.0
  0
LINE
  5
34F
330
1E
100
AcDbEntity
  8
0
100
AcDbLine
 10
41.573961237811
 20
119.6214417201119
 30
0.0
 11
42.1167375
 21
119.3082379999999
 31
0.0
  0
LINE
  5
350
330
1E
100
AcDbEntity
  8
0
100
AcDbLine
 10
41.97933749999999
 20
118.7432379999999
 30
0.0
 11
42.39809940506179
 21
118.501333237922
 31
0.0
  0
LINE
  5
351
330
1E
100
AcDbEntity
  8
0
100
AcDbLine
 10
41.97933749999999
 20
118.7432379999999
 30
0.0
 11
42.2585001632798
 21
119.226720789487
 31
0.0
  0
LINE
  5
352
330
1E
100
AcDbEntity
  8
0
100
AcDbLine
 10
41.97933749999999
 20
118.7432379999999
 30
0.0
 11
42.398099405062
 21
118.501333237922
 31
0.0
  0
LINE
  5
353
330
1E
100
AcDbEntity
  8
0
100
AcDbLine
 10
41.97933749999999
 20
118.7432379999999
 30
0.0
 11
42.24887235679299
 21
119.2100463578769
 31
0.0
  0
LINE
  5
354
330
1E
100
AcDbEntity
  8
0
100
AcDbLine
 10
42.0001375
 20
118.7312379999999
 30
0.0
 11
42.49173749999999
 21
118.4472379999999
 31
0.0
  0
LINE
  5
355
330
1E
100
AcDbEntity
  8
0
100
AcDbLine
 10
42.0001375
 20
118.7312379999999
 30
0.0
 11
42.27929297704229
 21
119.214708343617
 31
0.0
  0
LINE
  5
356
330
1E
100
AcDbEntity
  8
0
100
AcDbLine
 10
42.3980994050622
 20
118.501333237922
 30
0.0
 11
42.49173749999999
 21
118.4472379999999
 31
0.0
  0
LINE
  5
357
330
1E
100
AcDbEntity
  8
0
100
AcDbLine
 10
42.3980994050616
 20
118.501333237922
 30
0.0
 11
42.49173749999999
 21
118.4472379999999
 31
0.0
  0
LINE
  5
358
330
1E
100
AcDbEntity
  8
0
100
AcDbLine
 10
42.49173749999999
 20
118.4472379999999
 30
0.0
 11
43.1510375
 21
118.0672379999999
 31
0.0
  0
LINE
  5
359
330
1E
100
AcDbEntity
  8
0
100
AcDbLine
 10
42.49173749999999
 20
118.4472379999999
 30
0.0
 11
42.60679939906899
 21
118.646514104018
 31
0.0
  0
LINE
  5
35A
330
1E
100
AcDbEntity
  8
0
100
AcDbLine
 10
42.49173749999999
 20
118.4472379999999
 30
0.0
 11
43.1084234648945
 21
118.091799403519
 31
0.0
  0
LINE
  5
35B
330
1E
100
AcDbEntity
  8
0
100
AcDbLine
 10
42.49173749999999
 20
118.4472379999999
 30
0.0
 11
43.1084234648945
 21
118.091799403519
 31
0.0
  0
LINE
  5
35C
330
1E
100
AcDbEntity
  8
0
100
AcDbLine
 10
42.9186375
 20
118.466238
 30
0.0
 11
43.4066908577969
 21
118.185004948474
 31
0.0
  0
LINE
  5
35D
330
1E
100
AcDbEntity
  8
0
100
AcDbLine
 10
42.9186375
 20
118.466238
 30
0.0
 11
43.4066908577969
 21
118.185004948474
 31
0.0
  0
LINE
  5
35E
330
1E
100
AcDbEntity
  8
0
100
AcDbLine
 10
42.3668375
 20
118.785238
 30
0.0
 11
42.9186375
 21
118.466238
 31
0.0
  0
LINE
  5
35F
330
1E
100
AcDbEntity
  8
0
100
AcDbLine
 10
42.2162375
 20
118.8722379999999
 30
0.0
 11
42.57733749999999
 21
118.6642379999999
 31
0.0
  0
LINE
  5
360
330
1E
100
AcDbEntity
  8
0
100
AcDbLine
 10
42.2162375
 20
118.8722379999999
 30
0.0
 11
42.3668375
 21
118.785238
 31
0.0
  0
LINE
  5
361
330
1E
100
AcDbEntity
  8
0
100
AcDbLine
 10
42.2162375
 20
118.8722379999999
 30
0.0
 11
42.3802896287506
 21
119.156360453547
 31
0.0
  0
LINE
  5
362
330
1E
100
AcDbEntity
  8
0
100
AcDbLine
 10
42.57733749999999
 20
118.6642379999999
 30
0.0
 11
43.21943749999999
 21
118.293238
 31
0.0
  0
LINE
  5
363
330
1E
100
AcDbEntity
  8
0
100
AcDbLine
 10
42.57733749999999
 20
118.6642379999999
 30
0.0
 11
42.7411251435737
 21
118.9479023907469
 31
0.0
  0
LINE
  5
364
330
1E
100
AcDbEntity
  8
0
100
AcDbLine
 10
46.5113375
 20
116.1272379999999
 30
0.0
 11
46.7563375
 21
115.985238
 31
0.0
  0
LINE
  5
365
330
1E
100
AcDbEntity
  8
0
100
AcDbLine
 10
46.5113375
 20
116.1272379999999
 30
0.0
 11
46.7901980983535
 21
116.610197642189
 31
0.0
  0
LINE
  5
366
330
1E
100
AcDbEntity
  8
0
100
AcDbLine
 10
46.5113375
 20
116.1272379999999
 30
0.0
 11
46.7806476043521
 21
116.5936571083419
 31
0.0
  0
LINE
  5
367
330
1E
100
AcDbEntity
  8
0
100
AcDbLine
 10
46.7563375
 20
115.985238
 30
0.0
 11
47.36873749999999
 21
115.6322379999999
 31
0.0
  0
LINE
  5
368
330
1E
100
AcDbEntity
  8
0
100
AcDbLine
 10
46.7563375
 20
115.985238
 30
0.0
 11
47.0354434496519
 21
116.468622566957
 31
0.0
  0
LINE
  5
369
330
1E
100
AcDbEntity
  8
0
100
AcDbLine
 10
47.36873749999999
 20
115.6322379999999
 30
0.0
 11
47.9810375
 21
115.2782379999999
 31
0.0
  0
LINE
  5
36A
330
1E
100
AcDbEntity
  8
0
100
AcDbLine
 10
47.36873749999999
 20
115.6322379999999
 30
0.0
 11
47.71304733876229
 21
116.22854940976
 31
0.0
  0
LINE
  5
36B
330
1E
100
AcDbEntity
  8
0
100
AcDbLine
 10
48.2259375
 20
115.1372379999999
 30
0.0
 11
48.5884646627832
 21
115.765100056724
 31
0.0
  0
LINE
  5
36C
330
1E
100
AcDbEntity
  8
0
100
AcDbLine
 10
48.2259375
 20
115.1372379999999
 30
0.0
 11
48.49643554604909
 21
115.605714508707
 31
0.0
  0
LINE
  5
36D
330
1E
100
AcDbEntity
  8
0
100
AcDbLine
 10
47.9810375
 20
115.2782379999999
 30
0.0
 11
48.2259375
 21
115.1372379999999
 31
0.0
  0
LINE
  5
36E
330
1E
100
AcDbEntity
  8
0
100
AcDbLine
 10
47.9810375
 20
115.2782379999999
 30
0.0
 11
48.3385458923133
 21
115.897408030655
 31
0.0
  0
LINE
  5
36F
330
1E
100
AcDbEntity
  8
0
100
AcDbLine
 10
47.5566375
 20
116.1672379999999
 30
0.0
 11
48.0604387142672
 21
117.039845462225
 31
0.0
  0
LINE
  5
370
330
1E
100
AcDbEntity
  8
0
100
AcDbLine
 10
43.4052936983382
 20
117.9202958512449
 30
0.0
 11
43.5905375
 21
117.8132379999999
 31
0.0
  0
LINE
  5
371
330
1E
100
AcDbEntity
  8
0
100
AcDbLine
 10
43.4052936983382
 20
117.9202958512449
 30
0.0
 11
43.5905375
 21
117.8132379999999
 31
0.0
  0
LINE
  5
372
330
1E
100
AcDbEntity
  8
0
100
AcDbLine
 10
43.5905375
 20
117.8132379999999
 30
0.0
 11
43.7054784992631
 21
118.012304717222
 31
0.0
  0
LINE
  5
373
330
1E
100
AcDbEntity
  8
0
100
AcDbLine
 10
45.48175205038979
 20
117.7454390844969
 30
0.0
 11
45.6585375
 21
117.6432379999999
 31
0.0
  0
LINE
  5
374
330
1E
100
AcDbEntity
  8
0
100
AcDbLine
 10
45.6585375
 20
117.6432379999999
 30
0.0
 11
46.3007375
 21
117.2722379999999
 31
0.0
  0
LINE
  5
375
330
1E
100
AcDbEntity
  8
0
100
AcDbLine
 10
45.48175205038979
 20
117.7454390844969
 30
0.0
 11
45.6585375
 21
117.6432379999999
 31
0.0
  0
LINE
  5
376
330
1E
100
AcDbEntity
  8
0
100
AcDbLine
 10
45.3172375
 20
117.8402379999999
 30
0.0
 11
45.95933749999999
 21
117.470238
 31
0.0
  0
LINE
  5
377
330
1E
100
AcDbEntity
  8
0
100
AcDbLine
 10
45.3172375
 20
117.8402379999999
 30
0.0
 11
45.8430300994922
 21
118.750860035582
 31
0.0
  0
LINE
  5
378
330
1E
100
AcDbEntity
  8
0
100
AcDbLine
 10
43.92193749999999
 20
117.8872379999999
 30
0.0
 11
44.3096791902403
 21
118.558769184706
 31
0.0
  0
LINE
  5
379
330
1E
100
AcDbEntity
  8
0
100
AcDbLine
 10
43.92193749999999
 20
117.8872379999999
 30
0.0
 11
44.0764824740297
 21
118.1548949791509
 31
0.0
  0
LINE
  5
37A
330
1E
100
AcDbEntity
  8
0
100
AcDbLine
 10
43.1084234648945
 20
118.091799403519
 30
0.0
 11
43.40529369833809
 21
117.9202958512449
 31
0.0
  0
LINE
  5
37B
330
1E
100
AcDbEntity
  8
0
100
AcDbLine
 10
43.1084234648945
 20
118.091799403519
 30
0.0
 11
43.4052936983382
 21
117.9202958512449
 31
0.0
  0
LINE
  5
37C
330
1E
100
AcDbEntity
  8
0
100
AcDbLine
 10
43.1510375
 20
118.0672379999999
 30
0.0
 11
43.5905375
 21
117.8132379999999
 31
0.0
  0
LINE
  5
37D
330
1E
100
AcDbEntity
  8
0
100
AcDbLine
 10
43.1510375
 20
118.0672379999999
 30
0.0
 11
43.2658847046101
 21
118.2661422739359
 31
0.0
  0
LINE
  5
37E
330
1E
100
AcDbEntity
  8
0
100
AcDbLine
 10
43.1510375
 20
118.0672379999999
 30
0.0
 11
43.2658847046101
 21
118.2661422739359
 31
0.0
  0
LINE
  5
37F
330
1E
100
AcDbEntity
  8
0
100
AcDbLine
 10
43.7054784992631
 20
118.012304717222
 30
0.0
 11
43.7713375
 21
117.9742379999999
 31
0.0
  0
LINE
  5
380
330
1E
100
AcDbEntity
  8
0
100
AcDbLine
 10
44.1001375
 20
118.1412379999999
 30
0.0
 11
45.9188375
 21
117.0912379999999
 31
0.0
  0
LINE
  5
381
330
1E
100
AcDbEntity
  8
0
100
AcDbLine
 10
44.95613749999999
 20
118.049238
 30
0.0
 11
45.3172375
 21
117.8402379999999
 31
0.0
  0
LINE
  5
382
330
1E
100
AcDbEntity
  8
0
100
AcDbLine
 10
44.95613749999999
 20
118.049238
 30
0.0
 11
45.4817051557489
 21
118.959470454729
 31
0.0
  0
LINE
  5
383
330
1E
100
AcDbEntity
  8
0
100
AcDbLine
 10
43.21943749999999
 20
118.293238
 30
0.0
 11
43.7713375
 21
117.9742379999999
 31
0.0
  0
LINE
  5
384
330
1E
100
AcDbEntity
  8
0
100
AcDbLine
 10
43.21943749999999
 20
118.293238
 30
0.0
 11
43.6070030056341
 21
118.964464049972
 31
0.0
  0
LINE
  5
385
330
1E
100
AcDbEntity
  8
0
100
AcDbLine
 10
43.7713375
 20
117.9742379999999
 30
0.0
 11
43.92193749999999
 21
117.8872379999999
 31
0.0
  0
LINE
  5
386
330
1E
100
AcDbEntity
  8
0
100
AcDbLine
 10
43.7713375
 20
117.9742379999999
 30
0.0
 11
44.1590575089861
 21
118.645731634866
 31
0.0
  0
LINE
  5
387
330
1E
100
AcDbEntity
  8
0
100
AcDbLine
 10
45.95933749999999
 20
117.470238
 30
0.0
 11
46.5112375
 21
117.151238
 31
0.0
  0
LINE
  5
388
330
1E
100
AcDbEntity
  8
0
100
AcDbLine
 10
45.95933749999999
 20
117.470238
 30
0.0
 11
46.4848202673497
 21
118.380323436214
 31
0.0
  0
LINE
  5
389
330
1E
100
AcDbEntity
  8
0
100
AcDbLine
 10
46.6618375
 20
117.0642379999999
 30
0.0
 11
47.1874989699308
 21
117.974632931837
 31
0.0
  0
LINE
  5
38A
330
1E
100
AcDbEntity
  8
0
100
AcDbLine
 10
46.3007375
 20
117.2722379999999
 30
0.0
 11
46.6618375
 21
117.0642379999999
 31
0.0
  0
LINE
  5
38B
330
1E
100
AcDbEntity
  8
0
100
AcDbLine
 10
46.5112375
 20
117.151238
 30
0.0
 11
46.6618375
 21
117.0642379999999
 31
0.0
  0
LINE
  5
38C
330
1E
100
AcDbEntity
  8
0
100
AcDbLine
 10
46.5112375
 20
117.151238
 30
0.0
 11
47.0368767489378
 21
118.061594447222
 31
0.0
  0
LINE
  5
38D
330
1E
100
AcDbEntity
  8
0
100
AcDbLine
 10
46.2563520420802
 20
116.9184514900979
 30
0.0
 11
46.3342592083491
 21
116.8735079386529
 31
0.0
  0
LINE
  5
38E
330
1E
100
AcDbEntity
  8
0
100
AcDbLine
 10
46.2563520420802
 20
116.9184514900979
 30
0.0
 11
46.3342592083491
 21
116.8735079386529
 31
0.0
  0
LINE
  5
38F
330
1E
100
AcDbEntity
  8
0
100
AcDbLine
 10
45.8835375
 20
117.1332379999999
 30
0.0
 11
46.29143749999999
 21
116.8982379999999
 31
0.0
  0
LINE
  5
390
330
1E
100
AcDbEntity
  8
0
100
AcDbLine
 10
45.8835375
 20
117.1332379999999
 30
0.0
 11
46.0480649702295
 21
117.418207337504
 31
0.0
  0
LINE
  5
391
330
1E
100
AcDbEntity
  8
0
100
AcDbLine
 10
46.29143749999999
 20
116.8982379999999
 30
0.0
 11
46.9442375
 21
116.5212379999999
 31
0.0
  0
LINE
  5
392
330
1E
100
AcDbEntity
  8
0
100
AcDbLine
 10
46.29143749999999
 20
116.8982379999999
 30
0.0
 11
46.4557989820237
 21
117.182919838103
 31
0.0
  0
LINE
  5
393
330
1E
100
AcDbEntity
  8
0
100
AcDbLine
 10
47.1657148926464
 20
116.393470798763
 30
0.0
 11
47.5566375
 21
116.1672379999999
 31
0.0
  0
LINE
  5
394
330
1E
100
AcDbEntity
  8
0
100
AcDbLine
 10
47.16571489264651
 20
116.393470798763
 30
0.0
 11
47.5566375
 21
116.1672379999999
 31
0.0
  0
LINE
  5
395
330
1E
100
AcDbEntity
  8
0
100
AcDbLine
 10
46.9442375
 20
116.5212379999999
 30
0.0
 11
47.4625375
 21
116.2222379999999
 31
0.0
  0
LINE
  5
396
330
1E
100
AcDbEntity
  8
0
100
AcDbLine
 10
46.9442375
 20
116.5212379999999
 30
0.0
 11
47.37111020829999
 21
117.260601661964
 31
0.0
  0
LINE
  5
397
330
1E
100
AcDbEntity
  8
0
100
AcDbLine
 10
47.4625375
 20
116.2222379999999
 30
0.0
 11
47.5566375
 21
116.1672379999999
 31
0.0
  0
LINE
  5
398
330
1E
100
AcDbEntity
  8
0
100
AcDbLine
 10
47.4625375
 20
116.2222379999999
 30
0.0
 11
47.9542231840423
 21
117.073860792511
 31
0.0
  0
LINE
  5
399
330
1E
100
AcDbEntity
  8
0
100
AcDbLine
 10
42.9794375
 20
118.8102379999999
 30
0.0
 11
43.36422443580071
 21
119.4767071192429
 31
0.0
  0
LINE
  5
39A
330
1E
100
AcDbEntity
  8
0
100
AcDbLine
 10
42.6678375
 20
118.9902379999999
 30
0.0
 11
42.9794375
 21
118.8102379999999
 31
0.0
  0
LINE
  5
39B
330
1E
100
AcDbEntity
  8
0
100
AcDbLine
 10
42.7734375
 20
118.9292379999999
 30
0.0
 11
42.9794375
 21
118.8102379999999
 31
0.0
  0
LINE
  5
39C
330
1E
100
AcDbEntity
  8
0
100
AcDbLine
 10
42.7734375
 20
118.9292379999999
 30
0.0
 11
43.1478237421589
 21
119.5776926273619
 31
0.0
  0
LINE
  5
39D
330
1E
100
AcDbEntity
  8
0
100
AcDbLine
 10
42.1921375
 20
119.2652379999999
 30
0.0
 11
42.7734375
 21
118.9292379999999
 31
0.0
  0
LINE
  5
39E
330
1E
100
AcDbEntity
  8
0
100
AcDbLine
 10
42.1921375
 20
119.2652379999999
 30
0.0
 11
42.5370834170076
 21
119.8627005958029
 31
0.0
  0
LINE
  5
39F
330
1E
100
AcDbEntity
  8
0
100
AcDbLine
 10
42.02163749999999
 20
119.3412379999999
 30
0.0
 11
42.24887235679299
 21
119.2100463578769
 31
0.0
  0
LINE
  5
3A0
330
1E
100
AcDbEntity
  8
0
100
AcDbLine
 10
42.0737137195116
 20
119.333475804878
 30
0.0
 11
42.6678375
 21
118.9902379999999
 31
0.0
  0
LINE
  5
3A1
330
1E
100
AcDbEntity
  8
0
100
AcDbLine
 10
41.687305292992
 20
119.556130939713
 30
0.0
 11
42.1167375
 21
119.3082379999999
 31
0.0
  0
LINE
  5
3A2
330
1E
100
AcDbEntity
  8
0
100
AcDbLine
 10
42.04867807971019
 20
119.347901768116
 30
0.0
 11
42.1167375
 21
119.3082379999999
 31
0.0
  0
LINE
  5
3A3
330
1E
100
AcDbEntity
  8
0
100
AcDbLine
 10
42.0737137195116
 20
119.333475804878
 30
0.0
 11
42.6678375
 21
118.9902379999999
 31
0.0
  0
LINE
  5
3A4
330
1E
100
AcDbEntity
  8
0
100
AcDbLine
 10
42.1167375
 20
119.3082379999999
 30
0.0
 11
42.1921375
 21
119.2652379999999
 31
0.0
  0
LINE
  5
3A5
330
1E
100
AcDbEntity
  8
0
100
AcDbLine
 10
42.1167375
 20
119.3082379999999
 30
0.0
 11
42.7734375
 21
118.9292379999999
 31
0.0
  0
LINE
  5
3A6
330
1E
100
AcDbEntity
  8
0
100
AcDbLine
 10
42.1167375
 20
119.3082379999999
 30
0.0
 11
42.9794375
 21
118.8102379999999
 31
0.0
  0
LINE
  5
3A7
330
1E
100
AcDbEntity
  8
0
100
AcDbLine
 10
42.1167375
 20
119.3082379999999
 30
0.0
 11
42.6678375
 21
118.9902379999999
 31
0.0
  0
LINE
  5
3A8
330
1E
100
AcDbEntity
  8
0
100
AcDbLine
 10
41.6873052929919
 20
119.556130939713
 30
0.0
 11
42.1167375
 21
119.3082379999999
 31
0.0
  0
LINE
  5
3A9
330
1E
100
AcDbEntity
  8
0
100
AcDbLine
 10
41.4599375
 20
119.687238
 30
0.0
 11
41.55464847180049
 21
119.6325859623749
 31
0.0
  0
LINE
  5
3AA
330
1E
100
AcDbEntity
  8
0
100
AcDbLine
 10
41.4599375
 20
119.687238
 30
0.0
 11
41.55464847180049
 21
119.6325859623749
 31
0.0
  0
LINE
  5
3AB
330
1E
100
AcDbEntity
  8
0
100
AcDbLine
 10
41.2540375
 20
119.8062379999999
 30
0.0
 11
41.5656375
 21
119.6262379999999
 31
0.0
  0
LINE
  5
3AC
330
1E
100
AcDbEntity
  8
0
100
AcDbLine
 10
41.2540375
 20
119.8062379999999
 30
0.0
 11
41.4599375
 21
119.687238
 31
0.0
  0
LINE
  5
3AD
330
1E
100
AcDbEntity
  8
0
100
AcDbLine
 10
41.2540375
 20
119.8062379999999
 30
0.0
 11
41.55203472095539
 21
120.322383240154
 31
0.0
  0
LINE
  5
3AE
330
1E
100
AcDbEntity
  8
0
100
AcDbLine
 10
41.5656375
 20
119.6262379999999
 30
0.0
 11
42.1167375
 21
119.3082379999999
 31
0.0
  0
LINE
  5
3AF
330
1E
100
AcDbEntity
  8
0
100
AcDbLine
 10
41.5656375
 20
119.6262379999999
 30
0.0
 11
42.1921375
 21
119.2652379999999
 31
0.0
  0
LINE
  5
3B0
330
1E
100
AcDbEntity
  8
0
100
AcDbLine
 10
41.5656375
 20
119.6262379999999
 30
0.0
 11
41.8793661491771
 21
120.169630815724
 31
0.0
  0
LINE
  5
3B1
330
1E
100
AcDbEntity
  8
0
100
AcDbLine
 10
40.81003749999999
 20
120.442238
 30
0.0
 11
41.3356835257998
 21
121.353169879563
 31
0.0
  0
LINE
  5
3B2
330
1E
100
AcDbEntity
  8
0
100
AcDbLine
 10
40.5502375
 20
120.592238
 30
0.0
 11
40.81003749999999
 21
120.442238
 31
0.0
  0
LINE
  5
3B3
330
1E
100
AcDbEntity
  8
0
100
AcDbLine
 10
40.5502375
 20
120.592238
 30
0.0
 11
41.07588142384289
 21
121.503166236922
 31
0.0
  0
LINE
  5
3B4
330
1E
100
AcDbEntity
  8
0
100
AcDbLine
 10
39.9440375
 20
120.9422379999999
 30
0.0
 11
40.5502375
 21
120.592238
 31
0.0
  0
LINE
  5
3B5
330
1E
100
AcDbEntity
  8
0
100
AcDbLine
 10
39.9440375
 20
120.9422379999999
 30
0.0
 11
40.81003749999999
 21
120.442238
 31
0.0
  0
LINE
  5
3B6
330
1E
100
AcDbEntity
  8
0
100
AcDbLine
 10
39.9440375
 20
120.9422379999999
 30
0.0
 11
40.46967651927659
 21
121.853157737427
 31
0.0
  0
LINE
  5
3B7
330
1E
100
AcDbEntity
  8
0
100
AcDbLine
 10
39.9440375
 20
120.9422379999999
 30
0.0
 11
40.46967651927659
 21
121.853157737427
 31
0.0
  0
LINE
  5
3B8
330
1E
100
AcDbEntity
  8
0
100
AcDbLine
 10
39.33783749999999
 20
121.2922379999999
 30
0.0
 11
39.9440375
 21
120.9422379999999
 31
0.0
  0
LINE
  5
3B9
330
1E
100
AcDbEntity
  8
0
100
AcDbLine
 10
39.33783749999999
 20
121.2922379999999
 30
0.0
 11
39.8634716147103
 21
122.203149237932
 31
0.0
  0
LINE
  5
3BA
330
1E
100
AcDbEntity
  8
0
100
AcDbLine
 10
39.33783749999999
 20
121.2922379999999
 30
0.0
 11
39.8634716147103
 21
122.203149237932
 31
0.0
  0
LINE
  5
3BB
330
1E
100
AcDbEntity
  8
0
100
AcDbLine
 10
39.0780375
 20
121.442238
 30
0.0
 11
39.33783749999999
 21
121.2922379999999
 31
0.0
  0
LINE
  5
3BC
330
1E
100
AcDbEntity
  8
0
100
AcDbLine
 10
39.0780375
 20
121.442238
 30
0.0
 11
39.6036695127533
 21
122.353145595292
 31
0.0
  0
LINE
  5
3BD
330
1E
100
AcDbEntity
  8
0
100
AcDbLine
 10
36.3942375
 20
121.9682379999999
 30
0.0
 11
37.0534375
 21
121.5872379999999
 31
0.0
  0
LINE
  5
3BE
330
1E
100
AcDbEntity
  8
0
100
AcDbLine
 10
36.3942375
 20
121.9682379999999
 30
0.0
 11
36.5092632326851
 21
122.167451467331
 31
0.0
  0
LINE
  5
3BF
330
1E
100
AcDbEntity
  8
0
100
AcDbLine
 10
35.9753375
 20
122.2102379999999
 30
0.0
 11
36.0962036017481
 21
122.1404413897999
 31
0.0
  0
LINE
  5
3C0
330
1E
100
AcDbEntity
  8
0
100
AcDbLine
 10
35.9753375
 20
122.2102379999999
 30
0.0
 11
36.0962036017481
 21
122.1404413897999
 31
0.0
  0
LINE
  5
3C1
330
1E
100
AcDbEntity
  8
0
100
AcDbLine
 10
35.95463749999999
 20
122.2222379999999
 30
0.0
 11
36.3942375
 21
121.9682379999999
 31
0.0
  0
LINE
  5
3C2
330
1E
100
AcDbEntity
  8
0
100
AcDbLine
 10
35.95463749999999
 20
122.2222379999999
 30
0.0
 11
36.06938167201239
 21
122.420963831421
 31
0.0
  0
LINE
  5
3C3
330
1E
100
AcDbEntity
  8
0
100
AcDbLine
 10
35.95463749999999
 20
122.2222379999999
 30
0.0
 11
36.0692661922451
 21
122.42076383161
 31
0.0
  0
LINE
  5
3C4
330
1E
100
AcDbEntity
  8
0
100
AcDbLine
 10
36.489222949612
 20
122.179036915502
 30
0.0
 11
36.8642375
 21
121.9622379999999
 31
0.0
  0
LINE
  5
3C5
330
1E
100
AcDbEntity
  8
0
100
AcDbLine
 10
36.489222949612
 20
122.179036915502
 30
0.0
 11
36.8642375
 21
121.9622379999999
 31
0.0
  0
LINE
  5
3C6
330
1E
100
AcDbEntity
  8
0
100
AcDbLine
 10
36.6537375
 20
122.0842379999999
 30
0.0
 11
37.01483749999999
 21
121.8752379999999
 31
0.0
  0
LINE
  5
3C7
330
1E
100
AcDbEntity
  8
0
100
AcDbLine
 10
36.6537375
 20
122.0842379999999
 30
0.0
 11
36.81748238545679
 21
122.367828337815
 31
0.0
  0
LINE
  5
3C8
330
1E
100
AcDbEntity
  8
0
100
AcDbLine
 10
36.6537375
 20
122.0842379999999
 30
0.0
 11
36.81748238545679
 21
122.367828337815
 31
0.0
  0
LINE
  5
3C9
330
1E
100
AcDbEntity
  8
0
100
AcDbLine
 10
36.8642375
 20
121.9622379999999
 30
0.0
 11
37.01483749999999
 21
121.8752379999999
 31
0.0
  0
LINE
  5
3CA
330
1E
100
AcDbEntity
  8
0
100
AcDbLine
 10
36.8188707867279
 20
122.367028209782
 30
0.0
 11
36.8912375
 21
122.3252379999999
 31
0.0
  0
LINE
  5
3CB
330
1E
100
AcDbEntity
  8
0
100
AcDbLine
 10
36.81887078672779
 20
122.367028209782
 30
0.0
 11
36.8912375
 21
122.3252379999999
 31
0.0
  0
LINE
  5
3CC
330
1E
100
AcDbEntity
  8
0
100
AcDbLine
 10
36.8912375
 20
122.3252379999999
 30
0.0
 11
37.51783749999999
 21
121.9632379999999
 31
0.0
  0
LINE
  5
3CD
330
1E
100
AcDbEntity
  8
0
100
AcDbLine
 10
36.8912375
 20
122.3252379999999
 30
0.0
 11
37.4423375
 21
122.0072379999999
 31
0.0
  0
LINE
  5
3CE
330
1E
100
AcDbEntity
  8
0
100
AcDbLine
 10
36.78553749999999
 20
122.3862379999999
 30
0.0
 11
37.4423375
 21
122.0072379999999
 31
0.0
  0
LINE
  5
3CF
330
1E
100
AcDbEntity
  8
0
100
AcDbLine
 10
36.78553749999999
 20
122.3862379999999
 30
0.0
 11
37.3668375
 21
122.0512379999999
 31
0.0
  0
LINE
  5
3D0
330
1E
100
AcDbEntity
  8
0
100
AcDbLine
 10
36.78553749999999
 20
122.3862379999999
 30
0.0
 11
37.1599561626969
 21
123.034748781263
 31
0.0
  0
LINE
  5
3D1
330
1E
100
AcDbEntity
  8
0
100
AcDbLine
 10
37.01483749999999
 20
121.8752379999999
 30
0.0
 11
37.1787575125378
 21
122.1591316410169
 31
0.0
  0
LINE
  5
3D2
330
1E
100
AcDbEntity
  8
0
100
AcDbLine
 10
37.51783749999999
 20
121.9632379999999
 30
0.0
 11
38.0980267173647
 21
121.628820608711
 31
0.0
  0
LINE
  5
3D3
330
1E
100
AcDbEntity
  8
0
100
AcDbLine
 10
37.51783749999999
 20
121.9632379999999
 30
0.0
 11
38.0980267173647
 21
121.628820608711
 31
0.0
  0
LINE
  5
3D4
330
1E
100
AcDbEntity
  8
0
100
AcDbLine
 10
37.4423375
 20
122.0072379999999
 30
0.0
 11
37.9934375
 21
121.6892379999999
 31
0.0
  0
LINE
  5
3D5
330
1E
100
AcDbEntity
  8
0
100
AcDbLine
 10
37.4423375
 20
122.0072379999999
 30
0.0
 11
38.3050375
 21
121.5092379999999
 31
0.0
  0
LINE
  5
3D6
330
1E
100
AcDbEntity
  8
0
100
AcDbLine
 10
37.4423375
 20
122.0072379999999
 30
0.0
 11
38.0966407846087
 21
121.6296212117149
 31
0.0
  0
LINE
  5
3D7
330
1E
100
AcDbEntity
  8
0
100
AcDbLine
 10
37.4423375
 20
122.0072379999999
 30
0.0
 11
37.51783749999999
 21
121.9632379999999
 31
0.0
  0
LINE
  5
3D8
330
1E
100
AcDbEntity
  8
0
100
AcDbLine
 10
37.4423375
 20
122.0072379999999
 30
0.0
 11
38.0966407846087
 21
121.6296212117149
 31
0.0
  0
LINE
  5
3D9
330
1E
100
AcDbEntity
  8
0
100
AcDbLine
 10
36.8957439085417
 20
122.322726651537
 30
0.0
 11
37.4423375
 21
122.0072379999999
 31
0.0
  0
LINE
  5
3DA
330
1E
100
AcDbEntity
  8
0
100
AcDbLine
 10
37.3668375
 20
122.0512379999999
 30
0.0
 11
37.4423375
 21
122.0072379999999
 31
0.0
  0
LINE
  5
3DB
330
1E
100
AcDbEntity
  8
0
100
AcDbLine
 10
37.3668375
 20
122.0512379999999
 30
0.0
 11
37.9934375
 21
121.6892379999999
 31
0.0
  0
LINE
  5
3DC
330
1E
100
AcDbEntity
  8
0
100
AcDbLine
 10
37.3668375
 20
122.0512379999999
 30
0.0
 11
37.7117400432062
 21
122.6486254703339
 31
0.0
  0
LINE
  5
3DD
330
1E
100
AcDbEntity
  8
0
100
AcDbLine
 10
36.8957439085416
 20
122.322726651537
 30
0.0
 11
37.4423375
 21
122.0072379999999
 31
0.0
  0
LINE
  5
3DE
330
1E
100
AcDbEntity
  8
0
100
AcDbLine
 10
35.6702375
 20
122.6512379999999
 30
0.0
 11
35.84794402701929
 21
122.548853361263
 31
0.0
  0
LINE
  5
3DF
330
1E
100
AcDbEntity
  8
0
100
AcDbLine
 10
36.01163749999999
 20
122.4542379999999
 30
0.0
 11
36.6537375
 21
122.0842379999999
 31
0.0
  0
LINE
  5
3E0
330
1E
100
AcDbEntity
  8
0
100
AcDbLine
 10
36.01163749999999
 20
122.4542379999999
 30
0.0
 11
36.3993912571116
 21
123.125790083362
 31
0.0
  0
LINE
  5
3E1
330
1E
100
AcDbEntity
  8
0
100
AcDbLine
 10
35.4597375
 20
122.7732379999999
 30
0.0
 11
36.01163749999999
 21
122.4542379999999
 31
0.0
  0
LINE
  5
3E2
330
1E
100
AcDbEntity
  8
0
100
AcDbLine
 10
35.4597375
 20
122.7732379999999
 30
0.0
 11
35.84733426351639
 21
123.4445181856069
 31
0.0
  0
LINE
  5
3E3
330
1E
100
AcDbEntity
  8
0
100
AcDbLine
 10
36.5795375
 20
122.5052379999999
 30
0.0
 11
36.78553749999999
 21
122.3862379999999
 31
0.0
  0
LINE
  5
3E4
330
1E
100
AcDbEntity
  8
0
100
AcDbLine
 10
36.5795375
 20
122.5052379999999
 30
0.0
 11
36.96429951993029
 21
123.171663963781
 31
0.0
  0
LINE
  5
3E5
330
1E
100
AcDbEntity
  8
0
100
AcDbLine
 10
45.13253749999999
 20
129.929238
 30
0.0
 11
56.2176375
 21
123.5292379999999
 31
0.0
  0
LINE
  5
3E6
330
1E
100
AcDbEntity
  8
0
100
AcDbLine
 10
37.8355141487435
 20
121.7581187375019
 30
0.0
 11
39.7700375
 21
120.6412379999999
 31
0.0
  0
LINE
  5
3E7
330
1E
100
AcDbEntity
  8
0
100
AcDbLine
 10
7.825497030692729
 20
139.4859450786119
 30
0.0
 11
7.9097375
 21
139.4372379999999
 31
0.0
  0
LINE
  5
3E8
330
1E
100
AcDbEntity
  8
0
100
AcDbLine
 10
7.51623983121575
 20
139.664754798573
 30
0.0
 11
7.9097375
 21
139.4372379999999
 31
0.0
  0
LINE
  5
3E9
330
1E
100
AcDbEntity
  8
0
100
AcDbLine
 10
9.0197275
 20
138.7972379999999
 30
0.0
 11
9.43583042055687
 21
139.517888098337
 31
0.0
  0
LINE
  5
3EA
330
1E
100
AcDbEntity
  8
0
100
AcDbLine
 10
9.0197275
 20
138.7972379999999
 30
0.0
 11
9.381480113295518
 21
139.423758611767
 31
0.0
  0
LINE
  5
3EB
330
1E
100
AcDbEntity
  8
0
100
AcDbLine
 10
9.0197275
 20
138.7972379999999
 30
0.0
 11
9.381480113295518
 21
139.423758611767
 31
0.0
  0
LINE
  5
3EC
330
1E
100
AcDbEntity
  8
0
100
AcDbLine
 10
8.9829175
 20
138.8182379999999
 30
0.0
 11
9.400210049510389
 21
139.540948420868
 31
0.0
  0
LINE
  5
3ED
330
1E
100
AcDbEntity
  8
0
100
AcDbLine
 10
8.16967146412866
 20
139.287244975584
 30
0.0
 11
8.38233043644119
 21
139.164531645168
 31
0.0
  0
LINE
  5
3EE
330
1E
100
AcDbEntity
  8
0
100
AcDbLine
 10
8.169671464128651
 20
139.287244975584
 30
0.0
 11
8.382330436441199
 21
139.164531645168
 31
0.0
  0
LINE
  5
3EF
330
1E
100
AcDbEntity
  8
0
100
AcDbLine
 10
7.9097375
 20
139.4372379999999
 30
0.0
 11
8.382330436441199
 21
139.164531645168
 31
0.0
  0
LINE
  5
3F0
330
1E
100
AcDbEntity
  8
0
100
AcDbLine
 10
7.9097375
 20
139.4372379999999
 30
0.0
 11
8.38233043644119
 21
139.164531645168
 31
0.0
  0
LINE
  5
3F1
330
1E
100
AcDbEntity
  8
0
100
AcDbLine
 10
7.9097375
 20
139.4372379999999
 30
0.0
 11
8.02102435026569
 21
139.373020723489
 31
0.0
  0
LINE
  5
3F2
330
1E
100
AcDbEntity
  8
0
100
AcDbLine
 10
7.9097375
 20
139.4372379999999
 30
0.0
 11
8.021024350265548
 21
139.373020723489
 31
0.0
  0
LINE
  5
3F3
330
1E
100
AcDbEntity
  8
0
100
AcDbLine
 10
8.502097500000001
 20
139.0952379999999
 30
0.0
 11
8.9829175
 21
138.8182379999999
 31
0.0
  0
LINE
  5
3F4
330
1E
100
AcDbEntity
  8
0
100
AcDbLine
 10
8.502097500000001
 20
139.0952379999999
 30
0.0
 11
8.933602664161741
 21
139.84302603784
 31
0.0
  0
LINE
  5
3F5
330
1E
100
AcDbEntity
  8
0
100
AcDbLine
 10
7.843577499999999
 20
139.4762379999999
 30
0.0
 11
8.502097500000001
 21
139.0952379999999
 31
0.0
  0
LINE
  5
3F6
330
1E
100
AcDbEntity
  8
0
100
AcDbLine
 10
7.843577499999999
 20
139.4762379999999
 30
0.0
 11
8.369113974306749
 21
140.38641645148
 31
0.0
  0
LINE
  5
3F7
330
1E
100
AcDbEntity
  8
0
100
AcDbLine
 10
6.1690275
 20
140.4422379999999
 30
0.0
 11
6.7752475
 21
140.0922379999999
 31
0.0
  0
LINE
  5
3F8
330
1E
100
AcDbEntity
  8
0
100
AcDbLine
 10
7.03514471918871
 20
139.94238914875
 30
0.0
 11
7.173877499999999
 21
139.8622379999999
 31
0.0
  0
LINE
  5
3F9
330
1E
100
AcDbEntity
  8
0
100
AcDbLine
 10
6.98170582493707
 20
139.973262809157
 30
0.0
 11
7.173877499999999
 21
139.8622379999999
 31
0.0
  0
LINE
  5
3FA
330
1E
100
AcDbEntity
  8
0
100
AcDbLine
 10
6.98170582493705
 20
139.973262809157
 30
0.0
 11
7.173877499999999
 21
139.8622379999999
 31
0.0
  0
LINE
  5
3FB
330
1E
100
AcDbEntity
  8
0
100
AcDbLine
 10
7.173877499999999
 20
139.8622379999999
 30
0.0
 11
7.39224763498268
 21
139.73646338123
 31
0.0
  0
LINE
  5
3FC
330
1E
100
AcDbEntity
  8
0
100
AcDbLine
 10
7.3844075
 20
139.7412379999999
 30
0.0
 11
7.83946828119174
 21
140.529359352949
 31
0.0
  0
LINE
  5
3FD
330
1E
100
AcDbEntity
  8
0
100
AcDbLine
 10
6.7752475
 20
140.0922379999999
 30
0.0
 11
7.035057499999999
 21
139.9422379999999
 31
0.0
  0
LINE
  5
3FE
330
1E
100
AcDbEntity
  8
0
100
AcDbLine
 10
6.8324875
 20
140.0592379999999
 30
0.0
 11
7.3844075
 21
139.7412379999999
 31
0.0
  0
LINE
  5
3FF
330
1E
100
AcDbEntity
  8
0
100
AcDbLine
 10
6.8324875
 20
140.0592379999999
 30
0.0
 11
7.30630717155119
 21
140.880356058152
 31
0.0
  0
LINE
  5
400
330
1E
100
AcDbEntity
  8
0
100
AcDbLine
 10
6.1904175
 20
140.430238
 30
0.0
 11
6.8324875
 21
140.0592379999999
 31
0.0
  0
LINE
  5
401
330
1E
100
AcDbEntity
  8
0
100
AcDbLine
 10
6.1904175
 20
140.430238
 30
0.0
 11
6.686077270317769
 21
141.288672883714
 31
0.0
  0
LINE
  5
402
330
1E
100
AcDbEntity
  8
0
100
AcDbLine
 10
5.303007499999999
 20
140.9422379999999
 30
0.0
 11
5.562807499999999
 21
140.792238
 31
0.0
  0
LINE
  5
403
330
1E
100
AcDbEntity
  8
0
100
AcDbLine
 10
5.303007499999999
 20
140.9422379999999
 30
0.0
 11
5.78844250688647
 21
141.783485154025
 31
0.0
  0
LINE
  5
404
330
1E
100
AcDbEntity
  8
0
100
AcDbLine
 10
5.562807499999999
 20
140.792238
 30
0.0
 11
6.1690275
 21
140.4422379999999
 31
0.0
  0
LINE
  5
405
330
1E
100
AcDbEntity
  8
0
100
AcDbLine
 10
5.562807499999999
 20
140.792238
 30
0.0
 11
6.040204749725129
 21
141.619555914805
 31
0.0
  0
LINE
  5
406
330
1E
100
AcDbEntity
  8
0
100
AcDbLine
 10
5.8292875
 20
140.6392379999999
 30
0.0
 11
6.1904175
 21
140.430238
 31
0.0
  0
LINE
  5
407
330
1E
100
AcDbEntity
  8
0
100
AcDbLine
 10
5.8292875
 20
140.6392379999999
 30
0.0
 11
6.33697254123975
 21
141.5184994923349
 31
0.0
  0
LINE
  5
408
330
1E
100
AcDbEntity
  8
0
100
AcDbLine
 10
7.3921175
 20
139.7362379999999
 30
0.0
 11
7.843577499999999
 21
139.4762379999999
 31
0.0
  0
LINE
  5
409
330
1E
100
AcDbEntity
  8
0
100
AcDbLine
 10
7.3921175
 20
139.7362379999999
 30
0.0
 11
7.917935821802149
 21
140.6469045841399
 31
0.0
  0
LINE
  5
40A
330
1E
100
AcDbEntity
  8
0
100
AcDbLine
 10
7.51623983121574
 20
139.664754798573
 30
0.0
 11
7.9097375
 21
139.4372379999999
 31
0.0
  0
LINE
  5
40B
330
1E
100
AcDbEntity
  8
0
100
AcDbLine
 10
9.381480113295518
 20
139.423758611767
 30
0.0
 11
10.2002370168325
 21
138.8872347182309
 31
0.0
  0
LINE
  5
40C
330
1E
100
AcDbEntity
  8
0
100
AcDbLine
 10
3.4634275
 20
143.7562379999999
 30
0.0
 11
4.529467499999999
 21
142.6032379999999
 31
0.0
  0
LINE
  5
40D
330
1E
100
AcDbEntity
  8
0
100
AcDbLine
 10
4.529467499999999
 20
142.6032379999999
 30
0.0
 11
5.786247636732309
 21
141.779681497007
 31
0.0
  0
LINE
  5
40E
330
1E
100
AcDbEntity
  8
0
100
AcDbLine
 10
4.529467499999999
 20
142.6032379999999
 30
0.0
 11
5.786247636732309
 21
141.779681497007
 31
0.0
  0
LINE
  5
40F
330
1E
100
AcDbEntity
  8
0
100
AcDbLine
 10
11.29796728727
 20
137.4815997021069
 30
0.0
 11
11.4440375
 21
137.3972379999999
 31
0.0
  0
LINE
  5
410
330
1E
100
AcDbEntity
  8
0
100
AcDbLine
 10
11.29796728727
 20
137.4815997021069
 30
0.0
 11
11.4440375
 21
137.3972379999999
 31
0.0
  0
LINE
  5
411
330
1E
100
AcDbEntity
  8
0
100
AcDbLine
 10
11.5221375
 20
137.352238
 30
0.0
 11
11.96876511996659
 21
138.1257539316309
 31
0.0
  0
LINE
  5
412
330
1E
100
AcDbEntity
  8
0
100
AcDbLine
 10
11.4440375
 20
137.3972379999999
 30
0.0
 11
11.5221375
 21
137.352238
 31
0.0
  0
LINE
  5
413
330
1E
100
AcDbEntity
  8
0
100
AcDbLine
 10
11.1270375
 20
137.5802379999999
 30
0.0
 11
11.5221375
 21
137.352238
 31
0.0
  0
LINE
  5
414
330
1E
100
AcDbEntity
  8
0
100
AcDbLine
 10
11.1270375
 20
137.5802379999999
 30
0.0
 11
11.5854065566423
 21
138.374088966732
 31
0.0
  0
LINE
  5
415
330
1E
100
AcDbEntity
  8
0
100
AcDbLine
 10
11.1270375
 20
137.5802379999999
 30
0.0
 11
11.29796728727
 21
137.4815997021069
 31
0.0
  0
LINE
  5
416
330
1E
100
AcDbEntity
  8
0
100
AcDbLine
 10
11.1270375
 20
137.5802379999999
 30
0.0
 11
11.2979672872699
 21
137.4815997021069
 31
0.0
  0
LINE
  5
417
330
1E
100
AcDbEntity
  8
0
100
AcDbLine
 10
11.8022853890856
 20
137.837427105494
 30
0.0
 11
12.6196998662742
 21
137.3017828916389
 31
0.0
  0
LINE
  5
418
330
1E
100
AcDbEntity
  8
0
100
AcDbLine
 10
10.4721375
 20
137.9582379999999
 30
0.0
 11
11.1270375
 21
137.5802379999999
 31
0.0
  0
LINE
  5
419
330
1E
100
AcDbEntity
  8
0
100
AcDbLine
 10
10.4721375
 20
137.9582379999999
 30
0.0
 11
10.9499360885801
 21
138.7857390408119
 31
0.0
  0
LINE
  5
41A
330
1E
100
AcDbEntity
  8
0
100
AcDbLine
 10
10.4721375
 20
137.9582379999999
 30
0.0
 11
10.9499360885801
 21
138.7857390408119
 31
0.0
  0
LINE
  5
41B
330
1E
100
AcDbEntity
  8
0
100
AcDbLine
 10
9.865917500000019
 20
138.3082379999999
 30
0.0
 11
10.1000487214269
 21
138.173134946534
 31
0.0
  0
LINE
  5
41C
330
1E
100
AcDbEntity
  8
0
100
AcDbLine
 10
9.9440375
 20
138.2632379999999
 30
0.0
 11
10.4721375
 21
137.9582379999999
 31
0.0
  0
LINE
  5
41D
330
1E
100
AcDbEntity
  8
0
100
AcDbLine
 10
9.9440375
 20
138.2632379999999
 30
0.0
 11
10.4374249945326
 21
139.1177375213619
 31
0.0
  0
LINE
  5
41E
330
1E
100
AcDbEntity
  8
0
100
AcDbLine
 10
9.8659175
 20
138.3082379999999
 30
0.0
 11
10.1000487214269
 21
138.173134946534
 31
0.0
  0
LINE
  5
41F
330
1E
100
AcDbEntity
  8
0
100
AcDbLine
 10
9.8659175
 20
138.3082379999999
 30
0.0
 11
9.9440375
 21
138.2632379999999
 31
0.0
  0
LINE
  5
420
330
1E
100
AcDbEntity
  8
0
100
AcDbLine
 10
9.8659175
 20
138.3082379999999
 30
0.0
 11
10.1000487214269
 21
138.173134946534
 31
0.0
  0
LINE
  5
421
330
1E
100
AcDbEntity
  8
0
100
AcDbLine
 10
9.8659175
 20
138.3082379999999
 30
0.0
 11
10.35322656547519
 21
139.152192167999
 31
0.0
  0
LINE
  5
422
330
1E
100
AcDbEntity
  8
0
100
AcDbLine
 10
11.8022853890856
 20
137.837427105494
 30
0.0
 11
12.6196998662742
 21
137.3017828916389
 31
0.0
  0
LINE
  5
423
330
1E
100
AcDbEntity
  8
0
100
AcDbLine
 10
9.381480113295518
 20
139.423758611767
 30
0.0
 11
10.2002370168325
 21
138.8872347182309
 31
0.0
  0
LINE
  5
424
330
1E
100
AcDbEntity
  8
0
100
AcDbLine
 10
3.390097499999999
 20
154.0292379999999
 30
0.0
 11
7.6336175
 21
151.5792379999999
 31
0.0
  0
LINE
  5
425
330
1E
100
AcDbEntity
  8
0
100
AcDbLine
 10
4.2752175
 20
153.7882379999999
 30
0.0
 11
5.6954275
 21
152.9682379999999
 31
0.0
  0
LINE
  5
426
330
1E
100
AcDbEntity
  8
0
100
AcDbLine
 10
5.6954275
 20
152.9682379999999
 30
0.0
 11
7.498807499999999
 21
151.9272379999999
 31
0.0
  0
LINE
  5
427
330
1E
100
AcDbEntity
  8
0
100
AcDbLine
 10
7.6336175
 20
151.5792379999999
 30
0.0
 11
14.5618375
 21
147.5792379999999
 31
0.0
  0
LINE
  5
428
330
1E
100
AcDbEntity
  8
0
100
AcDbLine
 10
7.498807499999999
 20
151.9272379999999
 30
0.0
 11
9.667177499999999
 21
150.6752379999999
 31
0.0
  0
LINE
  5
429
330
1E
100
AcDbEntity
  8
0
100
AcDbLine
 10
9.667177499999999
 20
150.6752379999999
 30
0.0
 11
12.1798375
 21
149.2252379999999
 31
0.0
  0
LINE
  5
42A
330
1E
100
AcDbEntity
  8
0
100
AcDbLine
 10
12.5141375
 20
136.399238
 30
0.0
 11
13.1407375
 21
136.037238
 31
0.0
  0
LINE
  5
42B
330
1E
100
AcDbEntity
  8
0
100
AcDbLine
 10
12.5141375
 20
136.399238
 30
0.0
 11
12.9358289904598
 21
137.12962754832
 31
0.0
  0
LINE
  5
42C
330
1E
100
AcDbEntity
  8
0
100
AcDbLine
 10
12.2025375
 20
136.5792379999999
 30
0.0
 11
12.4085375
 21
136.4602379999999
 31
0.0
  0
LINE
  5
42D
330
1E
100
AcDbEntity
  8
0
100
AcDbLine
 10
12.2025375
 20
136.5792379999999
 30
0.0
 11
12.5141375
 21
136.399238
 31
0.0
  0
LINE
  5
42E
330
1E
100
AcDbEntity
  8
0
100
AcDbLine
 10
12.2025375
 20
136.5792379999999
 30
0.0
 11
12.6338343428332
 21
137.3262644716169
 31
0.0
  0
LINE
  5
42F
330
1E
100
AcDbEntity
  8
0
100
AcDbLine
 10
12.2025375
 20
136.5792379999999
 30
0.0
 11
12.6338343428332
 21
137.3262644716169
 31
0.0
  0
LINE
  5
430
330
1E
100
AcDbEntity
  8
0
100
AcDbLine
 10
12.2025375
 20
136.5792379999999
 30
0.0
 11
12.6196998662742
 21
137.3017828916389
 31
0.0
  0
LINE
  5
431
330
1E
100
AcDbEntity
  8
0
100
AcDbLine
 10
13.6211496835028
 20
135.760379095005
 30
0.0
 11
14.1010375
 21
135.4832379999999
 31
0.0
  0
LINE
  5
432
330
1E
100
AcDbEntity
  8
0
100
AcDbLine
 10
13.6211496835028
 20
135.760379095005
 30
0.0
 11
14.1010375
 21
135.4832379999999
 31
0.0
  0
LINE
  5
433
330
1E
100
AcDbEntity
  8
0
100
AcDbLine
 10
14.6908375
 20
135.143238
 30
0.0
 11
15.1825375
 21
134.8592379999999
 31
0.0
  0
LINE
  5
434
330
1E
100
AcDbEntity
  8
0
100
AcDbLine
 10
14.6908375
 20
135.143238
 30
0.0
 11
14.85500186806899
 21
135.427578427438
 31
0.0
  0
LINE
  5
435
330
1E
100
AcDbEntity
  8
0
100
AcDbLine
 10
14.67003749999999
 20
135.1552379999999
 30
0.0
 11
15.10973749999999
 21
134.9012379999999
 31
0.0
  0
LINE
  5
436
330
1E
100
AcDbEntity
  8
0
100
AcDbLine
 10
14.67003749999999
 20
135.1552379999999
 30
0.0
 11
14.8342009596004
 21
135.439576853927
 31
0.0
  0
LINE
  5
437
330
1E
100
AcDbEntity
  8
0
100
AcDbLine
 10
14.7138398312225
 20
135.129934856651
 30
0.0
 11
15.10973749999999
 21
134.9012379999999
 31
0.0
  0
LINE
  5
438
330
1E
100
AcDbEntity
  8
0
100
AcDbLine
 10
14.2683598021381
 20
135.766302748213
 30
0.0
 11
14.7342375
 21
135.4972379999999
 31
0.0
  0
LINE
  5
439
330
1E
100
AcDbEntity
  8
0
100
AcDbLine
 10
14.2683598021381
 20
135.766302748213
 30
0.0
 11
14.7342375
 21
135.4972379999999
 31
0.0
  0
LINE
  5
43A
330
1E
100
AcDbEntity
  8
0
100
AcDbLine
 10
14.9249375
 20
135.387238
 30
0.0
 11
15.4341911752825
 21
136.2692162151
 31
0.0
  0
LINE
  5
43B
330
1E
100
AcDbEntity
  8
0
100
AcDbLine
 10
14.7342375
 20
135.4972379999999
 30
0.0
 11
14.9249375
 21
135.387238
 31
0.0
  0
LINE
  5
43C
330
1E
100
AcDbEntity
  8
0
100
AcDbLine
 10
14.6275375
 20
135.559238
 30
0.0
 11
14.9249375
 21
135.387238
 31
0.0
  0
LINE
  5
43D
330
1E
100
AcDbEntity
  8
0
100
AcDbLine
 10
14.6275375
 20
135.559238
 30
0.0
 11
15.15048003803189
 21
136.464924004205
 31
0.0
  0
LINE
  5
43E
330
1E
100
AcDbEntity
  8
0
100
AcDbLine
 10
14.3098129266084
 20
135.362821617755
 30
0.0
 11
14.71343749999999
 21
135.1292379999999
 31
0.0
  0
LINE
  5
43F
330
1E
100
AcDbEntity
  8
0
100
AcDbLine
 10
14.6194375
 20
135.1842379999999
 30
0.0
 11
14.71343749999999
 21
135.1292379999999
 31
0.0
  0
LINE
  5
440
330
1E
100
AcDbEntity
  8
0
100
AcDbLine
 10
14.6194375
 20
135.1842379999999
 30
0.0
 11
14.7836820404249
 21
135.468717289739
 31
0.0
  0
LINE
  5
441
330
1E
100
AcDbEntity
  8
0
100
AcDbLine
 10
14.1010375
 20
135.4832379999999
 30
0.0
 11
14.6194375
 21
135.1842379999999
 31
0.0
  0
LINE
  5
442
330
1E
100
AcDbEntity
  8
0
100
AcDbLine
 10
14.1010375
 20
135.4832379999999
 30
0.0
 11
14.2654511066509
 21
135.767979601487
 31
0.0
  0
LINE
  5
443
330
1E
100
AcDbEntity
  8
0
100
AcDbLine
 10
14.1010375
 20
135.4832379999999
 30
0.0
 11
14.3098129266084
 21
135.362821617755
 31
0.0
  0
LINE
  5
444
330
1E
100
AcDbEntity
  8
0
100
AcDbLine
 10
14.1010375
 20
135.4832379999999
 30
0.0
 11
14.3098129266084
 21
135.362821617755
 31
0.0
  0
LINE
  5
445
330
1E
100
AcDbEntity
  8
0
100
AcDbLine
 10
13.1407375
 20
136.037238
 30
0.0
 11
13.6211496835028
 21
135.760379095005
 31
0.0
  0
LINE
  5
446
330
1E
100
AcDbEntity
  8
0
100
AcDbLine
 10
13.9961375
 20
135.9232379999999
 30
0.0
 11
14.6275375
 21
135.559238
 31
0.0
  0
LINE
  5
447
330
1E
100
AcDbEntity
  8
0
100
AcDbLine
 10
13.9961375
 20
135.9232379999999
 30
0.0
 11
14.5217752595918
 21
136.8341555544239
 31
0.0
  0
LINE
  5
448
330
1E
100
AcDbEntity
  8
0
100
AcDbLine
 10
13.9961375
 20
135.9232379999999
 30
0.0
 11
14.5217752595917
 21
136.8341555544239
 31
0.0
  0
LINE
  5
449
330
1E
100
AcDbEntity
  8
0
100
AcDbLine
 10
13.4074375
 20
136.2632379999999
 30
0.0
 11
13.9961375
 21
135.9232379999999
 31
0.0
  0
LINE
  5
44A
330
1E
100
AcDbEntity
  8
0
100
AcDbLine
 10
13.4074375
 20
136.2632379999999
 30
0.0
 11
13.9330269302269
 21
137.1740718008009
 31
0.0
  0
LINE
  5
44B
330
1E
100
AcDbEntity
  8
0
100
AcDbLine
 10
13.2168375
 20
136.3732379999999
 30
0.0
 11
13.4074375
 21
136.2632379999999
 31
0.0
  0
LINE
  5
44C
330
1E
100
AcDbEntity
  8
0
100
AcDbLine
 10
13.2168375
 20
136.3732379999999
 30
0.0
 11
13.7424458394128
 21
137.284104569964
 31
0.0
  0
LINE
  5
44D
330
1E
100
AcDbEntity
  8
0
100
AcDbLine
 10
13.44823749999999
 20
135.8602379999999
 30
0.0
 11
14.1010375
 21
135.4832379999999
 31
0.0
  0
LINE
  5
44E
330
1E
100
AcDbEntity
  8
0
100
AcDbLine
 10
13.44823749999999
 20
135.8602379999999
 30
0.0
 11
13.6125246970816
 21
136.14479117308
 31
0.0
  0
LINE
  5
44F
330
1E
100
AcDbEntity
  8
0
100
AcDbLine
 10
13.04043749999999
 20
136.095238
 30
0.0
 11
13.44823749999999
 21
135.8602379999999
 31
0.0
  0
LINE
  5
450
330
1E
100
AcDbEntity
  8
0
100
AcDbLine
 10
13.04043749999999
 20
136.095238
 30
0.0
 11
13.46303163012209
 21
136.827190962784
 31
0.0
  0
LINE
  5
451
330
1E
100
AcDbEntity
  8
0
100
AcDbLine
 10
14.5618375
 20
147.5792379999999
 30
0.0
 11
23.5685375
 21
142.3792379999999
 31
0.0
  0
LINE
  5
452
330
1E
100
AcDbEntity
  8
0
100
AcDbLine
 10
12.1798375
 20
149.2252379999999
 30
0.0
 11
15.0115375
 21
147.5902379999999
 31
0.0
  0
LINE
  5
453
330
1E
100
AcDbEntity
  8
0
100
AcDbLine
 10
2.370147499999999
 20
155.3822379999999
 30
0.0
 11
7.235737499999999
 21
165.290238
 31
0.0
  0
LINE
  5
454
330
1E
100
AcDbEntity
  8
0
100
AcDbLine
 10
2.370147499999999
 20
155.3822379999999
 30
0.0
 11
7.2344175
 21
165.2872379999999
 31
0.0
  0
LINE
  5
455
330
1E
100
AcDbEntity
  8
0
100
AcDbLine
 10
2.370617499999999
 20
155.3832379999999
 30
0.0
 11
7.2344175
 21
165.2872379999999
 31
0.0
  0
LINE
  5
456
330
1E
100
AcDbEntity
  8
0
100
AcDbLine
 10
2.370617499999999
 20
155.3832379999999
 30
0.0
 11
7.2344175
 21
165.2872379999999
 31
0.0
  0
LINE
  5
459
330
1E
100
AcDbEntity
  8
0
100
AcDbLine
 10
2.370147499999999
 20
155.3822379999999
 30
0.0
 11
7.235737499999999
 21
165.290238
 31
0.0
  0
LINE
  5
45A
330
1E
100
AcDbEntity
  8
0
100
AcDbLine
 10
2.370147499999999
 20
155.3822379999999
 30
0.0
 11
7.2344175
 21
165.2872379999999
 31
0.0
  0
LINE
  5
45B
330
1E
100
AcDbEntity
  8
0
100
AcDbLine
 10
2.425997499999999
 20
154.8562379999999
 30
0.0
 11
2.6327275
 21
154.7372379999999
 31
0.0
  0
LINE
  5
45C
330
1E
100
AcDbEntity
  8
0
100
AcDbLine
 10
9.702367500000001
 20
163.864238
 30
0.0
 11
10.8448375
 21
163.2022379999999
 31
0.0
  0
LINE
  5
45E
330
1E
100
AcDbEntity
  8
0
100
AcDbLine
 10
14.0818375
 20
161.3342379999999
 30
0.0
 11
15.3794375
 21
160.5872379999999
 31
0.0
  0
LINE
  5
45F
330
1E
100
AcDbEntity
  8
0
100
AcDbLine
 10
11.8109375
 20
162.644238
 30
0.0
 11
12.8912375
 21
162.0202379999999
 31
0.0
  0
LINE
  5
460
330
1E
100
AcDbEntity
  8
0
100
AcDbLine
 10
12.1032375
 20
162.4672379999999
 30
0.0
 11
14.0079375
 21
161.370238
 31
0.0
  0
LINE
  5
461
330
1E
100
AcDbEntity
  8
0
100
AcDbLine
 10
10.8448375
 20
163.2022379999999
 30
0.0
 11
11.8109375
 21
162.644238
 31
0.0
  0
LINE
  5
462
330
1E
100
AcDbEntity
  8
0
100
AcDbLine
 10
12.8912375
 20
162.0202379999999
 30
0.0
 11
14.0818375
 21
161.3342379999999
 31
0.0
  0
LINE
  5
463
330
1E
100
AcDbEntity
  8
0
100
AcDbLine
 10
14.0079375
 20
161.370238
 30
0.0
 11
15.3028375
 21
160.6242379999999
 31
0.0
  0
LINE
  5
464
330
1E
100
AcDbEntity
  8
0
100
AcDbLine
 10
10.7622375
 20
163.2422379999999
 30
0.0
 11
12.1032375
 21
162.4672379999999
 31
0.0
  0
LINE
  5
465
330
1E
100
AcDbEntity
  8
0
100
AcDbLine
 10
7.235737499999999
 20
165.290238
 30
0.0
 11
7.3266475
 21
165.2462379999999
 31
0.0
  0
LINE
  5
466
330
1E
100
AcDbEntity
  8
0
100
AcDbLine
 10
7.235737499999999
 20
165.290238
 30
0.0
 11
7.3127175
 21
165.2462379999999
 31
0.0
  0
LINE
  5
467
330
1E
100
AcDbEntity
  8
0
100
AcDbLine
 10
7.668967499999999
 20
165.046238
 30
0.0
 11
8.126387499999999
 21
164.779238
 31
0.0
  0
LINE
  5
468
330
1E
100
AcDbEntity
  8
0
100
AcDbLine
 10
8.0381175
 20
164.8222379999999
 30
0.0
 11
8.471807499999998
 21
164.5712379999999
 31
0.0
  0
LINE
  5
469
330
1E
100
AcDbEntity
  8
0
100
AcDbLine
 10
7.5798475
 20
165.0892379999999
 30
0.0
 11
8.0381175
 21
164.8222379999999
 31
0.0
  0
LINE
  5
46A
330
1E
100
AcDbEntity
  8
0
100
AcDbLine
 10
8.126387499999999
 20
164.779238
 30
0.0
 11
8.5604375
 21
164.5262379999999
 31
0.0
  0
LINE
  5
46B
330
1E
100
AcDbEntity
  8
0
100
AcDbLine
 10
7.3266475
 20
165.2462379999999
 30
0.0
 11
7.402207499999999
 21
165.2012379999999
 31
0.0
  0
LINE
  5
46C
330
1E
100
AcDbEntity
  8
0
100
AcDbLine
 10
7.3266475
 20
165.2462379999999
 30
0.0
 11
7.5752975
 21
165.5692379999999
 31
0.0
  0
LINE
  5
46D
330
1E
100
AcDbEntity
  8
0
100
AcDbLine
 10
7.402207499999999
 20
165.2012379999999
 30
0.0
 11
7.668967499999999
 21
165.046238
 31
0.0
  0
LINE
  5
46E
330
1E
100
AcDbEntity
  8
0
100
AcDbLine
 10
7.3127175
 20
165.2462379999999
 30
0.0
 11
7.5798475
 21
165.0892379999999
 31
0.0
  0
LINE
  5
46F
330
1E
100
AcDbEntity
  8
0
100
AcDbLine
 10
7.9200975
 20
165.7782379999999
 30
0.0
 11
8.3146175
 21
165.7962379999999
 31
0.0
  0
LINE
  5
470
330
1E
100
AcDbEntity
  8
0
100
AcDbLine
 10
7.5752975
 20
165.5692379999999
 30
0.0
 11
7.9200975
 21
165.7782379999999
 31
0.0
  0
LINE
  5
471
330
1E
100
AcDbEntity
  8
0
100
AcDbLine
 10
9.086687500000008
 20
164.221238
 30
0.0
 11
9.702367500000001
 21
163.864238
 31
0.0
  0
LINE
  5
472
330
1E
100
AcDbEntity
  8
0
100
AcDbLine
 10
8.5604375
 20
164.5262379999999
 30
0.0
 11
9.086687500000008
 21
164.221238
 31
0.0
  0
LINE
  5
473
330
1E
100
AcDbEntity
  8
0
100
AcDbLine
 10
8.996687500000009
 20
164.2652379999999
 30
0.0
 11
9.6137475
 21
163.9082379999999
 31
0.0
  0
LINE
  5
474
330
1E
100
AcDbEntity
  8
0
100
AcDbLine
 10
9.6137475
 20
163.9082379999999
 30
0.0
 11
10.7622375
 21
163.2422379999999
 31
0.0
  0
LINE
  5
475
330
1E
100
AcDbEntity
  8
0
100
AcDbLine
 10
14.0275375
 20
165.1032379999999
 30
0.0
 11
19.67143749999999
 21
164.1342379999999
 31
0.0
  0
LINE
  5
476
330
1E
100
AcDbEntity
  8
0
100
AcDbLine
 10
8.471807499999998
 20
164.5712379999999
 30
0.0
 11
8.996687500000009
 21
164.2652379999999
 31
0.0
  0
LINE
  5
477
330
1E
100
AcDbEntity
  8
0
100
AcDbLine
 10
8.3146175
 20
165.7962379999999
 30
0.0
 11
14.0275375
 21
165.1032379999999
 31
0.0
  0
LINE
  5
478
330
1E
100
AcDbEntity
  8
0
100
AcDbLine
 10
2.6327275
 20
154.7372379999999
 30
0.0
 11
3.251147499999999
 21
154.3802379999999
 31
0.0
  0
LINE
  5
479
330
1E
100
AcDbEntity
  8
0
100
AcDbLine
 10
3.251147499999999
 20
154.3802379999999
 30
0.0
 11
4.2752175
 21
153.7882379999999
 31
0.0
  0
LINE
  5
47A
330
1E
100
AcDbEntity
  8
0
100
AcDbLine
 10
23.8846375
 20
130.214238
 30
0.0
 11
24.34270873372019
 21
131.0080643953799
 31
0.0
  0
LINE
  5
47B
330
1E
100
AcDbEntity
  8
0
100
AcDbLine
 10
23.4205581462782
 20
130.482157338923
 30
0.0
 11
23.4895375
 21
130.4422379999999
 31
0.0
  0
LINE
  5
47C
330
1E
100
AcDbEntity
  8
0
100
AcDbLine
 10
23.4205581462782
 20
130.482157338923
 30
0.0
 11
23.4895375
 21
130.4422379999999
 31
0.0
  0
LINE
  5
47D
330
1E
100
AcDbEntity
  8
0
100
AcDbLine
 10
23.4895375
 20
130.4422379999999
 30
0.0
 11
23.6604672872735
 21
130.343599702105
 31
0.0
  0
LINE
  5
47E
330
1E
100
AcDbEntity
  8
0
100
AcDbLine
 10
23.4895375
 20
130.4422379999999
 30
0.0
 11
23.6604672872735
 21
130.343599702105
 31
0.0
  0
LINE
  5
47F
330
1E
100
AcDbEntity
  8
0
100
AcDbLine
 10
23.8065375
 20
130.2592379999999
 30
0.0
 11
23.8846375
 21
130.214238
 31
0.0
  0
LINE
  5
480
330
1E
100
AcDbEntity
  8
0
100
AcDbLine
 10
23.8065375
 20
130.2592379999999
 30
0.0
 11
24.2676082862642
 21
131.058262547563
 31
0.0
  0
LINE
  5
481
330
1E
100
AcDbEntity
  8
0
100
AcDbLine
 10
23.27843749999999
 20
130.5642379999999
 30
0.0
 11
23.8065375
 21
130.2592379999999
 31
0.0
  0
LINE
  5
482
330
1E
100
AcDbEntity
  8
0
100
AcDbLine
 10
23.27843749999999
 20
130.5642379999999
 30
0.0
 11
23.75949220258939
 21
131.397894192369
 31
0.0
  0
LINE
  5
483
330
1E
100
AcDbEntity
  8
0
100
AcDbLine
 10
22.6235375
 20
130.9422379999999
 30
0.0
 11
23.27843749999999
 21
130.5642379999999
 31
0.0
  0
LINE
  5
484
330
1E
100
AcDbEntity
  8
0
100
AcDbLine
 10
22.6235375
 20
130.9422379999999
 30
0.0
 11
23.1150504420828
 21
131.7940180690679
 31
0.0
  0
LINE
  5
485
330
1E
100
AcDbEntity
  8
0
100
AcDbLine
 10
21.74063749999999
 20
130.6942379999999
 30
0.0
 11
22.1090997514865
 21
131.332379057534
 31
0.0
  0
LINE
  5
486
330
1E
100
AcDbEntity
  8
0
100
AcDbLine
 10
21.74063749999999
 20
130.6942379999999
 30
0.0
 11
22.06032671310349
 21
131.2479088623719
 31
0.0
  0
LINE
  5
487
330
1E
100
AcDbEntity
  8
0
100
AcDbLine
 10
21.7038375
 20
130.715238
 30
0.0
 11
22.07316647181449
 21
131.354880133491
 31
0.0
  0
LINE
  5
488
330
1E
100
AcDbEntity
  8
0
100
AcDbLine
 10
21.1280375000102
 20
131.047203831429
 30
0.0
 11
21.22303749999999
 21
130.9922379999999
 31
0.0
  0
LINE
  5
489
330
1E
100
AcDbEntity
  8
0
100
AcDbLine
 10
22.2284375
 20
131.1712379999999
 30
0.0
 11
22.3065375
 21
131.1252379999999
 31
0.0
  0
LINE
  5
48A
330
1E
100
AcDbEntity
  8
0
100
AcDbLine
 10
22.2284375
 20
131.1712379999999
 30
0.0
 11
22.6235375
 21
130.9422379999999
 31
0.0
  0
LINE
  5
48B
330
1E
100
AcDbEntity
  8
0
100
AcDbLine
 10
22.2284375
 20
131.1712379999999
 30
0.0
 11
22.7457602923277
 21
132.067191147034
 31
0.0
  0
LINE
  5
48C
330
1E
100
AcDbEntity
  8
0
100
AcDbLine
 10
22.3065375
 20
131.1252379999999
 30
0.0
 11
23.0565375
 21
130.6922379999999
 31
0.0
  0
LINE
  5
48D
330
1E
100
AcDbEntity
  8
0
100
AcDbLine
 10
22.3065375
 20
131.1252379999999
 30
0.0
 11
22.4920930730735
 21
131.0184232031539
 31
0.0
  0
LINE
  5
48E
330
1E
100
AcDbEntity
  8
0
100
AcDbLine
 10
22.3065375
 20
131.1252379999999
 30
0.0
 11
22.4920930730735
 21
131.0184232031539
 31
0.0
  0
LINE
  5
48F
330
1E
100
AcDbEntity
  8
0
100
AcDbLine
 10
21.6748375
 20
131.1102379999999
 30
0.0
 11
22.0274984774329
 21
131.7210634443
 31
0.0
  0
LINE
  5
490
330
1E
100
AcDbEntity
  8
0
100
AcDbLine
 10
21.22303749999999
 20
130.9922379999999
 30
0.0
 11
21.7038375
 21
130.715238
 31
0.0
  0
LINE
  5
491
330
1E
100
AcDbEntity
  8
0
100
AcDbLine
 10
21.22303749999999
 20
130.9922379999999
 30
0.0
 11
21.38726284136619
 21
131.276836554046
 31
0.0
  0
LINE
  5
492
330
1E
100
AcDbEntity
  8
0
100
AcDbLine
 10
20.9268375
 20
131.1632379999999
 30
0.0
 11
21.22303749999999
 21
130.9922379999999
 31
0.0
  0
LINE
  5
493
330
1E
100
AcDbEntity
  8
0
100
AcDbLine
 10
16.0721886013021
 20
134.3450838149889
 30
0.0
 11
16.28133749999999
 21
134.2242379999999
 31
0.0
  0
LINE
  5
494
330
1E
100
AcDbEntity
  8
0
100
AcDbLine
 10
16.07218860130219
 20
134.3450838149889
 30
0.0
 11
16.28133749999999
 21
134.2242379999999
 31
0.0
  0
LINE
  5
495
330
1E
100
AcDbEntity
  8
0
100
AcDbLine
 10
16.28133749999999
 20
134.2242379999999
 30
0.0
 11
16.6835667882235
 21
134.9209180962159
 31
0.0
  0
LINE
  5
496
330
1E
100
AcDbEntity
  8
0
100
AcDbLine
 10
15.76893749999999
 20
134.5202379999999
 30
0.0
 11
16.07218860130219
 21
134.3450838149889
 31
0.0
  0
LINE
  5
497
330
1E
100
AcDbEntity
  8
0
100
AcDbLine
 10
15.76893749999999
 20
134.5202379999999
 30
0.0
 11
16.07218860130219
 21
134.3450838149889
 31
0.0
  0
LINE
  5
498
330
1E
100
AcDbEntity
  8
0
100
AcDbLine
 10
15.8417375
 20
134.4782379999999
 30
0.0
 11
16.28133749999999
 21
134.2242379999999
 31
0.0
  0
LINE
  5
499
330
1E
100
AcDbEntity
  8
0
100
AcDbLine
 10
15.8417375
 20
134.4782379999999
 30
0.0
 11
16.2605610420181
 21
135.203660126368
 31
0.0
  0
LINE
  5
49A
330
1E
100
AcDbEntity
  8
0
100
AcDbLine
 10
17.31623749999999
 20
133.6272379999999
 30
0.0
 11
17.54451365897359
 21
133.495329390709
 31
0.0
  0
LINE
  5
49B
330
1E
100
AcDbEntity
  8
0
100
AcDbLine
 10
17.31623749999999
 20
133.6272379999999
 30
0.0
 11
17.5445136589734
 21
133.495329390709
 31
0.0
  0
LINE
  5
49C
330
1E
100
AcDbEntity
  8
0
100
AcDbLine
 10
18.8614375
 20
132.356238
 30
0.0
 11
19.1212375
 21
132.2062379999999
 31
0.0
  0
LINE
  5
49D
330
1E
100
AcDbEntity
  8
0
100
AcDbLine
 10
18.8614375
 20
132.356238
 30
0.0
 11
19.2468815754988
 21
133.023789937727
 31
0.0
  0
LINE
  5
49E
330
1E
100
AcDbEntity
  8
0
100
AcDbLine
 10
19.1212375
 20
132.2062379999999
 30
0.0
 11
19.7274375
 21
131.8562379999999
 31
0.0
  0
LINE
  5
49F
330
1E
100
AcDbEntity
  8
0
100
AcDbLine
 10
19.1212375
 20
132.2062379999999
 30
0.0
 11
19.501858422265
 21
132.865436701832
 31
0.0
  0
LINE
  5
4A0
330
1E
100
AcDbEntity
  8
0
100
AcDbLine
 10
19.0879375
 20
132.9842379999999
 30
0.0
 11
19.6135045676321
 21
133.8944694361669
 31
0.0
  0
LINE
  5
4A1
330
1E
100
AcDbEntity
  8
0
100
AcDbLine
 10
18.6571375
 20
132.8532379999999
 30
0.0
 11
18.8212891149401
 21
133.1375563384169
 31
0.0
  0
LINE
  5
4A2
330
1E
100
AcDbEntity
  8
0
100
AcDbLine
 10
18.52233749999999
 20
132.930238
 30
0.0
 11
18.6571375
 21
132.8532379999999
 31
0.0
  0
LINE
  5
4A3
330
1E
100
AcDbEntity
  8
0
100
AcDbLine
 10
17.70568911280289
 20
133.4021734839289
 30
0.0
 11
17.844210753367
 21
133.322141619105
 31
0.0
  0
LINE
  5
4A4
330
1E
100
AcDbEntity
  8
0
100
AcDbLine
 10
18.8212891149401
 20
133.1375563384169
 30
0.0
 11
19.0879375
 21
132.9842379999999
 31
0.0
  0
LINE
  5
4A5
330
1E
100
AcDbEntity
  8
0
100
AcDbLine
 10
18.79053749999999
 20
133.1552379999999
 30
0.0
 11
19.0879375
 21
132.9842379999999
 31
0.0
  0
LINE
  5
4A6
330
1E
100
AcDbEntity
  8
0
100
AcDbLine
 10
18.89723749999999
 20
133.0942379999999
 30
0.0
 11
19.0879375
 21
132.9842379999999
 31
0.0
  0
LINE
  5
4A7
330
1E
100
AcDbEntity
  8
0
100
AcDbLine
 10
18.89723749999999
 20
133.0942379999999
 30
0.0
 11
19.4228476734913
 21
134.004544091355
 31
0.0
  0
LINE
  5
4A8
330
1E
100
AcDbEntity
  8
0
100
AcDbLine
 10
17.981256924452
 20
133.6229718129549
 30
0.0
 11
18.15913749999999
 21
133.5202379999999
 31
0.0
  0
LINE
  5
4A9
330
1E
100
AcDbEntity
  8
0
100
AcDbLine
 10
17.981256924452
 20
133.6229718129549
 30
0.0
 11
18.15913749999999
 21
133.5202379999999
 31
0.0
  0
LINE
  5
4AA
330
1E
100
AcDbEntity
  8
0
100
AcDbLine
 10
18.15913749999999
 20
133.5202379999999
 30
0.0
 11
18.79053749999999
 21
133.1552379999999
 31
0.0
  0
LINE
  5
4AB
330
1E
100
AcDbEntity
  8
0
100
AcDbLine
 10
18.30863749999999
 20
133.434238
 30
0.0
 11
18.89723749999999
 21
133.0942379999999
 31
0.0
  0
LINE
  5
4AC
330
1E
100
AcDbEntity
  8
0
100
AcDbLine
 10
18.30863749999999
 20
133.434238
 30
0.0
 11
18.83417180717909
 21
134.344412698224
 31
0.0
  0
LINE
  5
4AD
330
1E
100
AcDbEntity
  8
0
100
AcDbLine
 10
17.9617375
 20
133.2542379999999
 30
0.0
 11
18.52233749999999
 21
132.930238
 31
0.0
  0
LINE
  5
4AE
330
1E
100
AcDbEntity
  8
0
100
AcDbLine
 10
18.3096375
 20
133.0532379999999
 30
0.0
 11
18.6571375
 21
132.8532379999999
 31
0.0
  0
LINE
  5
4AF
330
1E
100
AcDbEntity
  8
0
100
AcDbLine
 10
18.3096375
 20
133.0532379999999
 30
0.0
 11
18.4741300971833
 21
133.3381469357429
 31
0.0
  0
LINE
  5
4B0
330
1E
100
AcDbEntity
  8
0
100
AcDbLine
 10
17.6640375
 20
133.4262379999999
 30
0.0
 11
18.3096375
 21
133.0532379999999
 31
0.0
  0
LINE
  5
4B1
330
1E
100
AcDbEntity
  8
0
100
AcDbLine
 10
17.6640375
 20
133.4262379999999
 30
0.0
 11
17.82847438464849
 21
133.7110504390049
 31
0.0
  0
LINE
  5
4B2
330
1E
100
AcDbEntity
  8
0
100
AcDbLine
 10
17.6772375
 20
133.7982379999999
 30
0.0
 11
18.30863749999999
 21
133.434238
 31
0.0
  0
LINE
  5
4B3
330
1E
100
AcDbEntity
  8
0
100
AcDbLine
 10
17.6772375
 20
133.7982379999999
 30
0.0
 11
18.2030035442782
 21
134.708814044514
 31
0.0
  0
LINE
  5
4B4
330
1E
100
AcDbEntity
  8
0
100
AcDbLine
 10
17.3798375
 20
133.970238
 30
0.0
 11
17.6772375
 21
133.7982379999999
 31
0.0
  0
LINE
  5
4B5
330
1E
100
AcDbEntity
  8
0
100
AcDbLine
 10
17.3798375
 20
133.970238
 30
0.0
 11
17.90547457154739
 21
134.8805906761919
 31
0.0
  0
LINE
  5
4B6
330
1E
100
AcDbEntity
  8
0
100
AcDbLine
 10
17.1035375
 20
133.7502379999999
 30
0.0
 11
17.6640375
 21
133.4262379999999
 31
0.0
  0
LINE
  5
4B7
330
1E
100
AcDbEntity
  8
0
100
AcDbLine
 10
17.1035375
 20
133.7502379999999
 30
0.0
 11
17.5444388819749
 21
134.5138999863569
 31
0.0
  0
LINE
  5
4B8
330
1E
100
AcDbEntity
  8
0
100
AcDbLine
 10
16.9685375
 20
133.827238
 30
0.0
 11
17.31623749999999
 21
133.6272379999999
 31
0.0
  0
LINE
  5
4B9
330
1E
100
AcDbEntity
  8
0
100
AcDbLine
 10
16.9685375
 20
133.827238
 30
0.0
 11
17.8128375
 21
133.340238
 31
0.0
  0
LINE
  5
4BA
330
1E
100
AcDbEntity
  8
0
100
AcDbLine
 10
16.9685375
 20
133.827238
 30
0.0
 11
17.1035375
 21
133.7502379999999
 31
0.0
  0
LINE
  5
4BB
330
1E
100
AcDbEntity
  8
0
100
AcDbLine
 10
16.9685375
 20
133.827238
 30
0.0
 11
17.4138305162761
 21
134.598506504075
 31
0.0
  0
LINE
  5
4BC
330
1E
100
AcDbEntity
  8
0
100
AcDbLine
 10
16.9685375
 20
133.827238
 30
0.0
 11
17.2302480147573
 21
134.2805329537489
 31
0.0
  0
LINE
  5
4BD
330
1E
100
AcDbEntity
  8
0
100
AcDbLine
 10
15.10973749999999
 20
134.9012379999999
 30
0.0
 11
15.76893749999999
 21
134.5202379999999
 31
0.0
  0
LINE
  5
4BE
330
1E
100
AcDbEntity
  8
0
100
AcDbLine
 10
15.1825375
 20
134.8592379999999
 30
0.0
 11
15.8417375
 21
134.4782379999999
 31
0.0
  0
LINE
  5
4BF
330
1E
100
AcDbEntity
  8
0
100
AcDbLine
 10
15.1825375
 20
134.8592379999999
 30
0.0
 11
15.62619673237669
 21
135.627676713313
 31
0.0
  0
LINE
  5
4C0
330
1E
100
AcDbEntity
  8
0
100
AcDbLine
 10
16.5653807806903
 20
134.7162143575509
 30
0.0
 11
17.2302480147573
 21
134.2805329537489
 31
0.0
  0
LINE
  5
4C1
330
1E
100
AcDbEntity
  8
0
100
AcDbLine
 10
20.23154516207669
 20
131.564994385072
 30
0.0
 11
20.63063749999999
 21
131.3342379999999
 31
0.0
  0
LINE
  5
4C2
330
1E
100
AcDbEntity
  8
0
100
AcDbLine
 10
21.4299375
 20
131.2522379999999
 30
0.0
 11
21.6748375
 21
131.1102379999999
 31
0.0
  0
LINE
  5
4C3
330
1E
100
AcDbEntity
  8
0
100
AcDbLine
 10
21.4299375
 20
131.2522379999999
 30
0.0
 11
21.7937202319658
 21
131.882326847649
 31
0.0
  0
LINE
  5
4C4
330
1E
100
AcDbEntity
  8
0
100
AcDbLine
 10
21.4299375
 20
131.2522379999999
 30
0.0
 11
21.7937202319658
 21
131.882326847649
 31
0.0
  0
LINE
  5
4C5
330
1E
100
AcDbEntity
  8
0
100
AcDbLine
 10
20.63063749999999
 20
131.3342379999999
 30
0.0
 11
21.1280375000102
 21
131.047203831429
 31
0.0
  0
LINE
  5
4C6
330
1E
100
AcDbEntity
  8
0
100
AcDbLine
 10
20.63063749999999
 20
131.3342379999999
 30
0.0
 11
21.1280375000102
 21
131.047203831429
 31
0.0
  0
LINE
  5
4C7
330
1E
100
AcDbEntity
  8
0
100
AcDbLine
 10
20.5645375
 20
131.3732379999999
 30
0.0
 11
21.22303749999999
 21
130.9922379999999
 31
0.0
  0
LINE
  5
4C8
330
1E
100
AcDbEntity
  8
0
100
AcDbLine
 10
20.5645375
 20
131.3732379999999
 30
0.0
 11
20.7282840733123
 21
131.6568312610179
 31
0.0
  0
LINE
  5
4C9
330
1E
100
AcDbEntity
  8
0
100
AcDbLine
 10
19.7274375
 20
131.8562379999999
 30
0.0
 11
20.11319651364189
 21
131.6335133962809
 31
0.0
  0
LINE
  5
4CA
330
1E
100
AcDbEntity
  8
0
100
AcDbLine
 10
19.7274375
 20
131.8562379999999
 30
0.0
 11
20.0968043980527
 21
132.495945818075
 31
0.0
  0
LINE
  5
4CB
330
1E
100
AcDbEntity
  8
0
100
AcDbLine
 10
19.96013749999999
 20
132.1002379999999
 30
0.0
 11
20.2051375
 21
131.959238
 31
0.0
  0
LINE
  5
4CC
330
1E
100
AcDbEntity
  8
0
100
AcDbLine
 10
19.96013749999999
 20
132.1002379999999
 30
0.0
 11
20.3924163129753
 21
132.8489652902119
 31
0.0
  0
LINE
  5
4CD
330
1E
100
AcDbEntity
  8
0
100
AcDbLine
 10
20.8175375
 20
131.6052379999999
 30
0.0
 11
21.4299375
 21
131.2522379999999
 31
0.0
  0
LINE
  5
4CE
330
1E
100
AcDbEntity
  8
0
100
AcDbLine
 10
20.8175375
 20
131.6052379999999
 30
0.0
 11
21.20999315380789
 21
132.2849897004859
 31
0.0
  0
LINE
  5
4CF
330
1E
100
AcDbEntity
  8
0
100
AcDbLine
 10
20.2051375
 20
131.959238
 30
0.0
 11
20.8175375
 21
131.6052379999999
 31
0.0
  0
LINE
  5
4D0
330
1E
100
AcDbEntity
  8
0
100
AcDbLine
 10
20.2051375
 20
131.959238
 30
0.0
 11
20.6258531699893
 21
132.687937381246
 31
0.0
  0
LINE
  5
4D1
330
1E
100
AcDbEntity
  8
0
100
AcDbLine
 10
20.1130375
 20
131.6332379999999
 30
0.0
 11
20.5645375
 21
131.3732379999999
 31
0.0
  0
LINE
  5
4D2
330
1E
100
AcDbEntity
  8
0
100
AcDbLine
 10
20.1130375
 20
131.6332379999999
 30
0.0
 11
20.27721316450939
 21
131.9175744055579
 31
0.0
  0
LINE
  5
4D3
330
1E
100
AcDbEntity
  8
0
100
AcDbLine
 10
20.1130375
 20
131.6332379999999
 30
0.0
 11
20.23154516207669
 21
131.564994385072
 31
0.0
  0
LINE
  5
4D4
330
1E
100
AcDbEntity
  8
0
100
AcDbLine
 10
20.1130375
 20
131.6332379999999
 30
0.0
 11
20.23154516207669
 21
131.564994385072
 31
0.0
  0
LINE
  5
4D5
330
1E
100
AcDbEntity
  8
0
100
AcDbLine
 10
20.23154516207669
 20
131.564994385072
 30
0.0
 11
20.63063749999999
 21
131.3342379999999
 31
0.0
  0
LINE
  5
4D6
330
1E
100
AcDbEntity
  8
0
100
AcDbLine
 10
19.13269691037219
 20
133.0617569788219
 30
0.0
 11
19.2329424228416
 21
132.999648670659
 31
0.0
  0
LINE
  5
4D7
330
1E
100
AcDbEntity
  8
0
100
AcDbLine
 10
22.06032671310349
 20
131.2479088623719
 30
0.0
 11
23.6804294437722
 21
130.24415480722
 31
0.0
  0
LINE
  5
4D8
330
1E
100
AcDbEntity
  8
0
100
AcDbLine
 10
34.0474375
 20
136.3292379999999
 30
0.0
 11
45.13253749999999
 21
129.929238
 31
0.0
  0
LINE
  5
4DD
330
1E
100
AcDbEntity
  8
0
100
AcDbLine
 10
41.1895375
 20
132.4762379999999
 30
0.0
 11
45.4030375
 21
130.0442379999999
 31
0.0
  0
LINE
  5
4DE
330
1E
100
AcDbEntity
  8
0
100
AcDbLine
 10
37.0162375
 20
134.8852379999999
 30
0.0
 11
41.1895375
 21
132.4762379999999
 31
0.0
  0
LINE
  5
4DF
330
1E
100
AcDbEntity
  8
0
100
AcDbLine
 10
32.92423749999999
 20
137.2482379999999
 30
0.0
 11
37.0162375
 21
134.8852379999999
 31
0.0
  0
LINE
  5
4E0
330
1E
100
AcDbEntity
  8
0
100
AcDbLine
 10
28.9524375
 20
139.5412379999999
 30
0.0
 11
32.92423749999999
 21
137.2482379999999
 31
0.0
  0
LINE
  5
4E1
330
1E
100
AcDbEntity
  8
0
100
AcDbLine
 10
17.5126375
 20
159.362238
 30
0.0
 11
20.0372375
 21
157.9162379999999
 31
0.0
  0
LINE
  5
4E2
330
1E
100
AcDbEntity
  8
0
100
AcDbLine
 10
15.3794375
 20
160.5872379999999
 30
0.0
 11
17.5126375
 21
159.362238
 31
0.0
  0
LINE
  5
4E3
330
1E
100
AcDbEntity
  8
0
100
AcDbLine
 10
15.3028375
 20
160.6242379999999
 30
0.0
 11
17.43563749999999
 21
159.3992379999999
 31
0.0
  0
LINE
  5
4E4
330
1E
100
AcDbEntity
  8
0
100
AcDbLine
 10
17.43563749999999
 20
159.3992379999999
 30
0.0
 11
19.7820375
 21
158.0562379999999
 31
0.0
  0
LINE
  5
4E5
330
1E
100
AcDbEntity
  8
0
100
AcDbLine
 10
23.5685375
 20
142.3792379999999
 30
0.0
 11
34.0474375
 21
136.3292379999999
 31
0.0
  0
LINE
  5
4E6
330
1E
100
AcDbEntity
  8
0
100
AcDbLine
 10
21.5227375
 20
143.8312379999999
 30
0.0
 11
25.1407375
 21
141.7422379999999
 31
0.0
  0
LINE
  5
4E7
330
1E
100
AcDbEntity
  8
0
100
AcDbLine
 10
42.0053375
 20
145.4962379999999
 30
0.0
 11
44.3136375
 21
144.2112379999999
 31
0.0
  0
LINE
  5
4E8
330
1E
100
AcDbEntity
  8
0
100
AcDbLine
 10
39.7440375
 20
146.7652379999999
 30
0.0
 11
42.0265375
 21
145.4912379999999
 31
0.0
  0
LINE
  5
4E9
330
1E
100
AcDbEntity
  8
0
100
AcDbLine
 10
29.01463749999999
 20
152.8062379999999
 30
0.0
 11
31.5801375
 21
151.3552379999999
 31
0.0
  0
LINE
  5
4EA
330
1E
100
AcDbEntity
  8
0
100
AcDbLine
 10
28.96013749999999
 20
152.8292379999999
 30
0.0
 11
31.5299375
 21
151.376238
 31
0.0
  0
LINE
  5
4EB
330
1E
100
AcDbEntity
  8
0
100
AcDbLine
 10
37.4791375
 20
148.028238
 30
0.0
 11
39.72543749999999
 21
146.769238
 31
0.0
  0
LINE
  5
4EC
330
1E
100
AcDbEntity
  8
0
100
AcDbLine
 10
34.2284375
 20
149.862238
 30
0.0
 11
37.5025375
 21
148.0222379999999
 31
0.0
  0
LINE
  5
4ED
330
1E
100
AcDbEntity
  8
0
100
AcDbLine
 10
31.5801375
 20
151.3552379999999
 30
0.0
 11
34.2284375
 21
149.862238
 31
0.0
  0
LINE
  5
4EE
330
1E
100
AcDbEntity
  8
0
100
AcDbLine
 10
34.18773749999999
 20
149.8772379999999
 30
0.0
 11
37.4791375
 21
148.028238
 31
0.0
  0
LINE
  5
4EF
330
1E
100
AcDbEntity
  8
0
100
AcDbLine
 10
31.5299375
 20
151.376238
 30
0.0
 11
34.18773749999999
 21
149.8772379999999
 31
0.0
  0
LINE
  5
4F0
330
1E
100
AcDbEntity
  8
0
100
AcDbLine
 10
19.67143749999999
 20
164.1342379999999
 30
0.0
 11
25.3036375
 21
162.8952379999999
 31
0.0
  0
LINE
  5
4F1
330
1E
100
AcDbEntity
  8
0
100
AcDbLine
 10
23.2715375
 20
156.0702379999999
 30
0.0
 11
25.1116375
 21
155.0232379999999
 31
0.0
  0
LINE
  5
4F2
330
1E
100
AcDbEntity
  8
0
100
AcDbLine
 10
23.22013749999999
 20
156.0932379999999
 30
0.0
 11
25.0606375
 21
155.0442379999999
 31
0.0
  0
LINE
  5
4F3
330
1E
100
AcDbEntity
  8
0
100
AcDbLine
 10
21.5151375
 20
157.072238
 30
0.0
 11
23.2715375
 21
156.0702379999999
 31
0.0
  0
LINE
  5
4F4
330
1E
100
AcDbEntity
  8
0
100
AcDbLine
 10
20.0372375
 20
157.9162379999999
 30
0.0
 11
21.5151375
 21
157.072238
 31
0.0
  0
LINE
  5
4F5
330
1E
100
AcDbEntity
  8
0
100
AcDbLine
 10
21.4588375
 20
157.0972379999999
 30
0.0
 11
23.22013749999999
 21
156.0932379999999
 31
0.0
  0
LINE
  5
4F6
330
1E
100
AcDbEntity
  8
0
100
AcDbLine
 10
19.7820375
 20
158.0562379999999
 30
0.0
 11
21.4588375
 21
157.0972379999999
 31
0.0
  0
LINE
  5
4F7
330
1E
100
AcDbEntity
  8
0
100
AcDbLine
 10
25.0606375
 20
155.0442379999999
 30
0.0
 11
26.9761375
 21
153.9552379999999
 31
0.0
  0
LINE
  5
4F8
330
1E
100
AcDbEntity
  8
0
100
AcDbLine
 10
25.3036375
 20
162.8952379999999
 30
0.0
 11
30.8842375
 21
161.4132379999999
 31
0.0
  0
LINE
  5
4F9
330
1E
100
AcDbEntity
  8
0
100
AcDbLine
 10
25.3037375
 20
162.8952379999999
 30
0.0
 11
30.8842375
 21
161.4132379999999
 31
0.0
  0
LINE
  5
4FA
330
1E
100
AcDbEntity
  8
0
100
AcDbLine
 10
25.1116375
 20
155.0232379999999
 30
0.0
 11
27.02843749999999
 21
153.9322379999999
 31
0.0
  0
LINE
  5
4FB
330
1E
100
AcDbEntity
  8
0
100
AcDbLine
 10
36.40433749999999
 20
159.7152379999999
 30
0.0
 11
41.8933375
 21
157.8122379999999
 31
0.0
  0
LINE
  5
4FC
330
1E
100
AcDbEntity
  8
0
100
AcDbLine
 10
30.8842375
 20
161.4132379999999
 30
0.0
 11
33.81043749999999
 21
160.5092379999999
 31
0.0
  0
LINE
  5
4FD
330
1E
100
AcDbEntity
  8
0
100
AcDbLine
 10
33.81043749999999
 20
160.5092379999999
 30
0.0
 11
36.40433749999999
 21
159.7152379999999
 31
0.0
  0
LINE
  5
4FE
330
1E
100
AcDbEntity
  8
0
100
AcDbLine
 10
26.9761375
 20
153.9552379999999
 30
0.0
 11
28.96013749999999
 21
152.8292379999999
 31
0.0
  0
LINE
  5
4FF
330
1E
100
AcDbEntity
  8
0
100
AcDbLine
 10
27.02843749999999
 20
153.9322379999999
 30
0.0
 11
29.01463749999999
 21
152.8062379999999
 31
0.0
  0
LINE
  5
500
330
1E
100
AcDbEntity
  8
0
100
AcDbLine
 10
41.8933375
 20
157.8122379999999
 30
0.0
 11
49.8398375
 21
154.696238
 31
0.0
  0
LINE
  5
503
330
1E
100
AcDbEntity
  8
0
100
AcDbLine
 10
37.5025375
 20
148.0222379999999
 30
0.0
 11
39.7440375
 21
146.7652379999999
 31
0.0
  0
LINE
  5
504
330
1E
100
AcDbEntity
  8
0
100
AcDbLine
 10
39.72543749999999
 20
146.769238
 30
0.0
 11
42.0053375
 21
145.4962379999999
 31
0.0
  0
LINE
  5
507
330
1E
100
AcDbEntity
  8
0
100
AcDbLine
 10
42.0265375
 20
145.4912379999999
 30
0.0
 11
44.33783749999999
 21
144.2052379999999
 31
0.0
  0
LINE
  5
508
330
1E
100
AcDbEntity
  8
0
100
AcDbLine
 10
44.33783749999999
 20
144.2052379999999
 30
0.0
 11
46.66683749999999
 21
142.9142379999999
 31
0.0
  0
LINE
  5
509
330
1E
100
AcDbEntity
  8
0
100
AcDbLine
 10
44.3136375
 20
144.2112379999999
 30
0.0
 11
46.64333749999999
 21
142.9192379999999
 31
0.0
  0
LINE
  5
50A
330
1E
100
AcDbEntity
  8
0
100
AcDbLine
 10
46.64333749999999
 20
142.9192379999999
 30
0.0
 11
48.9867375
 21
141.6232379999999
 31
0.0
  0
LINE
  5
50B
330
1E
100
AcDbEntity
  8
0
100
AcDbLine
 10
46.66683749999999
 20
142.9142379999999
 30
0.0
 11
49.0058375
 21
141.620238
 31
0.0
  0
LINE
  5
50C
330
1E
100
AcDbEntity
  8
0
100
AcDbLine
 10
18.1365375
 20
145.7862379999999
 30
0.0
 11
21.5227375
 21
143.8312379999999
 31
0.0
  0
LINE
  5
50D
330
1E
100
AcDbEntity
  8
0
100
AcDbLine
 10
25.1407375
 20
141.7422379999999
 30
0.0
 11
28.9524375
 21
139.5412379999999
 31
0.0
  0
LINE
  5
50E
330
1E
100
AcDbEntity
  8
0
100
AcDbLine
 10
15.0115375
 20
147.5902379999999
 30
0.0
 11
18.1365375
 21
145.7862379999999
 31
0.0
  0
LINE
  5
50F
330
1E
100
AcDbEntity
  8
0
100
AcDbLine
 10
45.4030375
 20
130.0442379999999
 30
0.0
 11
48.3277375
 21
128.3552379999999
 31
0.0
  0
LINE
  5
510
330
1E
100
AcDbEntity
  8
0
100
AcDbLine
 10
51.1833375
 20
113.4292379999999
 30
0.0
 11
51.55427139825
 21
113.215034610201
 31
0.0
  0
LINE
  5
511
330
1E
100
AcDbEntity
  8
0
100
AcDbLine
 10
51.1833375
 20
113.4292379999999
 30
0.0
 11
51.5542713982499
 21
113.215034610201
 31
0.0
  0
LINE
  5
512
330
1E
100
AcDbEntity
  8
0
100
AcDbLine
 10
51.25623749999999
 20
113.3872379999999
 30
0.0
 11
51.69583750000001
 21
113.1332379999999
 31
0.0
  0
LINE
  5
513
330
1E
100
AcDbEntity
  8
0
100
AcDbLine
 10
51.4816375
 20
113.2572379999999
 30
0.0
 11
51.760551823269
 21
113.7402906885569
 31
0.0
  0
LINE
  5
514
330
1E
100
AcDbEntity
  8
0
100
AcDbLine
 10
51.4609375
 20
113.2692379999999
 30
0.0
 11
51.73983468623291
 21
113.7522610088649
 31
0.0
  0
LINE
  5
515
330
1E
100
AcDbEntity
  8
0
100
AcDbLine
 10
50.8229375000045
 20
113.637539577667
 30
0.0
 11
51.1833375
 21
113.4292379999999
 31
0.0
  0
LINE
  5
516
330
1E
100
AcDbEntity
  8
0
100
AcDbLine
 10
50.9114375000047
 20
113.5865231941719
 30
0.0
 11
51.25623749999999
 21
113.3872379999999
 31
0.0
  0
LINE
  5
517
330
1E
100
AcDbEntity
  8
0
100
AcDbLine
 10
50.9114375000047
 20
113.5865231941719
 30
0.0
 11
51.25623749999999
 21
113.3872379999999
 31
0.0
  0
LINE
  5
518
330
1E
100
AcDbEntity
  8
0
100
AcDbLine
 10
50.82293750000439
 20
113.637539577667
 30
0.0
 11
51.1833375
 21
113.4292379999999
 31
0.0
  0
LINE
  5
519
330
1E
100
AcDbEntity
  8
0
100
AcDbLine
 10
50.9693375
 20
113.5532379999999
 30
0.0
 11
51.4609375
 21
113.2692379999999
 31
0.0
  0
LINE
  5
51A
330
1E
100
AcDbEntity
  8
0
100
AcDbLine
 10
50.9693375
 20
113.5532379999999
 30
0.0
 11
51.2482637828718
 21
114.0363114014349
 31
0.0
  0
LINE
  5
51B
330
1E
100
AcDbEntity
  8
0
100
AcDbLine
 10
51.04203749999999
 20
113.511238
 30
0.0
 11
51.4816375
 21
113.2572379999999
 31
0.0
  0
LINE
  5
51C
330
1E
100
AcDbEntity
  8
0
100
AcDbLine
 10
51.5324375
 20
113.2282379999999
 30
0.0
 11
51.7384375
 21
113.1092379999999
 31
0.0
  0
LINE
  5
51D
330
1E
100
AcDbEntity
  8
0
100
AcDbLine
 10
51.5324375
 20
113.2282379999999
 30
0.0
 11
51.8111993627411
 21
113.711026641637
 31
0.0
  0
LINE
  5
51E
330
1E
100
AcDbEntity
  8
0
100
AcDbLine
 10
51.7384375
 20
113.1092379999999
 30
0.0
 11
52.3196375
 21
112.7732379999999
 31
0.0
  0
LINE
  5
51F
330
1E
100
AcDbEntity
  8
0
100
AcDbLine
 10
51.7384375
 20
113.1092379999999
 30
0.0
 11
52.0806704384586
 21
113.701952418885
 31
0.0
  0
LINE
  5
520
330
1E
100
AcDbEntity
  8
0
100
AcDbLine
 10
52.3196375
 20
112.7732379999999
 30
0.0
 11
52.9462375
 21
112.4112379999999
 31
0.0
  0
LINE
  5
521
330
1E
100
AcDbEntity
  8
0
100
AcDbLine
 10
52.3196375
 20
112.7732379999999
 30
0.0
 11
52.67288916906601
 21
113.38497019552
 31
0.0
  0
LINE
  5
522
330
1E
100
AcDbEntity
  8
0
100
AcDbLine
 10
52.9462375
 20
112.4112379999999
 30
0.0
 11
53.25793749999999
 21
112.2312379999999
 31
0.0
  0
LINE
  5
523
330
1E
100
AcDbEntity
  8
0
100
AcDbLine
 10
52.9462375
 20
112.4112379999999
 30
0.0
 11
53.3110272615472
 21
113.043409854864
 31
0.0
  0
LINE
  5
524
330
1E
100
AcDbEntity
  8
0
100
AcDbLine
 10
53.6189429324453
 20
112.856851703841
 30
0.0
 11
54.2536030604866
 21
112.516277549797
 31
0.0
  0
LINE
  5
525
330
1E
100
AcDbEntity
  8
0
100
AcDbLine
 10
53.25793749999999
 20
112.2312379999999
 30
0.0
 11
53.6285309622721
 21
112.8734675281839
 31
0.0
  0
LINE
  5
526
330
1E
100
AcDbEntity
  8
0
100
AcDbLine
 10
50.3828375
 20
113.8912379999999
 30
0.0
 11
51.04203749999999
 21
113.511238
 31
0.0
  0
LINE
  5
527
330
1E
100
AcDbEntity
  8
0
100
AcDbLine
 10
50.31003749999999
 20
113.9332379999999
 30
0.0
 11
50.9693375
 21
113.5532379999999
 31
0.0
  0
LINE
  5
528
330
1E
100
AcDbEntity
  8
0
100
AcDbLine
 10
50.31003749999999
 20
113.9332379999999
 30
0.0
 11
50.5892711954468
 21
114.417143256667
 31
0.0
  0
LINE
  5
529
330
1E
100
AcDbEntity
  8
0
100
AcDbLine
 10
51.4058375
 20
113.9452379999999
 30
0.0
 11
51.4754997119326
 21
113.9049937603969
 31
0.0
  0
LINE
  5
52A
330
1E
100
AcDbEntity
  8
0
100
AcDbLine
 10
51.4058375
 20
113.9452379999999
 30
0.0
 11
51.47549971193271
 21
113.9049937603969
 31
0.0
  0
LINE
  5
52B
330
1E
100
AcDbEntity
  8
0
100
AcDbLine
 10
52.3095375
 20
113.803238
 30
0.0
 11
52.8353256824355
 21
114.713852385666
 31
0.0
  0
LINE
  5
52C
330
1E
100
AcDbEntity
  8
0
100
AcDbLine
 10
52.2727375
 20
113.8242379999999
 30
0.0
 11
52.79838837285329
 21
114.7351782793899
 31
0.0
  0
LINE
  5
52D
330
1E
100
AcDbEntity
  8
0
100
AcDbLine
 10
51.4785375
 20
113.9032379999999
 30
0.0
 11
51.9181375
 21
113.6492379999999
 31
0.0
  0
LINE
  5
52E
330
1E
100
AcDbEntity
  8
0
100
AcDbLine
 10
51.4785375
 20
113.9032379999999
 30
0.0
 11
51.64303915894119
 21
114.188162631135
 31
0.0
  0
LINE
  5
52F
330
1E
100
AcDbEntity
  8
0
100
AcDbLine
 10
51.9181375
 20
113.6492379999999
 30
0.0
 11
52.0826351762605
 21
113.9341557329439
 31
0.0
  0
LINE
  5
530
330
1E
100
AcDbEntity
  8
0
100
AcDbLine
 10
54.6639375
 20
112.0642379999999
 30
0.0
 11
54.9359322968199
 21
111.907115405585
 31
0.0
  0
LINE
  5
531
330
1E
100
AcDbEntity
  8
0
100
AcDbLine
 10
54.6639375
 20
112.0642379999999
 30
0.0
 11
54.9359322968201
 21
111.907115405585
 31
0.0
  0
LINE
  5
532
330
1E
100
AcDbEntity
  8
0
100
AcDbLine
 10
54.3164375
 20
112.2652379999999
 30
0.0
 11
54.4513375
 21
112.1872379999999
 31
0.0
  0
LINE
  5
533
330
1E
100
AcDbEntity
  8
0
100
AcDbLine
 10
54.3164375
 20
112.2652379999999
 30
0.0
 11
54.6639375
 21
112.0642379999999
 31
0.0
  0
LINE
  5
534
330
1E
100
AcDbEntity
  8
0
100
AcDbLine
 10
54.3164375
 20
112.2652379999999
 30
0.0
 11
54.66099704130869
 21
112.862031374871
 31
0.0
  0
LINE
  5
535
330
1E
100
AcDbEntity
  8
0
100
AcDbLine
 10
54.4513375
 20
112.1872379999999
 30
0.0
 11
55.0118375
 21
111.8632379999999
 31
0.0
  0
LINE
  5
536
330
1E
100
AcDbEntity
  8
0
100
AcDbLine
 10
54.4513375
 20
112.1872379999999
 30
0.0
 11
54.80024834466139
 21
112.791568037484
 31
0.0
  0
LINE
  5
537
330
1E
100
AcDbEntity
  8
0
100
AcDbLine
 10
53.9966375
 20
112.071238
 30
0.0
 11
54.2939375
 21
111.8992379999999
 31
0.0
  0
LINE
  5
538
330
1E
100
AcDbEntity
  8
0
100
AcDbLine
 10
53.9966375
 20
112.071238
 30
0.0
 11
54.3600361690674
 21
112.700609421495
 31
0.0
  0
LINE
  5
539
330
1E
100
AcDbEntity
  8
0
100
AcDbLine
 10
53.9966375
 20
112.071238
 30
0.0
 11
54.2536030604866
 21
112.516277549797
 31
0.0
  0
LINE
  5
53A
330
1E
100
AcDbEntity
  8
0
100
AcDbLine
 10
49.8911375
 20
114.175238
 30
0.0
 11
50.0795863986063
 21
114.066392185064
 31
0.0
  0
LINE
  5
53B
330
1E
100
AcDbEntity
  8
0
100
AcDbLine
 10
49.8911375
 20
114.175238
 30
0.0
 11
50.0795863986062
 21
114.066392185064
 31
0.0
  0
LINE
  5
53C
330
1E
100
AcDbEntity
  8
0
100
AcDbLine
 10
49.8704375
 20
114.1872379999999
 30
0.0
 11
50.31003749999999
 21
113.9332379999999
 31
0.0
  0
LINE
  5
53D
330
1E
100
AcDbEntity
  8
0
100
AcDbLine
 10
49.8704375
 20
114.1872379999999
 30
0.0
 11
49.985407080216
 21
114.386354216674
 31
0.0
  0
LINE
  5
53E
330
1E
100
AcDbEntity
  8
0
100
AcDbLine
 10
50.1634672872206
 20
114.2835997021349
 30
0.0
 11
50.3095375
 21
114.199238
 31
0.0
  0
LINE
  5
53F
330
1E
100
AcDbEntity
  8
0
100
AcDbLine
 10
49.9925375
 20
114.3822379999999
 30
0.0
 11
50.3876375
 21
114.1542379999999
 31
0.0
  0
LINE
  5
540
330
1E
100
AcDbEntity
  8
0
100
AcDbLine
 10
49.9925375
 20
114.3822379999999
 30
0.0
 11
50.3704163186101
 21
115.036687642955
 31
0.0
  0
LINE
  5
541
330
1E
100
AcDbEntity
  8
0
100
AcDbLine
 10
51.7919375
 20
114.1022379999999
 30
0.0
 11
52.2727375
 21
113.8242379999999
 31
0.0
  0
LINE
  5
542
330
1E
100
AcDbEntity
  8
0
100
AcDbLine
 10
51.7919375
 20
114.1022379999999
 30
0.0
 11
52.31765565745099
 21
115.012731109151
 31
0.0
  0
LINE
  5
543
330
1E
100
AcDbEntity
  8
0
100
AcDbLine
 10
50.74967528798571
 20
114.3244822396499
 30
0.0
 11
51.4058375
 21
113.9452379999999
 31
0.0
  0
LINE
  5
544
330
1E
100
AcDbEntity
  8
0
100
AcDbLine
 10
50.81933750000001
 20
114.2842379999999
 30
0.0
 11
51.4785375
 21
113.9032379999999
 31
0.0
  0
LINE
  5
545
330
1E
100
AcDbEntity
  8
0
100
AcDbLine
 10
50.81933750000001
 20
114.2842379999999
 30
0.0
 11
50.9836461577738
 21
114.568828344011
 31
0.0
  0
LINE
  5
546
330
1E
100
AcDbEntity
  8
0
100
AcDbLine
 10
50.3876375
 20
114.1542379999999
 30
0.0
 11
50.551902836671
 21
114.438729709087
 31
0.0
  0
LINE
  5
547
330
1E
100
AcDbEntity
  8
0
100
AcDbLine
 10
50.3095375
 20
114.199238
 30
0.0
 11
50.3876375
 21
114.1542379999999
 31
0.0
  0
LINE
  5
548
330
1E
100
AcDbEntity
  8
0
100
AcDbLine
 10
75.7032375
 20
112.2792379999999
 30
0.0
 11
82.63143750000001
 21
108.2792379999999
 31
0.0
  0
LINE
  5
54B
330
1E
100
AcDbEntity
  8
0
100
AcDbLine
 10
110.7102374999999
 20
112.4772379999999
 30
0.0
 11
112.7302374999999
 21
110.9592379999999
 31
0.0
  0
LINE
  5
54D
330
1E
100
AcDbEntity
  8
0
100
AcDbLine
 10
109.0952375
 20
113.6182379999999
 30
0.0
 11
110.7102374999999
 21
112.4772379999999
 31
0.0
  0
LINE
  5
54E
330
1E
100
AcDbEntity
  8
0
100
AcDbLine
 10
108.7792375
 20
113.8412379999999
 30
0.0
 11
109.0952375
 21
113.6182379999999
 31
0.0
  0
LINE
  5
550
330
1E
100
AcDbEntity
  8
0
100
AcDbLine
 10
74.6800375
 20
113.1412379999999
 30
0.0
 11
76.7519375
 21
111.9462379999999
 31
0.0
  0
LINE
  5
551
330
1E
100
AcDbEntity
  8
0
100
AcDbLine
 10
49.0777004179295
 20
114.9104203708229
 30
0.0
 11
49.3377375
 21
114.7602379999999
 31
0.0
  0
LINE
  5
552
330
1E
100
AcDbEntity
  8
0
100
AcDbLine
 10
49.07770041792939
 20
114.9104203708229
 30
0.0
 11
49.3377375
 21
114.7602379999999
 31
0.0
  0
LINE
  5
553
330
1E
100
AcDbEntity
  8
0
100
AcDbLine
 10
48.49643554604909
 20
115.605714508707
 30
0.0
 11
48.8941836467531
 21
115.392273145472
 31
0.0
  0
LINE
  5
554
330
1E
100
AcDbEntity
  8
0
100
AcDbLine
 10
48.7314375
 20
115.1102379999999
 30
0.0
 11
48.8096375
 21
115.0652379999999
 31
0.0
  0
LINE
  5
555
330
1E
100
AcDbEntity
  8
0
100
AcDbLine
 10
48.7314375
 20
115.1102379999999
 30
0.0
 11
49.07770041792939
 21
114.9104203708229
 31
0.0
  0
LINE
  5
556
330
1E
100
AcDbEntity
  8
0
100
AcDbLine
 10
48.7314375
 20
115.1102379999999
 30
0.0
 11
49.074541201326
 21
115.704828435756
 31
0.0
  0
LINE
  5
557
330
1E
100
AcDbEntity
  8
0
100
AcDbLine
 10
48.7314375
 20
115.1102379999999
 30
0.0
 11
49.07770041792939
 21
114.9104203708229
 31
0.0
  0
LINE
  5
558
330
1E
100
AcDbEntity
  8
0
100
AcDbLine
 10
48.8096375
 20
115.0652379999999
 30
0.0
 11
49.3377375
 21
114.7602379999999
 31
0.0
  0
LINE
  5
559
330
1E
100
AcDbEntity
  8
0
100
AcDbLine
 10
48.8096375
 20
115.0652379999999
 30
0.0
 11
49.1974209082244
 21
115.7368414362279
 31
0.0
  0
LINE
  5
55A
330
1E
100
AcDbEntity
  8
0
100
AcDbLine
 10
50.3069375
 20
114.5802379999999
 30
0.0
 11
50.72569940498009
 21
114.338333237969
 31
0.0
  0
LINE
  5
55B
330
1E
100
AcDbEntity
  8
0
100
AcDbLine
 10
50.3069375
 20
114.5802379999999
 30
0.0
 11
50.7194744066657
 21
115.294771377462
 31
0.0
  0
LINE
  5
55C
330
1E
100
AcDbEntity
  8
0
100
AcDbLine
 10
50.3069375
 20
114.5802379999999
 30
0.0
 11
50.7256994049804
 21
114.338333237969
 31
0.0
  0
LINE
  5
55D
330
1E
100
AcDbEntity
  8
0
100
AcDbLine
 10
50.68193749999999
 20
114.7432379999999
 30
0.0
 11
51.1334375
 21
114.4822379999999
 31
0.0
  0
LINE
  5
55E
330
1E
100
AcDbEntity
  8
0
100
AcDbLine
 10
50.68193749999999
 20
114.7432379999999
 30
0.0
 11
51.20759617864131
 21
115.653628097593
 31
0.0
  0
LINE
  5
55F
330
1E
100
AcDbEntity
  8
0
100
AcDbLine
 10
50.68193749999999
 20
114.7432379999999
 30
0.0
 11
51.20759617864131
 21
115.653628097593
 31
0.0
  0
LINE
  5
560
330
1E
100
AcDbEntity
  8
0
100
AcDbLine
 10
51.1334375
 20
114.4822379999999
 30
0.0
 11
51.7919375
 21
114.1022379999999
 31
0.0
  0
LINE
  5
561
330
1E
100
AcDbEntity
  8
0
100
AcDbLine
 10
51.1334375
 20
114.4822379999999
 30
0.0
 11
51.6592368246106
 21
115.392871682838
 31
0.0
  0
LINE
  5
562
330
1E
100
AcDbEntity
  8
0
100
AcDbLine
 10
50.3277375
 20
114.568238
 30
0.0
 11
50.81933750000001
 21
114.2842379999999
 31
0.0
  0
LINE
  5
563
330
1E
100
AcDbEntity
  8
0
100
AcDbLine
 10
50.3277375
 20
114.568238
 30
0.0
 11
50.74105946236379
 21
115.2841311309539
 31
0.0
  0
LINE
  5
564
330
1E
100
AcDbEntity
  8
0
100
AcDbLine
 10
66.69653750000001
 20
117.4792379999999
 30
0.0
 11
75.7032375
 21
112.2792379999999
 31
0.0
  0
LINE
  5
565
330
1E
100
AcDbEntity
  8
0
100
AcDbLine
 10
49.3377375
 20
114.7602379999999
 30
0.0
 11
49.9925375
 21
114.3822379999999
 31
0.0
  0
LINE
  5
566
330
1E
100
AcDbEntity
  8
0
100
AcDbLine
 10
49.3377375
 20
114.7602379999999
 30
0.0
 11
49.7253859750288
 21
115.432023453777
 31
0.0
  0
LINE
  5
567
330
1E
100
AcDbEntity
  8
0
100
AcDbLine
 10
49.3377375
 20
114.7602379999999
 30
0.0
 11
49.985407080216
 21
114.386354216674
 31
0.0
  0
LINE
  5
568
330
1E
100
AcDbEntity
  8
0
100
AcDbLine
 10
56.2176375
 20
123.5292379999999
 30
0.0
 11
66.69653750000001
 21
117.4792379999999
 31
0.0
  0
LINE
  5
569
330
1E
100
AcDbEntity
  8
0
100
AcDbLine
 10
56.9691375
 20
123.3662379999999
 30
0.0
 11
59.76113749999999
 21
121.7542379999999
 31
0.0
  0
LINE
  5
56A
330
1E
100
AcDbEntity
  8
0
100
AcDbLine
 10
62.4856375
 20
120.181238
 30
0.0
 11
65.13153749999999
 21
118.6532379999999
 31
0.0
  0
LINE
  5
56B
330
1E
100
AcDbEntity
  8
0
100
AcDbLine
 10
59.76113749999999
 20
121.7542379999999
 30
0.0
 11
62.4856375
 21
120.181238
 31
0.0
  0
LINE
  5
56C
330
1E
100
AcDbEntity
  8
0
100
AcDbLine
 10
65.13153749999999
 20
118.6532379999999
 30
0.0
 11
67.6856375
 21
117.178238
 31
0.0
  0
LINE
  5
56D
330
1E
100
AcDbEntity
  8
0
100
AcDbLine
 10
67.6856375
 20
117.178238
 30
0.0
 11
70.1359375
 21
115.7642379999999
 31
0.0
  0
LINE
  5
56E
330
1E
100
AcDbEntity
  8
0
100
AcDbLine
 10
49.0058375
 20
141.620238
 30
0.0
 11
51.3430375
 21
140.3332379999999
 31
0.0
  0
LINE
  5
56F
330
1E
100
AcDbEntity
  8
0
100
AcDbLine
 10
48.9867375
 20
141.6232379999999
 30
0.0
 11
51.3400375
 21
140.328238
 31
0.0
  0
LINE
  5
570
330
1E
100
AcDbEntity
  8
0
100
AcDbLine
 10
49.8398375
 20
154.696238
 30
0.0
 11
57.63083749999999
 21
151.2222379999999
 31
0.0
  0
LINE
  5
571
330
1E
100
AcDbEntity
  8
0
100
AcDbLine
 10
69.4365375
 20
131.1452379999999
 30
0.0
 11
71.6117375
 21
130.191238
 31
0.0
  0
LINE
  5
572
330
1E
100
AcDbEntity
  8
0
100
AcDbLine
 10
65.83233749999999
 20
132.810238
 30
0.0
 11
69.4365375
 21
131.1452379999999
 31
0.0
  0
LINE
  5
573
330
1E
100
AcDbEntity
  8
0
100
AcDbLine
 10
66.0243375
 20
132.708238
 30
0.0
 11
69.6480375
 21
131.0382379999999
 31
0.0
  0
LINE
  5
574
330
1E
100
AcDbEntity
  8
0
100
AcDbLine
 10
62.2738375
 20
134.537238
 30
0.0
 11
66.0243375
 21
132.708238
 31
0.0
  0
LINE
  5
575
330
1E
100
AcDbEntity
  8
0
100
AcDbLine
 10
69.6480375
 20
131.0382379999999
 30
0.0
 11
70.7033375
 21
130.5712379999999
 31
0.0
  0
LINE
  5
576
330
1E
100
AcDbEntity
  8
0
100
AcDbLine
 10
62.1701375
 20
134.5992379999999
 30
0.0
 11
65.83233749999999
 21
132.810238
 31
0.0
  0
LINE
  5
577
330
1E
100
AcDbEntity
  8
0
100
AcDbLine
 10
51.3600375
 20
140.3242379999999
 30
0.0
 11
51.8580375
 21
140.0502379999999
 31
0.0
  0
LINE
  5
578
330
1E
100
AcDbEntity
  8
0
100
AcDbLine
 10
51.3565375
 20
140.3182379999999
 30
0.0
 11
55.2257375
 21
138.209238
 31
0.0
  0
LINE
  5
579
330
1E
100
AcDbEntity
  8
0
100
AcDbLine
 10
51.8580375
 20
140.0502379999999
 30
0.0
 11
54.0099375
 21
138.8742379999999
 31
0.0
  0
LINE
  5
57A
330
1E
100
AcDbEntity
  8
0
100
AcDbLine
 10
54.0099375
 20
138.8742379999999
 30
0.0
 11
56.16333749999999
 21
137.7142379999999
 31
0.0
  0
LINE
  5
57B
330
1E
100
AcDbEntity
  8
0
100
AcDbLine
 10
58.3165375
 20
136.5732379999999
 30
0.0
 11
62.1701375
 21
134.5992379999999
 31
0.0
  0
LINE
  5
57C
330
1E
100
AcDbEntity
  8
0
100
AcDbLine
 10
56.16333749999999
 20
137.7142379999999
 30
0.0
 11
58.3165375
 21
136.5732379999999
 31
0.0
  0
LINE
  5
57D
330
1E
100
AcDbEntity
  8
0
100
AcDbLine
 10
55.2257375
 20
138.209238
 30
0.0
 11
59.17383749999999
 21
136.119238
 31
0.0
  0
LINE
  5
57E
330
1E
100
AcDbEntity
  8
0
100
AcDbLine
 10
57.63083749999999
 20
151.2222379999999
 30
0.0
 11
64.8119375
 21
147.690238
 31
0.0
  0
LINE
  5
57F
330
1E
100
AcDbEntity
  8
0
100
AcDbLine
 10
64.8119375
 20
147.690238
 30
0.0
 11
66.8617375
 21
146.5202379999999
 31
0.0
  0
LINE
  5
580
330
1E
100
AcDbEntity
  8
0
100
AcDbLine
 10
66.8617375
 20
146.5202379999999
 30
0.0
 11
71.8513375
 21
143.9092379999999
 31
0.0
  0
LINE
  5
581
330
1E
100
AcDbEntity
  8
0
100
AcDbLine
 10
59.17383749999999
 20
136.119238
 30
0.0
 11
62.2738375
 21
134.537238
 31
0.0
  0
LINE
  5
582
330
1E
100
AcDbEntity
  8
0
100
AcDbLine
 10
51.2399375
 20
126.6732379999999
 30
0.0
 11
54.1253375
 21
125.0072379999999
 31
0.0
  0
LINE
  5
583
330
1E
100
AcDbEntity
  8
0
100
AcDbLine
 10
54.1253375
 20
125.0072379999999
 30
0.0
 11
56.9691375
 21
123.3662379999999
 31
0.0
  0
LINE
  5
584
330
1E
100
AcDbEntity
  8
0
100
AcDbLine
 10
106.1512374999999
 20
115.633238
 30
0.0
 11
107.6722374999999
 21
114.6232379999999
 31
0.0
  0
LINE
  5
587
330
1E
100
AcDbEntity
  8
0
100
AcDbLine
 10
104.6352375
 20
116.5982379999999
 30
0.0
 11
106.1512374999999
 21
115.633238
 31
0.0
  0
LINE
  5
588
330
1E
100
AcDbEntity
  8
0
100
AcDbLine
 10
104.6352375
 20
116.5982379999999
 30
0.0
 11
104.6352375
 21
116.5982379999999
 31
0.0
  0
LINE
  5
589
330
1E
100
AcDbEntity
  8
0
100
AcDbLine
 10
102.6272375
 20
117.8082379999999
 30
0.0
 11
104.6352375
 21
116.5982379999999
 31
0.0
  0
LINE
  5
58B
330
1E
100
AcDbEntity
  8
0
100
AcDbLine
 10
99.70113750000001
 20
119.4052379999999
 30
0.0
 11
101.1382374999999
 21
118.6552379999999
 31
0.0
  0
LINE
  5
58E
330
1E
100
AcDbEntity
  8
0
100
AcDbLine
 10
96.8616375
 20
120.8262379999999
 30
0.0
 11
98.2656375
 21
120.1422379999999
 31
0.0
  0
LINE
  5
58F
330
1E
100
AcDbEntity
  8
0
100
AcDbLine
 10
98.2656375
 20
120.1422379999999
 30
0.0
 11
99.70113750000001
 21
119.4052379999999
 31
0.0
  0
LINE
  5
592
330
1E
100
AcDbEntity
  8
0
100
AcDbLine
 10
101.1382374999999
 20
118.6552379999999
 30
0.0
 11
102.6272375
 21
117.8082379999999
 31
0.0
  0
LINE
  5
593
330
1E
100
AcDbEntity
  8
0
100
AcDbLine
 10
96.64313749999999
 20
120.9292379999999
 30
0.0
 11
96.8616375
 21
120.8262379999999
 31
0.0
  0
LINE
  5
595
330
1E
100
AcDbEntity
  8
0
100
AcDbLine
 10
107.6722374999999
 20
114.6232379999999
 30
0.0
 11
108.824107590627
 21
113.8095733474369
 31
0.0
  0
LINE
  5
596
330
1E
100
AcDbEntity
  8
0
100
AcDbLine
 10
113.4162375
 20
115.5802379999999
 30
0.0
 11
119.1022374999999
 21
110.7812379999999
 31
0.0
  0
LINE
  5
597
330
1E
100
AcDbEntity
  8
0
100
AcDbLine
 10
108.0162375
 20
119.9082379999999
 30
0.0
 11
113.4162375
 21
115.5802379999999
 31
0.0
  0
LINE
  5
598
330
1E
100
AcDbEntity
  8
0
100
AcDbLine
 10
108.0152374999999
 20
119.9082379999999
 30
0.0
 11
113.4162375
 21
115.5802379999999
 31
0.0
  0
LINE
  5
59A
330
1E
100
AcDbEntity
  8
0
100
AcDbLine
 10
70.7033375
 20
130.5712379999999
 30
0.0
 11
71.3797375
 21
130.2762379999999
 31
0.0
  0
LINE
  5
59B
330
1E
100
AcDbEntity
  8
0
100
AcDbLine
 10
71.3797375
 20
130.2762379999999
 30
0.0
 11
73.8372375
 21
129.239238
 31
0.0
  0
LINE
  5
59C
330
1E
100
AcDbEntity
  8
0
100
AcDbLine
 10
71.6117375
 20
130.191238
 30
0.0
 11
73.7452375
 21
129.2942379999999
 31
0.0
  0
LINE
  5
59D
330
1E
100
AcDbEntity
  8
0
100
AcDbLine
 10
94.6587375
 20
121.8492379999999
 30
0.0
 11
95.6289375
 21
121.418238
 31
0.0
  0
LINE
  5
59E
330
1E
100
AcDbEntity
  8
0
100
AcDbLine
 10
95.6289375
 20
121.418238
 30
0.0
 11
96.61963749999999
 21
120.9622379999999
 31
0.0
  0
LINE
  5
59F
330
1E
100
AcDbEntity
  8
0
100
AcDbLine
 10
95.6064375
 20
121.401238
 30
0.0
 11
96.64313749999999
 21
120.9292379999999
 31
0.0
  0
LINE
  5
5A0
330
1E
100
AcDbEntity
  8
0
100
AcDbLine
 10
85.21773749999999
 20
125.2832379999999
 30
0.0
 11
85.54623750000001
 21
125.1932379999999
 31
0.0
  0
LINE
  5
5A1
330
1E
100
AcDbEntity
  8
0
100
AcDbLine
 10
85.28153749999999
 20
125.2422379999999
 30
0.0
 11
85.6073375
 21
125.1532379999999
 31
0.0
  0
LINE
  5
5A2
330
1E
100
AcDbEntity
  8
0
100
AcDbLine
 10
85.54623750000001
 20
125.1932379999999
 30
0.0
 11
87.5710375
 21
124.5632379999999
 31
0.0
  0
LINE
  5
5A3
330
1E
100
AcDbEntity
  8
0
100
AcDbLine
 10
85.6073375
 20
125.1532379999999
 30
0.0
 11
87.6119375
 21
124.5302379999999
 31
0.0
  0
LINE
  5
5A4
330
1E
100
AcDbEntity
  8
0
100
AcDbLine
 10
87.5710375
 20
124.5632379999999
 30
0.0
 11
90.9325375
 21
123.3622379999999
 31
0.0
  0
LINE
  5
5A5
330
1E
100
AcDbEntity
  8
0
100
AcDbLine
 10
90.9550375
 20
123.3282379999999
 30
0.0
 11
92.46283750000001
 21
122.7352379999999
 31
0.0
  0
LINE
  5
5A6
330
1E
100
AcDbEntity
  8
0
100
AcDbLine
 10
92.46283750000001
 20
122.7352379999999
 30
0.0
 11
94.01003749999999
 21
122.0972379999999
 31
0.0
  0
LINE
  5
5A7
330
1E
100
AcDbEntity
  8
0
100
AcDbLine
 10
94.01003749999999
 20
122.0972379999999
 30
0.0
 11
95.6064375
 21
121.401238
 31
0.0
  0
LINE
  5
5A8
330
1E
100
AcDbEntity
  8
0
100
AcDbLine
 10
92.76833749999999
 20
122.6432379999999
 30
0.0
 11
94.6587375
 21
121.8492379999999
 31
0.0
  0
LINE
  5
5A9
330
1E
100
AcDbEntity
  8
0
100
AcDbLine
 10
90.9325375
 20
123.3622379999999
 30
0.0
 11
92.76833749999999
 21
122.6432379999999
 31
0.0
  0
LINE
  5
5AA
330
1E
100
AcDbEntity
  8
0
100
AcDbLine
 10
87.6119375
 20
124.5302379999999
 30
0.0
 11
90.9550375
 21
123.3282379999999
 31
0.0
  0
LINE
  5
5AB
330
1E
100
AcDbEntity
  8
0
100
AcDbLine
 10
105.4332374999999
 20
121.8602379999999
 30
0.0
 11
108.0152374999999
 21
119.9082379999999
 31
0.0
  0
LINE
  5
5AC
330
1E
100
AcDbEntity
  8
0
100
AcDbLine
 10
73.7452375
 20
129.2942379999999
 30
0.0
 11
75.8295375
 21
128.458238
 31
0.0
  0
LINE
  5
5AD
330
1E
100
AcDbEntity
  8
0
100
AcDbLine
 10
73.8372375
 20
129.239238
 30
0.0
 11
76.9515375
 21
128.0062379999999
 31
0.0
  0
LINE
  5
5AE
330
1E
100
AcDbEntity
  8
0
100
AcDbLine
 10
81.70133749999999
 20
126.3432379999999
 30
0.0
 11
83.5048375
 21
125.7782379999999
 31
0.0
  0
LINE
  5
5AF
330
1E
100
AcDbEntity
  8
0
100
AcDbLine
 10
79.81573749999999
 20
126.9812379999999
 30
0.0
 11
81.70133749999999
 21
126.3432379999999
 31
0.0
  0
LINE
  5
5B0
330
1E
100
AcDbEntity
  8
0
100
AcDbLine
 10
83.5048375
 20
125.7782379999999
 30
0.0
 11
85.21773749999999
 21
125.2832379999999
 31
0.0
  0
LINE
  5
5B1
330
1E
100
AcDbEntity
  8
0
100
AcDbLine
 10
82.65063750000001
 20
126.0182379999999
 30
0.0
 11
85.28153749999999
 21
125.2422379999999
 31
0.0
  0
LINE
  5
5B2
330
1E
100
AcDbEntity
  8
0
100
AcDbLine
 10
77.8559375
 20
127.6852379999999
 30
0.0
 11
79.81573749999999
 21
126.9812379999999
 31
0.0
  0
LINE
  5
5B3
330
1E
100
AcDbEntity
  8
0
100
AcDbLine
 10
79.6839375
 20
127.0062379999999
 30
0.0
 11
82.65063750000001
 21
126.0182379999999
 31
0.0
  0
LINE
  5
5B4
330
1E
100
AcDbEntity
  8
0
100
AcDbLine
 10
76.9515375
 20
128.0062379999999
 30
0.0
 11
79.6839375
 21
127.0062379999999
 31
0.0
  0
LINE
  5
5B5
330
1E
100
AcDbEntity
  8
0
100
AcDbLine
 10
91.84773749999999
 20
131.6052379999999
 30
0.0
 11
98.29343749999999
 21
127.157238
 31
0.0
  0
LINE
  5
5BA
330
1E
100
AcDbEntity
  8
0
100
AcDbLine
 10
75.8295375
 20
128.458238
 30
0.0
 11
77.8559375
 21
127.6852379999999
 31
0.0
  0
LINE
  5
5BB
330
1E
100
AcDbEntity
  8
0
100
AcDbLine
 10
78.7637375
 20
139.8962379999999
 30
0.0
 11
85.57573750000001
 21
135.6932379999999
 31
0.0
  0
LINE
  5
5BC
330
1E
100
AcDbEntity
  8
0
100
AcDbLine
 10
85.57573750000001
 20
135.6932379999999
 30
0.0
 11
91.84773749999999
 21
131.6052379999999
 31
0.0
  0
LINE
  5
5BF
330
1E
100
AcDbEntity
  8
0
100
AcDbLine
 10
98.29373750000002
 20
127.157238
 30
0.0
 11
98.337423273001
 21
127.124662968525
 31
0.0
  0
LINE
  5
5C0
330
1E
100
AcDbEntity
  8
0
100
AcDbLine
 10
98.29343749999999
 20
127.157238
 30
0.0
 11
100.6132374999999
 21
125.4392379999999
 31
0.0
  0
LINE
  5
5C1
330
1E
100
AcDbEntity
  8
0
100
AcDbLine
 10
100.6132374999999
 20
125.4392379999999
 30
0.0
 11
105.4332374999999
 21
121.8602379999999
 31
0.0
  0
LINE
  5
5C2
330
1E
100
AcDbEntity
  8
0
100
AcDbLine
 10
100.6132374999999
 20
125.4392379999999
 30
0.0
 11
105.4332374999999
 21
121.8602379999999
 31
0.0
  0
LINE
  5
5C3
330
1E
100
AcDbEntity
  8
0
100
AcDbLine
 10
71.8513375
 20
143.9092379999999
 30
0.0
 11
78.7637375
 21
139.8962379999999
 31
0.0
  0
LINE
  5
5C4
330
1E
100
AcDbEntity
  8
0
100
AcDbLine
 10
96.61963749999999
 20
120.9622379999999
 30
0.0
 11
96.84033750000001
 21
120.859238
 31
0.0
  0
LINE
  5
5C5
330
1E
100
AcDbEntity
  8
0
100
AcDbLine
 10
70.1359375
 20
115.7642379999999
 30
0.0
 11
72.47093750000001
 21
114.4172379999999
 31
0.0
  0
LINE
  5
5C6
330
1E
100
AcDbEntity
  8
0
100
AcDbLine
 10
72.47093750000001
 20
114.4172379999999
 30
0.0
 11
74.6800375
 21
113.1412379999999
 31
0.0
  0
LINE
  5
5C7
330
1E
100
AcDbEntity
  8
0
100
AcDbLine
 10
48.3277375
 20
128.3552379999999
 30
0.0
 11
51.2399375
 21
126.6732379999999
 31
0.0
  0
LINE
  5
5C8
330
1E
100
AcDbEntity
  8
0
100
AcDbLine
 10
76.7519375
 20
111.9462379999999
 30
0.0
 11
78.4339375
 21
110.976238
 31
0.0
  0
LINE
  5
5C9
330
1E
100
AcDbEntity
  8
0
100
AcDbLine
 10
2.3409675
 20
155.018238
 30
0.0
 11
2.426047499999999
 21
154.8562379999999
 31
0.0
  0
ENDSEC
  0
SECTION
  2
OBJECTS
  0
DICTIONARY
  5
C
330
0
100
AcDbDictionary
281
     1
  3
ACAD_GROUP
350
D
  3
ACAD_LAYOUT
350
19
  3
ACAD_MLINESTYLE
350
16
  3
ACAD_PLOTSETTINGS
350
18
  3
ACAD_PLOTSTYLENAME
350
E
  3
AcDbVariableDictionary
350
5CF
  0
DICTIONARY
  5
D
102
{ACAD_REACTORS
330
C
102
}
330
C
100
AcDbDictionary
281
     1
  0
DICTIONARY
  5
19
102
{ACAD_REACTORS
330
C
102
}
330
C
100
AcDbDictionary
281
     1
  3
Layout1
350
1D
  3
Model
350
21
  0
DICTIONARY
  5
16
102
{ACAD_REACTORS
330
C
102
}
330
C
100
AcDbDictionary
281
     1
  3
Standard
350
17
  0
DICTIONARY
  5
18
102
{ACAD_REACTORS
330
C
102
}
330
C
100
AcDbDictionary
281
     1
  0
ACDBDICTIONARYWDFLT
  5
E
102
{ACAD_REACTORS
330
C
102
}
330
C
100
AcDbDictionary
281
     1
  3
Normal
350
F
100
AcDbDictionaryWithDefault
340
F
  0
DICTIONARY
  5
5CF
102
{ACAD_REACTORS
330
C
102
}
330
C
100
AcDbDictionary
281
     1
  3
DIMASSOC
350
5D0
  0
LAYOUT
  5
1D
102
{ACAD_REACTORS
330
19
102
}
330
19
100
AcDbPlotSettings
  1

  2
C:\Programme\AutoCAD LT 2002 Deu\plotters\DWF ePlot (optimized for plotting).pc3
  4

  6

 40
0.0
 41
0.0
 42
0.0
 43
0.0
 44
0.0
 45
0.0
 46
0.0
 47
0.0
 48
0.0
 49
0.0
140
0.0
141
0.0
142
1.0
143
1.0
 70
   688
 72
     0
 73
     0
 74
     5
  7

 75
    16
147
1.0
148
0.0
149
0.0
100
AcDbLayout
  1
Layout1
 70
     1
 71
     1
 10
0.0
 20
0.0
 11
12.0
 21
9.0
 12
0.0
 22
0.0
 32
0.0
 14
1.000000000000000E+20
 24
1.000000000000000E+20
 34
1.000000000000000E+20
 15
-1.000000000000000E+20
 25
-1.000000000000000E+20
 35
-1.000000000000000E+20
146
0.0
 13
0.0
 23
0.0
 33
0.0
 16
1.0
 26
0.0
 36
0.0
 17
0.0
 27
1.0
 37
0.0
 76
     0
330
1A
  0
LAYOUT
  5
21
102
{ACAD_REACTORS
330
19
102
}
330
19
100
AcDbPlotSettings
  1

  2
C:\Programme\AutoCAD LT 2002 Deu\plotters\DWF ePlot (optimized for plotting).pc3
  4

  6

 40
0.0
 41
0.0
 42
0.0
 43
0.0
 44
0.0
 45
0.0
 46
0.0
 47
0.0
 48
0.0
 49
0.0
140
0.0
141
0.0
142
1.0
143
1.0
 70
  1712
 72
     0
 73
     0
 74
     0
  7

 75
     0
147
1.0
148
0.0
149
0.0
100
AcDbLayout
  1
Model
 70
     1
 71
     0
 10
0.0
 20
0.0
 11
12.0
 21
9.0
 12
0.0
 22
0.0
 32
0.0
 14
0.0
 24
0.0
 34
0.0
 15
0.0
 25
0.0
 35
0.0
146
0.0
 13
0.0
 23
0.0
 33
0.0
 16
1.0
 26
0.0
 36
0.0
 17
0.0
 27
1.0
 37
0.0
 76
     0
330
1E
  0
MLINESTYLE
  5
17
102
{ACAD_REACTORS
330
16
102
}
330
16
100
AcDbMlineStyle
  2
STANDARD
 70
     0
  3

 62
   256
 51
90.0
 52
90.0
 71
     2
 49
0.5
 62
   256
  6
BYLAYER
 49
-0.5
 62
   256
  6
BYLAYER
  0
ACDBPLACEHOLDER
  5
F
102
{ACAD_REACTORS
330
E
102
}
330
E
  0
DICTIONARYVAR
  5
5D0
102
{ACAD_REACTORS
330
5CF
102
}
330
5CF
100
DictionaryVariables
280
     0
  1
1
  0
ENDSEC
  0
EOF
