  0
SECTION
  2
HEADER
  9
$ACADVER
  1
AC1015
  9
$ACADMAINTVER
 70
    13
  9
$DWGCODEPAGE
  3
ANSI_1252
  9
$INSBASE
 10
0.0
 20
0.0
 30
0.0
  9
$EXTMIN
 10
0.0000000000000005
 20
0.0007179999999929
 30
0.0
  9
$EXTMAX
 10
158.0
 20
78.99928199999999
 30
0.0
  9
$LIMMIN
 10
0.0
 20
0.0
  9
$LIMMAX
 10
12.0
 20
9.0
  9
$ORTHOMODE
 70
     0
  9
$REGENMODE
 70
     1
  9
$FILLMODE
 70
     1
  9
$QTEXTMODE
 70
     0
  9
$MIRRTEXT
 70
     1
  9
$LTSCALE
 40
1.0
  9
$ATTMODE
 70
     1
  9
$TEXTSIZE
 40
0.2
  9
$TRACEWID
 40
0.05
  9
$TEXTSTYLE
  7
Standard
  9
$CLAYER
  8
0
  9
$CELTYPE
  6
Continuous
  9
$CECOLOR
 62
   256
  9
$CELTSCALE
 40
1.0
  9
$DISPSILH
 70
     0
  9
$DIMSCALE
 40
1.0
  9
$DIMASZ
 40
0.18
  9
$DIMEXO
 40
0.0625
  9
$DIMDLI
 40
0.38
  9
$DIMRND
 40
0.0
  9
$DIMDLE
 40
0.0
  9
$DIMEXE
 40
0.18
  9
$DIMTP
 40
0.0
  9
$DIMTM
 40
0.0
  9
$DIMTXT
 40
0.18
  9
$DIMCEN
 40
0.09
  9
$DIMTSZ
 40
0.0
  9
$DIMTOL
 70
     0
  9
$DIMLIM
 70
     0
  9
$DIMTIH
 70
     1
  9
$DIMTOH
 70
     1
  9
$DIMSE1
 70
     0
  9
$DIMSE2
 70
     0
  9
$DIMTAD
 70
     0
  9
$DIMZIN
 70
     0
  9
$DIMBLK
  1

  9
$DIMASO
 70
     1
  9
$DIMSHO
 70
     1
  9
$DIMPOST
  1

  9
$DIMAPOST
  1

  9
$DIMALT
 70
     0
  9
$DIMALTD
 70
     2
  9
$DIMALTF
 40
25.4
  9
$DIMLFAC
 40
1.0
  9
$DIMTOFL
 70
     0
  9
$DIMTVP
 40
0.0
  9
$DIMTIX
 70
     0
  9
$DIMSOXD
 70
     0
  9
$DIMSAH
 70
     0
  9
$DIMBLK1
  1

  9
$DIMBLK2
  1

  9
$DIMSTYLE
  2
Standard
  9
$DIMCLRD
 70
     0
  9
$DIMCLRE
 70
     0
  9
$DIMCLRT
 70
     0
  9
$DIMTFAC
 40
1.0
  9
$DIMGAP
 40
0.09
  9
$DIMJUST
 70
     0
  9
$DIMSD1
 70
     0
  9
$DIMSD2
 70
     0
  9
$DIMTOLJ
 70
     1
  9
$DIMTZIN
 70
     0
  9
$DIMALTZ
 70
     0
  9
$DIMALTTZ
 70
     0
  9
$DIMUPT
 70
     0
  9
$DIMDEC
 70
     4
  9
$DIMTDEC
 70
     4
  9
$DIMALTU
 70
     2
  9
$DIMALTTD
 70
     2
  9
$DIMTXSTY
  7
Standard
  9
$DIMAUNIT
 70
     0
  9
$DIMADEC
 70
     0
  9
$DIMALTRND
 40
0.0
  9
$DIMAZIN
 70
     0
  9
$DIMDSEP
 70
    46
  9
$DIMATFIT
 70
     3
  9
$DIMFRAC
 70
     0
  9
$DIMLDRBLK
  1

  9
$DIMLUNIT
 70
     2
  9
$DIMLWD
 70
    -2
  9
$DIMLWE
 70
    -2
  9
$DIMTMOVE
 70
     0
  9
$LUNITS
 70
     2
  9
$LUPREC
 70
     4
  9
$SKETCHINC
 40
0.1
  9
$FILLETRAD
 40
0.0
  9
$AUNITS
 70
     0
  9
$AUPREC
 70
     0
  9
$MENU
  1
.
  9
$ELEVATION
 40
0.0
  9
$PELEVATION
 40
0.0
  9
$THICKNESS
 40
0.0
  9
$LIMCHECK
 70
     0
  9
$CHAMFERA
 40
0.0
  9
$CHAMFERB
 40
0.0
  9
$CHAMFERC
 40
0.0
  9
$CHAMFERD
 40
0.0
  9
$SKPOLY
 70
     0
  9
$TDCREATE
 40
2455650.999840856
  9
$TDUCREATE
 40
2455650.916507523
  9
$TDUPDATE
 40
2455651.001541875
  9
$TDUUPDATE
 40
2455650.918208541
  9
$TDINDWG
 40
0.0017010185
  9
$TDUSRTIMER
 40
0.0017010185
  9
$USRTIMER
 70
     1
  9
$ANGBASE
 50
0.0
  9
$ANGDIR
 70
     0
  9
$PDMODE
 70
     0
  9
$PDSIZE
 40
0.0
  9
$PLINEWID
 40
0.0
  9
$SPLFRAME
 70
     0
  9
$SPLINETYPE
 70
     6
  9
$SPLINESEGS
 70
     8
  9
$HANDSEED
  5
51F
  9
$SURFTAB1
 70
     6
  9
$SURFTAB2
 70
     6
  9
$SURFTYPE
 70
     6
  9
$SURFU
 70
     6
  9
$SURFV
 70
     6
  9
$UCSBASE
  2

  9
$UCSNAME
  2

  9
$UCSORG
 10
0.0
 20
0.0
 30
0.0
  9
$UCSXDIR
 10
1.0
 20
0.0
 30
0.0
  9
$UCSYDIR
 10
0.0
 20
1.0
 30
0.0
  9
$UCSORTHOREF
  2

  9
$UCSORTHOVIEW
 70
     1
  9
$UCSORGTOP
 10
0.0
 20
0.0
 30
0.0
  9
$UCSORGBOTTOM
 10
0.0
 20
0.0
 30
0.0
  9
$UCSORGLEFT
 10
0.0
 20
0.0
 30
0.0
  9
$UCSORGRIGHT
 10
0.0
 20
0.0
 30
0.0
  9
$UCSORGFRONT
 10
0.0
 20
0.0
 30
0.0
  9
$UCSORGBACK
 10
0.0
 20
0.0
 30
0.0
  9
$PUCSBASE
  2

  9
$PUCSNAME
  2

  9
$PUCSORG
 10
0.0
 20
0.0
 30
0.0
  9
$PUCSXDIR
 10
1.0
 20
0.0
 30
0.0
  9
$PUCSYDIR
 10
0.0
 20
1.0
 30
0.0
  9
$PUCSORTHOREF
  2

  9
$PUCSORTHOVIEW
 70
     0
  9
$PUCSORGTOP
 10
0.0
 20
0.0
 30
0.0
  9
$PUCSORGBOTTOM
 10
0.0
 20
0.0
 30
0.0
  9
$PUCSORGLEFT
 10
0.0
 20
0.0
 30
0.0
  9
$PUCSORGRIGHT
 10
0.0
 20
0.0
 30
0.0
  9
$PUCSORGFRONT
 10
0.0
 20
0.0
 30
0.0
  9
$PUCSORGBACK
 10
0.0
 20
0.0
 30
0.0
  9
$USERI1
 70
     0
  9
$USERI2
 70
     0
  9
$USERI3
 70
     0
  9
$USERI4
 70
     0
  9
$USERI5
 70
     0
  9
$USERR1
 40
0.0
  9
$USERR2
 40
0.0
  9
$USERR3
 40
0.0
  9
$USERR4
 40
0.0
  9
$USERR5
 40
0.0
  9
$WORLDVIEW
 70
     1
  9
$SHADEDGE
 70
     3
  9
$SHADEDIF
 70
    70
  9
$TILEMODE
 70
     1
  9
$MAXACTVP
 70
    64
  9
$PINSBASE
 10
0.0
 20
0.0
 30
0.0
  9
$PLIMCHECK
 70
     0
  9
$PEXTMIN
 10
1.000000000000000E+20
 20
1.000000000000000E+20
 30
1.000000000000000E+20
  9
$PEXTMAX
 10
-1.000000000000000E+20
 20
-1.000000000000000E+20
 30
-1.000000000000000E+20
  9
$PLIMMIN
 10
0.0
 20
0.0
  9
$PLIMMAX
 10
12.0
 20
9.0
  9
$UNITMODE
 70
     0
  9
$VISRETAIN
 70
     1
  9
$PLINEGEN
 70
     0
  9
$PSLTSCALE
 70
     1
  9
$TREEDEPTH
 70
  3020
  9
$CMLSTYLE
  2
Standard
  9
$CMLJUST
 70
     0
  9
$CMLSCALE
 40
1.0
  9
$PROXYGRAPHICS
 70
     1
  9
$MEASUREMENT
 70
     0
  9
$CELWEIGHT
370
    -1
  9
$ENDCAPS
280
     0
  9
$JOINSTYLE
280
     0
  9
$LWDISPLAY
290
     0
  9
$INSUNITS
 70
     0
  9
$HYPERLINKBASE
  1

  9
$STYLESHEET
  1

  9
$XEDIT
290
     1
  9
$CEPSNTYPE
380
     0
  9
$PSTYLEMODE
290
     1
  9
$FINGERPRINTGUID
  2
{E1AC53C3-D32E-4F01-8501-49A2117D1874}
  9
$VERSIONGUID
  2
{6316CA7C-6FC6-415C-99EE-43C09A646D56}
  9
$EXTNAMES
290
     1
  9
$PSVPSCALE
 40
0.0
  9
$OLESTARTUP
290
     0
  0
ENDSEC
  0
SECTION
  2
CLASSES
  0
CLASS
  1
ACDBDICTIONARYWDFLT
  2
AcDbDictionaryWithDefault
  3
AutoCAD 2000
 90
        0
280
     0
281
     0
  0
CLASS
  1
ACDBPLACEHOLDER
  2
AcDbPlaceHolder
  3
AutoCAD 2000
 90
        0
280
     0
281
     0
  0
CLASS
  1
LAYOUT
  2
AcDbLayout
  3
AutoCAD 2000
 90
        0
280
     0
281
     0
  0
CLASS
  1
DICTIONARYVAR
  2
AcDbDictionaryVar
  3
AutoCAD 2000
 90
        0
280
     0
281
     0
  0
ENDSEC
  0
SECTION
  2
TABLES
  0
TABLE
  2
VPORT
  5
8
330
0
100
AcDbSymbolTable
 70
     3
  0
VPORT
  5
51E
330
8
100
AcDbSymbolTableRecord
100
AcDbViewportTableRecord
  2
*Active
 70
     0
 10
0.0
 20
0.0
 11
1.0
 21
1.0
 12
79.0
 22
39.49999999999999
 13
0.0
 23
0.0
 14
1.0
 24
1.0
 15
0.0
 25
0.0
 16
0.0
 26
0.0
 36
1.0
 17
0.0
 27
0.0
 37
0.0
 40
79.53293985569335
 41
2.073363431151241
 42
50.0
 43
0.0
 44
0.0
 50
0.0
 51
0.0
 71
     0
 72
   100
 73
     1
 74
     3
 75
     0
 76
     0
 77
     0
 78
     0
281
     0
 65
     1
110
0.0
120
0.0
130
0.0
111
1.0
121
0.0
131
0.0
112
0.0
122
1.0
132
0.0
 79
     1
146
0.0
  0
ENDTAB
  0
TABLE
  2
LTYPE
  5
5
330
0
100
AcDbSymbolTable
 70
     1
  0
LTYPE
  5
13
330
5
100
AcDbSymbolTableRecord
100
AcDbLinetypeTableRecord
  2
ByBlock
 70
     0
  3

 72
    65
 73
     0
 40
0.0
  0
LTYPE
  5
14
330
5
100
AcDbSymbolTableRecord
100
AcDbLinetypeTableRecord
  2
ByLayer
 70
     0
  3

 72
    65
 73
     0
 40
0.0
  0
LTYPE
  5
15
330
5
100
AcDbSymbolTableRecord
100
AcDbLinetypeTableRecord
  2
Continuous
 70
     0
  3
Solid line
 72
    65
 73
     0
 40
0.0
  0
ENDTAB
  0
TABLE
  2
LAYER
  5
2
330
0
100
AcDbSymbolTable
 70
     1
  0
LAYER
  5
10
330
2
100
AcDbSymbolTableRecord
100
AcDbLayerTableRecord
  2
0
 70
     0
 62
     7
  6
Continuous
370
    -3
390
F
  0
ENDTAB
  0
TABLE
  2
STYLE
  5
3
330
0
100
AcDbSymbolTable
 70
     1
  0
STYLE
  5
11
330
3
100
AcDbSymbolTableRecord
100
AcDbTextStyleTableRecord
  2
Standard
 70
     0
 40
0.0
 41
1.0
 50
0.0
 71
     0
 42
0.2
  3
txt
  4

  0
ENDTAB
  0
TABLE
  2
VIEW
  5
6
330
0
100
AcDbSymbolTable
 70
     0
  0
ENDTAB
  0
TABLE
  2
UCS
  5
7
330
0
100
AcDbSymbolTable
 70
     0
  0
ENDTAB
  0
TABLE
  2
APPID
  5
9
330
0
100
AcDbSymbolTable
 70
     1
  0
APPID
  5
12
330
9
100
AcDbSymbolTableRecord
100
AcDbRegAppTableRecord
  2
ACAD
 70
     0
  0
ENDTAB
  0
TABLE
  2
DIMSTYLE
  5
A
330
0
100
AcDbSymbolTable
 70
     1
100
AcDbDimStyleTable
 71
     0
  0
DIMSTYLE
105
491
330
A
100
AcDbSymbolTableRecord
100
AcDbDimStyleTableRecord
  2
Standard
 70
     0
340
11
  0
ENDTAB
  0
TABLE
  2
BLOCK_RECORD
  5
1
330
0
100
AcDbSymbolTable
 70
     0
  0
BLOCK_RECORD
  5
1E
330
1
100
AcDbSymbolTableRecord
100
AcDbBlockTableRecord
  2
*Model_Space
340
21
  0
BLOCK_RECORD
  5
1A
330
1
100
AcDbSymbolTableRecord
100
AcDbBlockTableRecord
  2
*Paper_Space
340
1D
  0
ENDTAB
  0
ENDSEC
  0
SECTION
  2
BLOCKS
  0
BLOCK
  5
1F
330
1E
100
AcDbEntity
  8
0
100
AcDbBlockBegin
  2
*Model_Space
 70
     0
 10
0.0
 20
0.0
 30
0.0
  3
*Model_Space
  1

  0
ENDBLK
  5
20
330
1E
100
AcDbEntity
  8
0
100
AcDbBlockEnd
  0
BLOCK
  5
1B
330
1A
100
AcDbEntity
 67
     1
  8
0
100
AcDbBlockBegin
  2
*Paper_Space
 70
     0
 10
0.0
 20
0.0
 30
0.0
  3
*Paper_Space
  1

  0
ENDBLK
  5
1C
330
1A
100
AcDbEntity
 67
     1
  8
0
100
AcDbBlockEnd
  0
ENDSEC
  0
SECTION
  2
ENTITIES
  0
LINE
  5
22
330
1E
100
AcDbEntity
  8
0
100
AcDbLine
 10
30.0655
 20
7.804241999999999
 30
0.0
 11
31.0474
 21
7.776752
 31
0.0
  0
LINE
  5
23
330
1E
100
AcDbEntity
  8
0
100
AcDbLine
 10
31.0474
 20
7.776752
 30
0.0
 11
32.14679999999999
 21
7.749272
 31
0.0
  0
LINE
  5
24
330
1E
100
AcDbEntity
  8
0
100
AcDbLine
 10
31.439
 20
7.776752
 30
0.0
 11
32.4209
 21
7.749272
 31
0.0
  0
LINE
  5
25
330
1E
100
AcDbEntity
  8
0
100
AcDbLine
 10
31.439
 20
7.776752
 30
0.0
 11
31.4447730037047
 21
7.999282
 31
0.0
  0
LINE
  5
26
330
1E
100
AcDbEntity
  8
0
100
AcDbLine
 10
30.3396
 20
7.804241999999999
 30
0.0
 11
31.439
 21
7.776752
 31
0.0
  0
LINE
  5
27
330
1E
100
AcDbEntity
  8
0
100
AcDbLine
 10
30.3396
 20
7.804241999999999
 30
0.0
 11
30.3446663287695
 21
7.999282
 31
0.0
  0
LINE
  5
28
330
1E
100
AcDbEntity
  8
0
100
AcDbLine
 10
30.3396
 20
7.804241999999999
 30
0.0
 11
30.3446663287695
 21
7.999282
 31
0.0
  0
LINE
  5
29
330
1E
100
AcDbEntity
  8
0
100
AcDbLine
 10
29.75649999999999
 20
7.816022
 30
0.0
 11
30.0655
 21
7.804241999999999
 31
0.0
  0
LINE
  5
2A
330
1E
100
AcDbEntity
  8
0
100
AcDbLine
 10
29.75649999999999
 20
7.816022
 30
0.0
 11
29.7612603015712
 21
7.999282
 31
0.0
  0
LINE
  5
2B
330
1E
100
AcDbEntity
  8
0
100
AcDbLine
 10
29.75649999999999
 20
7.816022
 30
0.0
 11
29.7612603015712
 21
7.999282
 31
0.0
  0
LINE
  5
2C
330
1E
100
AcDbEntity
  8
0
100
AcDbLine
 10
29.75649999999999
 20
7.816022
 30
0.0
 11
30.3396
 21
7.804241999999999
 31
0.0
  0
LINE
  5
2D
330
1E
100
AcDbEntity
  8
0
100
AcDbLine
 10
32.4209
 20
7.749272
 30
0.0
 11
32.7299
 21
7.737491999999999
 31
0.0
  0
LINE
  5
2E
330
1E
100
AcDbEntity
  8
0
100
AcDbLine
 10
32.4209
 20
7.749272
 30
0.0
 11
32.42739406937619
 21
7.999282
 31
0.0
  0
LINE
  5
2F
330
1E
100
AcDbEntity
  8
0
100
AcDbLine
 10
32.14679999999999
 20
7.749272
 30
0.0
 11
32.7299
 21
7.737491999999999
 31
0.0
  0
LINE
  5
30
330
1E
100
AcDbEntity
  8
0
100
AcDbLine
 10
32.05699999999999
 20
7.999282
 30
0.0
 11
32.4739
 21
7.999282
 31
0.0
  0
LINE
  5
31
330
1E
100
AcDbEntity
  8
0
100
AcDbLine
 10
32.7299
 20
7.737491999999999
 30
0.0
 11
32.73669137376249
 21
7.999282
 31
0.0
  0
LINE
  5
32
330
1E
100
AcDbEntity
  8
0
100
AcDbLine
 10
35.88309999999999
 20
7.737491999999999
 30
0.0
 11
35.8894287223365
 21
7.999282
 31
0.0
  0
LINE
  5
33
330
1E
100
AcDbEntity
  8
0
100
AcDbLine
 10
35.8693
 20
7.749272
 30
0.0
 11
35.875352239239
 21
7.999282
 31
0.0
  0
LINE
  5
34
330
1E
100
AcDbEntity
  8
0
100
AcDbLine
 10
33.12619999999999
 20
7.804241999999999
 30
0.0
 11
33.92369999999999
 21
7.776752
 31
0.0
  0
LINE
  5
35
330
1E
100
AcDbEntity
  8
0
100
AcDbLine
 10
33.92369999999999
 20
7.776752
 30
0.0
 11
35.0656
 21
7.749272
 31
0.0
  0
LINE
  5
36
330
1E
100
AcDbEntity
  8
0
100
AcDbLine
 10
35.0718
 20
7.776752
 30
0.0
 11
35.8693
 21
7.749272
 31
0.0
  0
LINE
  5
37
330
1E
100
AcDbEntity
  8
0
100
AcDbLine
 10
35.0718
 20
7.776752
 30
0.0
 11
35.0771797271027
 21
7.999282
 31
0.0
  0
LINE
  5
38
330
1E
100
AcDbEntity
  8
0
100
AcDbLine
 10
33.9299
 20
7.804241999999999
 30
0.0
 11
35.0718
 21
7.776752
 31
0.0
  0
LINE
  5
39
330
1E
100
AcDbEntity
  8
0
100
AcDbLine
 10
33.9299
 20
7.804241999999999
 30
0.0
 11
33.9346151326802
 21
7.999282
 31
0.0
  0
LINE
  5
3A
330
1E
100
AcDbEntity
  8
0
100
AcDbLine
 10
33.1124
 20
7.816022
 30
0.0
 11
33.11683031917729
 21
7.99928199999999
 31
0.0
  0
LINE
  5
3B
330
1E
100
AcDbEntity
  8
0
100
AcDbLine
 10
33.1124
 20
7.816022
 30
0.0
 11
33.11683031917729
 21
7.999282
 31
0.0
  0
LINE
  5
3C
330
1E
100
AcDbEntity
  8
0
100
AcDbLine
 10
33.1124
 20
7.816022
 30
0.0
 11
33.9299
 21
7.804241999999999
 31
0.0
  0
LINE
  5
3D
330
1E
100
AcDbEntity
  8
0
100
AcDbLine
 10
35.0656
 20
7.749272
 30
0.0
 11
35.88309999999999
 21
7.737491999999999
 31
0.0
  0
LINE
  5
3E
330
1E
100
AcDbEntity
  8
0
100
AcDbLine
 10
32.4739
 20
7.999282
 30
0.0
 11
40.47769999999999
 21
7.999282
 31
0.0
  0
LINE
  5
3F
330
1E
100
AcDbEntity
  8
0
100
AcDbLine
 10
32.05699999999999
 20
7.999282
 30
0.0
 11
32.4739
 21
7.999282
 31
0.0
  0
LINE
  5
40
330
1E
100
AcDbEntity
  8
0
100
AcDbLine
 10
32.05699999999999
 20
7.999282
 30
0.0
 11
40.47769999999999
 21
7.999282
 31
0.0
  0
LINE
  5
41
330
1E
100
AcDbEntity
  8
0
100
AcDbLine
 10
41.8539
 20
7.67416199999999
 30
0.0
 11
42.75129999999999
 21
7.64668199999999
 31
0.0
  0
LINE
  5
42
330
1E
100
AcDbEntity
  8
0
100
AcDbLine
 10
42.3974
 20
7.67416199999999
 30
0.0
 11
43.5277
 21
7.64668199999999
 31
0.0
  0
LINE
  5
43
330
1E
100
AcDbEntity
  8
0
100
AcDbLine
 10
42.3974
 20
7.67416199999999
 30
0.0
 11
42.4056282238865
 21
7.999282
 31
0.0
  0
LINE
  5
44
330
1E
100
AcDbEntity
  8
0
100
AcDbLine
 10
42.3974
 20
7.67416199999999
 30
0.0
 11
42.4056282238865
 21
7.99928199999999
 31
0.0
  0
LINE
  5
45
330
1E
100
AcDbEntity
  8
0
100
AcDbLine
 10
42.25699999999999
 20
7.749272
 30
0.0
 11
42.26219358821739
 21
7.999282
 31
0.0
  0
LINE
  5
46
330
1E
100
AcDbEntity
  8
0
100
AcDbLine
 10
41.9747
 20
7.737491999999999
 30
0.0
 11
42.25699999999999
 21
7.749272
 31
0.0
  0
LINE
  5
47
330
1E
100
AcDbEntity
  8
0
100
AcDbLine
 10
41.69109999999999
 20
7.685952
 30
0.0
 11
41.69248706582989
 21
7.740829484554279
 31
0.0
  0
LINE
  5
48
330
1E
100
AcDbEntity
  8
0
100
AcDbLine
 10
41.69109999999999
 20
7.685952
 30
0.0
 11
42.3974
 21
7.67416199999999
 31
0.0
  0
LINE
  5
49
330
1E
100
AcDbEntity
  8
0
100
AcDbLine
 10
41.69109999999999
 20
7.685952
 30
0.0
 11
41.8539
 21
7.67416199999999
 31
0.0
  0
LINE
  5
4A
330
1E
100
AcDbEntity
  8
0
100
AcDbLine
 10
43.8816
 20
7.619202
 30
0.0
 11
44.58789999999999
 21
7.607421999999999
 31
0.0
  0
LINE
  5
4B
330
1E
100
AcDbEntity
  8
0
100
AcDbLine
 10
44.58789999999999
 20
7.607421999999999
 30
0.0
 11
44.59781749606529
 21
7.99928199999999
 31
0.0
  0
LINE
  5
4C
330
1E
100
AcDbEntity
  8
0
100
AcDbLine
 10
44.4251
 20
7.619202
 30
0.0
 11
44.58789999999999
 21
7.607421999999999
 31
0.0
  0
LINE
  5
4D
330
1E
100
AcDbEntity
  8
0
100
AcDbLine
 10
44.4251
 20
7.619202
 30
0.0
 11
44.4347192945602
 21
7.999282
 31
0.0
  0
LINE
  5
4E
330
1E
100
AcDbEntity
  8
0
100
AcDbLine
 10
44.4251
 20
7.619202
 30
0.0
 11
44.4347192945602
 21
7.99928199999999
 31
0.0
  0
LINE
  5
4F
330
1E
100
AcDbEntity
  8
0
100
AcDbLine
 10
43.5277
 20
7.64668199999999
 30
0.0
 11
44.4251
 21
7.619202
 31
0.0
  0
LINE
  5
50
330
1E
100
AcDbEntity
  8
0
100
AcDbLine
 10
43.5277
 20
7.64668199999999
 30
0.0
 11
43.53662375458489
 21
7.999282
 31
0.0
  0
LINE
  5
51
330
1E
100
AcDbEntity
  8
0
100
AcDbLine
 10
43.5277
 20
7.64668199999999
 30
0.0
 11
43.53662375458489
 21
7.99928199999999
 31
0.0
  0
LINE
  5
52
330
1E
100
AcDbEntity
  8
0
100
AcDbLine
 10
42.75129999999999
 20
7.64668199999999
 30
0.0
 11
43.8816
 21
7.619202
 31
0.0
  0
LINE
  5
53
330
1E
100
AcDbEntity
  8
0
100
AcDbLine
 10
39.8719
 20
7.776752
 30
0.0
 11
40.97859999999999
 21
7.749272
 31
0.0
  0
LINE
  5
54
330
1E
100
AcDbEntity
  8
0
100
AcDbLine
 10
41.6982
 20
7.776752
 30
0.0
 11
42.25699999999999
 21
7.749272
 31
0.0
  0
LINE
  5
55
330
1E
100
AcDbEntity
  8
0
100
AcDbLine
 10
41.6982
 20
7.776752
 30
0.0
 11
41.70282285515169
 21
7.999282
 31
0.0
  0
LINE
  5
56
330
1E
100
AcDbEntity
  8
0
100
AcDbLine
 10
41.6982
 20
7.776752
 30
0.0
 11
41.70282285515169
 21
7.99928199999999
 31
0.0
  0
LINE
  5
57
330
1E
100
AcDbEntity
  8
0
100
AcDbLine
 10
40.5915
 20
7.804241999999999
 30
0.0
 11
41.6982
 21
7.776752
 31
0.0
  0
LINE
  5
58
330
1E
100
AcDbEntity
  8
0
100
AcDbLine
 10
40.5915
 20
7.804241999999999
 30
0.0
 11
40.59555176228929
 21
7.999282
 31
0.0
  0
LINE
  5
59
330
1E
100
AcDbEntity
  8
0
100
AcDbLine
 10
39.5954
 20
7.816022
 30
0.0
 11
40.5915
 21
7.804241999999999
 31
0.0
  0
LINE
  5
5A
330
1E
100
AcDbEntity
  8
0
100
AcDbLine
 10
39.5954
 20
7.816022
 30
0.0
 11
39.5992070191
 21
7.99928199999999
 31
0.0
  0
LINE
  5
5B
330
1E
100
AcDbEntity
  8
0
100
AcDbLine
 10
39.5954
 20
7.816022
 30
0.0
 11
39.5992070191
 21
7.999282
 31
0.0
  0
LINE
  5
5C
330
1E
100
AcDbEntity
  8
0
100
AcDbLine
 10
39.31309999999999
 20
7.804241999999999
 30
0.0
 11
39.31715176228929
 21
7.999282
 31
0.0
  0
LINE
  5
5D
330
1E
100
AcDbEntity
  8
0
100
AcDbLine
 10
39.31309999999999
 20
7.804241999999999
 30
0.0
 11
39.8719
 21
7.776752
 31
0.0
  0
LINE
  5
5E
330
1E
100
AcDbEntity
  8
0
100
AcDbLine
 10
39.31309999999999
 20
7.804241999999999
 30
0.0
 11
39.5954
 21
7.816022
 31
0.0
  0
LINE
  5
5F
330
1E
100
AcDbEntity
  8
0
100
AcDbLine
 10
40.97859999999999
 20
7.749272
 30
0.0
 11
41.69248706582989
 21
7.740829484554279
 31
0.0
  0
LINE
  5
60
330
1E
100
AcDbEntity
  8
0
100
AcDbLine
 10
40.97859999999999
 20
7.749272
 30
0.0
 11
41.9747
 21
7.737491999999999
 31
0.0
  0
LINE
  5
61
330
1E
100
AcDbEntity
  8
0
100
AcDbLine
 10
51.1486
 20
7.74927199999999
 30
0.0
 11
51.1525931440709
 21
7.99928199999999
 31
0.0
  0
LINE
  5
62
330
1E
100
AcDbEntity
  8
0
100
AcDbLine
 10
50.5895
 20
7.737491999999999
 30
0.0
 11
51.1486
 21
7.74927199999999
 31
0.0
  0
LINE
  5
63
330
1E
100
AcDbEntity
  8
0
100
AcDbLine
 10
49.8707
 20
7.80424199999999
 30
0.0
 11
50.8667
 21
7.77675199999999
 31
0.0
  0
LINE
  5
64
330
1E
100
AcDbEntity
  8
0
100
AcDbLine
 10
49.8707
 20
7.80424199999999
 30
0.0
 11
49.8738087357533
 21
7.99928199999999
 31
0.0
  0
LINE
  5
65
330
1E
100
AcDbEntity
  8
0
100
AcDbLine
 10
50.8667
 20
7.77675199999999
 30
0.0
 11
51.1486
 21
7.74927199999999
 31
0.0
  0
LINE
  5
66
330
1E
100
AcDbEntity
  8
0
100
AcDbLine
 10
50.8667
 20
7.77675199999999
 30
0.0
 11
50.8702469097311
 21
7.99928199999999
 31
0.0
  0
LINE
  5
67
330
1E
100
AcDbEntity
  8
0
100
AcDbLine
 10
49.4826
 20
7.74927199999999
 30
0.0
 11
50.5895
 21
7.737491999999999
 31
0.0
  0
LINE
  5
68
330
1E
100
AcDbEntity
  8
0
100
AcDbLine
 10
48.4866
 20
7.77675199999999
 30
0.0
 11
49.4826
 21
7.74927199999999
 31
0.0
  0
LINE
  5
69
330
1E
100
AcDbEntity
  8
0
100
AcDbLine
 10
48.0418
 20
7.99928199999999
 30
0.0
 11
48.20780223212199
 21
7.99928199999999
 31
0.0
  0
LINE
  5
6A
330
1E
100
AcDbEntity
  8
0
100
AcDbLine
 10
47.7442
 20
7.99928199999999
 30
0.0
 11
48.0418
 21
7.99928199999999
 31
0.0
  0
LINE
  5
6B
330
1E
100
AcDbEntity
  8
0
100
AcDbLine
 10
48.76380000000001
 20
7.81602199999999
 30
0.0
 11
49.8707
 21
7.80424199999999
 31
0.0
  0
LINE
  5
6C
330
1E
100
AcDbEntity
  8
0
100
AcDbLine
 10
48.76380000000001
 20
7.81602199999999
 30
0.0
 11
48.7667209552645
 21
7.99928199999999
 31
0.0
  0
LINE
  5
6D
330
1E
100
AcDbEntity
  8
0
100
AcDbLine
 10
48.2047
 20
7.80424199999999
 30
0.0
 11
48.4866
 21
7.77675199999999
 31
0.0
  0
LINE
  5
6E
330
1E
100
AcDbEntity
  8
0
100
AcDbLine
 10
48.2047
 20
7.80424199999999
 30
0.0
 11
48.20780223212199
 21
7.99928199999999
 31
0.0
  0
LINE
  5
6F
330
1E
100
AcDbEntity
  8
0
100
AcDbLine
 10
48.2047
 20
7.80424199999999
 30
0.0
 11
48.76380000000001
 21
7.81602199999999
 31
0.0
  0
LINE
  5
70
330
1E
100
AcDbEntity
  8
0
100
AcDbLine
 10
40.47769999999999
 20
7.999282
 30
0.0
 11
49.48199999999999
 21
7.99928199999999
 31
0.0
  0
LINE
  5
71
330
1E
100
AcDbEntity
  8
0
100
AcDbLine
 10
49.48199999999999
 20
7.99928199999999
 30
0.0
 11
59.07309999999999
 21
7.99928199999999
 31
0.0
  0
LINE
  5
72
330
1E
100
AcDbEntity
  8
0
100
AcDbLine
 10
35.8894287223365
 20
7.999282
 30
0.0
 11
39.31715176228929
 21
7.999282
 31
0.0
  0
LINE
  5
73
330
1E
100
AcDbEntity
  8
0
100
AcDbLine
 10
1.41492
 20
8.499282
 30
0.0
 11
3.419399999999999
 21
8.499282
 31
0.0
  0
LINE
  5
74
330
1E
100
AcDbEntity
  8
0
100
AcDbLine
 10
0.589552000000001
 20
8.499282
 30
0.0
 11
1.768659999999999
 21
7.999282
 31
0.0
  0
LINE
  5
75
330
1E
100
AcDbEntity
  8
0
100
AcDbLine
 10
0.589552000000001
 20
8.499282
 30
0.0
 11
1.41492
 21
8.499282
 31
0.0
  0
LINE
  5
76
330
1E
100
AcDbEntity
  8
0
100
AcDbLine
 10
1.768659999999999
 20
7.999282
 30
0.0
 11
2.59403
 21
7.999282
 31
0.0
  0
LINE
  5
77
330
1E
100
AcDbEntity
  8
0
100
AcDbLine
 10
0.589552000000001
 20
10.999282
 30
0.0
 11
2.358209999999999
 21
11.999282
 31
0.0
  0
LINE
  5
78
330
1E
100
AcDbEntity
  8
0
100
AcDbLine
 10
0.0000000000000006
 20
9.999282
 30
0.0
 11
0.589552000000001
 21
10.999282
 31
0.0
  0
LINE
  5
79
330
1E
100
AcDbEntity
  8
0
100
AcDbLine
 10
0.589552000000001
 20
10.999282
 30
0.0
 11
2.358209999999999
 21
11.999282
 31
0.0
  0
LINE
  5
7A
330
1E
100
AcDbEntity
  8
0
100
AcDbLine
 10
0.0000000000000006
 20
9.999282
 30
0.0
 11
0.589552000000001
 21
10.999282
 31
0.0
  0
LINE
  5
7B
330
1E
100
AcDbEntity
  8
0
100
AcDbLine
 10
0.0000000000000006
 20
9.499282
 30
0.0
 11
0.0000000000000006
 21
9.999282
 31
0.0
  0
LINE
  5
7C
330
1E
100
AcDbEntity
  8
0
100
AcDbLine
 10
0.0000000000000006
 20
9.499282
 30
0.0
 11
0.589552000000001
 21
8.499282
 31
0.0
  0
LINE
  5
7D
330
1E
100
AcDbEntity
  8
0
100
AcDbLine
 10
0.0000000000000005
 20
9.499282
 30
0.0
 11
0.589552000000001
 21
8.499282
 31
0.0
  0
LINE
  5
7E
330
1E
100
AcDbEntity
  8
0
100
AcDbLine
 10
0.589552000000001
 20
8.499282
 30
0.0
 11
1.768659999999999
 21
7.999282
 31
0.0
  0
LINE
  5
7F
330
1E
100
AcDbEntity
  8
0
100
AcDbLine
 10
0.589552000000001
 20
8.499282
 30
0.0
 11
1.41492
 21
8.499282
 31
0.0
  0
LINE
  5
80
330
1E
100
AcDbEntity
  8
0
100
AcDbLine
 10
4.59851
 20
7.999282
 30
0.0
 11
7.79882
 21
7.999282
 31
0.0
  0
LINE
  5
81
330
1E
100
AcDbEntity
  8
0
100
AcDbLine
 10
2.59403
 20
7.999282
 30
0.0
 11
4.59851
 21
7.999282
 31
0.0
  0
LINE
  5
82
330
1E
100
AcDbEntity
  8
0
100
AcDbLine
 10
7.79882
 20
7.999282
 30
0.0
 11
12.3015
 21
7.999282
 31
0.0
  0
LINE
  5
83
330
1E
100
AcDbEntity
  8
0
100
AcDbLine
 10
5.070149999999999
 20
7.999282
 30
0.0
 11
7.79882
 21
7.999282
 31
0.0
  0
LINE
  5
85
330
1E
100
AcDbEntity
  8
0
100
AcDbLine
 10
6.7209
 20
8.499282
 30
0.0
 11
11.21759999999999
 21
8.499282
 31
0.0
  0
LINE
  5
86
330
1E
100
AcDbEntity
  8
0
100
AcDbLine
 10
3.419399999999999
 20
8.499282
 30
0.0
 11
6.7209
 21
8.499282
 31
0.0
  0
LINE
  5
87
330
1E
100
AcDbEntity
  8
0
100
AcDbLine
 10
9.5
 20
29.999282
 30
0.0
 11
10.0
 21
34.999282
 31
0.0
  0
LINE
  5
88
330
1E
100
AcDbEntity
  8
0
100
AcDbLine
 10
8.0
 20
22.999282
 30
0.0
 11
9.5
 21
29.999282
 31
0.0
  0
LINE
  5
89
330
1E
100
AcDbEntity
  8
0
100
AcDbLine
 10
5.0
 20
15.999282
 30
0.0
 11
8.0
 21
22.999282
 31
0.0
  0
LINE
  5
8A
330
1E
100
AcDbEntity
  8
0
100
AcDbLine
 10
2.358209999999999
 20
11.999282
 30
0.0
 11
5.0
 21
15.999282
 31
0.0
  0
LINE
  5
8B
330
1E
100
AcDbEntity
  8
0
100
AcDbLine
 10
3.18358
 20
7.999282
 30
0.0
 11
5.070149999999999
 21
7.999282
 31
0.0
  0
LINE
  5
8C
330
1E
100
AcDbEntity
  8
0
100
AcDbLine
 10
2.358209999999999
 20
7.999282
 30
0.0
 11
3.18358
 21
7.999282
 31
0.0
  0
LINE
  5
8D
330
1E
100
AcDbEntity
  8
0
100
AcDbLine
 10
10.0
 20
34.999282
 30
0.0
 11
11.0
 21
36.499282
 31
0.0
  0
LINE
  5
8E
330
1E
100
AcDbEntity
  8
0
100
AcDbLine
 10
12.3015
 20
7.999282
 30
0.0
 11
17.88799999999999
 21
7.999282
 31
0.0
  0
LINE
  5
8F
330
1E
100
AcDbEntity
  8
0
100
AcDbLine
 10
17.88799999999999
 20
7.999282
 30
0.0
 11
24.3916
 21
7.999282
 31
0.0
  0
LINE
  5
90
330
1E
100
AcDbEntity
  8
0
100
AcDbLine
 10
12.3015
 20
7.999282
 30
0.0
 11
12.7183
 21
7.999282
 31
0.0
  0
LINE
  5
9E
330
1E
100
AcDbEntity
  8
0
100
AcDbLine
 10
11.21759999999999
 20
8.499282
 30
0.0
 11
16.9709
 21
8.499282
 31
0.0
  0
LINE
  5
A4
330
1E
100
AcDbEntity
  8
0
100
AcDbLine
 10
16.9709
 20
8.499282
 30
0.0
 11
23.5556
 21
8.499282
 31
0.0
  0
LINE
  5
A5
330
1E
100
AcDbEntity
  8
0
100
AcDbLine
 10
12.7183
 20
7.999282
 30
0.0
 11
18.3049
 21
7.999282
 31
0.0
  0
LINE
  5
B5
330
1E
100
AcDbEntity
  8
0
100
AcDbLine
 10
23.5556
 20
8.499282
 30
0.0
 11
31.3066
 21
8.499282
 31
0.0
  0
LINE
  5
BD
330
1E
100
AcDbEntity
  8
0
100
AcDbLine
 10
24.3916
 20
7.999282
 30
0.0
 11
32.05699999999999
 21
7.999282
 31
0.0
  0
LINE
  5
BE
330
1E
100
AcDbEntity
  8
0
100
AcDbLine
 10
18.3049
 20
7.999282
 30
0.0
 11
24.3916
 21
7.999282
 31
0.0
  0
LINE
  5
BF
330
1E
100
AcDbEntity
  8
0
100
AcDbLine
 10
12.0
 20
36.999282
 30
0.0
 11
12.5665
 21
37.02358199999999
 31
0.0
  0
LINE
  5
C0
330
1E
100
AcDbEntity
  8
0
100
AcDbLine
 10
11.0
 20
36.499282
 30
0.0
 11
12.0
 21
36.999282
 31
0.0
  0
LINE
  5
C1
330
1E
100
AcDbEntity
  8
0
100
AcDbLine
 10
12.5665
 20
37.02358199999999
 30
0.0
 11
23.6364608328356
 21
37.32251702313429
 31
0.0
  0
LINE
  5
C2
330
1E
100
AcDbEntity
  8
0
100
AcDbLine
 10
12.5665
 20
37.02358199999999
 30
0.0
 11
23.6364608328356
 21
37.32251702313429
 31
0.0
  0
LINE
  5
C3
330
1E
100
AcDbEntity
  8
0
100
AcDbLine
 10
12.5665
 20
37.02358199999999
 30
0.0
 11
30.4156
 21
37.505582
 31
0.0
  0
LINE
  5
CF
330
1E
100
AcDbEntity
  8
0
100
AcDbLine
 10
39.89399999999999
 20
8.499282
 30
0.0
 11
49.0507
 21
8.499282
 31
0.0
  0
LINE
  5
D1
330
1E
100
AcDbEntity
  8
0
100
AcDbLine
 10
31.3066
 20
8.499282
 30
0.0
 11
39.89399999999999
 21
8.499282
 31
0.0
  0
LINE
  5
D2
330
1E
100
AcDbEntity
  8
0
100
AcDbLine
 10
49.0507
 20
8.499282
 30
0.0
 11
58.7194
 21
8.499282
 31
0.0
  0
LINE
  5
D3
330
1E
100
AcDbEntity
  8
0
100
AcDbLine
 10
30.4156
 20
37.505582
 30
0.0
 11
60.1503
 21
38.004782
 31
0.0
  0
LINE
  5
D4
330
1E
100
AcDbEntity
  8
0
100
AcDbLine
 10
32.73669137376249
 20
7.999282
 30
0.0
 11
33.11683031917729
 21
7.999282
 31
0.0
  0
LINE
  5
D5
330
1E
100
AcDbEntity
  8
0
100
AcDbLine
 10
32.73669137376249
 20
7.999282
 30
0.0
 11
33.11683031917729
 21
7.999282
 31
0.0
  0
LINE
  5
D6
330
1E
100
AcDbEntity
  8
0
100
AcDbLine
 10
65.6472
 20
5.99928199999999
 30
0.0
 11
66.0508
 21
5.99928199999999
 31
0.0
  0
LINE
  5
D7
330
1E
100
AcDbEntity
  8
0
100
AcDbLine
 10
65.4923
 20
5.99928199999999
 30
0.0
 11
65.6447
 21
5.99928199999999
 31
0.0
  0
LINE
  5
D8
330
1E
100
AcDbEntity
  8
0
100
AcDbLine
 10
65.4923
 20
5.99928199999999
 30
0.0
 11
65.6472
 21
5.99928199999999
 31
0.0
  0
LINE
  5
D9
330
1E
100
AcDbEntity
  8
0
100
AcDbLine
 10
54.7137
 20
7.52070199999999
 30
0.0
 11
54.7261313539937
 21
7.99928199999999
 31
0.0
  0
LINE
  5
DA
330
1E
100
AcDbEntity
  8
0
100
AcDbLine
 10
54.1306
 20
7.53248199999999
 30
0.0
 11
54.7137
 21
7.52070199999999
 31
0.0
  0
LINE
  5
DB
330
1E
100
AcDbEntity
  8
0
100
AcDbLine
 10
54.4047
 20
7.53248199999999
 30
0.0
 11
54.7137
 21
7.52070199999999
 31
0.0
  0
LINE
  5
DC
330
1E
100
AcDbEntity
  8
0
100
AcDbLine
 10
54.4047
 20
7.53248199999999
 30
0.0
 11
54.41684084694899
 21
7.99928199999999
 31
0.0
  0
LINE
  5
DD
330
1E
100
AcDbEntity
  8
0
100
AcDbLine
 10
59.8484
 20
7.53248199999999
 30
0.0
 11
59.8530122825484
 21
7.754152438502219
 31
0.0
  0
LINE
  5
DE
330
1E
100
AcDbEntity
  8
0
100
AcDbLine
 10
58.57
 20
7.53248199999999
 30
0.0
 11
59.5662
 21
7.52070199999999
 31
0.0
  0
LINE
  5
DF
330
1E
100
AcDbEntity
  8
0
100
AcDbLine
 10
59.5662
 20
7.52070199999999
 30
0.0
 11
59.8484
 21
7.53248199999999
 31
0.0
  0
LINE
  5
E0
330
1E
100
AcDbEntity
  8
0
100
AcDbLine
 10
56.3688
 20
7.52070199999999
 30
0.0
 11
56.3803696170031
 21
7.99928199999999
 31
0.0
  0
LINE
  5
E1
330
1E
100
AcDbEntity
  8
0
100
AcDbLine
 10
52.0494
 20
7.58745199999999
 30
0.0
 11
53.0313
 21
7.55996199999999
 31
0.0
  0
LINE
  5
E2
330
1E
100
AcDbEntity
  8
0
100
AcDbLine
 10
53.0313
 20
7.55996199999999
 30
0.0
 11
54.1306
 21
7.53248199999999
 31
0.0
  0
LINE
  5
E3
330
1E
100
AcDbEntity
  8
0
100
AcDbLine
 10
53.4229
 20
7.55996199999999
 30
0.0
 11
54.4047
 21
7.53248199999999
 31
0.0
  0
LINE
  5
E4
330
1E
100
AcDbEntity
  8
0
100
AcDbLine
 10
53.4229
 20
7.55996199999999
 30
0.0
 11
53.4242419446609
 21
7.611691034406839
 31
0.0
  0
LINE
  5
E5
330
1E
100
AcDbEntity
  8
0
100
AcDbLine
 10
53.4229
 20
7.55996199999999
 30
0.0
 11
53.4242419446609
 21
7.611691034406829
 31
0.0
  0
LINE
  5
E6
330
1E
100
AcDbEntity
  8
0
100
AcDbLine
 10
52.3235
 20
7.58745199999999
 30
0.0
 11
53.4229
 21
7.55996199999999
 31
0.0
  0
LINE
  5
E7
330
1E
100
AcDbEntity
  8
0
100
AcDbLine
 10
56.9046
 20
7.58745199999999
 30
0.0
 11
57.4634
 21
7.55996199999999
 31
0.0
  0
LINE
  5
E8
330
1E
100
AcDbEntity
  8
0
100
AcDbLine
 10
56.9046
 20
7.58745199999999
 30
0.0
 11
57.1869
 21
7.59923199999999
 31
0.0
  0
LINE
  5
E9
330
1E
100
AcDbEntity
  8
0
100
AcDbLine
 10
56.9046
 20
7.58745199999999
 30
0.0
 11
56.91315538775501
 21
7.99928199999999
 31
0.0
  0
LINE
  5
EA
330
1E
100
AcDbEntity
  8
0
100
AcDbLine
 10
57.4634
 20
7.55996199999999
 30
0.0
 11
58.57
 21
7.53248199999999
 31
0.0
  0
LINE
  5
EB
330
1E
100
AcDbEntity
  8
0
100
AcDbLine
 10
59.2897
 20
7.55996199999999
 30
0.0
 11
59.8484
 21
7.53248199999999
 31
0.0
  0
LINE
  5
EC
330
1E
100
AcDbEntity
  8
0
100
AcDbLine
 10
59.2897
 20
7.55996199999999
 30
0.0
 11
59.294117176818
 21
7.77293951801962
 31
0.0
  0
LINE
  5
ED
330
1E
100
AcDbEntity
  8
0
100
AcDbLine
 10
59.2897
 20
7.55996199999999
 30
0.0
 11
59.294117176818
 21
7.77293951801962
 31
0.0
  0
LINE
  5
EE
330
1E
100
AcDbEntity
  8
0
100
AcDbLine
 10
58.183
 20
7.58745199999999
 30
0.0
 11
59.2897
 21
7.55996199999999
 31
0.0
  0
LINE
  5
EF
330
1E
100
AcDbEntity
  8
0
100
AcDbLine
 10
58.183
 20
7.58745199999999
 30
0.0
 11
58.191555387755
 21
7.99928199999999
 31
0.0
  0
LINE
  5
F0
330
1E
100
AcDbEntity
  8
0
100
AcDbLine
 10
54.71452906055169
 20
7.55261902199495
 30
0.0
 11
55.5513
 21
7.53248199999999
 31
0.0
  0
LINE
  5
F1
330
1E
100
AcDbEntity
  8
0
100
AcDbLine
 10
55.5513
 20
7.53248199999999
 30
0.0
 11
56.3688
 21
7.52070199999999
 31
0.0
  0
LINE
  5
F2
330
1E
100
AcDbEntity
  8
0
100
AcDbLine
 10
55.5513
 20
7.53248199999999
 30
0.0
 11
55.5626003267756
 21
7.99928199999999
 31
0.0
  0
LINE
  5
F3
330
1E
100
AcDbEntity
  8
0
100
AcDbLine
 10
62.981
 20
7.53248199999999
 30
0.0
 11
64.0879
 21
7.52070199999999
 31
0.0
  0
LINE
  5
F4
330
1E
100
AcDbEntity
  8
0
100
AcDbLine
 10
62.981
 20
7.53248199999999
 30
0.0
 11
62.9884401600534
 21
7.99928199999999
 31
0.0
  0
LINE
  5
F5
330
1E
100
AcDbEntity
  8
0
100
AcDbLine
 10
61.985
 20
7.55996199999999
 30
0.0
 11
62.981
 21
7.53248199999999
 31
0.0
  0
LINE
  5
F6
330
1E
100
AcDbEntity
  8
0
100
AcDbLine
 10
61.985
 20
7.55996199999999
 30
0.0
 11
61.992002119359
 21
7.99928199999999
 31
0.0
  0
LINE
  5
F7
330
1E
100
AcDbEntity
  8
0
100
AcDbLine
 10
51.7404
 20
7.59923199999999
 30
0.0
 11
52.3235
 21
7.58745199999999
 31
0.0
  0
LINE
  5
F8
330
1E
100
AcDbEntity
  8
0
100
AcDbLine
 10
51.7404
 20
7.59923199999999
 30
0.0
 11
52.0494
 21
7.58745199999999
 31
0.0
  0
LINE
  5
F9
330
1E
100
AcDbEntity
  8
0
100
AcDbLine
 10
57.1869
 20
7.59923199999999
 30
0.0
 11
58.183
 21
7.58745199999999
 31
0.0
  0
LINE
  5
FA
330
1E
100
AcDbEntity
  8
0
100
AcDbLine
 10
57.1869
 20
7.59923199999999
 30
0.0
 11
57.1952106137148
 21
7.99928199999999
 31
0.0
  0
LINE
  5
FB
330
1E
100
AcDbEntity
  8
0
100
AcDbLine
 10
54.2329
 20
7.61920199999999
 30
0.0
 11
54.2399465451587
 21
7.99928199999999
 31
0.0
  0
LINE
  5
FC
330
1E
100
AcDbEntity
  8
0
100
AcDbLine
 10
53.8086
 20
7.60742199999999
 30
0.0
 11
54.2329
 21
7.61920199999999
 31
0.0
  0
LINE
  5
FD
330
1E
100
AcDbEntity
  8
0
100
AcDbLine
 10
52.7486
 20
7.67416199999999
 30
0.0
 11
53.809
 21
7.64668199999999
 31
0.0
  0
LINE
  5
FE
330
1E
100
AcDbEntity
  8
0
100
AcDbLine
 10
52.7486
 20
7.67416199999999
 30
0.0
 11
52.7546166854506
 21
7.99928199999999
 31
0.0
  0
LINE
  5
FF
330
1E
100
AcDbEntity
  8
0
100
AcDbLine
 10
53.809
 20
7.64668199999999
 30
0.0
 11
54.2329
 21
7.61920199999999
 31
0.0
  0
LINE
  5
100
330
1E
100
AcDbEntity
  8
0
100
AcDbLine
 10
53.809
 20
7.64668199999999
 30
0.0
 11
53.81552527509171
 21
7.99928199999999
 31
0.0
  0
LINE
  5
101
330
1E
100
AcDbEntity
  8
0
100
AcDbLine
 10
52.748
 20
7.61920199999999
 30
0.0
 11
53.8086
 21
7.60742199999999
 31
0.0
  0
LINE
  5
102
330
1E
100
AcDbEntity
  8
0
100
AcDbLine
 10
51.6876
 20
7.64668199999999
 30
0.0
 11
51.74159466736939
 21
7.64528274173961
 31
0.0
  0
LINE
  5
103
330
1E
100
AcDbEntity
  8
0
100
AcDbLine
 10
51.6876
 20
7.64668199999999
 30
0.0
 11
52.748
 21
7.61920199999999
 31
0.0
  0
LINE
  5
104
330
1E
100
AcDbEntity
  8
0
100
AcDbLine
 10
51.688
 20
7.685952
 30
0.0
 11
52.7486
 21
7.67416199999999
 31
0.0
  0
LINE
  5
105
330
1E
100
AcDbEntity
  8
0
100
AcDbLine
 10
51.688
 20
7.685952
 30
0.0
 11
51.6937986731934
 21
7.99928199999999
 31
0.0
  0
LINE
  5
106
330
1E
100
AcDbEntity
  8
0
100
AcDbLine
 10
54.2686
 20
7.99928199999999
 30
0.0
 11
56.89779999999999
 21
7.99928199999999
 31
0.0
  0
LINE
  5
107
330
1E
100
AcDbEntity
  8
0
100
AcDbLine
 10
56.8998
 20
7.99928199999999
 30
0.0
 11
59.07309999999999
 21
7.99928199999999
 31
0.0
  0
LINE
  5
108
330
1E
100
AcDbEntity
  8
0
100
AcDbLine
 10
59.1807
 20
7.77675199999999
 30
0.0
 11
59.99819999999999
 21
7.74927199999999
 31
0.0
  0
LINE
  5
109
330
1E
100
AcDbEntity
  8
0
100
AcDbLine
 10
59.1807
 20
7.77675199999999
 30
0.0
 11
59.1829335142868
 21
7.99928199999999
 31
0.0
  0
LINE
  5
10A
330
1E
100
AcDbEntity
  8
0
100
AcDbLine
 10
59.1948
 20
7.80424199999999
 30
0.0
 11
59.9927
 21
7.81602199999999
 31
0.0
  0
LINE
  5
10B
330
1E
100
AcDbEntity
  8
0
100
AcDbLine
 10
59.1948
 20
7.80424199999999
 30
0.0
 11
59.1967575930162
 21
7.99928199999999
 31
0.0
  0
LINE
  5
10C
330
1E
100
AcDbEntity
  8
0
100
AcDbLine
 10
51.2637
 20
7.67416199999999
 30
0.0
 11
51.6876
 21
7.64668199999999
 31
0.0
  0
LINE
  5
10D
330
1E
100
AcDbEntity
  8
0
100
AcDbLine
 10
51.2637
 20
7.67416199999999
 30
0.0
 11
51.2697166854506
 21
7.99928199999999
 31
0.0
  0
LINE
  5
10E
330
1E
100
AcDbEntity
  8
0
100
AcDbLine
 10
51.2637
 20
7.67416199999999
 30
0.0
 11
51.688
 21
7.685952
 31
0.0
  0
LINE
  5
10F
330
1E
100
AcDbEntity
  8
0
100
AcDbLine
 10
61.1404
 20
7.737491999999999
 30
0.0
 11
61.9383
 21
7.74927199999999
 31
0.0
  0
LINE
  5
110
330
1E
100
AcDbEntity
  8
0
100
AcDbLine
 10
59.9927
 20
7.81602199999999
 30
0.0
 11
61.135
 21
7.80424199999999
 31
0.0
  0
LINE
  5
111
330
1E
100
AcDbEntity
  8
0
100
AcDbLine
 10
59.9927
 20
7.81602199999999
 30
0.0
 11
59.9945393463067
 21
7.99928199999999
 31
0.0
  0
LINE
  5
112
330
1E
100
AcDbEntity
  8
0
100
AcDbLine
 10
63.4227
 20
7.99928199999999
 30
0.0
 11
67.0009
 21
7.99928199999999
 31
0.0
  0
LINE
  5
113
330
1E
100
AcDbEntity
  8
0
100
AcDbLine
 10
61.9524
 20
7.77675199999999
 30
0.0
 11
61.9546260939735
 21
7.99928199999999
 31
0.0
  0
LINE
  5
114
330
1E
100
AcDbEntity
  8
0
100
AcDbLine
 10
61.9524
 20
7.77675199999999
 30
0.0
 11
61.9546260939735
 21
7.99928199999999
 31
0.0
  0
LINE
  5
115
330
1E
100
AcDbEntity
  8
0
100
AcDbLine
 10
61.135
 20
7.80424199999999
 30
0.0
 11
61.9524
 21
7.77675199999999
 31
0.0
  0
LINE
  5
116
330
1E
100
AcDbEntity
  8
0
100
AcDbLine
 10
61.135
 20
7.80424199999999
 30
0.0
 11
61.1369510893849
 21
7.99928199999999
 31
0.0
  0
LINE
  5
117
330
1E
100
AcDbEntity
  8
0
100
AcDbLine
 10
59.99819999999999
 20
7.74927199999999
 30
0.0
 11
61.1404
 21
7.737491999999999
 31
0.0
  0
LINE
  5
118
330
1E
100
AcDbEntity
  8
0
100
AcDbLine
 10
59.8530122825484
 20
7.754152438502219
 30
0.0
 11
59.99819999999999
 21
7.74927199999999
 31
0.0
  0
LINE
  5
119
330
1E
100
AcDbEntity
  8
0
100
AcDbLine
 10
61.7031
 20
7.58745199999999
 30
0.0
 11
61.985
 21
7.55996199999999
 31
0.0
  0
LINE
  5
11A
330
1E
100
AcDbEntity
  8
0
100
AcDbLine
 10
61.7031
 20
7.58745199999999
 30
0.0
 11
61.7056244987905
 21
7.745836835939019
 31
0.0
  0
LINE
  5
11B
330
1E
100
AcDbEntity
  8
0
100
AcDbLine
 10
64.0879
 20
7.52070199999999
 30
0.0
 11
64.4096097183385
 21
7.52748028739407
 31
0.0
  0
LINE
  5
11C
330
1E
100
AcDbEntity
  8
0
100
AcDbLine
 10
64.0879
 20
7.52070199999999
 30
0.0
 11
64.0950840069178
 21
7.9714277963685
 31
0.0
  0
LINE
  5
11D
330
1E
100
AcDbEntity
  8
0
100
AcDbLine
 10
64.07535
 20
7.99928199999999
 30
0.0
 11
65.4923
 21
5.99928199999999
 31
0.0
  0
LINE
  5
11E
330
1E
100
AcDbEntity
  8
0
100
AcDbLine
 10
65.6447
 20
5.99928199999999
 30
0.0
 11
66.04519999999999
 21
5.99928199999999
 31
0.0
  0
LINE
  5
11F
330
1E
100
AcDbEntity
  8
0
100
AcDbLine
 10
66.7208
 20
5.99928199999999
 30
0.0
 11
67.5825
 21
5.99928199999999
 31
0.0
  0
LINE
  5
120
330
1E
100
AcDbEntity
  8
0
100
AcDbLine
 10
66.0508
 20
5.99928199999999
 30
0.0
 11
66.7208
 21
5.99928199999999
 31
0.0
  0
LINE
  5
121
330
1E
100
AcDbEntity
  8
0
100
AcDbLine
 10
67.5825
 20
5.99928199999999
 30
0.0
 11
68.6122
 21
5.99928199999999
 31
0.0
  0
LINE
  5
122
330
1E
100
AcDbEntity
  8
0
100
AcDbLine
 10
68.6122
 20
5.99928199999999
 30
0.0
 11
69.68810000000001
 21
5.99928199999999
 31
0.0
  0
LINE
  5
123
330
1E
100
AcDbEntity
  8
0
100
AcDbLine
 10
68.60120000000001
 20
5.99928199999999
 30
0.0
 11
69.6768
 21
5.99928199999999
 31
0.0
  0
LINE
  5
124
330
1E
100
AcDbEntity
  8
0
100
AcDbLine
 10
67.59229999999999
 20
5.99928199999999
 30
0.0
 11
68.60120000000001
 21
5.99928199999999
 31
0.0
  0
LINE
  5
125
330
1E
100
AcDbEntity
  8
0
100
AcDbLine
 10
67.6662
 20
7.55996199999999
 30
0.0
 11
68.48359999999999
 21
7.53248199999999
 31
0.0
  0
LINE
  5
126
330
1E
100
AcDbEntity
  8
0
100
AcDbLine
 10
67.6662
 20
7.55996199999999
 30
0.0
 11
67.670594635581
 21
7.99928199999999
 31
0.0
  0
LINE
  5
127
330
1E
100
AcDbEntity
  8
0
100
AcDbLine
 10
67.6662
 20
7.55996199999999
 30
0.0
 11
67.670594635581
 21
7.99928199999999
 31
0.0
  0
LINE
  5
128
330
1E
100
AcDbEntity
  8
0
100
AcDbLine
 10
67.6803
 20
7.58745199999999
 30
0.0
 11
68.4782
 21
7.59923199999999
 31
0.0
  0
LINE
  5
129
330
1E
100
AcDbEntity
  8
0
100
AcDbLine
 10
67.6803
 20
7.58745199999999
 30
0.0
 11
67.68441976938439
 21
7.99928199999999
 31
0.0
  0
LINE
  5
12A
330
1E
100
AcDbEntity
  8
0
100
AcDbLine
 10
67.0009
 20
7.99928199999999
 30
0.0
 11
67.94468672224081
 21
7.99928199999999
 31
0.0
  0
LINE
  5
12B
330
1E
100
AcDbEntity
  8
0
100
AcDbLine
 10
67.0009
 20
7.99928199999999
 30
0.0
 11
67.9446867222407
 21
7.99928199999999
 31
0.0
  0
LINE
  5
12C
330
1E
100
AcDbEntity
  8
0
100
AcDbLine
 10
67.9423
 20
7.64668199999999
 30
0.0
 11
68.10529999999999
 21
7.67416199999999
 31
0.0
  0
LINE
  5
12D
330
1E
100
AcDbEntity
  8
0
100
AcDbLine
 10
67.9423
 20
7.64668199999999
 30
0.0
 11
68.6487
 21
7.61920199999999
 31
0.0
  0
LINE
  5
12E
330
1E
100
AcDbEntity
  8
0
100
AcDbLine
 10
67.9423
 20
7.64668199999999
 30
0.0
 11
67.9446867222407
 21
7.99928199999999
 31
0.0
  0
LINE
  5
12F
330
1E
100
AcDbEntity
  8
0
100
AcDbLine
 10
67.9423
 20
7.64668199999999
 30
0.0
 11
67.9446867222407
 21
7.99928199999999
 31
0.0
  0
LINE
  5
130
330
1E
100
AcDbEntity
  8
0
100
AcDbLine
 10
68.4782
 20
7.59923199999999
 30
0.0
 11
69.6204
 21
7.58745199999999
 31
0.0
  0
LINE
  5
131
330
1E
100
AcDbEntity
  8
0
100
AcDbLine
 10
68.48359999999999
 20
7.53248199999999
 30
0.0
 11
69.6259
 21
7.52070199999999
 31
0.0
  0
LINE
  5
132
330
1E
100
AcDbEntity
  8
0
100
AcDbLine
 10
68.6487
 20
7.61920199999999
 30
0.0
 11
69.7793
 21
7.60742199999999
 31
0.0
  0
LINE
  5
133
330
1E
100
AcDbEntity
  8
0
100
AcDbLine
 10
68.10529999999999
 20
7.67416199999999
 30
0.0
 11
69.00310000000001
 21
7.68595199999999
 31
0.0
  0
LINE
  5
134
330
1E
100
AcDbEntity
  8
0
100
AcDbLine
 10
68.10529999999999
 20
7.67416199999999
 30
0.0
 11
68.10750069756121
 21
7.99928199999999
 31
0.0
  0
LINE
  5
135
330
1E
100
AcDbEntity
  8
0
100
AcDbLine
 10
68.10529999999999
 20
7.67416199999999
 30
0.0
 11
68.10750069756121
 21
7.99928199999999
 31
0.0
  0
LINE
  5
136
330
1E
100
AcDbEntity
  8
0
100
AcDbLine
 10
66.7367
 20
5.99928199999999
 30
0.0
 11
67.59229999999999
 21
5.99928199999999
 31
0.0
  0
LINE
  5
137
330
1E
100
AcDbEntity
  8
0
100
AcDbLine
 10
66.04519999999999
 20
5.99928199999999
 30
0.0
 11
66.7367
 21
5.99928199999999
 31
0.0
  0
LINE
  5
138
330
1E
100
AcDbEntity
  8
0
100
AcDbLine
 10
59.07309999999999
 20
7.99928199999999
 30
0.0
 11
68.97759999999999
 21
7.99928199999999
 31
0.0
  0
LINE
  5
139
330
1E
100
AcDbEntity
  8
0
100
AcDbLine
 10
69.68810000000001
 20
5.99928199999999
 30
0.0
 11
70.7637
 21
5.99928199999999
 31
0.0
  0
LINE
  5
13A
330
1E
100
AcDbEntity
  8
0
100
AcDbLine
 10
70.7637
 20
5.99928199999999
 30
0.0
 11
71.7727
 21
5.99928199999999
 31
0.0
  0
LINE
  5
13B
330
1E
100
AcDbEntity
  8
0
100
AcDbLine
 10
71.7727
 20
5.99928199999999
 30
0.0
 11
72.6283
 21
5.99928199999999
 31
0.0
  0
LINE
  5
13C
330
1E
100
AcDbEntity
  8
0
100
AcDbLine
 10
72.6283
 20
5.99928199999999
 30
0.0
 11
73.3198
 21
5.99928199999999
 31
0.0
  0
LINE
  5
13D
330
1E
100
AcDbEntity
  8
0
100
AcDbLine
 10
71.7825
 20
5.99928199999999
 30
0.0
 11
72.6442
 21
5.99928199999999
 31
0.0
  0
LINE
  5
13E
330
1E
100
AcDbEntity
  8
0
100
AcDbLine
 10
72.6442
 20
5.99928199999999
 30
0.0
 11
73.31409999999999
 21
5.99928199999999
 31
0.0
  0
LINE
  5
13F
330
1E
100
AcDbEntity
  8
0
100
AcDbLine
 10
73.31409999999999
 20
5.99928199999999
 30
0.0
 11
73.71769999999999
 21
5.99928199999999
 31
0.0
  0
LINE
  5
140
330
1E
100
AcDbEntity
  8
0
100
AcDbLine
 10
73.71769999999999
 20
5.99928199999999
 30
0.0
 11
73.8727
 21
5.99928199999999
 31
0.0
  0
LINE
  5
141
330
1E
100
AcDbEntity
  8
0
100
AcDbLine
 10
73.8727
 20
5.99928199999999
 30
0.0
 11
75.28964999999999
 21
7.99928199999999
 31
0.0
  0
LINE
  5
142
330
1E
100
AcDbEntity
  8
0
100
AcDbLine
 10
73.72029999999999
 20
5.99928199999999
 30
0.0
 11
73.8727
 21
5.99928199999999
 31
0.0
  0
LINE
  5
143
330
1E
100
AcDbEntity
  8
0
100
AcDbLine
 10
73.3198
 20
5.99928199999999
 30
0.0
 11
73.72029999999999
 21
5.99928199999999
 31
0.0
  0
LINE
  5
144
330
1E
100
AcDbEntity
  8
0
100
AcDbLine
 10
70.75279999999999
 20
5.99928199999999
 30
0.0
 11
71.7825
 21
5.99928199999999
 31
0.0
  0
LINE
  5
145
330
1E
100
AcDbEntity
  8
0
100
AcDbLine
 10
69.6768
 20
5.99928199999999
 30
0.0
 11
70.75279999999999
 21
5.99928199999999
 31
0.0
  0
LINE
  5
146
330
1E
100
AcDbEntity
  8
0
100
AcDbLine
 10
74.7752
 20
5.99928199999999
 30
0.0
 11
74.9432
 21
5.99928199999999
 31
0.0
  0
LINE
  5
147
330
1E
100
AcDbEntity
  8
0
100
AcDbLine
 10
74.9432
 20
5.99928199999999
 30
0.0
 11
75.34919999999999
 21
5.99928199999999
 31
0.0
  0
LINE
  5
148
330
1E
100
AcDbEntity
  8
0
100
AcDbLine
 10
75.34919999999999
 20
5.99928199999999
 30
0.0
 11
76.02119999999999
 21
5.99928199999999
 31
0.0
  0
LINE
  5
149
330
1E
100
AcDbEntity
  8
0
100
AcDbLine
 10
69.6204
 20
7.58745199999999
 30
0.0
 11
70.43779999999999
 21
7.55996199999999
 31
0.0
  0
LINE
  5
14A
330
1E
100
AcDbEntity
  8
0
100
AcDbLine
 10
70.43779999999999
 20
7.55996199999999
 30
0.0
 11
70.43836312963221
 21
7.61606954251176
 31
0.0
  0
LINE
  5
14B
330
1E
100
AcDbEntity
  8
0
100
AcDbLine
 10
69.6259
 20
7.52070199999999
 30
0.0
 11
70.4238
 21
7.53248199999999
 31
0.0
  0
LINE
  5
14C
330
1E
100
AcDbEntity
  8
0
100
AcDbLine
 10
69.00310000000001
 20
7.68595199999999
 30
0.0
 11
70.13379999999999
 21
7.67416199999999
 31
0.0
  0
LINE
  5
14D
330
1E
100
AcDbEntity
  8
0
100
AcDbLine
 10
69.00310000000001
 20
7.68595199999999
 30
0.0
 11
69.005220956141
 21
7.99928199999999
 31
0.0
  0
LINE
  5
14E
330
1E
100
AcDbEntity
  8
0
100
AcDbLine
 10
70.13379999999999
 20
7.67416199999999
 30
0.0
 11
70.84010000000001
 21
7.64668199999999
 31
0.0
  0
LINE
  5
14F
330
1E
100
AcDbEntity
  8
0
100
AcDbLine
 10
70.13379999999999
 20
7.67416199999999
 30
0.0
 11
70.1360006975612
 21
7.99928199999999
 31
0.0
  0
LINE
  5
150
330
1E
100
AcDbEntity
  8
0
100
AcDbLine
 10
70.84010000000001
 20
7.64668199999999
 30
0.0
 11
70.84248672224081
 21
7.99928199999999
 31
0.0
  0
LINE
  5
151
330
1E
100
AcDbEntity
  8
0
100
AcDbLine
 10
70.84010000000001
 20
7.64668199999999
 30
0.0
 11
70.84248672224081
 21
7.99928199999999
 31
0.0
  0
LINE
  5
152
330
1E
100
AcDbEntity
  8
0
100
AcDbLine
 10
70.67709999999999
 20
7.61920199999999
 30
0.0
 11
70.84010000000001
 21
7.64668199999999
 31
0.0
  0
LINE
  5
153
330
1E
100
AcDbEntity
  8
0
100
AcDbLine
 10
69.7793
 20
7.60742199999999
 30
0.0
 11
70.67709999999999
 21
7.61920199999999
 31
0.0
  0
LINE
  5
154
330
1E
100
AcDbEntity
  8
0
100
AcDbLine
 10
73.8907
 20
7.74927199999999
 30
0.0
 11
74.1999
 21
7.77675199999999
 31
0.0
  0
LINE
  5
155
330
1E
100
AcDbEntity
  8
0
100
AcDbLine
 10
72.9084
 20
7.73749199999999
 30
0.0
 11
73.8907
 21
7.74927199999999
 31
0.0
  0
LINE
  5
156
330
1E
100
AcDbEntity
  8
0
100
AcDbLine
 10
74.1999
 20
7.77675199999999
 30
0.0
 11
74.200656871951
 21
7.99928199999999
 31
0.0
  0
LINE
  5
157
330
1E
100
AcDbEntity
  8
0
100
AcDbLine
 10
73.6167
 20
7.80424199999999
 30
0.0
 11
74.1999
 21
7.77675199999999
 31
0.0
  0
LINE
  5
158
330
1E
100
AcDbEntity
  8
0
100
AcDbLine
 10
73.6167
 20
7.80424199999999
 30
0.0
 11
73.6173698740222
 21
7.99928199999999
 31
0.0
  0
LINE
  5
159
330
1E
100
AcDbEntity
  8
0
100
AcDbLine
 10
71.8087
 20
7.74927199999999
 30
0.0
 11
72.9084
 21
7.73749199999999
 31
0.0
  0
LINE
  5
15A
330
1E
100
AcDbEntity
  8
0
100
AcDbLine
 10
71.2255
 20
7.77675199999999
 30
0.0
 11
71.5347
 21
7.80424199999999
 31
0.0
  0
LINE
  5
15B
330
1E
100
AcDbEntity
  8
0
100
AcDbLine
 10
71.2255
 20
7.77675199999999
 30
0.0
 11
71.8087
 21
7.74927199999999
 31
0.0
  0
LINE
  5
15C
330
1E
100
AcDbEntity
  8
0
100
AcDbLine
 10
71.2255
 20
7.77675199999999
 30
0.0
 11
71.2262642922642
 21
7.99928199999999
 31
0.0
  0
LINE
  5
15D
330
1E
100
AcDbEntity
  8
0
100
AcDbLine
 10
72.51699999999999
 20
7.81602199999999
 30
0.0
 11
73.6167
 21
7.80424199999999
 31
0.0
  0
LINE
  5
15E
330
1E
100
AcDbEntity
  8
0
100
AcDbLine
 10
72.51699999999999
 20
7.81602199999999
 30
0.0
 11
72.5176233000774
 21
7.99928199999999
 31
0.0
  0
LINE
  5
15F
330
1E
100
AcDbEntity
  8
0
100
AcDbLine
 10
71.5347
 20
7.80424199999999
 30
0.0
 11
72.51699999999999
 21
7.81602199999999
 31
0.0
  0
LINE
  5
160
330
1E
100
AcDbEntity
  8
0
100
AcDbLine
 10
71.5347
 20
7.80424199999999
 30
0.0
 11
71.53536337039089
 21
7.99928199999999
 31
0.0
  0
LINE
  5
161
330
1E
100
AcDbEntity
  8
0
100
AcDbLine
 10
74.3266652372246
 20
6.640045946821919
 30
0.0
 11
74.7752
 21
5.99928199999999
 31
0.0
  0
LINE
  5
162
330
1E
100
AcDbEntity
  8
0
100
AcDbLine
 10
76.02119999999999
 20
5.99928199999999
 30
0.0
 11
76.87520000000001
 21
5.99928199999999
 31
0.0
  0
LINE
  5
163
330
1E
100
AcDbEntity
  8
0
100
AcDbLine
 10
77.5
 20
0.000717999999993
 30
0.0
 11
77.5
 21
0.126674999999993
 31
0.0
  0
LINE
  5
164
330
1E
100
AcDbEntity
  8
0
100
AcDbLine
 10
77.5
 20
0.000717999999993
 30
0.0
 11
80.5
 21
0.0007179999999929
 31
0.0
  0
LINE
  5
165
330
1E
100
AcDbEntity
  8
0
100
AcDbLine
 10
77.5
 20
0.0923229999999931
 30
0.0
 11
77.5
 21
0.023618999999993
 31
0.0
  0
LINE
  5
166
330
1E
100
AcDbEntity
  8
0
100
AcDbLine
 10
77.5
 20
0.0923229999999931
 30
0.0
 11
77.5
 21
0.172476999999993
 31
0.0
  0
LINE
  5
167
330
1E
100
AcDbEntity
  8
0
100
AcDbLine
 10
77.5
 20
0.023618999999993
 30
0.0
 11
77.5
 21
0.0923229999999931
 31
0.0
  0
LINE
  5
168
330
1E
100
AcDbEntity
  8
0
100
AcDbLine
 10
77.5
 20
0.126674999999993
 30
0.0
 11
77.5
 21
0.536830999999993
 31
0.0
  0
LINE
  5
169
330
1E
100
AcDbEntity
  8
0
100
AcDbLine
 10
77.5
 20
0.126674999999993
 30
0.0
 11
77.5
 21
0.000717999999993
 31
0.0
  0
LINE
  5
16A
330
1E
100
AcDbEntity
  8
0
100
AcDbLine
 10
80.5
 20
0.0236189999999929
 30
0.0
 11
80.5
 21
0.0923229999999929
 31
0.0
  0
LINE
  5
16B
330
1E
100
AcDbEntity
  8
0
100
AcDbLine
 10
80.5
 20
0.0923229999999929
 30
0.0
 11
80.5
 21
0.172476999999993
 31
0.0
  0
LINE
  5
16C
330
1E
100
AcDbEntity
  8
0
100
AcDbLine
 10
80.5
 20
0.0923229999999929
 30
0.0
 11
80.5
 21
0.0236189999999929
 31
0.0
  0
LINE
  5
16D
330
1E
100
AcDbEntity
  8
0
100
AcDbLine
 10
77.5
 20
0.172476999999993
 30
0.0
 11
77.5
 21
0.0923229999999931
 31
0.0
  0
LINE
  5
16E
330
1E
100
AcDbEntity
  8
0
100
AcDbLine
 10
77.5
 20
0.172476999999993
 30
0.0
 11
77.5
 21
0.368818999999993
 31
0.0
  0
LINE
  5
16F
330
1E
100
AcDbEntity
  8
0
100
AcDbLine
 10
80.5
 20
0.172476999999993
 30
0.0
 11
80.5
 21
0.368818999999993
 31
0.0
  0
LINE
  5
170
330
1E
100
AcDbEntity
  8
0
100
AcDbLine
 10
80.5
 20
0.172476999999993
 30
0.0
 11
80.5
 21
0.0923229999999929
 31
0.0
  0
LINE
  5
171
330
1E
100
AcDbEntity
  8
0
100
AcDbLine
 10
77.5
 20
0.368818999999993
 30
0.0
 11
77.5
 21
0.172476999999993
 31
0.0
  0
LINE
  5
172
330
1E
100
AcDbEntity
  8
0
100
AcDbLine
 10
77.5
 20
0.368818999999993
 30
0.0
 11
77.5
 21
0.9568609999999928
 31
0.0
  0
LINE
  5
173
330
1E
100
AcDbEntity
  8
0
100
AcDbLine
 10
77.5
 20
0.9568609999999928
 30
0.0
 11
77.5
 21
0.368818999999993
 31
0.0
  0
LINE
  5
174
330
1E
100
AcDbEntity
  8
0
100
AcDbLine
 10
77.5
 20
0.9568609999999928
 30
0.0
 11
77.5
 21
1.754921999999989
 31
0.0
  0
LINE
  5
175
330
1E
100
AcDbEntity
  8
0
100
AcDbLine
 10
77.5
 20
0.536830999999993
 30
0.0
 11
77.5
 21
1.670911999999989
 31
0.0
  0
LINE
  5
176
330
1E
100
AcDbEntity
  8
0
100
AcDbLine
 10
77.5
 20
0.536830999999993
 30
0.0
 11
77.5
 21
0.126674999999993
 31
0.0
  0
LINE
  5
177
330
1E
100
AcDbEntity
  8
0
100
AcDbLine
 10
77.5
 20
1.670911999999989
 30
0.0
 11
77.5
 21
3.14101199999999
 31
0.0
  0
LINE
  5
178
330
1E
100
AcDbEntity
  8
0
100
AcDbLine
 10
77.5
 20
1.670911999999989
 30
0.0
 11
77.5
 21
0.536830999999993
 31
0.0
  0
LINE
  5
179
330
1E
100
AcDbEntity
  8
0
100
AcDbLine
 10
80.5
 20
0.368818999999993
 30
0.0
 11
80.5
 21
0.9568609999999928
 31
0.0
  0
LINE
  5
17A
330
1E
100
AcDbEntity
  8
0
100
AcDbLine
 10
80.5
 20
0.368818999999993
 30
0.0
 11
80.5
 21
0.172476999999993
 31
0.0
  0
LINE
  5
17B
330
1E
100
AcDbEntity
  8
0
100
AcDbLine
 10
80.5
 20
0.9568609999999928
 30
0.0
 11
80.5
 21
1.754921999999989
 31
0.0
  0
LINE
  5
17C
330
1E
100
AcDbEntity
  8
0
100
AcDbLine
 10
80.5
 20
0.9568609999999928
 30
0.0
 11
80.5
 21
0.368818999999993
 31
0.0
  0
LINE
  5
17D
330
1E
100
AcDbEntity
  8
0
100
AcDbLine
 10
77.5
 20
1.754921999999989
 30
0.0
 11
77.5
 21
0.9568609999999928
 31
0.0
  0
LINE
  5
17E
330
1E
100
AcDbEntity
  8
0
100
AcDbLine
 10
77.5
 20
1.754921999999989
 30
0.0
 11
77.5
 21
2.95702199999999
 31
0.0
  0
LINE
  5
17F
330
1E
100
AcDbEntity
  8
0
100
AcDbLine
 10
77.5
 20
2.95702199999999
 30
0.0
 11
77.5
 21
1.754921999999989
 31
0.0
  0
LINE
  5
180
330
1E
100
AcDbEntity
  8
0
100
AcDbLine
 10
77.5
 20
2.95702199999999
 30
0.0
 11
77.5
 21
4.22003199999999
 31
0.0
  0
LINE
  5
181
330
1E
100
AcDbEntity
  8
0
100
AcDbLine
 10
77.5
 20
4.22003199999999
 30
0.0
 11
77.5
 21
2.95702199999999
 31
0.0
  0
LINE
  5
182
330
1E
100
AcDbEntity
  8
0
100
AcDbLine
 10
77.5
 20
4.22003199999999
 30
0.0
 11
77.5
 21
6.52051199999999
 31
0.0
  0
LINE
  5
183
330
1E
100
AcDbEntity
  8
0
100
AcDbLine
 10
77.5
 20
3.14101199999999
 30
0.0
 11
77.5
 21
5.36717199999999
 31
0.0
  0
LINE
  5
184
330
1E
100
AcDbEntity
  8
0
100
AcDbLine
 10
77.5
 20
3.14101199999999
 30
0.0
 11
77.5
 21
1.670911999999989
 31
0.0
  0
LINE
  5
185
330
1E
100
AcDbEntity
  8
0
100
AcDbLine
 10
80.5
 20
1.754921999999989
 30
0.0
 11
80.5
 21
2.95702199999999
 31
0.0
  0
LINE
  5
186
330
1E
100
AcDbEntity
  8
0
100
AcDbLine
 10
80.5
 20
1.754921999999989
 30
0.0
 11
80.5
 21
0.9568609999999928
 31
0.0
  0
LINE
  5
187
330
1E
100
AcDbEntity
  8
0
100
AcDbLine
 10
80.5
 20
2.95702199999999
 30
0.0
 11
80.5
 21
4.22003199999999
 31
0.0
  0
LINE
  5
188
330
1E
100
AcDbEntity
  8
0
100
AcDbLine
 10
80.5
 20
2.95702199999999
 30
0.0
 11
80.5
 21
1.754921999999989
 31
0.0
  0
LINE
  5
189
330
1E
100
AcDbEntity
  8
0
100
AcDbLine
 10
77.5
 20
5.36717199999999
 30
0.0
 11
77.5
 21
7.99928199999999
 31
0.0
  0
LINE
  5
18A
330
1E
100
AcDbEntity
  8
0
100
AcDbLine
 10
77.5
 20
5.36717199999999
 30
0.0
 11
77.5
 21
3.14101199999999
 31
0.0
  0
LINE
  5
18B
330
1E
100
AcDbEntity
  8
0
100
AcDbLine
 10
80.5
 20
4.22003199999999
 30
0.0
 11
80.5
 21
6.52051199999999
 31
0.0
  0
LINE
  5
18C
330
1E
100
AcDbEntity
  8
0
100
AcDbLine
 10
80.5
 20
4.22003199999999
 30
0.0
 11
80.5
 21
2.95702199999999
 31
0.0
  0
LINE
  5
18D
330
1E
100
AcDbEntity
  8
0
100
AcDbLine
 10
84.6802
 20
5.99928199999999
 30
0.0
 11
85.37170000000001
 21
5.99928199999999
 31
0.0
  0
LINE
  5
18E
330
1E
100
AcDbEntity
  8
0
100
AcDbLine
 10
85.37170000000001
 20
5.99928199999999
 30
0.0
 11
86.2273
 21
5.99928199999999
 31
0.0
  0
LINE
  5
18F
330
1E
100
AcDbEntity
  8
0
100
AcDbLine
 10
85.35580000000001
 20
5.99928199999999
 30
0.0
 11
86.2175
 21
5.99928199999999
 31
0.0
  0
LINE
  5
190
330
1E
100
AcDbEntity
  8
0
100
AcDbLine
 10
84.6859
 20
5.99928199999999
 30
0.0
 11
85.35580000000001
 21
5.99928199999999
 31
0.0
  0
LINE
  5
191
330
1E
100
AcDbEntity
  8
0
100
AcDbLine
 10
84.2823
 20
5.99928199999999
 30
0.0
 11
84.6859
 21
5.99928199999999
 31
0.0
  0
LINE
  5
192
330
1E
100
AcDbEntity
  8
0
100
AcDbLine
 10
84.12730000000001
 20
5.99928199999999
 30
0.0
 11
84.2797
 21
5.99928199999999
 31
0.0
  0
LINE
  5
193
330
1E
100
AcDbEntity
  8
0
100
AcDbLine
 10
84.12730000000001
 20
5.99928199999999
 30
0.0
 11
84.2823
 21
5.99928199999999
 31
0.0
  0
LINE
  5
194
330
1E
100
AcDbEntity
  8
0
100
AcDbLine
 10
84.2797
 20
5.99928199999999
 30
0.0
 11
84.6802
 21
5.99928199999999
 31
0.0
  0
LINE
  5
195
330
1E
100
AcDbEntity
  8
0
100
AcDbLine
 10
88.31189999999999
 20
5.99928199999999
 30
0.0
 11
89.38779999999999
 21
5.99928199999999
 31
0.0
  0
LINE
  5
196
330
1E
100
AcDbEntity
  8
0
100
AcDbLine
 10
87.23629999999999
 20
5.99928199999999
 30
0.0
 11
88.31189999999999
 21
5.99928199999999
 31
0.0
  0
LINE
  5
197
330
1E
100
AcDbEntity
  8
0
100
AcDbLine
 10
86.2273
 20
5.99928199999999
 30
0.0
 11
87.23629999999999
 21
5.99928199999999
 31
0.0
  0
LINE
  5
198
330
1E
100
AcDbEntity
  8
0
100
AcDbLine
 10
86.2175
 20
5.99928199999999
 30
0.0
 11
87.24720000000001
 21
5.99928199999999
 31
0.0
  0
LINE
  5
199
330
1E
100
AcDbEntity
  8
0
100
AcDbLine
 10
87.24720000000001
 20
5.99928199999999
 30
0.0
 11
88.32320000000001
 21
5.99928199999999
 31
0.0
  0
LINE
  5
19A
330
1E
100
AcDbEntity
  8
0
100
AcDbLine
 10
89.38779999999999
 20
5.99928199999999
 30
0.0
 11
90.4175
 21
5.99928199999999
 31
0.0
  0
LINE
  5
19B
330
1E
100
AcDbEntity
  8
0
100
AcDbLine
 10
88.32320000000001
 20
5.99928199999999
 30
0.0
 11
89.3988
 21
5.99928199999999
 31
0.0
  0
LINE
  5
19C
330
1E
100
AcDbEntity
  8
0
100
AcDbLine
 10
89.3988
 20
5.99928199999999
 30
0.0
 11
90.4077
 21
5.99928199999999
 31
0.0
  0
LINE
  5
19D
330
1E
100
AcDbEntity
  8
0
100
AcDbLine
 10
90.4175
 20
5.99928199999999
 30
0.0
 11
91.27920000000001
 21
5.99928199999999
 31
0.0
  0
LINE
  5
19E
330
1E
100
AcDbEntity
  8
0
100
AcDbLine
 10
91.27920000000001
 20
5.99928199999999
 30
0.0
 11
91.94920000000001
 21
5.99928199999999
 31
0.0
  0
LINE
  5
19F
330
1E
100
AcDbEntity
  8
0
100
AcDbLine
 10
91.94920000000001
 20
5.99928199999999
 30
0.0
 11
92.35280000000001
 21
5.99928199999999
 31
0.0
  0
LINE
  5
1A0
330
1E
100
AcDbEntity
  8
0
100
AcDbLine
 10
92.35280000000001
 20
5.99928199999999
 30
0.0
 11
92.50770000000001
 21
5.99928199999999
 31
0.0
  0
LINE
  5
1A1
330
1E
100
AcDbEntity
  8
0
100
AcDbLine
 10
92.50770000000001
 20
5.99928199999999
 30
0.0
 11
93.59039028166149
 21
7.52748028739407
 31
0.0
  0
LINE
  5
1A2
330
1E
100
AcDbEntity
  8
0
100
AcDbLine
 10
92.3553
 20
5.99928199999999
 30
0.0
 11
92.50770000000001
 21
5.99928199999999
 31
0.0
  0
LINE
  5
1A3
330
1E
100
AcDbEntity
  8
0
100
AcDbLine
 10
91.95480000000001
 20
5.99928199999999
 30
0.0
 11
92.3553
 21
5.99928199999999
 31
0.0
  0
LINE
  5
1A4
330
1E
100
AcDbEntity
  8
0
100
AcDbLine
 10
90.4077
 20
5.99928199999999
 30
0.0
 11
91.26330000000001
 21
5.99928199999999
 31
0.0
  0
LINE
  5
1A5
330
1E
100
AcDbEntity
  8
0
100
AcDbLine
 10
91.26330000000001
 20
5.99928199999999
 30
0.0
 11
91.95480000000001
 21
5.99928199999999
 31
0.0
  0
LINE
  5
1A6
330
1E
100
AcDbEntity
  8
0
100
AcDbLine
 10
83.0072
 20
5.99928199999999
 30
0.0
 11
83.1752
 21
5.99928199999999
 31
0.0
  0
LINE
  5
1A7
330
1E
100
AcDbEntity
  8
0
100
AcDbLine
 10
83.1752
 20
5.99928199999999
 30
0.0
 11
83.6483855375495
 21
6.675261339356389
 31
0.0
  0
LINE
  5
1A8
330
1E
100
AcDbEntity
  8
0
100
AcDbLine
 10
83.1752
 20
5.99928199999999
 30
0.0
 11
83.6483855375495
 21
6.675261339356389
 31
0.0
  0
LINE
  5
1A9
330
1E
100
AcDbEntity
  8
0
100
AcDbLine
 10
82.6012
 20
5.99928199999999
 30
0.0
 11
83.0072
 21
5.99928199999999
 31
0.0
  0
LINE
  5
1AA
330
1E
100
AcDbEntity
  8
0
100
AcDbLine
 10
81.92919999999999
 20
5.99928199999999
 30
0.0
 11
82.6012
 21
5.99928199999999
 31
0.0
  0
LINE
  5
1AB
330
1E
100
AcDbEntity
  8
0
100
AcDbLine
 10
81.07519999999999
 20
5.99928199999999
 30
0.0
 11
81.92919999999999
 21
5.99928199999999
 31
0.0
  0
LINE
  5
1AC
330
1E
100
AcDbEntity
  8
0
100
AcDbLine
 10
77.5
 20
6.52051199999999
 30
0.0
 11
77.5
 21
4.22003199999999
 31
0.0
  0
LINE
  5
1AD
330
1E
100
AcDbEntity
  8
0
100
AcDbLine
 10
77.5
 20
6.52051199999999
 30
0.0
 11
77.5
 21
7.99928199999999
 31
0.0
  0
LINE
  5
1AE
330
1E
100
AcDbEntity
  8
0
100
AcDbLine
 10
80.9059
 20
7.55996199999999
 30
0.0
 11
81.2151
 21
7.53248199999999
 31
0.0
  0
LINE
  5
1AF
330
1E
100
AcDbEntity
  8
0
100
AcDbLine
 10
80.9059
 20
7.55996199999999
 30
0.0
 11
81.48909999999998
 21
7.58745199999999
 31
0.0
  0
LINE
  5
1B0
330
1E
100
AcDbEntity
  8
0
100
AcDbLine
 10
81.48909999999998
 20
7.58745199999999
 30
0.0
 11
82.58880000000001
 21
7.59923199999999
 31
0.0
  0
LINE
  5
1B1
330
1E
100
AcDbEntity
  8
0
100
AcDbLine
 10
81.2151
 20
7.53248199999999
 30
0.0
 11
82.1973
 21
7.52070199999999
 31
0.0
  0
LINE
  5
1B2
330
1E
100
AcDbEntity
  8
0
100
AcDbLine
 10
82.1973
 20
7.52070199999999
 30
0.0
 11
83.2971
 21
7.53248199999999
 31
0.0
  0
LINE
  5
1B3
330
1E
100
AcDbEntity
  8
0
100
AcDbLine
 10
82.58880000000001
 20
7.59923199999999
 30
0.0
 11
83.5711
 21
7.58745199999999
 31
0.0
  0
LINE
  5
1B4
330
1E
100
AcDbEntity
  8
0
100
AcDbLine
 10
80.5
 20
6.52051199999999
 30
0.0
 11
80.5
 21
7.99928199999999
 31
0.0
  0
LINE
  5
1B5
330
1E
100
AcDbEntity
  8
0
100
AcDbLine
 10
80.5
 20
6.52051199999999
 30
0.0
 11
80.5
 21
4.22003199999999
 31
0.0
  0
LINE
  5
1B6
330
1E
100
AcDbEntity
  8
0
100
AcDbLine
 10
83.2971
 20
7.53248199999999
 30
0.0
 11
83.8802
 21
7.55996199999999
 31
0.0
  0
LINE
  5
1B7
330
1E
100
AcDbEntity
  8
0
100
AcDbLine
 10
93.353
 20
7.53248199999999
 30
0.0
 11
93.91209999999999
 21
7.52070199999999
 31
0.0
  0
LINE
  5
1B8
330
1E
100
AcDbEntity
  8
0
100
AcDbLine
 10
93.353
 20
7.53248199999999
 30
0.0
 11
93.6349
 21
7.55996199999999
 31
0.0
  0
LINE
  5
1B9
330
1E
100
AcDbEntity
  8
0
100
AcDbLine
 10
93.91209999999999
 20
7.52070199999999
 30
0.0
 11
95.01899999999999
 21
7.53248199999999
 31
0.0
  0
LINE
  5
1BA
330
1E
100
AcDbEntity
  8
0
100
AcDbLine
 10
83.5711
 20
7.58745199999999
 30
0.0
 11
83.8802
 21
7.55996199999999
 31
0.0
  0
LINE
  5
1BB
330
1E
100
AcDbEntity
  8
0
100
AcDbLine
 10
94.63089999999999
 20
7.58745199999999
 30
0.0
 11
95.73779999999999
 21
7.59923199999999
 31
0.0
  0
LINE
  5
1BC
330
1E
100
AcDbEntity
  8
0
100
AcDbLine
 10
93.6349
 20
7.55996199999999
 30
0.0
 11
94.63089999999999
 21
7.58745199999999
 31
0.0
  0
LINE
  5
1BD
330
1E
100
AcDbEntity
  8
0
100
AcDbLine
 10
95.01899999999999
 20
7.53248199999999
 30
0.0
 11
96.01500000000001
 21
7.55996199999999
 31
0.0
  0
LINE
  5
1BE
330
1E
100
AcDbEntity
  8
0
100
AcDbLine
 10
99.43000000000001
 20
7.53248199999999
 30
0.0
 11
100.537
 21
7.55996199999999
 31
0.0
  0
LINE
  5
1BF
330
1E
100
AcDbEntity
  8
0
100
AcDbLine
 10
98.43389999999999
 20
7.52070199999999
 30
0.0
 11
99.43000000000001
 21
7.53248199999999
 31
0.0
  0
LINE
  5
1C0
330
1E
100
AcDbEntity
  8
0
100
AcDbLine
 10
100.537
 20
7.55996199999999
 30
0.0
 11
101.095
 21
7.58745199999999
 31
0.0
  0
LINE
  5
1C1
330
1E
100
AcDbEntity
  8
0
100
AcDbLine
 10
98.1516
 20
7.53248199999999
 30
0.0
 11
98.43389999999999
 21
7.52070199999999
 31
0.0
  0
LINE
  5
1C2
330
1E
100
AcDbEntity
  8
0
100
AcDbLine
 10
96.01500000000001
 20
7.55996199999999
 30
0.0
 11
96.2969
 21
7.58745199999999
 31
0.0
  0
LINE
  5
1C3
330
1E
100
AcDbEntity
  8
0
100
AcDbLine
 10
87.3229
 20
7.61920199999999
 30
0.0
 11
88.2207
 21
7.60742199999999
 31
0.0
  0
LINE
  5
1C4
330
1E
100
AcDbEntity
  8
0
100
AcDbLine
 10
88.2207
 20
7.60742199999999
 30
0.0
 11
89.35129999999999
 21
7.61920199999999
 31
0.0
  0
LINE
  5
1C5
330
1E
100
AcDbEntity
  8
0
100
AcDbLine
 10
87.8662
 20
7.67416199999999
 30
0.0
 11
88.99689999999999
 21
7.68595199999999
 31
0.0
  0
LINE
  5
1C6
330
1E
100
AcDbEntity
  8
0
100
AcDbLine
 10
87.15989999999999
 20
7.64668199999999
 30
0.0
 11
87.3229
 21
7.61920199999999
 31
0.0
  0
LINE
  5
1C7
330
1E
100
AcDbEntity
  8
0
100
AcDbLine
 10
87.15989999999999
 20
7.64668199999999
 30
0.0
 11
87.8662
 21
7.67416199999999
 31
0.0
  0
LINE
  5
1C8
330
1E
100
AcDbEntity
  8
0
100
AcDbLine
 10
89.35129999999999
 20
7.61920199999999
 30
0.0
 11
90.0577
 21
7.64668199999999
 31
0.0
  0
LINE
  5
1C9
330
1E
100
AcDbEntity
  8
0
100
AcDbLine
 10
89.8947
 20
7.67416199999999
 30
0.0
 11
90.0577
 21
7.64668199999999
 31
0.0
  0
LINE
  5
1CA
330
1E
100
AcDbEntity
  8
0
100
AcDbLine
 10
83.87948666951459
 20
7.76969654825917
 30
0.0
 11
83.8802
 21
7.55996199999999
 31
0.0
  0
LINE
  5
1CB
330
1E
100
AcDbEntity
  8
0
100
AcDbLine
 10
83.8001
 20
7.77675199999999
 30
0.0
 11
84.1093
 21
7.74927199999999
 31
0.0
  0
LINE
  5
1CC
330
1E
100
AcDbEntity
  8
0
100
AcDbLine
 10
83.8001
 20
7.77675199999999
 30
0.0
 11
84.3833
 21
7.80424199999999
 31
0.0
  0
LINE
  5
1CD
330
1E
100
AcDbEntity
  8
0
100
AcDbLine
 10
84.3833
 20
7.80424199999999
 30
0.0
 11
85.48299999999999
 21
7.81602199999999
 31
0.0
  0
LINE
  5
1CE
330
1E
100
AcDbEntity
  8
0
100
AcDbLine
 10
84.1093
 20
7.74927199999999
 30
0.0
 11
85.09159999999999
 21
7.73749199999999
 31
0.0
  0
LINE
  5
1CF
330
1E
100
AcDbEntity
  8
0
100
AcDbLine
 10
85.09159999999999
 20
7.73749199999999
 30
0.0
 11
86.1913
 21
7.74927199999999
 31
0.0
  0
LINE
  5
1D0
330
1E
100
AcDbEntity
  8
0
100
AcDbLine
 10
86.1913
 20
7.74927199999999
 30
0.0
 11
86.7745
 21
7.77675199999999
 31
0.0
  0
LINE
  5
1D1
330
1E
100
AcDbEntity
  8
0
100
AcDbLine
 10
86.4653
 20
7.80424199999999
 30
0.0
 11
86.7745
 21
7.77675199999999
 31
0.0
  0
LINE
  5
1D2
330
1E
100
AcDbEntity
  8
0
100
AcDbLine
 10
85.48299999999999
 20
7.81602199999999
 30
0.0
 11
86.4653
 21
7.80424199999999
 31
0.0
  0
LINE
  5
1D3
330
1E
100
AcDbEntity
  8
0
100
AcDbLine
 10
88.99689999999999
 20
7.68595199999999
 30
0.0
 11
89.8947
 21
7.67416199999999
 31
0.0
  0
LINE
  5
1D4
330
1E
100
AcDbEntity
  8
0
100
AcDbLine
 10
96.04537390602651
 20
7.99928199999999
 30
0.0
 11
96.0476
 21
7.77675199999999
 31
0.0
  0
LINE
  5
1D5
330
1E
100
AcDbEntity
  8
0
100
AcDbLine
 10
96.0476
 20
7.77675199999999
 30
0.0
 11
96.865
 21
7.80424199999999
 31
0.0
  0
LINE
  5
1D6
330
1E
100
AcDbEntity
  8
0
100
AcDbLine
 10
96.0617
 20
7.74927199999999
 30
0.0
 11
96.85960000000001
 21
7.73749199999999
 31
0.0
  0
LINE
  5
1D7
330
1E
100
AcDbEntity
  8
0
100
AcDbLine
 10
94.62433583411408
 20
7.99928199999999
 30
0.0
 11
94.63089999999999
 21
7.58745199999999
 31
0.0
  0
LINE
  5
1D8
330
1E
100
AcDbEntity
  8
0
100
AcDbLine
 10
93.627897880641
 20
7.99928199999999
 30
0.0
 11
93.6349
 21
7.55996199999999
 31
0.0
  0
LINE
  5
1D9
330
1E
100
AcDbEntity
  8
0
100
AcDbLine
 10
95.73142363827342
 20
7.99928199999999
 30
0.0
 11
95.73779999999999
 21
7.59923199999999
 31
0.0
  0
LINE
  5
1DA
330
1E
100
AcDbEntity
  8
0
100
AcDbLine
 10
96.85960000000001
 20
7.73749199999999
 30
0.0
 11
98.00180000000001
 21
7.74927199999999
 31
0.0
  0
LINE
  5
1DB
330
1E
100
AcDbEntity
  8
0
100
AcDbLine
 10
98.4288535361474
 20
7.763627267490309
 30
0.0
 11
98.43389999999999
 21
7.52070199999999
 31
0.0
  0
LINE
  5
1DC
330
1E
100
AcDbEntity
  8
0
100
AcDbLine
 10
98.1469877174516
 20
7.754152438502219
 30
0.0
 11
98.1516
 21
7.53248199999999
 31
0.0
  0
LINE
  5
1DD
330
1E
100
AcDbEntity
  8
0
100
AcDbLine
 10
96.865
 20
7.80424199999999
 30
0.0
 11
98.00730000000001
 21
7.81602199999999
 31
0.0
  0
LINE
  5
1DE
330
1E
100
AcDbEntity
  8
0
100
AcDbLine
 10
98.00180000000001
 20
7.74927199999999
 30
0.0
 11
98.8193
 21
7.77675199999999
 31
0.0
  0
LINE
  5
1DF
330
1E
100
AcDbEntity
  8
0
100
AcDbLine
 10
98.0054606536933
 20
7.99928199999999
 30
0.0
 11
98.00730000000001
 21
7.81602199999999
 31
0.0
  0
LINE
  5
1E0
330
1E
100
AcDbEntity
  8
0
100
AcDbLine
 10
96.8630489106151
 20
7.99928199999999
 30
0.0
 11
96.865
 21
7.80424199999999
 31
0.0
  0
LINE
  5
1E1
330
1E
100
AcDbEntity
  8
0
100
AcDbLine
 10
98.0054606536933
 20
7.99928199999999
 30
0.0
 11
98.00730000000001
 21
7.81602199999999
 31
0.0
  0
LINE
  5
1E2
330
1E
100
AcDbEntity
  8
0
100
AcDbLine
 10
100.5277712652799
 20
7.99928199999999
 30
0.0
 11
100.537
 21
7.55996199999999
 31
0.0
  0
LINE
  5
1E3
330
1E
100
AcDbEntity
  8
0
100
AcDbLine
 10
99.42028732244081
 20
7.99928199999999
 30
0.0
 11
99.43000000000001
 21
7.53248199999999
 31
0.0
  0
LINE
  5
1E4
330
1E
100
AcDbEntity
  8
0
100
AcDbLine
 10
98.8170664857132
 20
7.99928199999999
 30
0.0
 11
98.8193
 21
7.77675199999999
 31
0.0
  0
LINE
  5
1E5
330
1E
100
AcDbEntity
  8
0
100
AcDbLine
 10
98.8032424069838
 20
7.99928199999999
 30
0.0
 11
98.8052
 21
7.80424199999999
 31
0.0
  0
LINE
  5
1E6
330
1E
100
AcDbEntity
  8
0
100
AcDbLine
 10
98.00730000000001
 20
7.81602199999999
 30
0.0
 11
98.8052
 21
7.80424199999999
 31
0.0
  0
LINE
  5
1E7
330
1E
100
AcDbEntity
  8
0
100
AcDbLine
 10
96.2943755012095
 20
7.745836835939019
 30
0.0
 11
96.2969
 21
7.58745199999999
 31
0.0
  0
LINE
  5
1E8
330
1E
100
AcDbEntity
  8
0
100
AcDbLine
 10
96.2943755012095
 20
7.745836835939019
 30
0.0
 11
96.85960000000001
 21
7.73749199999999
 31
0.0
  0
LINE
  5
1E9
330
1E
100
AcDbEntity
  8
0
100
AcDbLine
 10
95.73779999999999
 20
7.59923199999999
 30
0.0
 11
96.2969
 21
7.58745199999999
 31
0.0
  0
LINE
  5
1EA
330
1E
100
AcDbEntity
  8
0
100
AcDbLine
 10
83.0429944110015
 20
7.52976026528604
 30
0.0
 11
84.12730000000001
 21
5.99928199999999
 31
0.0
  0
LINE
  5
1EB
330
1E
100
AcDbEntity
  8
0
100
AcDbLine
 10
80.5
 20
5.99928199999999
 30
0.0
 11
81.07519999999999
 21
5.99928199999999
 31
0.0
  0
LINE
  5
1EC
330
1E
100
AcDbEntity
  8
0
100
AcDbLine
 10
76.87520000000001
 20
5.99928199999999
 30
0.0
 11
77.5
 21
5.99928199999999
 31
0.0
  0
LINE
  5
1ED
330
1E
100
AcDbEntity
  8
0
100
AcDbLine
 10
98.92690000000001
 20
7.99928199999999
 30
0.0
 11
108.5179999999999
 21
7.99928199999999
 31
0.0
  0
LINE
  5
1EE
330
1E
100
AcDbEntity
  8
0
100
AcDbLine
 10
101.631
 20
7.52070199999999
 30
0.0
 11
102.4489999999999
 21
7.53248199999999
 31
0.0
  0
LINE
  5
1EF
330
1E
100
AcDbEntity
  8
0
100
AcDbLine
 10
103.286
 20
7.52070199999999
 30
0.0
 11
103.869
 21
7.53248199999999
 31
0.0
  0
LINE
  5
1F0
330
1E
100
AcDbEntity
  8
0
100
AcDbLine
 10
102.4489999999999
 20
7.53248199999999
 30
0.0
 11
103.591
 21
7.55996199999999
 31
0.0
  0
LINE
  5
1F1
330
1E
100
AcDbEntity
  8
0
100
AcDbLine
 10
101.645
 20
7.53248199999999
 30
0.0
 11
102.4429999999999
 21
7.55996199999999
 31
0.0
  0
LINE
  5
1F2
330
1E
100
AcDbEntity
  8
0
100
AcDbLine
 10
102.4429999999999
 20
7.55996199999999
 30
0.0
 11
103.584
 21
7.58745199999999
 31
0.0
  0
LINE
  5
1F3
330
1E
100
AcDbEntity
  8
0
100
AcDbLine
 10
104.969
 20
7.55996199999999
 30
0.0
 11
105.951
 21
7.58745199999999
 31
0.0
  0
LINE
  5
1F4
330
1E
100
AcDbEntity
  8
0
100
AcDbLine
 10
103.869
 20
7.53248199999999
 30
0.0
 11
104.969
 21
7.55996199999999
 31
0.0
  0
LINE
  5
1F5
330
1E
100
AcDbEntity
  8
0
100
AcDbLine
 10
103.591
 20
7.55996199999999
 30
0.0
 11
104.3879999999999
 21
7.58745199999999
 31
0.0
  0
LINE
  5
1F6
330
1E
100
AcDbEntity
  8
0
100
AcDbLine
 10
103.584
 20
7.58745199999999
 30
0.0
 11
104.4019999999999
 21
7.59923199999999
 31
0.0
  0
LINE
  5
1F7
330
1E
100
AcDbEntity
  8
0
100
AcDbLine
 10
104.967541398491
 20
7.616043732020941
 30
0.0
 11
104.969
 21
7.55996199999999
 31
0.0
  0
LINE
  5
1F8
330
1E
100
AcDbEntity
  8
0
100
AcDbLine
 10
104.191
 20
7.64668199999999
 30
0.0
 11
105.251
 21
7.67416199999999
 31
0.0
  0
LINE
  5
1F9
330
1E
100
AcDbEntity
  8
0
100
AcDbLine
 10
103.767
 20
7.61920199999999
 30
0.0
 11
104.191
 21
7.60742199999999
 31
0.0
  0
LINE
  5
1FA
330
1E
100
AcDbEntity
  8
0
100
AcDbLine
 10
103.767
 20
7.61920199999999
 30
0.0
 11
104.191
 21
7.64668199999999
 31
0.0
  0
LINE
  5
1FB
330
1E
100
AcDbEntity
  8
0
100
AcDbLine
 10
104.191
 20
7.60742199999999
 30
0.0
 11
105.252
 21
7.61920199999999
 31
0.0
  0
LINE
  5
1FC
330
1E
100
AcDbEntity
  8
0
100
AcDbLine
 10
105.951
 20
7.58745199999999
 30
0.0
 11
106.2599999999999
 21
7.59923199999999
 31
0.0
  0
LINE
  5
1FD
330
1E
100
AcDbEntity
  8
0
100
AcDbLine
 10
105.252
 20
7.61920199999999
 30
0.0
 11
106.312
 21
7.64668199999999
 31
0.0
  0
LINE
  5
1FE
330
1E
100
AcDbEntity
  8
0
100
AcDbLine
 10
105.251
 20
7.67416199999999
 30
0.0
 11
106.312
 21
7.68595199999999
 31
0.0
  0
LINE
  5
1FF
330
1E
100
AcDbEntity
  8
0
100
AcDbLine
 10
106.312
 20
7.64668199999999
 30
0.0
 11
106.736
 21
7.67416199999999
 31
0.0
  0
LINE
  5
200
330
1E
100
AcDbEntity
  8
0
100
AcDbLine
 10
106.312
 20
7.68595199999999
 30
0.0
 11
106.736
 21
7.67416199999999
 31
0.0
  0
LINE
  5
201
330
1E
100
AcDbEntity
  8
0
100
AcDbLine
 10
106.851
 20
7.74927199999999
 30
0.0
 11
107.411
 21
7.73749199999999
 31
0.0
  0
LINE
  5
202
330
1E
100
AcDbEntity
  8
0
100
AcDbLine
 10
106.851
 20
7.74927199999999
 30
0.0
 11
107.1329999999999
 21
7.77675199999999
 31
0.0
  0
LINE
  5
203
330
1E
100
AcDbEntity
  8
0
100
AcDbLine
 10
114.118
 20
7.61920199999999
 30
0.0
 11
115.249
 21
7.64668199999999
 31
0.0
  0
LINE
  5
204
330
1E
100
AcDbEntity
  8
0
100
AcDbLine
 10
113.412
 20
7.60742199999999
 30
0.0
 11
113.575
 21
7.61920199999999
 31
0.0
  0
LINE
  5
205
330
1E
100
AcDbEntity
  8
0
100
AcDbLine
 10
113.412
 20
7.60742199999999
 30
0.0
 11
114.118
 21
7.61920199999999
 31
0.0
  0
LINE
  5
206
330
1E
100
AcDbEntity
  8
0
100
AcDbLine
 10
113.575
 20
7.61920199999999
 30
0.0
 11
114.472
 21
7.64668199999999
 31
0.0
  0
LINE
  5
207
330
1E
100
AcDbEntity
  8
0
100
AcDbLine
 10
115.249
 20
7.64668199999999
 30
0.0
 11
116.1459999999999
 21
7.67416199999999
 31
0.0
  0
LINE
  5
208
330
1E
100
AcDbEntity
  8
0
100
AcDbLine
 10
114.472
 20
7.64668199999999
 30
0.0
 11
115.6029999999999
 21
7.67416199999999
 31
0.0
  0
LINE
  5
209
330
1E
100
AcDbEntity
  8
0
100
AcDbLine
 10
115.6029999999999
 20
7.67416199999999
 30
0.0
 11
116.3089999999999
 21
7.68595199999999
 31
0.0
  0
LINE
  5
20A
330
1E
100
AcDbEntity
  8
0
100
AcDbLine
 10
107.411
 20
7.73749199999999
 30
0.0
 11
108.517
 21
7.74927199999999
 31
0.0
  0
LINE
  5
20B
330
1E
100
AcDbEntity
  8
0
100
AcDbLine
 10
108.517
 20
7.74927199999999
 30
0.0
 11
109.5129999999999
 21
7.77675199999999
 31
0.0
  0
LINE
  5
20C
330
1E
100
AcDbEntity
  8
0
100
AcDbLine
 10
116.1459999999999
 20
7.67416199999999
 30
0.0
 11
116.3089999999999
 21
7.68595199999999
 31
0.0
  0
LINE
  5
20D
330
1E
100
AcDbEntity
  8
0
100
AcDbLine
 10
116.025
 20
7.73749199999999
 30
0.0
 11
117.0209999999999
 21
7.74927199999999
 31
0.0
  0
LINE
  5
20E
330
1E
100
AcDbEntity
  8
0
100
AcDbLine
 10
107.1329999999999
 20
7.77675199999999
 30
0.0
 11
108.1289999999999
 21
7.80424199999999
 31
0.0
  0
LINE
  5
20F
330
1E
100
AcDbEntity
  8
0
100
AcDbLine
 10
109.5129999999999
 20
7.77675199999999
 30
0.0
 11
109.7949999999999
 21
7.80424199999999
 31
0.0
  0
LINE
  5
210
330
1E
100
AcDbEntity
  8
0
100
AcDbLine
 10
115.7429999999999
 20
7.74927199999999
 30
0.0
 11
116.302
 21
7.77675199999999
 31
0.0
  0
LINE
  5
211
330
1E
100
AcDbEntity
  8
0
100
AcDbLine
 10
115.7429999999999
 20
7.74927199999999
 30
0.0
 11
116.025
 21
7.73749199999999
 31
0.0
  0
LINE
  5
212
330
1E
100
AcDbEntity
  8
0
100
AcDbLine
 10
116.3076091471159
 20
7.74083450577612
 30
0.0
 11
116.3089999999999
 21
7.68595199999999
 31
0.0
  0
LINE
  5
213
330
1E
100
AcDbEntity
  8
0
100
AcDbLine
 10
117.0209999999999
 20
7.74927199999999
 30
0.0
 11
118.1279999999999
 21
7.77675199999999
 31
0.0
  0
LINE
  5
214
330
1E
100
AcDbEntity
  8
0
100
AcDbLine
 10
116.302
 20
7.77675199999999
 30
0.0
 11
117.4079999999999
 21
7.80424199999999
 31
0.0
  0
LINE
  5
215
330
1E
100
AcDbEntity
  8
0
100
AcDbLine
 10
108.1289999999999
 20
7.80424199999999
 30
0.0
 11
109.236
 21
7.81602199999999
 31
0.0
  0
LINE
  5
216
330
1E
100
AcDbEntity
  8
0
100
AcDbLine
 10
101.633637412471
 20
7.99928199999999
 30
0.0
 11
101.645
 21
7.53248199999999
 31
0.0
  0
LINE
  5
217
330
1E
100
AcDbEntity
  8
0
100
AcDbLine
 10
105.245037518923
 20
7.99928199999999
 30
0.0
 11
105.251
 21
7.67416199999999
 31
0.0
  0
LINE
  5
218
330
1E
100
AcDbEntity
  8
0
100
AcDbLine
 10
104.1845335111699
 20
7.99928199999999
 30
0.0
 11
104.191
 21
7.64668199999999
 31
0.0
  0
LINE
  5
219
330
1E
100
AcDbEntity
  8
0
100
AcDbLine
 10
103.759902760272
 20
7.99928199999999
 30
0.0
 11
103.767
 21
7.61920199999999
 31
0.0
  0
LINE
  5
21A
330
1E
100
AcDbEntity
  8
0
100
AcDbLine
 10
106.730037518923
 20
7.99928199999999
 30
0.0
 11
106.736
 21
7.67416199999999
 31
0.0
  0
LINE
  5
21B
330
1E
100
AcDbEntity
  8
0
100
AcDbLine
 10
106.3061490865079
 20
7.99928199999999
 30
0.0
 11
106.312
 21
7.68595199999999
 31
0.0
  0
LINE
  5
21C
330
1E
100
AcDbEntity
  8
0
100
AcDbLine
 10
108.125943293297
 20
7.99928199999999
 30
0.0
 11
108.1289999999999
 21
7.80424199999999
 31
0.0
  0
LINE
  5
21D
330
1E
100
AcDbEntity
  8
0
100
AcDbLine
 10
113.565368031797
 20
7.99928199999999
 30
0.0
 11
113.575
 21
7.61920199999999
 31
0.0
  0
LINE
  5
21E
330
1E
100
AcDbEntity
  8
0
100
AcDbLine
 10
114.4630644881629
 20
7.99928199999999
 30
0.0
 11
114.472
 21
7.64668199999999
 31
0.0
  0
LINE
  5
21F
330
1E
100
AcDbEntity
  8
0
100
AcDbLine
 10
115.5947609352389
 20
7.99928199999999
 30
0.0
 11
115.6029999999999
 21
7.67416199999999
 31
0.0
  0
LINE
  5
220
330
1E
100
AcDbEntity
  8
0
100
AcDbLine
 10
113.4020694374049
 20
7.99928199999999
 30
0.0
 11
113.412
 21
7.60742199999999
 31
0.0
  0
LINE
  5
221
330
1E
100
AcDbEntity
  8
0
100
AcDbLine
 10
109.233066823165
 20
7.99928199999999
 30
0.0
 11
109.236
 21
7.81602199999999
 31
0.0
  0
LINE
  5
222
330
1E
100
AcDbEntity
  8
0
100
AcDbLine
 10
109.236
 20
7.81602199999999
 30
0.0
 11
109.7949999999999
 21
7.80424199999999
 31
0.0
  0
LINE
  5
223
330
1E
100
AcDbEntity
  8
0
100
AcDbLine
 10
115.7378314210359
 20
7.99928199999999
 30
0.0
 11
115.7429999999999
 21
7.74927199999999
 31
0.0
  0
LINE
  5
224
330
1E
100
AcDbEntity
  8
0
100
AcDbLine
 10
116.297399405788
 20
7.99928199999999
 30
0.0
 11
116.302
 21
7.77675199999999
 31
0.0
  0
LINE
  5
225
330
1E
100
AcDbEntity
  8
0
100
AcDbLine
 10
117.4039677486049
 20
7.99928199999999
 30
0.0
 11
117.4079999999999
 21
7.80424199999999
 31
0.0
  0
LINE
  5
226
330
1E
100
AcDbEntity
  8
0
100
AcDbLine
 10
117.4079999999999
 20
7.80424199999999
 30
0.0
 11
118.405
 21
7.81602199999999
 31
0.0
  0
LINE
  5
227
330
1E
100
AcDbEntity
  8
0
100
AcDbLine
 10
118.401150205405
 20
7.99928199999999
 30
0.0
 11
118.405
 21
7.81602199999999
 31
0.0
  0
LINE
  5
228
330
1E
100
AcDbEntity
  8
0
100
AcDbLine
 10
118.405
 20
7.81602199999999
 30
0.0
 11
118.687
 21
7.80424199999999
 31
0.0
  0
LINE
  5
229
330
1E
100
AcDbEntity
  8
0
100
AcDbLine
 10
118.1279999999999
 20
7.77675199999999
 30
0.0
 11
118.687
 21
7.80424199999999
 31
0.0
  0
LINE
  5
22A
330
1E
100
AcDbEntity
  8
0
100
AcDbLine
 10
117.522
 20
7.99928199999999
 30
0.0
 11
125.943
 21
7.99928199999999
 31
0.0
  0
LINE
  5
22B
330
1E
100
AcDbEntity
  8
0
100
AcDbLine
 10
117.2719999999999
 20
7.99928199999999
 30
0.0
 11
125.526
 21
7.99928199999999
 31
0.0
  0
LINE
  5
22C
330
1E
100
AcDbEntity
  8
0
100
AcDbLine
 10
122.117
 20
7.73749199999999
 30
0.0
 11
122.934
 21
7.74927199999999
 31
0.0
  0
LINE
  5
22D
330
1E
100
AcDbEntity
  8
0
100
AcDbLine
 10
122.131
 20
7.74927199999999
 30
0.0
 11
122.9279999999999
 21
7.77675199999999
 31
0.0
  0
LINE
  5
22E
330
1E
100
AcDbEntity
  8
0
100
AcDbLine
 10
122.9279999999999
 20
7.77675199999999
 30
0.0
 11
124.0699999999999
 21
7.80424199999999
 31
0.0
  0
LINE
  5
22F
330
1E
100
AcDbEntity
  8
0
100
AcDbLine
 10
125.8529999999999
 20
7.74927199999999
 30
0.0
 11
126.9529999999999
 21
7.77675199999999
 31
0.0
  0
LINE
  5
230
330
1E
100
AcDbEntity
  8
0
100
AcDbLine
 10
125.2699999999999
 20
7.73749199999999
 30
0.0
 11
125.5789999999999
 21
7.74927199999999
 31
0.0
  0
LINE
  5
231
330
1E
100
AcDbEntity
  8
0
100
AcDbLine
 10
125.2699999999999
 20
7.73749199999999
 30
0.0
 11
125.8529999999999
 21
7.74927199999999
 31
0.0
  0
LINE
  5
232
330
1E
100
AcDbEntity
  8
0
100
AcDbLine
 10
125.5789999999999
 20
7.74927199999999
 30
0.0
 11
126.561
 21
7.77675199999999
 31
0.0
  0
LINE
  5
233
330
1E
100
AcDbEntity
  8
0
100
AcDbLine
 10
126.9529999999999
 20
7.77675199999999
 30
0.0
 11
127.9339999999999
 21
7.80424199999999
 31
0.0
  0
LINE
  5
234
330
1E
100
AcDbEntity
  8
0
100
AcDbLine
 10
126.561
 20
7.77675199999999
 30
0.0
 11
127.6599999999999
 21
7.80424199999999
 31
0.0
  0
LINE
  5
235
330
1E
100
AcDbEntity
  8
0
100
AcDbLine
 10
124.0699999999999
 20
7.80424199999999
 30
0.0
 11
124.8879999999999
 21
7.81602199999999
 31
0.0
  0
LINE
  5
236
330
1E
100
AcDbEntity
  8
0
100
AcDbLine
 10
127.9339999999999
 20
7.80424199999999
 30
0.0
 11
128.2429999999999
 21
7.81602199999999
 31
0.0
  0
LINE
  5
237
330
1E
100
AcDbEntity
  8
0
100
AcDbLine
 10
127.6599999999999
 20
7.80424199999999
 30
0.0
 11
128.2429999999999
 21
7.81602199999999
 31
0.0
  0
LINE
  5
238
330
1E
100
AcDbEntity
  8
0
100
AcDbLine
 10
124.076
 20
7.77675199999999
 30
0.0
 11
124.8739999999999
 21
7.80424199999999
 31
0.0
  0
LINE
  5
239
330
1E
100
AcDbEntity
  8
0
100
AcDbLine
 10
122.934
 20
7.74927199999999
 30
0.0
 11
124.076
 21
7.77675199999999
 31
0.0
  0
LINE
  5
23A
330
1E
100
AcDbEntity
  8
0
100
AcDbLine
 10
152.93
 20
7.99928199999999
 30
0.0
 11
154.816
 21
7.99928199999999
 31
0.0
  0
LINE
  5
23B
330
1E
100
AcDbEntity
  8
0
100
AcDbLine
 10
154.816
 20
7.99928199999999
 30
0.0
 11
155.6419999999999
 21
7.99928199999999
 31
0.0
  0
LINE
  5
23C
330
1E
100
AcDbEntity
  8
0
100
AcDbLine
 10
145.282
 20
7.99928199999999
 30
0.0
 11
149.618
 21
7.99928199999999
 31
0.0
  0
LINE
  5
23D
330
1E
100
AcDbEntity
  8
0
100
AcDbLine
 10
149.618
 20
7.99928199999999
 30
0.0
 11
152.93
 21
7.99928199999999
 31
0.0
  0
LINE
  5
23E
330
1E
100
AcDbEntity
  8
0
100
AcDbLine
 10
145.6989999999999
 20
7.99928199999999
 30
0.0
 11
150.201
 21
7.99928199999999
 31
0.0
  0
LINE
  5
23F
330
1E
100
AcDbEntity
  8
0
100
AcDbLine
 10
140.1119999999999
 20
7.99928199999999
 30
0.0
 11
145.6989999999999
 21
7.99928199999999
 31
0.0
  0
LINE
  5
241
330
1E
100
AcDbEntity
  8
0
100
AcDbLine
 10
122.110627631303
 20
7.99928199999999
 30
0.0
 11
122.117
 21
7.73749199999999
 31
0.0
  0
LINE
  5
242
330
1E
100
AcDbEntity
  8
0
100
AcDbLine
 10
122.1249144150899
 20
7.99928199999999
 30
0.0
 11
122.131
 21
7.74927199999999
 31
0.0
  0
LINE
  5
243
330
1E
100
AcDbEntity
  8
0
100
AcDbLine
 10
122.9226573744639
 20
7.99928199999999
 30
0.0
 11
122.9279999999999
 21
7.77675199999999
 31
0.0
  0
LINE
  5
244
330
1E
100
AcDbEntity
  8
0
100
AcDbLine
 10
124.0653173854759
 20
7.99928199999999
 30
0.0
 11
124.0699999999999
 21
7.80424199999999
 31
0.0
  0
LINE
  5
245
330
1E
100
AcDbEntity
  8
0
100
AcDbLine
 10
125.263191167693
 20
7.99928199999999
 30
0.0
 11
125.2699999999999
 21
7.73749199999999
 31
0.0
  0
LINE
  5
246
330
1E
100
AcDbEntity
  8
0
100
AcDbLine
 10
125.572497594206
 20
7.99928199999999
 30
0.0
 11
125.5789999999999
 21
7.74927199999999
 31
0.0
  0
LINE
  5
247
330
1E
100
AcDbEntity
  8
0
100
AcDbLine
 10
126.555212155669
 20
7.99928199999999
 30
0.0
 11
126.561
 21
7.77675199999999
 31
0.0
  0
LINE
  5
248
330
1E
100
AcDbEntity
  8
0
100
AcDbLine
 10
127.6549922039119
 20
7.99928199999999
 30
0.0
 11
127.6599999999999
 21
7.80424199999999
 31
0.0
  0
LINE
  5
249
330
1E
100
AcDbEntity
  8
0
100
AcDbLine
 10
125.943
 20
7.99928199999999
 30
0.0
 11
133.608
 21
7.99928199999999
 31
0.0
  0
LINE
  5
24B
330
1E
100
AcDbEntity
  8
0
100
AcDbLine
 10
125.526
 20
7.99928199999999
 30
0.0
 11
133.191
 21
7.99928199999999
 31
0.0
  0
LINE
  5
24C
330
1E
100
AcDbEntity
  8
0
100
AcDbLine
 10
133.608
 20
7.99928199999999
 30
0.0
 11
140.1119999999999
 21
7.99928199999999
 31
0.0
  0
LINE
  5
24E
330
1E
100
AcDbEntity
  8
0
100
AcDbLine
 10
139.6949999999999
 20
7.99928199999999
 30
0.0
 11
145.282
 21
7.99928199999999
 31
0.0
  0
LINE
  5
24F
330
1E
100
AcDbEntity
  8
0
100
AcDbLine
 10
150.201
 20
7.99928199999999
 30
0.0
 11
153.401
 21
7.99928199999999
 31
0.0
  0
LINE
  5
250
330
1E
100
AcDbEntity
  8
0
100
AcDbLine
 10
153.401
 20
7.99928199999999
 30
0.0
 11
155.4059999999999
 21
7.99928199999999
 31
0.0
  0
LINE
  5
251
330
1E
100
AcDbEntity
  8
0
100
AcDbLine
 10
156.231
 20
7.99928199999999
 30
0.0
 11
157.41
 21
8.49928199999999
 31
0.0
  0
LINE
  5
252
330
1E
100
AcDbEntity
  8
0
100
AcDbLine
 10
155.4059999999999
 20
7.99928199999999
 30
0.0
 11
156.231
 21
7.99928199999999
 31
0.0
  0
LINE
  5
253
330
1E
100
AcDbEntity
  8
0
100
AcDbLine
 10
124.883539126897
 20
7.99928199999999
 30
0.0
 11
125.263191167693
 21
7.99928199999999
 31
0.0
  0
LINE
  5
254
330
1E
100
AcDbEntity
  8
0
100
AcDbLine
 10
124.883539126897
 20
7.99928199999999
 30
0.0
 11
124.8879999999999
 21
7.81602199999999
 31
0.0
  0
LINE
  5
255
330
1E
100
AcDbEntity
  8
0
100
AcDbLine
 10
118.682967748605
 20
7.99928199999999
 30
0.0
 11
122.110627631303
 21
7.99928199999999
 31
0.0
  0
LINE
  5
256
330
1E
100
AcDbEntity
  8
0
100
AcDbLine
 10
118.682967748605
 20
7.99928199999999
 30
0.0
 11
118.687
 21
7.80424199999999
 31
0.0
  0
LINE
  5
257
330
1E
100
AcDbEntity
  8
0
100
AcDbLine
 10
101.102
 20
7.99928199999999
 30
0.0
 11
103.731
 21
7.99928199999999
 31
0.0
  0
LINE
  5
258
330
1E
100
AcDbEntity
  8
0
100
AcDbLine
 10
101.6195101734589
 20
7.99928199999999
 30
0.0
 11
101.631
 21
7.52070199999999
 31
0.0
  0
LINE
  5
259
330
1E
100
AcDbEntity
  8
0
100
AcDbLine
 10
101.633637412471
 20
7.99928199999999
 30
0.0
 11
101.645
 21
7.53248199999999
 31
0.0
  0
LINE
  5
25A
330
1E
100
AcDbEntity
  8
0
100
AcDbLine
 10
102.432306386753
 20
7.99928199999999
 30
0.0
 11
102.4429999999999
 21
7.55996199999999
 31
0.0
  0
LINE
  5
25B
330
1E
100
AcDbEntity
  8
0
100
AcDbLine
 10
103.574112553477
 20
7.99928199999999
 30
0.0
 11
103.584
 21
7.58745199999999
 31
0.0
  0
LINE
  5
25C
330
1E
100
AcDbEntity
  8
0
100
AcDbLine
 10
106.3061490865079
 20
7.99928199999999
 30
0.0
 11
106.312
 21
7.68595199999999
 31
0.0
  0
LINE
  5
25D
330
1E
100
AcDbEntity
  8
0
100
AcDbLine
 10
105.245037518923
 20
7.99928199999999
 30
0.0
 11
105.251
 21
7.67416199999999
 31
0.0
  0
LINE
  5
25E
330
1E
100
AcDbEntity
  8
0
100
AcDbLine
 10
104.1845335111699
 20
7.99928199999999
 30
0.0
 11
104.191
 21
7.64668199999999
 31
0.0
  0
LINE
  5
25F
330
1E
100
AcDbEntity
  8
0
100
AcDbLine
 10
103.759902760272
 20
7.99928199999999
 30
0.0
 11
103.767
 21
7.61920199999999
 31
0.0
  0
LINE
  5
260
330
1E
100
AcDbEntity
  8
0
100
AcDbLine
 10
109.233066823165
 20
7.99928199999999
 30
0.0
 11
109.236
 21
7.81602199999999
 31
0.0
  0
LINE
  5
261
330
1E
100
AcDbEntity
  8
0
100
AcDbLine
 10
108.125943293297
 20
7.99928199999999
 30
0.0
 11
108.1289999999999
 21
7.80424199999999
 31
0.0
  0
LINE
  5
262
330
1E
100
AcDbEntity
  8
0
100
AcDbLine
 10
107.1295124527749
 20
7.99928199999999
 30
0.0
 11
107.1329999999999
 21
7.77675199999999
 31
0.0
  0
LINE
  5
263
330
1E
100
AcDbEntity
  8
0
100
AcDbLine
 10
106.8470818836879
 20
7.99928199999999
 30
0.0
 11
106.851
 21
7.74927199999999
 31
0.0
  0
LINE
  5
264
330
1E
100
AcDbEntity
  8
0
100
AcDbLine
 10
108.5179999999999
 20
7.99928199999999
 30
0.0
 11
117.522
 21
7.99928199999999
 31
0.0
  0
LINE
  5
265
330
1E
100
AcDbEntity
  8
0
100
AcDbLine
 10
109.791943293297
 20
7.99928199999999
 30
0.0
 11
113.4020694374049
 21
7.99928199999999
 31
0.0
  0
LINE
  5
266
330
1E
100
AcDbEntity
  8
0
100
AcDbLine
 10
109.791943293297
 20
7.99928199999999
 30
0.0
 11
113.4020694374049
 21
7.99928199999999
 31
0.0
  0
LINE
  5
267
330
1E
100
AcDbEntity
  8
0
100
AcDbLine
 10
109.791943293297
 20
7.99928199999999
 30
0.0
 11
109.7949999999999
 21
7.80424199999999
 31
0.0
  0
LINE
  5
268
330
1E
100
AcDbEntity
  8
0
100
AcDbLine
 10
128.238294695494
 20
7.99928199999999
 30
0.0
 11
133.191
 21
7.99928199999999
 31
0.0
  0
LINE
  5
269
330
1E
100
AcDbEntity
  8
0
100
AcDbLine
 10
128.238294695494
 20
7.99928199999999
 30
0.0
 11
128.2429999999999
 21
7.81602199999999
 31
0.0
  0
LINE
  5
26A
330
1E
100
AcDbEntity
  8
0
100
AcDbLine
 10
101.0864858099389
 20
7.99928199999999
 30
0.0
 11
101.6195101734589
 21
7.99928199999999
 31
0.0
  0
LINE
  5
26B
330
1E
100
AcDbEntity
  8
0
100
AcDbLine
 10
101.0864858099389
 20
7.99928199999999
 30
0.0
 11
101.095
 21
7.58745199999999
 31
0.0
  0
LINE
  5
26C
330
1E
100
AcDbEntity
  8
0
100
AcDbLine
 10
70.84248672224081
 20
7.99928199999999
 30
0.0
 11
70.9627
 21
7.99928199999999
 31
0.0
  0
LINE
  5
26D
330
1E
100
AcDbEntity
  8
0
100
AcDbLine
 10
70.9627
 20
7.99928199999999
 30
0.0
 11
71.2262642922642
 21
7.99928199999999
 31
0.0
  0
LINE
  5
26E
330
1E
100
AcDbEntity
  8
0
100
AcDbLine
 10
74.200656871951
 20
7.99928199999999
 30
0.0
 11
74.98139999999999
 21
7.99928199999999
 31
0.0
  0
LINE
  5
26F
330
1E
100
AcDbEntity
  8
0
100
AcDbLine
 10
74.98139999999999
 20
7.99928199999999
 30
0.0
 11
77.5
 21
7.99928199999999
 31
0.0
  0
LINE
  5
270
330
1E
100
AcDbEntity
  8
0
100
AcDbLine
 10
77.5
 20
7.99928199999999
 30
0.0
 11
77.5
 21
6.52051199999999
 31
0.0
  0
LINE
  5
271
330
1E
100
AcDbEntity
  8
0
100
AcDbLine
 10
77.5
 20
7.99928199999999
 30
0.0
 11
77.5
 21
5.36717199999999
 31
0.0
  0
LINE
  5
272
330
1E
100
AcDbEntity
  8
0
100
AcDbLine
 10
83.01860000000001
 20
7.99928199999999
 30
0.0
 11
83.799343128049
 21
7.99928199999999
 31
0.0
  0
LINE
  5
273
330
1E
100
AcDbEntity
  8
0
100
AcDbLine
 10
81.48768554584471
 20
7.99928199999999
 30
0.0
 11
81.48909999999998
 21
7.58745199999999
 31
0.0
  0
LINE
  5
274
330
1E
100
AcDbEntity
  8
0
100
AcDbLine
 10
80.9044058239025
 20
7.99928199999999
 30
0.0
 11
80.9059
 21
7.55996199999999
 31
0.0
  0
LINE
  5
275
330
1E
100
AcDbEntity
  8
0
100
AcDbLine
 10
83.5696855458447
 20
7.99928199999999
 30
0.0
 11
83.5711
 21
7.58745199999999
 31
0.0
  0
LINE
  5
276
330
1E
100
AcDbEntity
  8
0
100
AcDbLine
 10
82.58743935377379
 20
7.99928199999999
 30
0.0
 11
82.58880000000001
 21
7.59923199999999
 31
0.0
  0
LINE
  5
277
330
1E
100
AcDbEntity
  8
0
100
AcDbLine
 10
84.38263012597779
 20
7.99928199999999
 30
0.0
 11
84.3833
 21
7.80424199999999
 31
0.0
  0
LINE
  5
278
330
1E
100
AcDbEntity
  8
0
100
AcDbLine
 10
83.799343128049
 20
7.99928199999999
 30
0.0
 11
83.8001
 21
7.77675199999999
 31
0.0
  0
LINE
  5
279
330
1E
100
AcDbEntity
  8
0
100
AcDbLine
 10
87.0373
 20
7.99928199999999
 30
0.0
 11
87.15751327775931
 21
7.99928199999999
 31
0.0
  0
LINE
  5
27A
330
1E
100
AcDbEntity
  8
0
100
AcDbLine
 10
86.7737357077358
 20
7.99928199999999
 30
0.0
 11
86.7745
 21
7.77675199999999
 31
0.0
  0
LINE
  5
27B
330
1E
100
AcDbEntity
  8
0
100
AcDbLine
 10
86.7737357077358
 20
7.99928199999999
 30
0.0
 11
87.0373
 21
7.99928199999999
 31
0.0
  0
LINE
  5
27C
330
1E
100
AcDbEntity
  8
0
100
AcDbLine
 10
86.46463662960909
 20
7.99928199999999
 30
0.0
 11
86.4653
 21
7.80424199999999
 31
0.0
  0
LINE
  5
27D
330
1E
100
AcDbEntity
  8
0
100
AcDbLine
 10
85.48237669992259
 20
7.99928199999999
 30
0.0
 11
85.48299999999999
 21
7.81602199999999
 31
0.0
  0
LINE
  5
27E
330
1E
100
AcDbEntity
  8
0
100
AcDbLine
 10
87.86399930243879
 20
7.99928199999999
 30
0.0
 11
87.8662
 21
7.67416199999999
 31
0.0
  0
LINE
  5
27F
330
1E
100
AcDbEntity
  8
0
100
AcDbLine
 10
87.15751327775931
 20
7.99928199999999
 30
0.0
 11
87.15989999999999
 21
7.64668199999999
 31
0.0
  0
LINE
  5
280
330
1E
100
AcDbEntity
  8
0
100
AcDbLine
 10
90.05531327775921
 20
7.99928199999999
 30
0.0
 11
90.0577
 21
7.64668199999999
 31
0.0
  0
LINE
  5
281
330
1E
100
AcDbEntity
  8
0
100
AcDbLine
 10
89.89249930243879
 20
7.99928199999999
 30
0.0
 11
89.8947
 21
7.67416199999999
 31
0.0
  0
LINE
  5
282
330
1E
100
AcDbEntity
  8
0
100
AcDbLine
 10
88.99477904385902
 20
7.99928199999999
 30
0.0
 11
88.99689999999999
 21
7.68595199999999
 31
0.0
  0
LINE
  5
283
330
1E
100
AcDbEntity
  8
0
100
AcDbLine
 10
98.92690000000001
 20
7.99928199999999
 30
0.0
 11
101.0999999999999
 21
7.99928199999999
 31
0.0
  0
LINE
  5
284
330
1E
100
AcDbEntity
  8
0
100
AcDbLine
 10
96.04537390602651
 20
7.99928199999999
 30
0.0
 11
96.0476
 21
7.77675199999999
 31
0.0
  0
LINE
  5
285
330
1E
100
AcDbEntity
  8
0
100
AcDbLine
 10
94.62433583411408
 20
7.99928199999999
 30
0.0
 11
94.63089999999999
 21
7.58745199999999
 31
0.0
  0
LINE
  5
286
330
1E
100
AcDbEntity
  8
0
100
AcDbLine
 10
93.627897880641
 20
7.99928199999999
 30
0.0
 11
93.6349
 21
7.55996199999999
 31
0.0
  0
LINE
  5
287
330
1E
100
AcDbEntity
  8
0
100
AcDbLine
 10
93.3455442747582
 20
7.99928199999999
 30
0.0
 11
93.353
 21
7.53248199999999
 31
0.0
  0
LINE
  5
288
330
1E
100
AcDbEntity
  8
0
100
AcDbLine
 10
109.791943293297
 20
7.99928199999999
 30
0.0
 11
109.7949999999999
 21
7.80424199999999
 31
0.0
  0
LINE
  5
289
330
1E
100
AcDbEntity
  8
0
100
AcDbLine
 10
80.9044058239025
 20
7.99928199999999
 30
0.0
 11
80.9059
 21
7.55996199999999
 31
0.0
  0
LINE
  5
28A
330
1E
100
AcDbEntity
  8
0
100
AcDbLine
 10
83.799343128049
 20
7.99928199999999
 30
0.0
 11
83.8001
 21
7.77675199999999
 31
0.0
  0
LINE
  5
28B
330
1E
100
AcDbEntity
  8
0
100
AcDbLine
 10
80.5
 20
7.99928199999999
 30
0.0
 11
80.5
 21
6.52051199999999
 31
0.0
  0
LINE
  5
28C
330
1E
100
AcDbEntity
  8
0
100
AcDbLine
 10
80.5
 20
7.99928199999999
 30
0.0
 11
83.01860000000001
 21
7.99928199999999
 31
0.0
  0
LINE
  5
28D
330
1E
100
AcDbEntity
  8
0
100
AcDbLine
 10
89.0224
 20
7.99928199999999
 30
0.0
 11
98.92690000000001
 21
7.99928199999999
 31
0.0
  0
LINE
  5
28E
330
1E
100
AcDbEntity
  8
0
100
AcDbLine
 10
79.0
 20
7.99928199999999
 30
0.0
 11
89.0224
 21
7.99928199999999
 31
0.0
  0
LINE
  5
28F
330
1E
100
AcDbEntity
  8
0
100
AcDbLine
 10
106.730037518923
 20
7.99928199999999
 30
0.0
 11
106.8470818836879
 21
7.99928199999999
 31
0.0
  0
LINE
  5
290
330
1E
100
AcDbEntity
  8
0
100
AcDbLine
 10
106.730037518923
 20
7.99928199999999
 30
0.0
 11
106.736
 21
7.67416199999999
 31
0.0
  0
LINE
  5
291
330
1E
100
AcDbEntity
  8
0
100
AcDbLine
 10
68.97759999999999
 20
7.99928199999999
 30
0.0
 11
79.0
 21
7.99928199999999
 31
0.0
  0
LINE
  5
292
330
1E
100
AcDbEntity
  8
0
100
AcDbLine
 10
58.7194
 20
8.499282
 30
0.0
 11
68.8597
 21
8.49928199999999
 31
0.0
  0
LINE
  5
293
330
1E
100
AcDbEntity
  8
0
100
AcDbLine
 10
60.67199999999999
 20
38.004782
 30
0.0
 11
61.4545
 21
38.004782
 31
0.0
  0
LINE
  5
294
330
1E
100
AcDbEntity
  8
0
100
AcDbLine
 10
60.1503
 20
38.004782
 30
0.0
 11
60.67199999999999
 21
38.004782
 31
0.0
  0
LINE
  5
295
330
1E
100
AcDbEntity
  8
0
100
AcDbLine
 10
68.8597
 20
8.49928199999999
 30
0.0
 11
79.0
 21
8.49928199999999
 31
0.0
  0
LINE
  5
29A
330
1E
100
AcDbEntity
  8
0
100
AcDbLine
 10
118.106
 20
8.49928199999999
 30
0.0
 11
126.693
 21
8.49928199999999
 31
0.0
  0
LINE
  5
29B
330
1E
100
AcDbEntity
  8
0
100
AcDbLine
 10
108.949
 20
8.49928199999999
 30
0.0
 11
118.106
 21
8.49928199999999
 31
0.0
  0
LINE
  5
29D
330
1E
100
AcDbEntity
  8
0
100
AcDbLine
 10
126.693
 20
8.49928199999999
 30
0.0
 11
134.4439999999999
 21
8.49928199999999
 31
0.0
  0
LINE
  5
29F
330
1E
100
AcDbEntity
  8
0
100
AcDbLine
 10
99.28060000000002
 20
8.49928199999999
 30
0.0
 11
108.949
 21
8.49928199999999
 31
0.0
  0
LINE
  5
2A9
330
1E
100
AcDbEntity
  8
0
100
AcDbLine
 10
89.1403
 20
8.49928199999999
 30
0.0
 11
99.28060000000002
 21
8.49928199999999
 31
0.0
  0
LINE
  5
2AA
330
1E
100
AcDbEntity
  8
0
100
AcDbLine
 10
79.0
 20
8.49928199999999
 30
0.0
 11
89.1403
 21
8.49928199999999
 31
0.0
  0
LINE
  5
2C0
330
1E
100
AcDbEntity
  8
0
100
AcDbLine
 10
134.4439999999999
 20
8.49928199999999
 30
0.0
 11
141.0289999999999
 21
8.49928199999999
 31
0.0
  0
LINE
  5
2C2
330
1E
100
AcDbEntity
  8
0
100
AcDbLine
 10
146.782
 20
8.49928199999999
 30
0.0
 11
151.279
 21
8.49928199999999
 31
0.0
  0
LINE
  5
2D2
330
1E
100
AcDbEntity
  8
0
100
AcDbLine
 10
141.0289999999999
 20
8.49928199999999
 30
0.0
 11
146.782
 21
8.49928199999999
 31
0.0
  0
LINE
  5
2D4
330
1E
100
AcDbEntity
  8
0
100
AcDbLine
 10
127.584
 20
37.505582
 30
0.0
 11
145.434
 21
37.02358199999999
 31
0.0
  0
LINE
  5
2D5
330
1E
100
AcDbEntity
  8
0
100
AcDbLine
 10
147.0
 20
36.499282
 30
0.0
 11
148.0
 21
34.999282
 31
0.0
  0
LINE
  5
2D6
330
1E
100
AcDbEntity
  8
0
100
AcDbLine
 10
146.0
 20
36.999282
 30
0.0
 11
147.0
 21
36.499282
 31
0.0
  0
LINE
  5
2D7
330
1E
100
AcDbEntity
  8
0
100
AcDbLine
 10
145.434
 20
37.02358199999999
 30
0.0
 11
146.0
 21
36.999282
 31
0.0
  0
LINE
  5
2D8
330
1E
100
AcDbEntity
  8
0
100
AcDbLine
 10
148.0
 20
34.999282
 30
0.0
 11
148.5
 21
29.999282
 31
0.0
  0
LINE
  5
2D9
330
1E
100
AcDbEntity
  8
0
100
AcDbLine
 10
148.5
 20
29.999282
 30
0.0
 11
150.0
 21
22.999282
 31
0.0
  0
LINE
  5
2DA
330
1E
100
AcDbEntity
  8
0
100
AcDbLine
 10
150.0
 20
22.999282
 30
0.0
 11
153.0
 21
15.999282
 31
0.0
  0
LINE
  5
2DB
330
1E
100
AcDbEntity
  8
0
100
AcDbLine
 10
153.0
 20
15.999282
 30
0.0
 11
155.6419999999999
 21
11.999282
 31
0.0
  0
LINE
  5
2DC
330
1E
100
AcDbEntity
  8
0
100
AcDbLine
 10
155.6419999999999
 20
11.999282
 30
0.0
 11
157.41
 21
10.999282
 31
0.0
  0
LINE
  5
2DD
330
1E
100
AcDbEntity
  8
0
100
AcDbLine
 10
151.279
 20
8.49928199999999
 30
0.0
 11
154.581
 21
8.49928199999999
 31
0.0
  0
LINE
  5
2DE
330
1E
100
AcDbEntity
  8
0
100
AcDbLine
 10
154.581
 20
8.49928199999999
 30
0.0
 11
156.585
 21
8.49928199999999
 31
0.0
  0
LINE
  5
2DF
330
1E
100
AcDbEntity
  8
0
100
AcDbLine
 10
158.0
 20
9.99928199999999
 30
0.0
 11
158.0
 21
9.49928199999999
 31
0.0
  0
LINE
  5
2E0
330
1E
100
AcDbEntity
  8
0
100
AcDbLine
 10
157.41
 20
10.999282
 30
0.0
 11
158.0
 21
9.99928199999999
 31
0.0
  0
LINE
  5
2E1
330
1E
100
AcDbEntity
  8
0
100
AcDbLine
 10
158.0
 20
9.49928199999999
 30
0.0
 11
158.0
 21
9.99928199999999
 31
0.0
  0
LINE
  5
2E2
330
1E
100
AcDbEntity
  8
0
100
AcDbLine
 10
157.41
 20
8.49928199999999
 30
0.0
 11
158.0
 21
9.49928199999999
 31
0.0
  0
LINE
  5
2E3
330
1E
100
AcDbEntity
  8
0
100
AcDbLine
 10
156.585
 20
8.49928199999999
 30
0.0
 11
157.41
 21
8.49928199999999
 31
0.0
  0
LINE
  5
2F6
330
1E
100
AcDbEntity
  8
0
100
AcDbLine
 10
66.89909738601949
 20
38.03123374502829
 30
0.0
 11
69.7534237448571
 21
38.030867839012
 31
0.0
  0
LINE
  5
2F9
330
1E
100
AcDbEntity
  8
0
100
AcDbLine
 10
62.58469999999999
 20
38.021982
 30
0.0
 11
63.88889999999999
 21
38.039182
 31
0.0
  0
LINE
  5
2FA
330
1E
100
AcDbEntity
  8
0
100
AcDbLine
 10
64.1061
 20
47.858182
 30
0.0
 11
64.52079999999999
 21
48.547782
 31
0.0
  0
LINE
  5
2FB
330
1E
100
AcDbEntity
  8
0
100
AcDbLine
 10
64.1061
 20
47.858182
 30
0.0
 11
64.1061
 21
38.496882
 31
0.0
  0
LINE
  5
2FC
330
1E
100
AcDbEntity
  8
0
100
AcDbLine
 10
64.00539999999999
 20
49.244382
 30
0.0
 11
64.00539999999999
 21
57.00658199999999
 31
0.0
  0
LINE
  5
2FD
330
1E
100
AcDbEntity
  8
0
100
AcDbLine
 10
64.00539999999999
 20
49.244382
 30
0.0
 11
64.05840000000001
 21
49.244382
 31
0.0
  0
LINE
  5
2FE
330
1E
100
AcDbEntity
  8
0
100
AcDbLine
 10
64.1591
 20
38.496882
 30
0.0
 11
64.3604
 21
38.496882
 31
0.0
  0
LINE
  5
2FF
330
1E
100
AcDbEntity
  8
0
100
AcDbLine
 10
64.1061
 20
38.496882
 30
0.0
 11
64.1061
 21
47.858182
 31
0.0
  0
LINE
  5
300
330
1E
100
AcDbEntity
  8
0
100
AcDbLine
 10
64.1061
 20
38.496882
 30
0.0
 11
64.58169804324779
 21
38.0373527061746
 31
0.0
  0
LINE
  5
301
330
1E
100
AcDbEntity
  8
0
100
AcDbLine
 10
64.1061
 20
38.496882
 30
0.0
 11
64.1591
 21
38.496882
 31
0.0
  0
LINE
  5
305
330
1E
100
AcDbEntity
  8
0
100
AcDbLine
 10
64.00539999999999
 20
57.00658199999999
 30
0.0
 11
64.0744
 21
57.02538199999999
 31
0.0
  0
LINE
  5
306
330
1E
100
AcDbEntity
  8
0
100
AcDbLine
 10
64.00539999999999
 20
57.00658199999999
 30
0.0
 11
64.00539999999999
 21
49.244382
 31
0.0
  0
LINE
  5
309
330
1E
100
AcDbEntity
  8
0
100
AcDbLine
 10
64.0744
 20
57.02538199999999
 30
0.0
 11
64.52079999999999
 21
57.13988199999999
 31
0.0
  0
LINE
  5
30B
330
1E
100
AcDbEntity
  8
0
100
AcDbLine
 10
64.05840000000001
 20
49.244382
 30
0.0
 11
64.2608
 21
49.244382
 31
0.0
  0
LINE
  5
30C
330
1E
100
AcDbEntity
  8
0
100
AcDbLine
 10
64.3604
 20
38.496882
 30
0.0
 11
64.70269999999999
 21
38.496882
 31
0.0
  0
LINE
  5
30D
330
1E
100
AcDbEntity
  8
0
100
AcDbLine
 10
64.3684
 20
49.244382
 30
0.0
 11
64.5265
 21
49.244382
 31
0.0
  0
LINE
  5
30E
330
1E
100
AcDbEntity
  8
0
100
AcDbLine
 10
64.3684
 20
49.244382
 30
0.0
 11
64.52079999999999
 21
49.244382
 31
0.0
  0
LINE
  5
30F
330
1E
100
AcDbEntity
  8
0
100
AcDbLine
 10
64.52079999999999
 20
49.244382
 30
0.0
 11
64.52079999999999
 21
48.547782
 31
0.0
  0
LINE
  5
310
330
1E
100
AcDbEntity
  8
0
100
AcDbLine
 10
64.52079999999999
 20
48.547782
 30
0.0
 11
64.52079999999999
 21
49.244382
 31
0.0
  0
LINE
  5
311
330
1E
100
AcDbEntity
  8
0
100
AcDbLine
 10
64.70269999999999
 20
38.496882
 30
0.0
 11
65.182
 21
38.496882
 31
0.0
  0
LINE
  5
312
330
1E
100
AcDbEntity
  8
0
100
AcDbLine
 10
65.182
 20
38.496882
 30
0.0
 11
65.7951
 21
38.496882
 31
0.0
  0
LINE
  5
313
330
1E
100
AcDbEntity
  8
0
100
AcDbLine
 10
66.5361
 20
38.496882
 30
0.0
 11
67.39589999999999
 21
38.496882
 31
0.0
  0
LINE
  5
314
330
1E
100
AcDbEntity
  8
0
100
AcDbLine
 10
67.39589999999999
 20
38.496882
 30
0.0
 11
68.36839999999999
 21
38.496882
 31
0.0
  0
LINE
  5
315
330
1E
100
AcDbEntity
  8
0
100
AcDbLine
 10
65.4387
 20
49.244382
 30
0.0
 11
66.0266
 21
49.244382
 31
0.0
  0
LINE
  5
316
330
1E
100
AcDbEntity
  8
0
100
AcDbLine
 10
65.08929999999999
 20
49.244382
 30
0.0
 11
65.7065
 21
49.244382
 31
0.0
  0
LINE
  5
317
330
1E
100
AcDbEntity
  8
0
100
AcDbLine
 10
64.98969999999999
 20
49.244382
 30
0.0
 11
65.4387
 21
49.244382
 31
0.0
  0
LINE
  5
318
330
1E
100
AcDbEntity
  8
0
100
AcDbLine
 10
64.6846
 20
49.244382
 30
0.0
 11
64.98969999999999
 21
49.244382
 31
0.0
  0
LINE
  5
319
330
1E
100
AcDbEntity
  8
0
100
AcDbLine
 10
64.60609999999999
 20
49.244382
 30
0.0
 11
65.08929999999999
 21
49.244382
 31
0.0
  0
LINE
  5
31B
330
1E
100
AcDbEntity
  8
0
100
AcDbLine
 10
64.5265
 20
49.244382
 30
0.0
 11
64.6846
 21
49.244382
 31
0.0
  0
LINE
  5
31D
330
1E
100
AcDbEntity
  8
0
100
AcDbLine
 10
64.5265
 20
57.90218199999999
 30
0.0
 11
64.6846
 21
57.90218199999999
 31
0.0
  0
LINE
  5
31E
330
1E
100
AcDbEntity
  8
0
100
AcDbLine
 10
64.5265
 20
57.13988199999999
 30
0.0
 11
64.6846
 21
57.13988199999999
 31
0.0
  0
LINE
  5
31F
330
1E
100
AcDbEntity
  8
0
100
AcDbLine
 10
64.98969999999999
 20
57.90218199999999
 30
0.0
 11
65.4387
 21
57.90218199999999
 31
0.0
  0
LINE
  5
320
330
1E
100
AcDbEntity
  8
0
100
AcDbLine
 10
64.6846
 20
57.13988199999999
 30
0.0
 11
64.98969999999999
 21
57.13988199999999
 31
0.0
  0
LINE
  5
321
330
1E
100
AcDbEntity
  8
0
100
AcDbLine
 10
64.6846
 20
57.90218199999999
 30
0.0
 11
64.98969999999999
 21
57.90218199999999
 31
0.0
  0
LINE
  5
322
330
1E
100
AcDbEntity
  8
0
100
AcDbLine
 10
65.4387
 20
57.13988199999999
 30
0.0
 11
66.0276
 21
57.13988199999999
 31
0.0
  0
LINE
  5
323
330
1E
100
AcDbEntity
  8
0
100
AcDbLine
 10
65.4387
 20
57.90218199999999
 30
0.0
 11
66.0266
 21
57.90218199999999
 31
0.0
  0
LINE
  5
324
330
1E
100
AcDbEntity
  8
0
100
AcDbLine
 10
64.98969999999999
 20
57.13988199999999
 30
0.0
 11
65.4387
 21
57.13988199999999
 31
0.0
  0
LINE
  5
326
330
1E
100
AcDbEntity
  8
0
100
AcDbLine
 10
65.7065
 20
49.244382
 30
0.0
 11
66.4515
 21
49.244382
 31
0.0
  0
LINE
  5
327
330
1E
100
AcDbEntity
  8
0
100
AcDbLine
 10
66.0266
 20
57.90218199999999
 30
0.0
 11
66.74850000000001
 21
57.90218199999999
 31
0.0
  0
LINE
  5
328
330
1E
100
AcDbEntity
  8
0
100
AcDbLine
 10
66.74850000000001
 20
49.244382
 30
0.0
 11
67.59520000000001
 21
49.244382
 31
0.0
  0
LINE
  5
32A
330
1E
100
AcDbEntity
  8
0
100
AcDbLine
 10
66.4515
 20
49.244382
 30
0.0
 11
67.3173
 21
49.244382
 31
0.0
  0
LINE
  5
32C
330
1E
100
AcDbEntity
  8
0
100
AcDbLine
 10
67.3173
 20
49.244382
 30
0.0
 11
68.2959
 21
49.244382
 31
0.0
  0
LINE
  5
32D
330
1E
100
AcDbEntity
  8
0
100
AcDbLine
 10
66.74850000000001
 20
57.13988199999999
 30
0.0
 11
67.59520000000001
 21
57.13988199999999
 31
0.0
  0
LINE
  5
32E
330
1E
100
AcDbEntity
  8
0
100
AcDbLine
 10
66.74850000000001
 20
57.90218199999999
 30
0.0
 11
67.59520000000001
 21
57.90218199999999
 31
0.0
  0
LINE
  5
32F
330
1E
100
AcDbEntity
  8
0
100
AcDbLine
 10
66.0276
 20
57.13988199999999
 30
0.0
 11
66.74850000000001
 21
57.13988199999999
 31
0.0
  0
LINE
  5
330
330
1E
100
AcDbEntity
  8
0
100
AcDbLine
 10
66.0266
 20
49.244382
 30
0.0
 11
66.74850000000001
 21
49.244382
 31
0.0
  0
LINE
  5
331
330
1E
100
AcDbEntity
  8
0
100
AcDbLine
 10
65.7951
 20
38.496882
 30
0.0
 11
66.5361
 21
38.496882
 31
0.0
  0
LINE
  5
332
330
1E
100
AcDbEntity
  8
0
100
AcDbLine
 10
64.52079999999999
 20
57.13988199999999
 30
0.0
 11
64.52079999999999
 21
57.90218199999999
 31
0.0
  0
LINE
  5
333
330
1E
100
AcDbEntity
  8
0
100
AcDbLine
 10
65.47589999999999
 20
58.399782
 30
0.0
 11
65.90989999999999
 21
58.399782
 31
0.0
  0
LINE
  5
334
330
1E
100
AcDbEntity
  8
0
100
AcDbLine
 10
65.90989999999999
 20
58.399782
 30
0.0
 11
66.4777
 21
58.399782
 31
0.0
  0
LINE
  5
335
330
1E
100
AcDbEntity
  8
0
100
AcDbLine
 10
65.182
 20
58.399782
 30
0.0
 11
65.47589999999999
 21
58.399782
 31
0.0
  0
LINE
  5
336
330
1E
100
AcDbEntity
  8
0
100
AcDbLine
 10
65.02889999999999
 20
58.399782
 30
0.0
 11
65.182
 21
58.399782
 31
0.0
  0
LINE
  5
337
330
1E
100
AcDbEntity
  8
0
100
AcDbLine
 10
66.4777
 20
58.399782
 30
0.0
 11
67.1744
 21
58.399782
 31
0.0
  0
LINE
  5
338
330
1E
100
AcDbEntity
  8
0
100
AcDbLine
 10
67.1744
 20
58.399782
 30
0.0
 11
67.9919
 21
58.399782
 31
0.0
  0
LINE
  5
339
330
1E
100
AcDbEntity
  8
0
100
AcDbLine
 10
64.52079999999999
 20
57.90218199999999
 30
0.0
 11
65.02379999999999
 21
58.399782
 31
0.0
  0
LINE
  5
33B
330
1E
100
AcDbEntity
  8
0
100
AcDbLine
 10
67.59520000000001
 20
57.90218199999999
 30
0.0
 11
68.55970000000001
 21
57.90218199999999
 31
0.0
  0
LINE
  5
33C
330
1E
100
AcDbEntity
  8
0
100
AcDbLine
 10
67.59520000000001
 20
49.244382
 30
0.0
 11
68.55970000000001
 21
49.244382
 31
0.0
  0
LINE
  5
33D
330
1E
100
AcDbEntity
  8
0
100
AcDbLine
 10
67.59520000000001
 20
57.13988199999999
 30
0.0
 11
68.55970000000001
 21
57.13988199999999
 31
0.0
  0
LINE
  5
33E
330
1E
100
AcDbEntity
  8
0
100
AcDbLine
 10
67.9919
 20
58.399782
 30
0.0
 11
68.9221
 21
58.399782
 31
0.0
  0
LINE
  5
33F
330
1E
100
AcDbEntity
  8
0
100
AcDbLine
 10
68.2959
 20
49.244382
 30
0.0
 11
69.37820000000001
 21
49.244382
 31
0.0
  0
LINE
  5
340
330
1E
100
AcDbEntity
  8
0
100
AcDbLine
 10
68.55970000000001
 20
49.244382
 30
0.0
 11
69.6309
 21
49.244382
 31
0.0
  0
LINE
  5
341
330
1E
100
AcDbEntity
  8
0
100
AcDbLine
 10
68.36839999999999
 20
38.496882
 30
0.0
 11
69.44259999999999
 21
38.496882
 31
0.0
  0
LINE
  5
343
330
1E
100
AcDbEntity
  8
0
100
AcDbLine
 10
68.55970000000001
 20
57.13988199999999
 30
0.0
 11
69.6309
 21
57.13988199999999
 31
0.0
  0
LINE
  5
344
330
1E
100
AcDbEntity
  8
0
100
AcDbLine
 10
68.55970000000001
 20
57.90218199999999
 30
0.0
 11
69.6309
 21
57.90218199999999
 31
0.0
  0
LINE
  5
346
330
1E
100
AcDbEntity
  8
0
100
AcDbLine
 10
69.37820000000001
 20
49.244382
 30
0.0
 11
70.55209999999999
 21
49.244382
 31
0.0
  0
LINE
  5
347
330
1E
100
AcDbEntity
  8
0
100
AcDbLine
 10
69.6309
 20
57.90218199999999
 30
0.0
 11
70.79779999999999
 21
57.90218199999999
 31
0.0
  0
LINE
  5
348
330
1E
100
AcDbEntity
  8
0
100
AcDbLine
 10
69.6309
 20
57.13988199999999
 30
0.0
 11
70.79779999999999
 21
57.13988199999999
 31
0.0
  0
LINE
  5
349
330
1E
100
AcDbEntity
  8
0
100
AcDbLine
 10
69.6309
 20
49.244382
 30
0.0
 11
70.55209999999999
 21
49.244382
 31
0.0
  0
LINE
  5
34A
330
1E
100
AcDbEntity
  8
0
100
AcDbLine
 10
69.44259999999999
 20
38.496882
 30
0.0
 11
70.6095
 21
38.496882
 31
0.0
  0
LINE
  5
34B
330
1E
100
AcDbEntity
  8
0
100
AcDbLine
 10
68.9221
 20
58.399782
 30
0.0
 11
69.9561
 21
58.399782
 31
0.0
  0
LINE
  5
34C
330
1E
100
AcDbEntity
  8
0
100
AcDbLine
 10
70.6095
 20
38.496882
 30
0.0
 11
71.85590000000001
 21
38.496882
 31
0.0
  0
LINE
  5
34E
330
1E
100
AcDbEntity
  8
0
100
AcDbLine
 10
70.55209999999999
 20
49.244382
 30
0.0
 11
71.8086
 21
49.244382
 31
0.0
  0
LINE
  5
34F
330
1E
100
AcDbEntity
  8
0
100
AcDbLine
 10
69.9561
 20
58.399782
 30
0.0
 11
71.0827
 21
58.399782
 31
0.0
  0
LINE
  5
350
330
1E
100
AcDbEntity
  8
0
100
AcDbLine
 10
68.2589
 20
58.59878199999999
 30
0.0
 11
69.2043
 21
59.92898199999999
 31
0.0
  0
LINE
  5
351
330
1E
100
AcDbEntity
  8
0
100
AcDbLine
 10
68.1536493929092
 20
58.399782
 30
0.0
 11
68.2589
 21
58.59878199999999
 31
0.0
  0
LINE
  5
354
330
1E
100
AcDbEntity
  8
0
100
AcDbLine
 10
70.3177
 20
61.126982
 30
0.0
 11
70.52800000000001
 21
61.32448199999999
 31
0.0
  0
LINE
  5
357
330
1E
100
AcDbEntity
  8
0
100
AcDbLine
 10
70.52800000000001
 20
61.32448199999999
 30
0.0
 11
70.7766
 21
61.647882
 31
0.0
  0
LINE
  5
362
330
1E
100
AcDbEntity
  8
0
100
AcDbLine
 10
69.2043
 20
59.92898199999999
 30
0.0
 11
70.3177
 21
61.126982
 31
0.0
  0
LINE
  5
363
330
1E
100
AcDbEntity
  8
0
100
AcDbLine
 10
70.79779999999999
 20
57.90218199999999
 30
0.0
 11
72.0492
 21
57.90218199999999
 31
0.0
  0
LINE
  5
365
330
1E
100
AcDbEntity
  8
0
100
AcDbLine
 10
70.79779999999999
 20
57.13988199999999
 30
0.0
 11
72.0492
 21
57.13988199999999
 31
0.0
  0
LINE
  5
366
330
1E
100
AcDbEntity
  8
0
100
AcDbLine
 10
71.0827
 20
58.399782
 30
0.0
 11
72.2908
 21
58.399782
 31
0.0
  0
LINE
  5
367
330
1E
100
AcDbEntity
  8
0
100
AcDbLine
 10
71.85590000000001
 20
38.496882
 30
0.0
 11
73.1728
 21
38.496882
 31
0.0
  0
LINE
  5
368
330
1E
100
AcDbEntity
  8
0
100
AcDbLine
 10
72.0492
 20
49.244382
 30
0.0
 11
73.3721
 21
49.244382
 31
0.0
  0
LINE
  5
369
330
1E
100
AcDbEntity
  8
0
100
AcDbLine
 10
72.0492
 20
57.90218199999999
 30
0.0
 11
73.3721
 21
57.90218199999999
 31
0.0
  0
LINE
  5
36A
330
1E
100
AcDbEntity
  8
0
100
AcDbLine
 10
72.0492
 20
57.13988199999999
 30
0.0
 11
73.3721
 21
57.13988199999999
 31
0.0
  0
LINE
  5
36B
330
1E
100
AcDbEntity
  8
0
100
AcDbLine
 10
73.3721
 20
57.90218199999999
 30
0.0
 11
74.7534
 21
57.90218199999999
 31
0.0
  0
LINE
  5
36C
330
1E
100
AcDbEntity
  8
0
100
AcDbLine
 10
73.3721
 20
57.13988199999999
 30
0.0
 11
74.7534
 21
57.13988199999999
 31
0.0
  0
LINE
  5
36E
330
1E
100
AcDbEntity
  8
0
100
AcDbLine
 10
73.13349999999999
 20
49.244382
 30
0.0
 11
74.5148
 21
49.244382
 31
0.0
  0
LINE
  5
36F
330
1E
100
AcDbEntity
  8
0
100
AcDbLine
 10
73.3721
 20
49.244382
 30
0.0
 11
74.7534
 21
49.244382
 31
0.0
  0
LINE
  5
370
330
1E
100
AcDbEntity
  8
0
100
AcDbLine
 10
73.1728
 20
38.496882
 30
0.0
 11
74.545
 21
38.496882
 31
0.0
  0
LINE
  5
371
330
1E
100
AcDbEntity
  8
0
100
AcDbLine
 10
74.545
 20
38.496882
 30
0.0
 11
75.95950000000001
 21
38.496882
 31
0.0
  0
LINE
  5
372
330
1E
100
AcDbEntity
  8
0
100
AcDbLine
 10
74.5148
 20
49.244382
 30
0.0
 11
75.9394
 21
49.244382
 31
0.0
  0
LINE
  5
373
330
1E
100
AcDbEntity
  8
0
100
AcDbLine
 10
74.7534
 20
57.13988199999999
 30
0.0
 11
76.17699999999999
 21
57.13988199999999
 31
0.0
  0
LINE
  5
375
330
1E
100
AcDbEntity
  8
0
100
AcDbLine
 10
74.7534
 20
49.244382
 30
0.0
 11
76.17699999999999
 21
49.244382
 31
0.0
  0
LINE
  5
377
330
1E
100
AcDbEntity
  8
0
100
AcDbLine
 10
75.9394
 20
49.244382
 30
0.0
 11
77.39319999999999
 21
49.244382
 31
0.0
  0
LINE
  5
378
330
1E
100
AcDbEntity
  8
0
100
AcDbLine
 10
76.17699999999999
 20
49.244382
 30
0.0
 11
77.6298
 21
49.244382
 31
0.0
  0
LINE
  5
37A
330
1E
100
AcDbEntity
  8
0
100
AcDbLine
 10
74.7534
 20
57.90218199999999
 30
0.0
 11
76.17699999999999
 21
57.90218199999999
 31
0.0
  0
LINE
  5
37B
330
1E
100
AcDbEntity
  8
0
100
AcDbLine
 10
76.17699999999999
 20
57.90218199999999
 30
0.0
 11
77.6298
 21
57.90218199999999
 31
0.0
  0
LINE
  5
37C
330
1E
100
AcDbEntity
  8
0
100
AcDbLine
 10
76.17699999999999
 20
57.13988199999999
 30
0.0
 11
77.63079999999999
 21
57.13988199999999
 31
0.0
  0
LINE
  5
37D
330
1E
100
AcDbEntity
  8
0
100
AcDbLine
 10
75.95950000000001
 20
38.496882
 30
0.0
 11
77.4043
 21
38.496882
 31
0.0
  0
LINE
  5
37F
330
1E
100
AcDbEntity
  8
0
100
AcDbLine
 10
77.6298
 20
57.90218199999999
 30
0.0
 11
79.0
 21
57.90218199999999
 31
0.0
  0
LINE
  5
380
330
1E
100
AcDbEntity
  8
0
100
AcDbLine
 10
77.6298
 20
49.244382
 30
0.0
 11
79.0
 21
49.244382
 31
0.0
  0
LINE
  5
382
330
1E
100
AcDbEntity
  8
0
100
AcDbLine
 10
77.39319999999999
 20
49.244382
 30
0.0
 11
78.8631
 21
49.244382
 31
0.0
  0
LINE
  5
388
330
1E
100
AcDbEntity
  8
0
100
AcDbLine
 10
77.63079999999999
 20
57.13988199999999
 30
0.0
 11
79.0
 21
57.13988199999999
 31
0.0
  0
LINE
  5
389
330
1E
100
AcDbEntity
  8
0
100
AcDbLine
 10
78.8631
 20
49.244382
 30
0.0
 11
79.0
 21
49.244382
 31
0.0
  0
LINE
  5
38D
330
1E
100
AcDbEntity
  8
0
100
AcDbLine
 10
77.4043
 20
38.496882
 30
0.0
 11
78.86409999999999
 21
38.496882
 31
0.0
  0
LINE
  5
3AA
330
1E
100
AcDbEntity
  8
0
100
AcDbLine
 10
79.0
 20
49.244382
 30
0.0
 11
79.13689999999999
 21
49.244382
 31
0.0
  0
LINE
  5
421
330
1E
100
AcDbEntity
  8
0
100
AcDbLine
 10
77.6771
 20
58.399782
 30
0.0
 11
79.0
 21
58.399782
 31
0.0
  0
LINE
  5
422
330
1E
100
AcDbEntity
  8
0
100
AcDbLine
 10
76.27460000000001
 20
58.399782
 30
0.0
 11
77.6771
 21
58.399782
 31
0.0
  0
LINE
  5
423
330
1E
100
AcDbEntity
  8
0
100
AcDbLine
 10
74.9004
 20
58.399782
 30
0.0
 11
76.27460000000001
 21
58.399782
 31
0.0
  0
LINE
  5
424
330
1E
100
AcDbEntity
  8
0
100
AcDbLine
 10
73.56740000000001
 20
58.399782
 30
0.0
 11
74.9004
 21
58.399782
 31
0.0
  0
LINE
  5
436
330
1E
100
AcDbEntity
  8
0
100
AcDbLine
 10
72.2908
 20
58.399782
 30
0.0
 11
73.56740000000001
 21
58.399782
 31
0.0
  0
LINE
  5
437
330
1E
100
AcDbEntity
  8
0
100
AcDbLine
 10
71.8086
 20
49.244382
 30
0.0
 11
72.0492
 21
49.244382
 31
0.0
  0
LINE
  5
438
330
1E
100
AcDbEntity
  8
0
100
AcDbLine
 10
71.8086
 20
49.244382
 30
0.0
 11
73.13349999999999
 21
49.244382
 31
0.0
  0
LINE
  5
453
330
1E
100
AcDbEntity
  8
0
100
AcDbLine
 10
70.7947
 20
62.43008199999999
 30
0.0
 11
70.86719999999999
 21
62.03698199999999
 31
0.0
  0
LINE
  5
454
330
1E
100
AcDbEntity
  8
0
100
AcDbLine
 10
70.7766
 20
61.647882
 30
0.0
 11
70.86719999999999
 21
62.03698199999999
 31
0.0
  0
LINE
  5
455
330
1E
100
AcDbEntity
  8
0
100
AcDbLine
 10
67.44119999999999
 20
78.99928199999999
 30
0.0
 11
67.6395
 21
78.99928199999999
 31
0.0
  0
LINE
  5
456
330
1E
100
AcDbEntity
  8
0
100
AcDbLine
 10
68.6634
 20
78.99928199999999
 30
0.0
 11
69.4698
 21
78.99928199999999
 31
0.0
  0
LINE
  5
457
330
1E
100
AcDbEntity
  8
0
100
AcDbLine
 10
68.0493
 20
78.99928199999999
 30
0.0
 11
68.6634
 21
78.99928199999999
 31
0.0
  0
LINE
  5
458
330
1E
100
AcDbEntity
  8
0
100
AcDbLine
 10
67.6395
 20
78.99928199999999
 30
0.0
 11
68.0493
 21
78.99928199999999
 31
0.0
  0
LINE
  5
45C
330
1E
100
AcDbEntity
  8
0
100
AcDbLine
 10
70.4535
 20
78.99928199999999
 30
0.0
 11
71.5962
 21
78.99928199999999
 31
0.0
  0
LINE
  5
460
330
1E
100
AcDbEntity
  8
0
100
AcDbLine
 10
69.4698
 20
78.99928199999999
 30
0.0
 11
70.4535
 21
78.99928199999999
 31
0.0
  0
LINE
  5
46A
330
1E
100
AcDbEntity
  8
0
100
AcDbLine
 10
74.2732
 20
78.99928199999999
 30
0.0
 11
75.7562
 21
78.99928199999999
 31
0.0
  0
LINE
  5
46B
330
1E
100
AcDbEntity
  8
0
100
AcDbLine
 10
77.2996
 20
78.99928199999999
 30
0.0
 11
78.87520000000001
 21
78.99928199999999
 31
0.0
  0
LINE
  5
46C
330
1E
100
AcDbEntity
  8
0
100
AcDbLine
 10
75.7562
 20
78.99928199999999
 30
0.0
 11
77.2996
 21
78.99928199999999
 31
0.0
  0
LINE
  5
46D
330
1E
100
AcDbEntity
  8
0
100
AcDbLine
 10
72.87779999999999
 20
78.99928199999999
 30
0.0
 11
74.2732
 21
78.99928199999999
 31
0.0
  0
LINE
  5
480
330
1E
100
AcDbEntity
  8
0
100
AcDbLine
 10
79.0
 20
78.99928199999999
 30
0.0
 11
79.12479999999999
 21
78.99928199999999
 31
0.0
  0
LINE
  5
482
330
1E
100
AcDbEntity
  8
0
100
AcDbLine
 10
78.87520000000001
 20
78.99928199999999
 30
0.0
 11
79.0
 21
78.99928199999999
 31
0.0
  0
LINE
  5
486
330
1E
100
AcDbEntity
  8
0
100
AcDbLine
 10
67.5056
 20
65.894182
 30
0.0
 11
70.7947
 21
62.43008199999999
 31
0.0
  0
LINE
  5
487
330
1E
100
AcDbEntity
  8
0
100
AcDbLine
 10
67.4251
 20
66.275382
 30
0.0
 11
67.44119999999999
 21
78.99928199999999
 31
0.0
  0
LINE
  5
488
330
1E
100
AcDbEntity
  8
0
100
AcDbLine
 10
67.4251
 20
66.275382
 30
0.0
 11
67.5056
 21
65.894182
 31
0.0
  0
LINE
  5
489
330
1E
100
AcDbEntity
  8
0
100
AcDbLine
 10
71.5962
 20
78.99928199999999
 30
0.0
 11
72.87779999999999
 21
78.99928199999999
 31
0.0
  0
LINE
  5
48A
330
1E
100
AcDbEntity
  8
0
100
AcDbLine
 10
64.2608
 20
49.244382
 30
0.0
 11
64.52079999999999
 21
49.244382
 31
0.0
  0
LINE
  5
48B
330
1E
100
AcDbEntity
  8
0
100
AcDbLine
 10
64.2608
 20
49.244382
 30
0.0
 11
64.60609999999999
 21
49.244382
 31
0.0
  0
LINE
  5
48C
330
1E
100
AcDbEntity
  8
0
100
AcDbLine
 10
63.88889999999999
 20
38.039182
 30
0.0
 11
64.58169804324779
 21
38.0373527061746
 31
0.0
  0
LINE
  5
48D
330
1E
100
AcDbEntity
  8
0
100
AcDbLine
 10
63.88889999999999
 20
38.039182
 30
0.0
 11
66.89909738601949
 21
38.03123374502829
 31
0.0
  0
LINE
  5
48E
330
1E
100
AcDbEntity
  8
0
100
AcDbLine
 10
61.4545
 20
38.004782
 30
0.0
 11
62.58469999999999
 21
38.021982
 31
0.0
  0
LINE
  5
48F
330
1E
100
AcDbEntity
  8
0
100
AcDbLine
 10
56.3803696170031
 20
7.99928199999999
 30
0.0
 11
56.91315538775501
 21
7.99928199999999
 31
0.0
  0
LINE
  5
490
330
1E
100
AcDbEntity
  8
0
100
AcDbLine
 10
51.1525931440709
 20
7.99928199999999
 30
0.0
 11
51.2697166854506
 21
7.99928199999999
 31
0.0
  0
LINE
  5
495
330
1E
100
AcDbEntity
  8
0
100
AcDbLine
 10
79.24959999999998
 20
78.99928199999999
 30
0.0
 11
79.12479999999999
 21
78.99928199999999
 31
0.0
  0
LINE
  5
496
330
1E
100
AcDbEntity
  8
0
100
AcDbLine
 10
79.24959999999997
 20
49.244382
 30
0.0
 11
79.11269999999998
 21
49.244382
 31
0.0
  0
LINE
  5
497
330
1E
100
AcDbEntity
  8
0
100
AcDbLine
 10
94.14349999999997
 20
38.49688199999999
 30
0.0
 11
94.14349999999997
 21
47.85818199999999
 31
0.0
  0
LINE
  5
498
330
1E
100
AcDbEntity
  8
0
100
AcDbLine
 10
94.14349999999997
 20
47.85818199999999
 30
0.0
 11
94.14349999999997
 21
38.49688199999999
 31
0.0
  0
LINE
  5
499
330
1E
100
AcDbEntity
  8
0
100
AcDbLine
 10
91.71349999999996
 20
38.49688199999999
 30
0.0
 11
90.85369999999997
 21
38.49688199999999
 31
0.0
  0
LINE
  5
49A
330
1E
100
AcDbEntity
  8
0
100
AcDbLine
 10
93.54689999999997
 20
38.49688199999999
 30
0.0
 11
93.06759999999997
 21
38.49688199999999
 31
0.0
  0
LINE
  5
49B
330
1E
100
AcDbEntity
  8
0
100
AcDbLine
 10
93.88919999999997
 20
38.49688199999999
 30
0.0
 11
93.54689999999997
 21
38.49688199999999
 31
0.0
  0
LINE
  5
49C
330
1E
100
AcDbEntity
  8
0
100
AcDbLine
 10
94.14349999999997
 20
38.49688199999999
 30
0.0
 11
94.09049999999998
 21
38.49688199999999
 31
0.0
  0
LINE
  5
49D
330
1E
100
AcDbEntity
  8
0
100
AcDbLine
 10
94.14349999999997
 20
38.49688199999999
 30
0.0
 11
93.66790195675218
 21
38.03735270617459
 31
0.0
  0
LINE
  5
49E
330
1E
100
AcDbEntity
  8
0
100
AcDbLine
 10
94.09049999999998
 20
38.49688199999999
 30
0.0
 11
93.88919999999997
 21
38.49688199999999
 31
0.0
  0
LINE
  5
49F
330
1E
100
AcDbEntity
  8
0
100
AcDbLine
 10
92.45449999999996
 20
38.49688199999999
 30
0.0
 11
91.71349999999996
 21
38.49688199999999
 31
0.0
  0
LINE
  5
4A0
330
1E
100
AcDbEntity
  8
0
100
AcDbLine
 10
93.06759999999997
 20
38.49688199999999
 30
0.0
 11
92.45449999999996
 21
38.49688199999999
 31
0.0
  0
LINE
  5
4A1
330
1E
100
AcDbEntity
  8
0
100
AcDbLine
 10
86.39369999999997
 20
38.496882
 30
0.0
 11
85.07679999999998
 21
38.496882
 31
0.0
  0
LINE
  5
4A2
330
1E
100
AcDbEntity
  8
0
100
AcDbLine
 10
88.80699999999997
 20
38.496882
 30
0.0
 11
87.64009999999997
 21
38.496882
 31
0.0
  0
LINE
  5
4A3
330
1E
100
AcDbEntity
  8
0
100
AcDbLine
 10
90.85369999999997
 20
38.49688199999999
 30
0.0
 11
89.88119999999998
 21
38.49688199999999
 31
0.0
  0
LINE
  5
4A4
330
1E
100
AcDbEntity
  8
0
100
AcDbLine
 10
89.88119999999998
 20
38.49688199999999
 30
0.0
 11
88.80699999999997
 21
38.496882
 31
0.0
  0
LINE
  5
4A5
330
1E
100
AcDbEntity
  8
0
100
AcDbLine
 10
87.64009999999997
 20
38.496882
 30
0.0
 11
86.39369999999997
 21
38.496882
 31
0.0
  0
LINE
  5
4A6
330
1E
100
AcDbEntity
  8
0
100
AcDbLine
 10
83.70459999999997
 20
38.496882
 30
0.0
 11
82.29009999999997
 21
38.496882
 31
0.0
  0
LINE
  5
4A7
330
1E
100
AcDbEntity
  8
0
100
AcDbLine
 10
85.07679999999998
 20
38.496882
 30
0.0
 11
83.70459999999997
 21
38.496882
 31
0.0
  0
LINE
  5
4A8
330
1E
100
AcDbEntity
  8
0
100
AcDbLine
 10
80.84529999999997
 20
38.496882
 30
0.0
 11
78.86409999999999
 21
38.496882
 31
0.0
  0
LINE
  5
4A9
330
1E
100
AcDbEntity
  8
0
100
AcDbLine
 10
82.29009999999997
 20
38.496882
 30
0.0
 11
80.84529999999997
 21
38.496882
 31
0.0
  0
LINE
  5
4AA
330
1E
100
AcDbEntity
  8
0
100
AcDbLine
 10
90.74399999999998
 20
65.894182
 30
0.0
 11
87.45489999999998
 21
62.43008199999999
 31
0.0
  0
LINE
  5
4AB
330
1E
100
AcDbEntity
  8
0
100
AcDbLine
 10
94.24419999999997
 20
57.00658199999999
 30
0.0
 11
94.24419999999997
 21
49.24438199999999
 31
0.0
  0
LINE
  5
4AC
330
1E
100
AcDbEntity
  8
0
100
AcDbLine
 10
94.24419999999997
 20
49.24438199999999
 30
0.0
 11
94.24419999999997
 21
57.00658199999999
 31
0.0
  0
LINE
  5
4AD
330
1E
100
AcDbEntity
  8
0
100
AcDbLine
 10
92.22299999999997
 20
49.24438199999999
 30
0.0
 11
91.50109999999996
 21
49.24438199999999
 31
0.0
  0
LINE
  5
4AE
330
1E
100
AcDbEntity
  8
0
100
AcDbLine
 10
91.79809999999998
 20
49.24438199999999
 30
0.0
 11
90.93229999999996
 21
49.24438199999999
 31
0.0
  0
LINE
  5
4AF
330
1E
100
AcDbEntity
  8
0
100
AcDbLine
 10
93.72879999999998
 20
48.54778199999999
 30
0.0
 11
93.72879999999998
 21
49.24438199999999
 31
0.0
  0
LINE
  5
4B0
330
1E
100
AcDbEntity
  8
0
100
AcDbLine
 10
93.72879999999998
 20
49.24438199999999
 30
0.0
 11
93.72879999999998
 21
48.54778199999999
 31
0.0
  0
LINE
  5
4B1
330
1E
100
AcDbEntity
  8
0
100
AcDbLine
 10
94.14349999999997
 20
47.85818199999999
 30
0.0
 11
93.72879999999998
 21
48.54778199999999
 31
0.0
  0
LINE
  5
4B2
330
1E
100
AcDbEntity
  8
0
100
AcDbLine
 10
93.25989999999997
 20
49.24438199999999
 30
0.0
 11
92.81089999999997
 21
49.24438199999999
 31
0.0
  0
LINE
  5
4B3
330
1E
100
AcDbEntity
  8
0
100
AcDbLine
 10
93.16029999999997
 20
49.24438199999999
 30
0.0
 11
92.54309999999996
 21
49.24438199999999
 31
0.0
  0
LINE
  5
4B4
330
1E
100
AcDbEntity
  8
0
100
AcDbLine
 10
93.98879999999996
 20
49.24438199999999
 30
0.0
 11
93.64349999999998
 21
49.24438199999999
 31
0.0
  0
LINE
  5
4B5
330
1E
100
AcDbEntity
  8
0
100
AcDbLine
 10
93.98879999999996
 20
49.24438199999999
 30
0.0
 11
93.72879999999998
 21
49.24438199999999
 31
0.0
  0
LINE
  5
4B6
330
1E
100
AcDbEntity
  8
0
100
AcDbLine
 10
93.72309999999997
 20
49.24438199999999
 30
0.0
 11
93.56499999999996
 21
49.24438199999999
 31
0.0
  0
LINE
  5
4B7
330
1E
100
AcDbEntity
  8
0
100
AcDbLine
 10
93.64349999999998
 20
49.24438199999999
 30
0.0
 11
93.16029999999997
 21
49.24438199999999
 31
0.0
  0
LINE
  5
4B8
330
1E
100
AcDbEntity
  8
0
100
AcDbLine
 10
93.56499999999996
 20
49.24438199999999
 30
0.0
 11
93.25989999999997
 21
49.24438199999999
 31
0.0
  0
LINE
  5
4B9
330
1E
100
AcDbEntity
  8
0
100
AcDbLine
 10
93.88119999999998
 20
49.24438199999999
 30
0.0
 11
93.72879999999998
 21
49.24438199999999
 31
0.0
  0
LINE
  5
4BA
330
1E
100
AcDbEntity
  8
0
100
AcDbLine
 10
93.88119999999998
 20
49.24438199999999
 30
0.0
 11
93.72309999999997
 21
49.24438199999999
 31
0.0
  0
LINE
  5
4BB
330
1E
100
AcDbEntity
  8
0
100
AcDbLine
 10
94.19119999999997
 20
49.24438199999999
 30
0.0
 11
93.98879999999996
 21
49.24438199999999
 31
0.0
  0
LINE
  5
4BC
330
1E
100
AcDbEntity
  8
0
100
AcDbLine
 10
94.24419999999997
 20
49.24438199999999
 30
0.0
 11
94.19119999999997
 21
49.24438199999999
 31
0.0
  0
LINE
  5
4BD
330
1E
100
AcDbEntity
  8
0
100
AcDbLine
 10
92.54309999999996
 20
49.24438199999999
 30
0.0
 11
91.79809999999998
 21
49.24438199999999
 31
0.0
  0
LINE
  5
4BE
330
1E
100
AcDbEntity
  8
0
100
AcDbLine
 10
92.81089999999997
 20
49.24438199999999
 30
0.0
 11
92.22299999999997
 21
49.24438199999999
 31
0.0
  0
LINE
  5
4BF
330
1E
100
AcDbEntity
  8
0
100
AcDbLine
 10
86.44099999999998
 20
49.244382
 30
0.0
 11
85.11609999999997
 21
49.244382
 31
0.0
  0
LINE
  5
4C0
330
1E
100
AcDbEntity
  8
0
100
AcDbLine
 10
86.20039999999997
 20
49.244382
 30
0.0
 11
84.87749999999996
 21
49.244382
 31
0.0
  0
LINE
  5
4C1
330
1E
100
AcDbEntity
  8
0
100
AcDbLine
 10
88.61869999999997
 20
49.244382
 30
0.0
 11
87.69749999999998
 21
49.244382
 31
0.0
  0
LINE
  5
4C2
330
1E
100
AcDbEntity
  8
0
100
AcDbLine
 10
88.87139999999996
 20
49.244382
 30
0.0
 11
87.69749999999998
 21
49.244382
 31
0.0
  0
LINE
  5
4C3
330
1E
100
AcDbEntity
  8
0
100
AcDbLine
 10
90.65439999999997
 20
49.24438199999999
 30
0.0
 11
89.68989999999996
 21
49.24438199999999
 31
0.0
  0
LINE
  5
4C4
330
1E
100
AcDbEntity
  8
0
100
AcDbLine
 10
90.93229999999996
 20
49.24438199999999
 30
0.0
 11
89.95369999999997
 21
49.24438199999999
 31
0.0
  0
LINE
  5
4C5
330
1E
100
AcDbEntity
  8
0
100
AcDbLine
 10
91.50109999999996
 20
49.24438199999999
 30
0.0
 11
90.65439999999997
 21
49.24438199999999
 31
0.0
  0
LINE
  5
4C6
330
1E
100
AcDbEntity
  8
0
100
AcDbLine
 10
89.68989999999996
 20
49.24438199999999
 30
0.0
 11
88.61869999999997
 21
49.244382
 31
0.0
  0
LINE
  5
4C7
330
1E
100
AcDbEntity
  8
0
100
AcDbLine
 10
89.95369999999997
 20
49.24438199999999
 30
0.0
 11
88.87139999999996
 21
49.244382
 31
0.0
  0
LINE
  5
4C8
330
1E
100
AcDbEntity
  8
0
100
AcDbLine
 10
87.69749999999998
 20
49.244382
 30
0.0
 11
86.44099999999998
 21
49.244382
 31
0.0
  0
LINE
  5
4C9
330
1E
100
AcDbEntity
  8
0
100
AcDbLine
 10
86.44099999999998
 20
49.244382
 30
0.0
 11
86.20039999999997
 21
49.244382
 31
0.0
  0
LINE
  5
4CA
330
1E
100
AcDbEntity
  8
0
100
AcDbLine
 10
83.49619999999998
 20
49.244382
 30
0.0
 11
82.07259999999998
 21
49.244382
 31
0.0
  0
LINE
  5
4CB
330
1E
100
AcDbEntity
  8
0
100
AcDbLine
 10
83.73479999999998
 20
49.244382
 30
0.0
 11
82.31019999999997
 21
49.244382
 31
0.0
  0
LINE
  5
4CC
330
1E
100
AcDbEntity
  8
0
100
AcDbLine
 10
84.87749999999996
 20
49.244382
 30
0.0
 11
83.49619999999998
 21
49.244382
 31
0.0
  0
LINE
  5
4CD
330
1E
100
AcDbEntity
  8
0
100
AcDbLine
 10
85.11609999999997
 20
49.244382
 30
0.0
 11
83.73479999999998
 21
49.244382
 31
0.0
  0
LINE
  5
4CE
330
1E
100
AcDbEntity
  8
0
100
AcDbLine
 10
80.85639999999997
 20
49.244382
 30
0.0
 11
79.38649999999997
 21
49.244382
 31
0.0
  0
LINE
  5
4CF
330
1E
100
AcDbEntity
  8
0
100
AcDbLine
 10
82.07259999999998
 20
49.244382
 30
0.0
 11
80.61979999999996
 21
49.244382
 31
0.0
  0
LINE
  5
4D0
330
1E
100
AcDbEntity
  8
0
100
AcDbLine
 10
82.31019999999997
 20
49.244382
 30
0.0
 11
80.85639999999997
 21
49.244382
 31
0.0
  0
LINE
  5
4D1
330
1E
100
AcDbEntity
  8
0
100
AcDbLine
 10
79.38649999999997
 20
49.244382
 30
0.0
 11
79.24959999999997
 21
49.244382
 31
0.0
  0
LINE
  5
4D2
330
1E
100
AcDbEntity
  8
0
100
AcDbLine
 10
80.61979999999996
 20
49.244382
 30
0.0
 11
79.24959999999997
 21
49.244382
 31
0.0
  0
LINE
  5
4D3
330
1E
100
AcDbEntity
  8
0
100
AcDbLine
 10
91.77189999999997
 20
58.39978199999999
 30
0.0
 11
91.07519999999997
 21
58.39978199999999
 31
0.0
  0
LINE
  5
4D4
330
1E
100
AcDbEntity
  8
0
100
AcDbLine
 10
92.22199999999997
 20
57.13988199999999
 30
0.0
 11
91.50109999999996
 21
57.13988199999999
 31
0.0
  0
LINE
  5
4D5
330
1E
100
AcDbEntity
  8
0
100
AcDbLine
 10
92.22299999999997
 20
57.90218199999999
 30
0.0
 11
91.50109999999996
 21
57.90218199999999
 31
0.0
  0
LINE
  5
4D6
330
1E
100
AcDbEntity
  8
0
100
AcDbLine
 10
93.72879999999998
 20
57.90218199999999
 30
0.0
 11
93.22579999999998
 21
58.39978199999999
 31
0.0
  0
LINE
  5
4D7
330
1E
100
AcDbEntity
  8
0
100
AcDbLine
 10
93.25989999999997
 20
57.13988199999999
 30
0.0
 11
92.81089999999997
 21
57.13988199999999
 31
0.0
  0
LINE
  5
4D8
330
1E
100
AcDbEntity
  8
0
100
AcDbLine
 10
93.25989999999997
 20
57.90218199999999
 30
0.0
 11
92.81089999999997
 21
57.90218199999999
 31
0.0
  0
LINE
  5
4D9
330
1E
100
AcDbEntity
  8
0
100
AcDbLine
 10
93.72879999999998
 20
57.13988199999999
 30
0.0
 11
93.72879999999998
 21
57.90218199999999
 31
0.0
  0
LINE
  5
4DA
330
1E
100
AcDbEntity
  8
0
100
AcDbLine
 10
93.56499999999996
 20
57.90218199999999
 30
0.0
 11
93.25989999999997
 21
57.90218199999999
 31
0.0
  0
LINE
  5
4DB
330
1E
100
AcDbEntity
  8
0
100
AcDbLine
 10
93.56499999999996
 20
57.13988199999999
 30
0.0
 11
93.25989999999997
 21
57.13988199999999
 31
0.0
  0
LINE
  5
4DC
330
1E
100
AcDbEntity
  8
0
100
AcDbLine
 10
93.72309999999997
 20
57.13988199999999
 30
0.0
 11
93.56499999999996
 21
57.13988199999999
 31
0.0
  0
LINE
  5
4DD
330
1E
100
AcDbEntity
  8
0
100
AcDbLine
 10
93.72309999999997
 20
57.90218199999999
 30
0.0
 11
93.56499999999996
 21
57.90218199999999
 31
0.0
  0
LINE
  5
4DE
330
1E
100
AcDbEntity
  8
0
100
AcDbLine
 10
94.17519999999997
 20
57.02538199999999
 30
0.0
 11
93.72879999999998
 21
57.13988199999999
 31
0.0
  0
LINE
  5
4DF
330
1E
100
AcDbEntity
  8
0
100
AcDbLine
 10
94.24419999999997
 20
57.00658199999999
 30
0.0
 11
94.17519999999997
 21
57.02538199999999
 31
0.0
  0
LINE
  5
4E0
330
1E
100
AcDbEntity
  8
0
100
AcDbLine
 10
92.81089999999997
 20
57.90218199999999
 30
0.0
 11
92.22299999999997
 21
57.90218199999999
 31
0.0
  0
LINE
  5
4E1
330
1E
100
AcDbEntity
  8
0
100
AcDbLine
 10
92.81089999999997
 20
57.13988199999999
 30
0.0
 11
92.22199999999997
 21
57.13988199999999
 31
0.0
  0
LINE
  5
4E2
330
1E
100
AcDbEntity
  8
0
100
AcDbLine
 10
93.22069999999998
 20
58.39978199999999
 30
0.0
 11
93.06759999999997
 21
58.39978199999999
 31
0.0
  0
LINE
  5
4E3
330
1E
100
AcDbEntity
  8
0
100
AcDbLine
 10
93.06759999999997
 20
58.39978199999999
 30
0.0
 11
92.77369999999997
 21
58.39978199999999
 31
0.0
  0
LINE
  5
4E4
330
1E
100
AcDbEntity
  8
0
100
AcDbLine
 10
92.33969999999997
 20
58.39978199999999
 30
0.0
 11
91.77189999999997
 21
58.39978199999999
 31
0.0
  0
LINE
  5
4E5
330
1E
100
AcDbEntity
  8
0
100
AcDbLine
 10
92.77369999999997
 20
58.39978199999999
 30
0.0
 11
92.33969999999997
 21
58.39978199999999
 31
0.0
  0
LINE
  5
4E6
330
1E
100
AcDbEntity
  8
0
100
AcDbLine
 10
86.20039999999997
 20
57.13988199999999
 30
0.0
 11
84.87749999999996
 21
57.13988199999999
 31
0.0
  0
LINE
  5
4E7
330
1E
100
AcDbEntity
  8
0
100
AcDbLine
 10
86.20039999999997
 20
57.90218199999999
 30
0.0
 11
84.87749999999996
 21
57.90218199999999
 31
0.0
  0
LINE
  5
4E8
330
1E
100
AcDbEntity
  8
0
100
AcDbLine
 10
88.61869999999997
 20
57.13988199999999
 30
0.0
 11
87.45179999999997
 21
57.13988199999999
 31
0.0
  0
LINE
  5
4E9
330
1E
100
AcDbEntity
  8
0
100
AcDbLine
 10
88.61869999999997
 20
57.90218199999999
 30
0.0
 11
87.45179999999997
 21
57.90218199999999
 31
0.0
  0
LINE
  5
4EA
330
1E
100
AcDbEntity
  8
0
100
AcDbLine
 10
90.65439999999997
 20
57.13988199999999
 30
0.0
 11
89.68989999999996
 21
57.13988199999999
 31
0.0
  0
LINE
  5
4EB
330
1E
100
AcDbEntity
  8
0
100
AcDbLine
 10
90.65439999999997
 20
57.90218199999999
 30
0.0
 11
89.68989999999996
 21
57.90218199999999
 31
0.0
  0
LINE
  5
4EC
330
1E
100
AcDbEntity
  8
0
100
AcDbLine
 10
91.50109999999996
 20
57.90218199999999
 30
0.0
 11
90.65439999999997
 21
57.90218199999999
 31
0.0
  0
LINE
  5
4ED
330
1E
100
AcDbEntity
  8
0
100
AcDbLine
 10
91.50109999999996
 20
57.13988199999999
 30
0.0
 11
90.65439999999997
 21
57.13988199999999
 31
0.0
  0
LINE
  5
4EE
330
1E
100
AcDbEntity
  8
0
100
AcDbLine
 10
89.68989999999996
 20
57.90218199999999
 30
0.0
 11
88.61869999999997
 21
57.90218199999999
 31
0.0
  0
LINE
  5
4EF
330
1E
100
AcDbEntity
  8
0
100
AcDbLine
 10
89.68989999999996
 20
57.13988199999999
 30
0.0
 11
88.61869999999997
 21
57.13988199999999
 31
0.0
  0
LINE
  5
4F0
330
1E
100
AcDbEntity
  8
0
100
AcDbLine
 10
87.45179999999997
 20
57.13988199999999
 30
0.0
 11
86.20039999999997
 21
57.13988199999999
 31
0.0
  0
LINE
  5
4F1
330
1E
100
AcDbEntity
  8
0
100
AcDbLine
 10
87.45179999999997
 20
57.90218199999999
 30
0.0
 11
86.20039999999997
 21
57.90218199999999
 31
0.0
  0
LINE
  5
4F2
330
1E
100
AcDbEntity
  8
0
100
AcDbLine
 10
83.49619999999998
 20
57.90218199999999
 30
0.0
 11
82.07259999999998
 21
57.90218199999999
 31
0.0
  0
LINE
  5
4F3
330
1E
100
AcDbEntity
  8
0
100
AcDbLine
 10
83.49619999999998
 20
57.13988199999999
 30
0.0
 11
82.07259999999998
 21
57.13988199999999
 31
0.0
  0
LINE
  5
4F4
330
1E
100
AcDbEntity
  8
0
100
AcDbLine
 10
84.87749999999996
 20
57.13988199999999
 30
0.0
 11
83.49619999999998
 21
57.13988199999999
 31
0.0
  0
LINE
  5
4F5
330
1E
100
AcDbEntity
  8
0
100
AcDbLine
 10
84.87749999999996
 20
57.90218199999999
 30
0.0
 11
83.49619999999998
 21
57.90218199999999
 31
0.0
  0
LINE
  5
4F6
330
1E
100
AcDbEntity
  8
0
100
AcDbLine
 10
82.07259999999998
 20
57.13988199999999
 30
0.0
 11
80.61879999999998
 21
57.13988199999999
 31
0.0
  0
LINE
  5
4F7
330
1E
100
AcDbEntity
  8
0
100
AcDbLine
 10
82.07259999999998
 20
57.90218199999999
 30
0.0
 11
80.61979999999996
 21
57.90218199999999
 31
0.0
  0
LINE
  5
4F8
330
1E
100
AcDbEntity
  8
0
100
AcDbLine
 10
80.61879999999998
 20
57.13988199999999
 30
0.0
 11
79.24959999999997
 21
57.13988199999999
 31
0.0
  0
LINE
  5
4F9
330
1E
100
AcDbEntity
  8
0
100
AcDbLine
 10
80.61979999999996
 20
57.90218199999999
 30
0.0
 11
79.24959999999997
 21
57.90218199999999
 31
0.0
  0
LINE
  5
4FA
330
1E
100
AcDbEntity
  8
0
100
AcDbLine
 10
85.95879999999997
 20
58.399782
 30
0.0
 11
84.68219999999996
 21
58.399782
 31
0.0
  0
LINE
  5
4FB
330
1E
100
AcDbEntity
  8
0
100
AcDbLine
 10
89.04529999999999
 20
59.92898199999999
 30
0.0
 11
87.93189999999999
 21
61.126982
 31
0.0
  0
LINE
  5
4FC
330
1E
100
AcDbEntity
  8
0
100
AcDbLine
 10
89.32749999999996
 20
58.39978199999999
 30
0.0
 11
88.29349999999996
 21
58.399782
 31
0.0
  0
LINE
  5
4FD
330
1E
100
AcDbEntity
  8
0
100
AcDbLine
 10
89.99069999999997
 20
58.59878199999998
 30
0.0
 11
89.04529999999999
 21
59.92898199999999
 31
0.0
  0
LINE
  5
4FE
330
1E
100
AcDbEntity
  8
0
100
AcDbLine
 10
90.09595060709077
 20
58.39978199999999
 30
0.0
 11
89.99069999999997
 21
58.59878199999998
 31
0.0
  0
LINE
  5
4FF
330
1E
100
AcDbEntity
  8
0
100
AcDbLine
 10
90.25769999999997
 20
58.39978199999999
 30
0.0
 11
89.32749999999996
 21
58.39978199999999
 31
0.0
  0
LINE
  5
500
330
1E
100
AcDbEntity
  8
0
100
AcDbLine
 10
91.07519999999997
 20
58.39978199999999
 30
0.0
 11
90.25769999999997
 21
58.39978199999999
 31
0.0
  0
LINE
  5
501
330
1E
100
AcDbEntity
  8
0
100
AcDbLine
 10
87.16689999999998
 20
58.399782
 30
0.0
 11
85.95879999999997
 21
58.399782
 31
0.0
  0
LINE
  5
502
330
1E
100
AcDbEntity
  8
0
100
AcDbLine
 10
88.29349999999996
 20
58.399782
 30
0.0
 11
87.16689999999998
 21
58.399782
 31
0.0
  0
LINE
  5
503
330
1E
100
AcDbEntity
  8
0
100
AcDbLine
 10
87.93189999999999
 20
61.126982
 30
0.0
 11
87.72159999999997
 21
61.32448199999999
 31
0.0
  0
LINE
  5
504
330
1E
100
AcDbEntity
  8
0
100
AcDbLine
 10
87.47299999999999
 20
61.647882
 30
0.0
 11
87.38239999999999
 21
62.03698199999999
 31
0.0
  0
LINE
  5
505
330
1E
100
AcDbEntity
  8
0
100
AcDbLine
 10
87.45489999999998
 20
62.43008199999999
 30
0.0
 11
87.38239999999999
 21
62.03698199999999
 31
0.0
  0
LINE
  5
506
330
1E
100
AcDbEntity
  8
0
100
AcDbLine
 10
87.72159999999997
 20
61.32448199999999
 30
0.0
 11
87.47299999999999
 21
61.647882
 31
0.0
  0
LINE
  5
507
330
1E
100
AcDbEntity
  8
0
100
AcDbLine
 10
83.34919999999996
 20
58.399782
 30
0.0
 11
81.97499999999996
 21
58.399782
 31
0.0
  0
LINE
  5
508
330
1E
100
AcDbEntity
  8
0
100
AcDbLine
 10
84.68219999999996
 20
58.399782
 30
0.0
 11
83.34919999999996
 21
58.399782
 31
0.0
  0
LINE
  5
509
330
1E
100
AcDbEntity
  8
0
100
AcDbLine
 10
81.97499999999996
 20
58.399782
 30
0.0
 11
80.57249999999998
 21
58.399782
 31
0.0
  0
LINE
  5
50A
330
1E
100
AcDbEntity
  8
0
100
AcDbLine
 10
80.57249999999998
 20
58.399782
 30
0.0
 11
79.24959999999997
 21
58.399782
 31
0.0
  0
LINE
  5
50B
330
1E
100
AcDbEntity
  8
0
100
AcDbLine
 10
90.82449999999999
 20
66.275382
 30
0.0
 11
90.8084
 21
78.99928199999999
 31
0.0
  0
LINE
  5
50C
330
1E
100
AcDbEntity
  8
0
100
AcDbLine
 10
90.82449999999999
 20
66.275382
 30
0.0
 11
90.74399999999998
 21
65.894182
 31
0.0
  0
LINE
  5
50D
330
1E
100
AcDbEntity
  8
0
100
AcDbLine
 10
86.65339999999998
 20
78.99928199999999
 30
0.0
 11
85.37179999999999
 21
78.99928199999999
 31
0.0
  0
LINE
  5
50E
330
1E
100
AcDbEntity
  8
0
100
AcDbLine
 10
88.77979999999999
 20
78.99928199999999
 30
0.0
 11
87.79609999999998
 21
78.99928199999999
 31
0.0
  0
LINE
  5
50F
330
1E
100
AcDbEntity
  8
0
100
AcDbLine
 10
90.20029999999998
 20
78.99928199999999
 30
0.0
 11
89.58619999999999
 21
78.99928199999999
 31
0.0
  0
LINE
  5
510
330
1E
100
AcDbEntity
  8
0
100
AcDbLine
 10
90.61009999999999
 20
78.99928199999999
 30
0.0
 11
90.20029999999998
 21
78.99928199999999
 31
0.0
  0
LINE
  5
511
330
1E
100
AcDbEntity
  8
0
100
AcDbLine
 10
90.8084
 20
78.99928199999999
 30
0.0
 11
90.61009999999999
 21
78.99928199999999
 31
0.0
  0
LINE
  5
512
330
1E
100
AcDbEntity
  8
0
100
AcDbLine
 10
89.58619999999999
 20
78.99928199999999
 30
0.0
 11
88.77979999999999
 21
78.99928199999999
 31
0.0
  0
LINE
  5
513
330
1E
100
AcDbEntity
  8
0
100
AcDbLine
 10
87.79609999999998
 20
78.99928199999999
 30
0.0
 11
86.65339999999998
 21
78.99928199999999
 31
0.0
  0
LINE
  5
514
330
1E
100
AcDbEntity
  8
0
100
AcDbLine
 10
82.49339999999998
 20
78.99928199999999
 30
0.0
 11
80.94999999999998
 21
78.99928199999999
 31
0.0
  0
LINE
  5
515
330
1E
100
AcDbEntity
  8
0
100
AcDbLine
 10
83.97639999999999
 20
78.99928199999999
 30
0.0
 11
82.49339999999998
 21
78.99928199999999
 31
0.0
  0
LINE
  5
516
330
1E
100
AcDbEntity
  8
0
100
AcDbLine
 10
85.37179999999999
 20
78.99928199999999
 30
0.0
 11
83.97639999999999
 21
78.99928199999999
 31
0.0
  0
LINE
  5
517
330
1E
100
AcDbEntity
  8
0
100
AcDbLine
 10
80.94999999999998
 20
78.99928199999999
 30
0.0
 11
79.37439999999998
 21
78.99928199999999
 31
0.0
  0
LINE
  5
518
330
1E
100
AcDbEntity
  8
0
100
AcDbLine
 10
79.37439999999998
 20
78.99928199999999
 30
0.0
 11
79.24959999999998
 21
78.99928199999999
 31
0.0
  0
LINE
  5
519
330
1E
100
AcDbEntity
  8
0
100
AcDbLine
 10
69.7534237448571
 20
38.030867839012
 30
0.0
 11
93.66790195675218
 21
38.03735270617459
 31
0.0
  0
LINE
  5
51A
330
1E
100
AcDbEntity
  8
0
100
AcDbLine
 10
93.66790195675218
 20
38.03735270617459
 30
0.0
 11
127.584
 21
37.505582
 31
0.0
  0
ENDSEC
  0
SECTION
  2
OBJECTS
  0
DICTIONARY
  5
C
330
0
100
AcDbDictionary
281
     1
  3
ACAD_GROUP
350
D
  3
ACAD_LAYOUT
350
19
  3
ACAD_MLINESTYLE
350
16
  3
ACAD_PLOTSETTINGS
350
18
  3
ACAD_PLOTSTYLENAME
350
E
  3
AcDbVariableDictionary
350
51C
  0
DICTIONARY
  5
D
102
{ACAD_REACTORS
330
C
102
}
330
C
100
AcDbDictionary
281
     1
  0
DICTIONARY
  5
19
102
{ACAD_REACTORS
330
C
102
}
330
C
100
AcDbDictionary
281
     1
  3
Layout1
350
1D
  3
Model
350
21
  0
DICTIONARY
  5
16
102
{ACAD_REACTORS
330
C
102
}
330
C
100
AcDbDictionary
281
     1
  3
Standard
350
17
  0
DICTIONARY
  5
18
102
{ACAD_REACTORS
330
C
102
}
330
C
100
AcDbDictionary
281
     1
  0
ACDBDICTIONARYWDFLT
  5
E
102
{ACAD_REACTORS
330
C
102
}
330
C
100
AcDbDictionary
281
     1
  3
Normal
350
F
100
AcDbDictionaryWithDefault
340
F
  0
DICTIONARY
  5
51C
102
{ACAD_REACTORS
330
C
102
}
330
C
100
AcDbDictionary
281
     1
  3
DIMASSOC
350
51D
  0
LAYOUT
  5
1D
102
{ACAD_REACTORS
330
19
102
}
330
19
100
AcDbPlotSettings
  1

  2
C:\Programme\AutoCAD LT 2002 Deu\plotters\DWF ePlot (optimized for plotting).pc3
  4

  6

 40
0.0
 41
0.0
 42
0.0
 43
0.0
 44
0.0
 45
0.0
 46
0.0
 47
0.0
 48
0.0
 49
0.0
140
0.0
141
0.0
142
1.0
143
1.0
 70
   688
 72
     0
 73
     0
 74
     5
  7

 75
    16
147
1.0
148
0.0
149
0.0
100
AcDbLayout
  1
Layout1
 70
     1
 71
     1
 10
0.0
 20
0.0
 11
12.0
 21
9.0
 12
0.0
 22
0.0
 32
0.0
 14
1.000000000000000E+20
 24
1.000000000000000E+20
 34
1.000000000000000E+20
 15
-1.000000000000000E+20
 25
-1.000000000000000E+20
 35
-1.000000000000000E+20
146
0.0
 13
0.0
 23
0.0
 33
0.0
 16
1.0
 26
0.0
 36
0.0
 17
0.0
 27
1.0
 37
0.0
 76
     0
330
1A
  0
LAYOUT
  5
21
102
{ACAD_REACTORS
330
19
102
}
330
19
100
AcDbPlotSettings
  1

  2
C:\Programme\AutoCAD LT 2002 Deu\plotters\DWF ePlot (optimized for plotting).pc3
  4

  6

 40
0.0
 41
0.0
 42
0.0
 43
0.0
 44
0.0
 45
0.0
 46
0.0
 47
0.0
 48
0.0
 49
0.0
140
0.0
141
0.0
142
1.0
143
1.0
 70
  1712
 72
     0
 73
     0
 74
     0
  7

 75
     0
147
1.0
148
0.0
149
0.0
100
AcDbLayout
  1
Model
 70
     1
 71
     0
 10
0.0
 20
0.0
 11
12.0
 21
9.0
 12
0.0
 22
0.0
 32
0.0
 14
0.0
 24
0.0
 34
0.0
 15
0.0
 25
0.0
 35
0.0
146
0.0
 13
0.0
 23
0.0
 33
0.0
 16
1.0
 26
0.0
 36
0.0
 17
0.0
 27
1.0
 37
0.0
 76
     0
330
1E
  0
MLINESTYLE
  5
17
102
{ACAD_REACTORS
330
16
102
}
330
16
100
AcDbMlineStyle
  2
STANDARD
 70
     0
  3

 62
   256
 51
90.0
 52
90.0
 71
     2
 49
0.5
 62
   256
  6
BYLAYER
 49
-0.5
 62
   256
  6
BYLAYER
  0
ACDBPLACEHOLDER
  5
F
102
{ACAD_REACTORS
330
E
102
}
330
E
  0
DICTIONARYVAR
  5
51D
102
{ACAD_REACTORS
330
51C
102
}
330
51C
100
DictionaryVariables
280
     0
  1
1
  0
ENDSEC
  0
EOF
