  0
SECTION
  2
HEADER
  9
$ACADVER
  1
AC1015
  9
$ACADMAINTVER
 70
    13
  9
$DWGCODEPAGE
  3
ANSI_1252
  9
$INSBASE
 10
0.0
 20
0.0
 30
0.0
  9
$EXTMIN
 10
0.0
 20
0.0000000000000016
 30
0.0
  9
$EXTMAX
 10
251.0
 20
187.0
 30
0.0
  9
$LIMMIN
 10
0.0
 20
0.0
  9
$LIMMAX
 10
12.0
 20
9.0
  9
$ORTHOMODE
 70
     0
  9
$REGENMODE
 70
     1
  9
$FILLMODE
 70
     1
  9
$QTEXTMODE
 70
     0
  9
$MIRRTEXT
 70
     1
  9
$LTSCALE
 40
1.0
  9
$ATTMODE
 70
     1
  9
$TEXTSIZE
 40
0.2
  9
$TRACEWID
 40
0.05
  9
$TEXTSTYLE
  7
Standard
  9
$CLAYER
  8
0
  9
$CELTYPE
  6
Continuous
  9
$CECOLOR
 62
   256
  9
$CELTSCALE
 40
1.0
  9
$DISPSILH
 70
     0
  9
$DIMSCALE
 40
1.0
  9
$DIMASZ
 40
0.18
  9
$DIMEXO
 40
0.0625
  9
$DIMDLI
 40
0.38
  9
$DIMRND
 40
0.0
  9
$DIMDLE
 40
0.0
  9
$DIMEXE
 40
0.18
  9
$DIMTP
 40
0.0
  9
$DIMTM
 40
0.0
  9
$DIMTXT
 40
0.18
  9
$DIMCEN
 40
0.09
  9
$DIMTSZ
 40
0.0
  9
$DIMTOL
 70
     0
  9
$DIMLIM
 70
     0
  9
$DIMTIH
 70
     1
  9
$DIMTOH
 70
     1
  9
$DIMSE1
 70
     0
  9
$DIMSE2
 70
     0
  9
$DIMTAD
 70
     0
  9
$DIMZIN
 70
     0
  9
$DIMBLK
  1

  9
$DIMASO
 70
     1
  9
$DIMSHO
 70
     1
  9
$DIMPOST
  1

  9
$DIMAPOST
  1

  9
$DIMALT
 70
     0
  9
$DIMALTD
 70
     2
  9
$DIMALTF
 40
25.4
  9
$DIMLFAC
 40
1.0
  9
$DIMTOFL
 70
     0
  9
$DIMTVP
 40
0.0
  9
$DIMTIX
 70
     0
  9
$DIMSOXD
 70
     0
  9
$DIMSAH
 70
     0
  9
$DIMBLK1
  1

  9
$DIMBLK2
  1

  9
$DIMSTYLE
  2
Standard
  9
$DIMCLRD
 70
     0
  9
$DIMCLRE
 70
     0
  9
$DIMCLRT
 70
     0
  9
$DIMTFAC
 40
1.0
  9
$DIMGAP
 40
0.09
  9
$DIMJUST
 70
     0
  9
$DIMSD1
 70
     0
  9
$DIMSD2
 70
     0
  9
$DIMTOLJ
 70
     1
  9
$DIMTZIN
 70
     0
  9
$DIMALTZ
 70
     0
  9
$DIMALTTZ
 70
     0
  9
$DIMUPT
 70
     0
  9
$DIMDEC
 70
     4
  9
$DIMTDEC
 70
     4
  9
$DIMALTU
 70
     2
  9
$DIMALTTD
 70
     2
  9
$DIMTXSTY
  7
Standard
  9
$DIMAUNIT
 70
     0
  9
$DIMADEC
 70
     0
  9
$DIMALTRND
 40
0.0
  9
$DIMAZIN
 70
     0
  9
$DIMDSEP
 70
    46
  9
$DIMATFIT
 70
     3
  9
$DIMFRAC
 70
     0
  9
$DIMLDRBLK
  1

  9
$DIMLUNIT
 70
     2
  9
$DIMLWD
 70
    -2
  9
$DIMLWE
 70
    -2
  9
$DIMTMOVE
 70
     0
  9
$LUNITS
 70
     2
  9
$LUPREC
 70
     4
  9
$SKETCHINC
 40
0.1
  9
$FILLETRAD
 40
0.0
  9
$AUNITS
 70
     0
  9
$AUPREC
 70
     0
  9
$MENU
  1
.
  9
$ELEVATION
 40
0.0
  9
$PELEVATION
 40
0.0
  9
$THICKNESS
 40
0.0
  9
$LIMCHECK
 70
     0
  9
$CHAMFERA
 40
0.0
  9
$CHAMFERB
 40
0.0
  9
$CHAMFERC
 40
0.0
  9
$CHAMFERD
 40
0.0
  9
$SKPOLY
 70
     0
  9
$TDCREATE
 40
2455653.007824606
  9
$TDUCREATE
 40
2455652.924491273
  9
$TDUPDATE
 40
2455653.012612303
  9
$TDUUPDATE
 40
2455652.929278969
  9
$TDINDWG
 40
0.0047876968
  9
$TDUSRTIMER
 40
0.0047876968
  9
$USRTIMER
 70
     1
  9
$ANGBASE
 50
0.0
  9
$ANGDIR
 70
     0
  9
$PDMODE
 70
     0
  9
$PDSIZE
 40
0.0
  9
$PLINEWID
 40
0.0
  9
$SPLFRAME
 70
     0
  9
$SPLINETYPE
 70
     6
  9
$SPLINESEGS
 70
     8
  9
$HANDSEED
  5
DCA
  9
$SURFTAB1
 70
     6
  9
$SURFTAB2
 70
     6
  9
$SURFTYPE
 70
     6
  9
$SURFU
 70
     6
  9
$SURFV
 70
     6
  9
$UCSBASE
  2

  9
$UCSNAME
  2

  9
$UCSORG
 10
0.0
 20
0.0
 30
0.0
  9
$UCSXDIR
 10
1.0
 20
0.0
 30
0.0
  9
$UCSYDIR
 10
0.0
 20
1.0
 30
0.0
  9
$UCSORTHOREF
  2

  9
$UCSORTHOVIEW
 70
     1
  9
$UCSORGTOP
 10
0.0
 20
0.0
 30
0.0
  9
$UCSORGBOTTOM
 10
0.0
 20
0.0
 30
0.0
  9
$UCSORGLEFT
 10
0.0
 20
0.0
 30
0.0
  9
$UCSORGRIGHT
 10
0.0
 20
0.0
 30
0.0
  9
$UCSORGFRONT
 10
0.0
 20
0.0
 30
0.0
  9
$UCSORGBACK
 10
0.0
 20
0.0
 30
0.0
  9
$PUCSBASE
  2

  9
$PUCSNAME
  2

  9
$PUCSORG
 10
0.0
 20
0.0
 30
0.0
  9
$PUCSXDIR
 10
1.0
 20
0.0
 30
0.0
  9
$PUCSYDIR
 10
0.0
 20
1.0
 30
0.0
  9
$PUCSORTHOREF
  2

  9
$PUCSORTHOVIEW
 70
     0
  9
$PUCSORGTOP
 10
0.0
 20
0.0
 30
0.0
  9
$PUCSORGBOTTOM
 10
0.0
 20
0.0
 30
0.0
  9
$PUCSORGLEFT
 10
0.0
 20
0.0
 30
0.0
  9
$PUCSORGRIGHT
 10
0.0
 20
0.0
 30
0.0
  9
$PUCSORGFRONT
 10
0.0
 20
0.0
 30
0.0
  9
$PUCSORGBACK
 10
0.0
 20
0.0
 30
0.0
  9
$USERI1
 70
     0
  9
$USERI2
 70
     0
  9
$USERI3
 70
     0
  9
$USERI4
 70
     0
  9
$USERI5
 70
     0
  9
$USERR1
 40
0.0
  9
$USERR2
 40
0.0
  9
$USERR3
 40
0.0
  9
$USERR4
 40
0.0
  9
$USERR5
 40
0.0
  9
$WORLDVIEW
 70
     1
  9
$SHADEDGE
 70
     3
  9
$SHADEDIF
 70
    70
  9
$TILEMODE
 70
     1
  9
$MAXACTVP
 70
    64
  9
$PINSBASE
 10
0.0
 20
0.0
 30
0.0
  9
$PLIMCHECK
 70
     0
  9
$PEXTMIN
 10
1.000000000000000E+20
 20
1.000000000000000E+20
 30
1.000000000000000E+20
  9
$PEXTMAX
 10
-1.000000000000000E+20
 20
-1.000000000000000E+20
 30
-1.000000000000000E+20
  9
$PLIMMIN
 10
0.0
 20
0.0
  9
$PLIMMAX
 10
12.0
 20
9.0
  9
$UNITMODE
 70
     0
  9
$VISRETAIN
 70
     1
  9
$PLINEGEN
 70
     0
  9
$PSLTSCALE
 70
     1
  9
$TREEDEPTH
 70
  3020
  9
$CMLSTYLE
  2
Standard
  9
$CMLJUST
 70
     0
  9
$CMLSCALE
 40
1.0
  9
$PROXYGRAPHICS
 70
     1
  9
$MEASUREMENT
 70
     0
  9
$CELWEIGHT
370
    -1
  9
$ENDCAPS
280
     0
  9
$JOINSTYLE
280
     0
  9
$LWDISPLAY
290
     0
  9
$INSUNITS
 70
     0
  9
$HYPERLINKBASE
  1

  9
$STYLESHEET
  1

  9
$XEDIT
290
     1
  9
$CEPSNTYPE
380
     0
  9
$PSTYLEMODE
290
     1
  9
$FINGERPRINTGUID
  2
{8112BA24-1507-44A5-89AD-6EF0475F5869}
  9
$VERSIONGUID
  2
{6DF472D3-8AFF-4DEC-9D4C-A7A96DF90F80}
  9
$EXTNAMES
290
     1
  9
$PSVPSCALE
 40
0.0
  9
$OLESTARTUP
290
     0
  0
ENDSEC
  0
SECTION
  2
CLASSES
  0
CLASS
  1
ACDBDICTIONARYWDFLT
  2
AcDbDictionaryWithDefault
  3
AutoCAD 2000
 90
        0
280
     0
281
     0
  0
CLASS
  1
ACDBPLACEHOLDER
  2
AcDbPlaceHolder
  3
AutoCAD 2000
 90
        0
280
     0
281
     0
  0
CLASS
  1
LAYOUT
  2
AcDbLayout
  3
AutoCAD 2000
 90
        0
280
     0
281
     0
  0
CLASS
  1
DICTIONARYVAR
  2
AcDbDictionaryVar
  3
AutoCAD 2000
 90
        0
280
     0
281
     0
  0
ENDSEC
  0
SECTION
  2
TABLES
  0
TABLE
  2
VPORT
  5
8
330
0
100
AcDbSymbolTable
 70
     3
  0
VPORT
  5
DC9
330
8
100
AcDbSymbolTableRecord
100
AcDbViewportTableRecord
  2
*Active
 70
     0
 10
0.0
 20
0.0
 11
1.0
 21
1.0
 12
125.5
 22
93.49999999999999
 13
0.0
 23
0.0
 14
1.0
 24
1.0
 15
0.0
 25
0.0
 16
0.0
 26
0.0
 36
1.0
 17
0.0
 27
0.0
 37
0.0
 40
188.2649379932356
 41
2.073363431151241
 42
50.0
 43
0.0
 44
0.0
 50
0.0
 51
0.0
 71
     0
 72
   100
 73
     1
 74
     3
 75
     0
 76
     0
 77
     0
 78
     0
281
     0
 65
     1
110
0.0
120
0.0
130
0.0
111
1.0
121
0.0
131
0.0
112
0.0
122
1.0
132
0.0
 79
     1
146
0.0
  0
ENDTAB
  0
TABLE
  2
LTYPE
  5
5
330
0
100
AcDbSymbolTable
 70
     1
  0
LTYPE
  5
13
330
5
100
AcDbSymbolTableRecord
100
AcDbLinetypeTableRecord
  2
ByBlock
 70
     0
  3

 72
    65
 73
     0
 40
0.0
  0
LTYPE
  5
14
330
5
100
AcDbSymbolTableRecord
100
AcDbLinetypeTableRecord
  2
ByLayer
 70
     0
  3

 72
    65
 73
     0
 40
0.0
  0
LTYPE
  5
15
330
5
100
AcDbSymbolTableRecord
100
AcDbLinetypeTableRecord
  2
Continuous
 70
     0
  3
Solid line
 72
    65
 73
     0
 40
0.0
  0
ENDTAB
  0
TABLE
  2
LAYER
  5
2
330
0
100
AcDbSymbolTable
 70
     1
  0
LAYER
  5
10
330
2
100
AcDbSymbolTableRecord
100
AcDbLayerTableRecord
  2
0
 70
     0
 62
     7
  6
Continuous
370
    -3
390
F
  0
ENDTAB
  0
TABLE
  2
STYLE
  5
3
330
0
100
AcDbSymbolTable
 70
     1
  0
STYLE
  5
11
330
3
100
AcDbSymbolTableRecord
100
AcDbTextStyleTableRecord
  2
Standard
 70
     0
 40
0.0
 41
1.0
 50
0.0
 71
     0
 42
0.2
  3
txt
  4

  0
ENDTAB
  0
TABLE
  2
VIEW
  5
6
330
0
100
AcDbSymbolTable
 70
     0
  0
ENDTAB
  0
TABLE
  2
UCS
  5
7
330
0
100
AcDbSymbolTable
 70
     0
  0
ENDTAB
  0
TABLE
  2
APPID
  5
9
330
0
100
AcDbSymbolTable
 70
     1
  0
APPID
  5
12
330
9
100
AcDbSymbolTableRecord
100
AcDbRegAppTableRecord
  2
ACAD
 70
     0
  0
ENDTAB
  0
TABLE
  2
DIMSTYLE
  5
A
330
0
100
AcDbSymbolTable
 70
     1
100
AcDbDimStyleTable
 71
     0
  0
DIMSTYLE
105
958
330
A
100
AcDbSymbolTableRecord
100
AcDbDimStyleTableRecord
  2
Standard
 70
     0
340
11
  0
ENDTAB
  0
TABLE
  2
BLOCK_RECORD
  5
1
330
0
100
AcDbSymbolTable
 70
     0
  0
BLOCK_RECORD
  5
1E
330
1
100
AcDbSymbolTableRecord
100
AcDbBlockTableRecord
  2
*Model_Space
340
21
  0
BLOCK_RECORD
  5
1A
330
1
100
AcDbSymbolTableRecord
100
AcDbBlockTableRecord
  2
*Paper_Space
340
1D
  0
ENDTAB
  0
ENDSEC
  0
SECTION
  2
BLOCKS
  0
BLOCK
  5
1F
330
1E
100
AcDbEntity
  8
0
100
AcDbBlockBegin
  2
*Model_Space
 70
     0
 10
0.0
 20
0.0
 30
0.0
  3
*Model_Space
  1

  0
ENDBLK
  5
20
330
1E
100
AcDbEntity
  8
0
100
AcDbBlockEnd
  0
BLOCK
  5
1B
330
1A
100
AcDbEntity
 67
     1
  8
0
100
AcDbBlockBegin
  2
*Paper_Space
 70
     0
 10
0.0
 20
0.0
 30
0.0
  3
*Paper_Space
  1

  0
ENDBLK
  5
1C
330
1A
100
AcDbEntity
 67
     1
  8
0
100
AcDbBlockEnd
  0
ENDSEC
  0
SECTION
  2
ENTITIES
  0
LINE
  5
22
330
1E
100
AcDbEntity
  8
0
100
AcDbLine
 10
0.0
 20
2.166669999999999
 30
0.0
 11
1.0
 21
1.5
 31
0.0
  0
LINE
  5
23
330
1E
100
AcDbEntity
  8
0
100
AcDbLine
 10
0.0
 20
13.5
 30
0.0
 11
0.5
 21
14.1667
 31
0.0
  0
LINE
  5
24
330
1E
100
AcDbEntity
  8
0
100
AcDbLine
 10
0.0
 20
13.5
 30
0.0
 11
0.18
 21
13.5
 31
0.0
  0
LINE
  5
25
330
1E
100
AcDbEntity
  8
0
100
AcDbLine
 10
0.0
 20
13.5
 30
0.0
 11
0.0
 21
2.16667000000001
 31
0.0
  0
LINE
  5
26
330
1E
100
AcDbEntity
  8
0
100
AcDbLine
 10
0.18
 20
2.16667000000001
 30
0.0
 11
0.7
 21
2.16667000000001
 31
0.0
  0
LINE
  5
27
330
1E
100
AcDbEntity
  8
0
100
AcDbLine
 10
3.56533
 20
1.5
 30
0.0
 11
4.94667
 21
1.5
 31
0.0
  0
LINE
  5
28
330
1E
100
AcDbEntity
  8
0
100
AcDbLine
 10
4.94667
 20
1.5
 30
0.0
 11
6.387199999999999
 21
1.5
 31
0.0
  0
LINE
  5
29
330
1E
100
AcDbEntity
  8
0
100
AcDbLine
 10
9.25
 20
0.0000000000000027
 30
0.0
 11
9.699999999999999
 21
0.0000000000000026
 31
0.0
  0
LINE
  5
2A
330
1E
100
AcDbEntity
  8
0
100
AcDbLine
 10
9.25
 20
0.0000000000000027
 30
0.0
 11
9.699999999999999
 21
0.0000000000000027
 31
0.0
  0
LINE
  5
2B
330
1E
100
AcDbEntity
  8
0
100
AcDbLine
 10
9.25
 20
0.0000000000000027
 30
0.0
 11
9.25
 21
1.50000000000001
 31
0.0
  0
LINE
  5
2C
330
1E
100
AcDbEntity
  8
0
100
AcDbLine
 10
9.25
 20
0.0000000000000053
 30
0.0
 11
9.699999999999999
 21
0.0000000000000052
 31
0.0
  0
LINE
  5
2D
330
1E
100
AcDbEntity
  8
0
100
AcDbLine
 10
9.25
 20
0.0000000000000053
 30
0.0
 11
9.699999999999999
 21
0.0000000000000054
 31
0.0
  0
LINE
  5
2E
330
1E
100
AcDbEntity
  8
0
100
AcDbLine
 10
9.25
 20
0.0000000000000053
 30
0.0
 11
9.25
 21
1.50000000000001
 31
0.0
  0
LINE
  5
2F
330
1E
100
AcDbEntity
  8
0
100
AcDbLine
 10
9.25
 20
0.0000000000000044
 30
0.0
 11
9.699999999999999
 21
0.0000000000000044
 31
0.0
  0
LINE
  5
30
330
1E
100
AcDbEntity
  8
0
100
AcDbLine
 10
9.25
 20
0.0000000000000044
 30
0.0
 11
9.699999999999999
 21
0.0000000000000045
 31
0.0
  0
LINE
  5
31
330
1E
100
AcDbEntity
  8
0
100
AcDbLine
 10
9.25
 20
0.0000000000000044
 30
0.0
 11
9.25
 21
1.50000000000001
 31
0.0
  0
LINE
  5
32
330
1E
100
AcDbEntity
  8
0
100
AcDbLine
 10
9.25
 20
0.0000000000000035
 30
0.0
 11
9.699999999999999
 21
0.0000000000000035
 31
0.0
  0
LINE
  5
33
330
1E
100
AcDbEntity
  8
0
100
AcDbLine
 10
9.25
 20
0.0000000000000035
 30
0.0
 11
9.699999999999999
 21
0.0000000000000036
 31
0.0
  0
LINE
  5
34
330
1E
100
AcDbEntity
  8
0
100
AcDbLine
 10
9.25
 20
0.0000000000000035
 30
0.0
 11
9.25
 21
1.50000000000001
 31
0.0
  0
LINE
  5
35
330
1E
100
AcDbEntity
  8
0
100
AcDbLine
 10
9.25
 20
0.0000000000000018
 30
0.0
 11
9.699999999999999
 21
0.0000000000000017
 31
0.0
  0
LINE
  5
36
330
1E
100
AcDbEntity
  8
0
100
AcDbLine
 10
9.25
 20
0.0000000000000018
 30
0.0
 11
9.699999999999999
 21
0.0000000000000018
 31
0.0
  0
LINE
  5
37
330
1E
100
AcDbEntity
  8
0
100
AcDbLine
 10
9.25
 20
0.0000000000000018
 30
0.0
 11
9.25
 21
1.50000000000001
 31
0.0
  0
LINE
  5
38
330
1E
100
AcDbEntity
  8
0
100
AcDbLine
 10
9.25
 20
0.0000000000000062
 30
0.0
 11
9.699999999999999
 21
0.0000000000000063
 31
0.0
  0
LINE
  5
39
330
1E
100
AcDbEntity
  8
0
100
AcDbLine
 10
9.25
 20
0.0000000000000062
 30
0.0
 11
9.699999999999999
 21
0.0000000000000061
 31
0.0
  0
LINE
  5
3A
330
1E
100
AcDbEntity
  8
0
100
AcDbLine
 10
9.25
 20
0.0000000000000062
 30
0.0
 11
9.25
 21
1.50000000000001
 31
0.0
  0
LINE
  5
3B
330
1E
100
AcDbEntity
  8
0
100
AcDbLine
 10
9.699999999999999
 20
0.0000000000000027
 30
0.0
 11
10.74999999999999
 21
0.0000000000000027
 31
0.0
  0
LINE
  5
3C
330
1E
100
AcDbEntity
  8
0
100
AcDbLine
 10
9.699999999999999
 20
0.0000000000000026
 30
0.0
 11
10.74999999999999
 21
0.0000000000000026
 31
0.0
  0
LINE
  5
3D
330
1E
100
AcDbEntity
  8
0
100
AcDbLine
 10
9.699999999999999
 20
0.0000000000000054
 30
0.0
 11
10.74999999999999
 21
0.0000000000000054
 31
0.0
  0
LINE
  5
3E
330
1E
100
AcDbEntity
  8
0
100
AcDbLine
 10
9.699999999999999
 20
0.0000000000000052
 30
0.0
 11
10.74999999999999
 21
0.0000000000000052
 31
0.0
  0
LINE
  5
3F
330
1E
100
AcDbEntity
  8
0
100
AcDbLine
 10
9.699999999999999
 20
0.0000000000000045
 30
0.0
 11
10.74999999999999
 21
0.0000000000000045
 31
0.0
  0
LINE
  5
40
330
1E
100
AcDbEntity
  8
0
100
AcDbLine
 10
9.699999999999999
 20
0.0000000000000044
 30
0.0
 11
10.74999999999999
 21
0.0000000000000043
 31
0.0
  0
LINE
  5
41
330
1E
100
AcDbEntity
  8
0
100
AcDbLine
 10
9.699999999999999
 20
0.0000000000000036
 30
0.0
 11
10.74999999999999
 21
0.0000000000000036
 31
0.0
  0
LINE
  5
42
330
1E
100
AcDbEntity
  8
0
100
AcDbLine
 10
9.699999999999999
 20
0.0000000000000035
 30
0.0
 11
10.74999999999999
 21
0.0000000000000034
 31
0.0
  0
LINE
  5
43
330
1E
100
AcDbEntity
  8
0
100
AcDbLine
 10
9.699999999999999
 20
0.0000000000000018
 30
0.0
 11
10.74999999999999
 21
0.0000000000000019
 31
0.0
  0
LINE
  5
44
330
1E
100
AcDbEntity
  8
0
100
AcDbLine
 10
9.699999999999999
 20
0.0000000000000017
 30
0.0
 11
10.74999999999999
 21
0.0000000000000017
 31
0.0
  0
LINE
  5
45
330
1E
100
AcDbEntity
  8
0
100
AcDbLine
 10
9.699999999999999
 20
0.0000000000000061
 30
0.0
 11
10.74999999999999
 21
0.0000000000000061
 31
0.0
  0
LINE
  5
46
330
1E
100
AcDbEntity
  8
0
100
AcDbLine
 10
10.74999999999999
 20
0.0000000000000026
 30
0.0
 11
11.8
 21
0.0000000000000026
 31
0.0
  0
LINE
  5
47
330
1E
100
AcDbEntity
  8
0
100
AcDbLine
 10
10.74999999999999
 20
0.0000000000000027
 30
0.0
 11
11.8
 21
0.0000000000000027
 31
0.0
  0
LINE
  5
48
330
1E
100
AcDbEntity
  8
0
100
AcDbLine
 10
10.74999999999999
 20
0.0000000000000054
 30
0.0
 11
11.8
 21
0.0000000000000054
 31
0.0
  0
LINE
  5
49
330
1E
100
AcDbEntity
  8
0
100
AcDbLine
 10
10.74999999999999
 20
0.0000000000000052
 30
0.0
 11
11.8
 21
0.0000000000000052
 31
0.0
  0
LINE
  5
4A
330
1E
100
AcDbEntity
  8
0
100
AcDbLine
 10
10.74999999999999
 20
0.0000000000000045
 30
0.0
 11
11.8
 21
0.0000000000000045
 31
0.0
  0
LINE
  5
4B
330
1E
100
AcDbEntity
  8
0
100
AcDbLine
 10
10.74999999999999
 20
0.0000000000000043
 30
0.0
 11
11.8
 21
0.0000000000000044
 31
0.0
  0
LINE
  5
4C
330
1E
100
AcDbEntity
  8
0
100
AcDbLine
 10
10.74999999999999
 20
0.0000000000000036
 30
0.0
 11
11.8
 21
0.0000000000000036
 31
0.0
  0
LINE
  5
4D
330
1E
100
AcDbEntity
  8
0
100
AcDbLine
 10
10.74999999999999
 20
0.0000000000000034
 30
0.0
 11
11.8
 21
0.0000000000000035
 31
0.0
  0
LINE
  5
4E
330
1E
100
AcDbEntity
  8
0
100
AcDbLine
 10
10.74999999999999
 20
0.0000000000000019
 30
0.0
 11
11.8
 21
0.0000000000000018
 31
0.0
  0
LINE
  5
4F
330
1E
100
AcDbEntity
  8
0
100
AcDbLine
 10
10.74999999999999
 20
0.0000000000000017
 30
0.0
 11
11.8
 21
0.0000000000000017
 31
0.0
  0
LINE
  5
50
330
1E
100
AcDbEntity
  8
0
100
AcDbLine
 10
10.74999999999999
 20
0.0000000000000061
 30
0.0
 11
11.8
 21
0.0000000000000061
 31
0.0
  0
LINE
  5
51
330
1E
100
AcDbEntity
  8
0
100
AcDbLine
 10
10.74999999999999
 20
0.0000000000000063
 30
0.0
 11
11.8
 21
0.0000000000000063
 31
0.0
  0
LINE
  5
52
330
1E
100
AcDbEntity
  8
0
100
AcDbLine
 10
9.699999999999999
 20
0.0000000000000063
 30
0.0
 11
10.74999999999999
 21
0.0000000000000063
 31
0.0
  0
LINE
  5
53
330
1E
100
AcDbEntity
  8
0
100
AcDbLine
 10
9.699999999999999
 20
0.000000000000007
 30
0.0
 11
10.74999999999999
 21
0.000000000000007
 31
0.0
  0
LINE
  5
54
330
1E
100
AcDbEntity
  8
0
100
AcDbLine
 10
11.8
 20
0.0000000000000026
 30
0.0
 11
12.25
 21
0.0000000000000027
 31
0.0
  0
LINE
  5
55
330
1E
100
AcDbEntity
  8
0
100
AcDbLine
 10
11.8
 20
0.0000000000000027
 30
0.0
 11
12.25
 21
0.0000000000000027
 31
0.0
  0
LINE
  5
56
330
1E
100
AcDbEntity
  8
0
100
AcDbLine
 10
11.8
 20
0.0000000000000054
 30
0.0
 11
12.25
 21
0.0000000000000053
 31
0.0
  0
LINE
  5
57
330
1E
100
AcDbEntity
  8
0
100
AcDbLine
 10
11.8
 20
0.0000000000000052
 30
0.0
 11
12.25
 21
0.0000000000000053
 31
0.0
  0
LINE
  5
58
330
1E
100
AcDbEntity
  8
0
100
AcDbLine
 10
11.8
 20
0.0000000000000045
 30
0.0
 11
12.25
 21
0.0000000000000044
 31
0.0
  0
LINE
  5
59
330
1E
100
AcDbEntity
  8
0
100
AcDbLine
 10
11.8
 20
0.0000000000000044
 30
0.0
 11
12.25
 21
0.0000000000000044
 31
0.0
  0
LINE
  5
5A
330
1E
100
AcDbEntity
  8
0
100
AcDbLine
 10
11.8
 20
0.0000000000000036
 30
0.0
 11
12.25
 21
0.0000000000000035
 31
0.0
  0
LINE
  5
5B
330
1E
100
AcDbEntity
  8
0
100
AcDbLine
 10
11.8
 20
0.0000000000000035
 30
0.0
 11
12.25
 21
0.0000000000000035
 31
0.0
  0
LINE
  5
5C
330
1E
100
AcDbEntity
  8
0
100
AcDbLine
 10
11.8
 20
0.0000000000000018
 30
0.0
 11
12.25
 21
0.0000000000000018
 31
0.0
  0
LINE
  5
5D
330
1E
100
AcDbEntity
  8
0
100
AcDbLine
 10
11.8
 20
0.0000000000000017
 30
0.0
 11
12.25
 21
0.0000000000000018
 31
0.0
  0
LINE
  5
5E
330
1E
100
AcDbEntity
  8
0
100
AcDbLine
 10
22.74999999999999
 20
0.0000000000000053
 30
0.0
 11
23.19999999999999
 21
0.0000000000000052
 31
0.0
  0
LINE
  5
5F
330
1E
100
AcDbEntity
  8
0
100
AcDbLine
 10
22.74999999999999
 20
0.0000000000000053
 30
0.0
 11
23.19999999999999
 21
0.0000000000000054
 31
0.0
  0
LINE
  5
60
330
1E
100
AcDbEntity
  8
0
100
AcDbLine
 10
22.74999999999999
 20
0.0000000000000053
 30
0.0
 11
22.74999999999999
 21
1.50000000000001
 31
0.0
  0
LINE
  5
61
330
1E
100
AcDbEntity
  8
0
100
AcDbLine
 10
22.74999999999999
 20
0.0000000000000044
 30
0.0
 11
23.19999999999999
 21
0.0000000000000044
 31
0.0
  0
LINE
  5
62
330
1E
100
AcDbEntity
  8
0
100
AcDbLine
 10
22.74999999999999
 20
0.0000000000000044
 30
0.0
 11
23.19999999999999
 21
0.0000000000000045
 31
0.0
  0
LINE
  5
63
330
1E
100
AcDbEntity
  8
0
100
AcDbLine
 10
22.74999999999999
 20
0.0000000000000044
 30
0.0
 11
22.74999999999999
 21
1.50000000000001
 31
0.0
  0
LINE
  5
64
330
1E
100
AcDbEntity
  8
0
100
AcDbLine
 10
22.74999999999999
 20
0.0000000000000027
 30
0.0
 11
23.19999999999999
 21
0.0000000000000026
 31
0.0
  0
LINE
  5
65
330
1E
100
AcDbEntity
  8
0
100
AcDbLine
 10
22.74999999999999
 20
0.0000000000000027
 30
0.0
 11
23.19999999999999
 21
0.0000000000000027
 31
0.0
  0
LINE
  5
66
330
1E
100
AcDbEntity
  8
0
100
AcDbLine
 10
22.74999999999999
 20
0.0000000000000027
 30
0.0
 11
22.74999999999999
 21
1.50000000000001
 31
0.0
  0
LINE
  5
67
330
1E
100
AcDbEntity
  8
0
100
AcDbLine
 10
22.74999999999999
 20
0.0000000000000035
 30
0.0
 11
23.19999999999999
 21
0.0000000000000035
 31
0.0
  0
LINE
  5
68
330
1E
100
AcDbEntity
  8
0
100
AcDbLine
 10
22.74999999999999
 20
0.0000000000000035
 30
0.0
 11
23.19999999999999
 21
0.0000000000000036
 31
0.0
  0
LINE
  5
69
330
1E
100
AcDbEntity
  8
0
100
AcDbLine
 10
22.74999999999999
 20
0.0000000000000035
 30
0.0
 11
22.74999999999999
 21
1.50000000000001
 31
0.0
  0
LINE
  5
6A
330
1E
100
AcDbEntity
  8
0
100
AcDbLine
 10
22.74999999999999
 20
0.0000000000000018
 30
0.0
 11
23.19999999999999
 21
0.0000000000000017
 31
0.0
  0
LINE
  5
6B
330
1E
100
AcDbEntity
  8
0
100
AcDbLine
 10
22.74999999999999
 20
0.0000000000000018
 30
0.0
 11
23.19999999999999
 21
0.0000000000000018
 31
0.0
  0
LINE
  5
6C
330
1E
100
AcDbEntity
  8
0
100
AcDbLine
 10
22.74999999999999
 20
0.0000000000000018
 30
0.0
 11
22.74999999999999
 21
1.50000000000001
 31
0.0
  0
LINE
  5
6D
330
1E
100
AcDbEntity
  8
0
100
AcDbLine
 10
11.8
 20
0.0000000000000061
 30
0.0
 11
12.25
 21
0.0000000000000062
 31
0.0
  0
LINE
  5
6E
330
1E
100
AcDbEntity
  8
0
100
AcDbLine
 10
11.8
 20
0.0000000000000063
 30
0.0
 11
12.25
 21
0.0000000000000062
 31
0.0
  0
LINE
  5
6F
330
1E
100
AcDbEntity
  8
0
100
AcDbLine
 10
10.74999999999999
 20
0.000000000000007
 30
0.0
 11
11.8
 21
0.000000000000007
 31
0.0
  0
LINE
  5
70
330
1E
100
AcDbEntity
  8
0
100
AcDbLine
 10
11.8
 20
0.000000000000007
 30
0.0
 11
12.25
 21
0.0000000000000071
 31
0.0
  0
LINE
  5
71
330
1E
100
AcDbEntity
  8
0
100
AcDbLine
 10
9.25
 20
0.0000000000000071
 30
0.0
 11
9.699999999999999
 21
0.0000000000000072
 31
0.0
  0
LINE
  5
72
330
1E
100
AcDbEntity
  8
0
100
AcDbLine
 10
9.25
 20
0.0000000000000071
 30
0.0
 11
9.699999999999999
 21
0.000000000000007
 31
0.0
  0
LINE
  5
73
330
1E
100
AcDbEntity
  8
0
100
AcDbLine
 10
9.25
 20
0.0000000000000071
 30
0.0
 11
9.25
 21
1.50000000000001
 31
0.0
  0
LINE
  5
74
330
1E
100
AcDbEntity
  8
0
100
AcDbLine
 10
9.25
 20
0.000000000000008
 30
0.0
 11
9.699999999999999
 21
0.000000000000008
 31
0.0
  0
LINE
  5
75
330
1E
100
AcDbEntity
  8
0
100
AcDbLine
 10
9.25
 20
0.000000000000008
 30
0.0
 11
9.699999999999999
 21
0.0000000000000079
 31
0.0
  0
LINE
  5
76
330
1E
100
AcDbEntity
  8
0
100
AcDbLine
 10
9.25
 20
0.000000000000008
 30
0.0
 11
9.25
 21
1.50000000000001
 31
0.0
  0
LINE
  5
77
330
1E
100
AcDbEntity
  8
0
100
AcDbLine
 10
9.699999999999999
 20
0.0000000000000072
 30
0.0
 11
10.74999999999999
 21
0.0000000000000072
 31
0.0
  0
LINE
  5
78
330
1E
100
AcDbEntity
  8
0
100
AcDbLine
 10
9.699999999999999
 20
0.0000000000000079
 30
0.0
 11
10.74999999999999
 21
0.0000000000000079
 31
0.0
  0
LINE
  5
79
330
1E
100
AcDbEntity
  8
0
100
AcDbLine
 10
10.74999999999999
 20
0.0000000000000072
 30
0.0
 11
11.8
 21
0.0000000000000072
 31
0.0
  0
LINE
  5
7A
330
1E
100
AcDbEntity
  8
0
100
AcDbLine
 10
10.74999999999999
 20
0.0000000000000079
 30
0.0
 11
11.8
 21
0.0000000000000079
 31
0.0
  0
LINE
  5
7B
330
1E
100
AcDbEntity
  8
0
100
AcDbLine
 10
10.74999999999999
 20
0.0000000000000081
 30
0.0
 11
11.8
 21
0.000000000000008
 31
0.0
  0
LINE
  5
7C
330
1E
100
AcDbEntity
  8
0
100
AcDbLine
 10
9.699999999999999
 20
0.000000000000008
 30
0.0
 11
10.74999999999999
 21
0.0000000000000081
 31
0.0
  0
LINE
  5
7D
330
1E
100
AcDbEntity
  8
0
100
AcDbLine
 10
9.699999999999999
 20
0.0000000000000088
 30
0.0
 11
10.74999999999999
 21
0.0000000000000088
 31
0.0
  0
LINE
  5
7E
330
1E
100
AcDbEntity
  8
0
100
AcDbLine
 10
11.8
 20
0.0000000000000072
 30
0.0
 11
12.25
 21
0.0000000000000071
 31
0.0
  0
LINE
  5
7F
330
1E
100
AcDbEntity
  8
0
100
AcDbLine
 10
11.8
 20
0.0000000000000079
 30
0.0
 11
12.25
 21
0.000000000000008
 31
0.0
  0
LINE
  5
80
330
1E
100
AcDbEntity
  8
0
100
AcDbLine
 10
11.8
 20
0.000000000000008
 30
0.0
 11
12.25
 21
0.000000000000008
 31
0.0
  0
LINE
  5
81
330
1E
100
AcDbEntity
  8
0
100
AcDbLine
 10
10.74999999999999
 20
0.0000000000000088
 30
0.0
 11
11.8
 21
0.0000000000000088
 31
0.0
  0
LINE
  5
82
330
1E
100
AcDbEntity
  8
0
100
AcDbLine
 10
11.8
 20
0.0000000000000088
 30
0.0
 11
12.25
 21
0.0000000000000089
 31
0.0
  0
LINE
  5
83
330
1E
100
AcDbEntity
  8
0
100
AcDbLine
 10
9.25
 20
0.0000000000000089
 30
0.0
 11
9.699999999999999
 21
0.0000000000000089
 31
0.0
  0
LINE
  5
84
330
1E
100
AcDbEntity
  8
0
100
AcDbLine
 10
9.25
 20
0.0000000000000089
 30
0.0
 11
9.699999999999999
 21
0.0000000000000088
 31
0.0
  0
LINE
  5
85
330
1E
100
AcDbEntity
  8
0
100
AcDbLine
 10
9.25
 20
0.0000000000000089
 30
0.0
 11
9.25
 21
1.50000000000001
 31
0.0
  0
LINE
  5
86
330
1E
100
AcDbEntity
  8
0
100
AcDbLine
 10
11.8
 20
0.0000000000000089
 30
0.0
 11
12.25
 21
0.0000000000000089
 31
0.0
  0
LINE
  5
87
330
1E
100
AcDbEntity
  8
0
100
AcDbLine
 10
10.74999999999999
 20
0.000000000000009
 30
0.0
 11
11.8
 21
0.0000000000000089
 31
0.0
  0
LINE
  5
88
330
1E
100
AcDbEntity
  8
0
100
AcDbLine
 10
9.699999999999999
 20
0.0000000000000089
 30
0.0
 11
10.74999999999999
 21
0.000000000000009
 31
0.0
  0
LINE
  5
89
330
1E
100
AcDbEntity
  8
0
100
AcDbLine
 10
9.699999999999999
 20
0.0000000000000097
 30
0.0
 11
10.74999999999999
 21
0.0000000000000097
 31
0.0
  0
LINE
  5
8A
330
1E
100
AcDbEntity
  8
0
100
AcDbLine
 10
10.74999999999999
 20
0.0000000000000097
 30
0.0
 11
11.8
 21
0.0000000000000097
 31
0.0
  0
LINE
  5
8B
330
1E
100
AcDbEntity
  8
0
100
AcDbLine
 10
12.25
 20
0.0000000000000098
 30
0.0
 11
12.25
 21
1.50000000000001
 31
0.0
  0
LINE
  5
8C
330
1E
100
AcDbEntity
  8
0
100
AcDbLine
 10
11.8
 20
0.0000000000000097
 30
0.0
 11
12.25
 21
0.0000000000000098
 31
0.0
  0
LINE
  5
8D
330
1E
100
AcDbEntity
  8
0
100
AcDbLine
 10
11.8
 20
0.0000000000000098
 30
0.0
 11
12.25
 21
0.0000000000000098
 31
0.0
  0
LINE
  5
8E
330
1E
100
AcDbEntity
  8
0
100
AcDbLine
 10
11.8
 20
0.0000000000000098
 30
0.0
 11
11.8
 21
1.50000000000001
 31
0.0
  0
LINE
  5
8F
330
1E
100
AcDbEntity
  8
0
100
AcDbLine
 10
10.74999999999999
 20
0.0000000000000098
 30
0.0
 11
11.8
 21
0.0000000000000098
 31
0.0
  0
LINE
  5
90
330
1E
100
AcDbEntity
  8
0
100
AcDbLine
 10
10.74999999999999
 20
0.0000000000000098
 30
0.0
 11
10.74999999999999
 21
1.50000000000001
 31
0.0
  0
LINE
  5
91
330
1E
100
AcDbEntity
  8
0
100
AcDbLine
 10
9.699999999999999
 20
0.0000000000000098
 30
0.0
 11
10.74999999999999
 21
0.0000000000000098
 31
0.0
  0
LINE
  5
92
330
1E
100
AcDbEntity
  8
0
100
AcDbLine
 10
9.699999999999999
 20
0.0000000000000098
 30
0.0
 11
9.699999999999999
 21
1.50000000000001
 31
0.0
  0
LINE
  5
93
330
1E
100
AcDbEntity
  8
0
100
AcDbLine
 10
9.25
 20
0.0000000000000098
 30
0.0
 11
9.699999999999999
 21
0.0000000000000098
 31
0.0
  0
LINE
  5
94
330
1E
100
AcDbEntity
  8
0
100
AcDbLine
 10
9.25
 20
0.0000000000000098
 30
0.0
 11
9.699999999999999
 21
0.0000000000000097
 31
0.0
  0
LINE
  5
95
330
1E
100
AcDbEntity
  8
0
100
AcDbLine
 10
9.25
 20
0.0000000000000098
 30
0.0
 11
9.25
 21
1.50000000000001
 31
0.0
  0
LINE
  5
96
330
1E
100
AcDbEntity
  8
0
100
AcDbLine
 10
22.74999999999999
 20
0.0000000000000098
 30
0.0
 11
23.19999999999999
 21
0.0000000000000098
 31
0.0
  0
LINE
  5
97
330
1E
100
AcDbEntity
  8
0
100
AcDbLine
 10
22.74999999999999
 20
0.0000000000000098
 30
0.0
 11
23.19999999999999
 21
0.0000000000000097
 31
0.0
  0
LINE
  5
98
330
1E
100
AcDbEntity
  8
0
100
AcDbLine
 10
22.74999999999999
 20
0.0000000000000098
 30
0.0
 11
22.74999999999999
 21
1.50000000000001
 31
0.0
  0
LINE
  5
99
330
1E
100
AcDbEntity
  8
0
100
AcDbLine
 10
22.74999999999999
 20
0.0000000000000089
 30
0.0
 11
23.19999999999999
 21
0.0000000000000089
 31
0.0
  0
LINE
  5
9A
330
1E
100
AcDbEntity
  8
0
100
AcDbLine
 10
22.74999999999999
 20
0.0000000000000089
 30
0.0
 11
23.19999999999999
 21
0.0000000000000088
 31
0.0
  0
LINE
  5
9B
330
1E
100
AcDbEntity
  8
0
100
AcDbLine
 10
22.74999999999999
 20
0.0000000000000089
 30
0.0
 11
22.74999999999999
 21
1.50000000000001
 31
0.0
  0
LINE
  5
9C
330
1E
100
AcDbEntity
  8
0
100
AcDbLine
 10
22.74999999999999
 20
0.000000000000008
 30
0.0
 11
23.19999999999999
 21
0.000000000000008
 31
0.0
  0
LINE
  5
9D
330
1E
100
AcDbEntity
  8
0
100
AcDbLine
 10
22.74999999999999
 20
0.000000000000008
 30
0.0
 11
23.19999999999999
 21
0.0000000000000079
 31
0.0
  0
LINE
  5
9E
330
1E
100
AcDbEntity
  8
0
100
AcDbLine
 10
22.74999999999999
 20
0.000000000000008
 30
0.0
 11
22.74999999999999
 21
1.50000000000001
 31
0.0
  0
LINE
  5
9F
330
1E
100
AcDbEntity
  8
0
100
AcDbLine
 10
22.74999999999999
 20
0.0000000000000071
 30
0.0
 11
23.19999999999999
 21
0.0000000000000072
 31
0.0
  0
LINE
  5
A0
330
1E
100
AcDbEntity
  8
0
100
AcDbLine
 10
22.74999999999999
 20
0.0000000000000071
 30
0.0
 11
23.19999999999999
 21
0.000000000000007
 31
0.0
  0
LINE
  5
A1
330
1E
100
AcDbEntity
  8
0
100
AcDbLine
 10
22.74999999999999
 20
0.0000000000000071
 30
0.0
 11
22.74999999999999
 21
1.50000000000001
 31
0.0
  0
LINE
  5
A2
330
1E
100
AcDbEntity
  8
0
100
AcDbLine
 10
23.19999999999999
 20
0.0000000000000027
 30
0.0
 11
24.25
 21
0.0000000000000027
 31
0.0
  0
LINE
  5
A3
330
1E
100
AcDbEntity
  8
0
100
AcDbLine
 10
23.19999999999999
 20
0.0000000000000026
 30
0.0
 11
24.25
 21
0.0000000000000026
 31
0.0
  0
LINE
  5
A4
330
1E
100
AcDbEntity
  8
0
100
AcDbLine
 10
23.19999999999999
 20
0.0000000000000054
 30
0.0
 11
24.25
 21
0.0000000000000054
 31
0.0
  0
LINE
  5
A5
330
1E
100
AcDbEntity
  8
0
100
AcDbLine
 10
23.19999999999999
 20
0.0000000000000052
 30
0.0
 11
24.25
 21
0.0000000000000052
 31
0.0
  0
LINE
  5
A6
330
1E
100
AcDbEntity
  8
0
100
AcDbLine
 10
23.19999999999999
 20
0.0000000000000045
 30
0.0
 11
24.25
 21
0.0000000000000045
 31
0.0
  0
LINE
  5
A7
330
1E
100
AcDbEntity
  8
0
100
AcDbLine
 10
23.19999999999999
 20
0.0000000000000044
 30
0.0
 11
24.25
 21
0.0000000000000043
 31
0.0
  0
LINE
  5
A8
330
1E
100
AcDbEntity
  8
0
100
AcDbLine
 10
23.19999999999999
 20
0.0000000000000036
 30
0.0
 11
24.25
 21
0.0000000000000036
 31
0.0
  0
LINE
  5
A9
330
1E
100
AcDbEntity
  8
0
100
AcDbLine
 10
23.19999999999999
 20
0.0000000000000035
 30
0.0
 11
24.25
 21
0.0000000000000034
 31
0.0
  0
LINE
  5
AA
330
1E
100
AcDbEntity
  8
0
100
AcDbLine
 10
23.19999999999999
 20
0.0000000000000018
 30
0.0
 11
24.25
 21
0.0000000000000019
 31
0.0
  0
LINE
  5
AB
330
1E
100
AcDbEntity
  8
0
100
AcDbLine
 10
24.25
 20
0.0000000000000026
 30
0.0
 11
25.3
 21
0.0000000000000026
 31
0.0
  0
LINE
  5
AC
330
1E
100
AcDbEntity
  8
0
100
AcDbLine
 10
24.25
 20
0.0000000000000027
 30
0.0
 11
25.3
 21
0.0000000000000027
 31
0.0
  0
LINE
  5
AD
330
1E
100
AcDbEntity
  8
0
100
AcDbLine
 10
24.25
 20
0.0000000000000054
 30
0.0
 11
25.3
 21
0.0000000000000054
 31
0.0
  0
LINE
  5
AE
330
1E
100
AcDbEntity
  8
0
100
AcDbLine
 10
24.25
 20
0.0000000000000052
 30
0.0
 11
25.3
 21
0.0000000000000052
 31
0.0
  0
LINE
  5
AF
330
1E
100
AcDbEntity
  8
0
100
AcDbLine
 10
24.25
 20
0.0000000000000045
 30
0.0
 11
25.3
 21
0.0000000000000045
 31
0.0
  0
LINE
  5
B0
330
1E
100
AcDbEntity
  8
0
100
AcDbLine
 10
24.25
 20
0.0000000000000043
 30
0.0
 11
25.3
 21
0.0000000000000044
 31
0.0
  0
LINE
  5
B1
330
1E
100
AcDbEntity
  8
0
100
AcDbLine
 10
24.25
 20
0.0000000000000036
 30
0.0
 11
25.3
 21
0.0000000000000036
 31
0.0
  0
LINE
  5
B2
330
1E
100
AcDbEntity
  8
0
100
AcDbLine
 10
24.25
 20
0.0000000000000034
 30
0.0
 11
25.3
 21
0.0000000000000035
 31
0.0
  0
LINE
  5
B3
330
1E
100
AcDbEntity
  8
0
100
AcDbLine
 10
24.25
 20
0.0000000000000019
 30
0.0
 11
25.3
 21
0.0000000000000018
 31
0.0
  0
LINE
  5
B4
330
1E
100
AcDbEntity
  8
0
100
AcDbLine
 10
24.25
 20
0.0000000000000017
 30
0.0
 11
25.3
 21
0.0000000000000017
 31
0.0
  0
LINE
  5
B5
330
1E
100
AcDbEntity
  8
0
100
AcDbLine
 10
23.19999999999999
 20
0.0000000000000017
 30
0.0
 11
24.25
 21
0.0000000000000017
 31
0.0
  0
LINE
  5
B6
330
1E
100
AcDbEntity
  8
0
100
AcDbLine
 10
23.19999999999999
 20
0.0000000000000061
 30
0.0
 11
24.25
 21
0.0000000000000061
 31
0.0
  0
LINE
  5
B7
330
1E
100
AcDbEntity
  8
0
100
AcDbLine
 10
25.3
 20
0.0000000000000026
 30
0.0
 11
25.75
 21
0.0000000000000027
 31
0.0
  0
LINE
  5
B8
330
1E
100
AcDbEntity
  8
0
100
AcDbLine
 10
25.3
 20
0.0000000000000027
 30
0.0
 11
25.75
 21
0.0000000000000027
 31
0.0
  0
LINE
  5
B9
330
1E
100
AcDbEntity
  8
0
100
AcDbLine
 10
25.3
 20
0.0000000000000054
 30
0.0
 11
25.75
 21
0.0000000000000053
 31
0.0
  0
LINE
  5
BA
330
1E
100
AcDbEntity
  8
0
100
AcDbLine
 10
25.3
 20
0.0000000000000052
 30
0.0
 11
25.75
 21
0.0000000000000053
 31
0.0
  0
LINE
  5
BB
330
1E
100
AcDbEntity
  8
0
100
AcDbLine
 10
25.3
 20
0.0000000000000045
 30
0.0
 11
25.75
 21
0.0000000000000044
 31
0.0
  0
LINE
  5
BC
330
1E
100
AcDbEntity
  8
0
100
AcDbLine
 10
25.3
 20
0.0000000000000044
 30
0.0
 11
25.75
 21
0.0000000000000044
 31
0.0
  0
LINE
  5
BD
330
1E
100
AcDbEntity
  8
0
100
AcDbLine
 10
25.3
 20
0.0000000000000036
 30
0.0
 11
25.75
 21
0.0000000000000035
 31
0.0
  0
LINE
  5
BE
330
1E
100
AcDbEntity
  8
0
100
AcDbLine
 10
25.3
 20
0.0000000000000035
 30
0.0
 11
25.75
 21
0.0000000000000035
 31
0.0
  0
LINE
  5
BF
330
1E
100
AcDbEntity
  8
0
100
AcDbLine
 10
25.3
 20
0.0000000000000018
 30
0.0
 11
25.75
 21
0.0000000000000018
 31
0.0
  0
LINE
  5
C0
330
1E
100
AcDbEntity
  8
0
100
AcDbLine
 10
25.3
 20
0.0000000000000017
 30
0.0
 11
25.75
 21
0.0000000000000018
 31
0.0
  0
LINE
  5
C1
330
1E
100
AcDbEntity
  8
0
100
AcDbLine
 10
24.25
 20
0.0000000000000061
 30
0.0
 11
25.3
 21
0.0000000000000061
 31
0.0
  0
LINE
  5
C2
330
1E
100
AcDbEntity
  8
0
100
AcDbLine
 10
25.3
 20
0.0000000000000061
 30
0.0
 11
25.75
 21
0.0000000000000062
 31
0.0
  0
LINE
  5
C3
330
1E
100
AcDbEntity
  8
0
100
AcDbLine
 10
25.3
 20
0.0000000000000063
 30
0.0
 11
25.75
 21
0.0000000000000062
 31
0.0
  0
LINE
  5
C4
330
1E
100
AcDbEntity
  8
0
100
AcDbLine
 10
23.19999999999999
 20
0.000000000000007
 30
0.0
 11
24.25
 21
0.000000000000007
 31
0.0
  0
LINE
  5
C5
330
1E
100
AcDbEntity
  8
0
100
AcDbLine
 10
24.25
 20
0.000000000000007
 30
0.0
 11
25.3
 21
0.000000000000007
 31
0.0
  0
LINE
  5
C6
330
1E
100
AcDbEntity
  8
0
100
AcDbLine
 10
23.19999999999999
 20
0.0000000000000079
 30
0.0
 11
24.25
 21
0.0000000000000079
 31
0.0
  0
LINE
  5
C7
330
1E
100
AcDbEntity
  8
0
100
AcDbLine
 10
23.19999999999999
 20
0.000000000000008
 30
0.0
 11
24.25
 21
0.0000000000000081
 31
0.0
  0
LINE
  5
C8
330
1E
100
AcDbEntity
  8
0
100
AcDbLine
 10
23.19999999999999
 20
0.0000000000000088
 30
0.0
 11
24.25
 21
0.0000000000000088
 31
0.0
  0
LINE
  5
C9
330
1E
100
AcDbEntity
  8
0
100
AcDbLine
 10
23.19999999999999
 20
0.0000000000000097
 30
0.0
 11
24.25
 21
0.0000000000000097
 31
0.0
  0
LINE
  5
CA
330
1E
100
AcDbEntity
  8
0
100
AcDbLine
 10
23.19999999999999
 20
0.0000000000000098
 30
0.0
 11
24.25
 21
0.0000000000000098
 31
0.0
  0
LINE
  5
CB
330
1E
100
AcDbEntity
  8
0
100
AcDbLine
 10
23.19999999999999
 20
0.0000000000000098
 30
0.0
 11
23.19999999999999
 21
1.50000000000001
 31
0.0
  0
LINE
  5
CC
330
1E
100
AcDbEntity
  8
0
100
AcDbLine
 10
23.19999999999999
 20
0.0000000000000089
 30
0.0
 11
24.25
 21
0.000000000000009
 31
0.0
  0
LINE
  5
CD
330
1E
100
AcDbEntity
  8
0
100
AcDbLine
 10
24.25
 20
0.0000000000000079
 30
0.0
 11
25.3
 21
0.0000000000000079
 31
0.0
  0
LINE
  5
CE
330
1E
100
AcDbEntity
  8
0
100
AcDbLine
 10
24.25
 20
0.0000000000000088
 30
0.0
 11
25.3
 21
0.0000000000000088
 31
0.0
  0
LINE
  5
CF
330
1E
100
AcDbEntity
  8
0
100
AcDbLine
 10
24.25
 20
0.0000000000000097
 30
0.0
 11
25.3
 21
0.0000000000000097
 31
0.0
  0
LINE
  5
D0
330
1E
100
AcDbEntity
  8
0
100
AcDbLine
 10
24.25
 20
0.0000000000000098
 30
0.0
 11
25.3
 21
0.0000000000000098
 31
0.0
  0
LINE
  5
D1
330
1E
100
AcDbEntity
  8
0
100
AcDbLine
 10
24.25
 20
0.0000000000000098
 30
0.0
 11
24.25
 21
1.50000000000001
 31
0.0
  0
LINE
  5
D2
330
1E
100
AcDbEntity
  8
0
100
AcDbLine
 10
24.25
 20
0.000000000000009
 30
0.0
 11
25.3
 21
0.0000000000000089
 31
0.0
  0
LINE
  5
D3
330
1E
100
AcDbEntity
  8
0
100
AcDbLine
 10
24.25
 20
0.0000000000000081
 30
0.0
 11
25.3
 21
0.000000000000008
 31
0.0
  0
LINE
  5
D4
330
1E
100
AcDbEntity
  8
0
100
AcDbLine
 10
24.25
 20
0.0000000000000072
 30
0.0
 11
25.3
 21
0.0000000000000072
 31
0.0
  0
LINE
  5
D5
330
1E
100
AcDbEntity
  8
0
100
AcDbLine
 10
23.19999999999999
 20
0.0000000000000072
 30
0.0
 11
24.25
 21
0.0000000000000072
 31
0.0
  0
LINE
  5
D6
330
1E
100
AcDbEntity
  8
0
100
AcDbLine
 10
25.3
 20
0.000000000000007
 30
0.0
 11
25.75
 21
0.0000000000000071
 31
0.0
  0
LINE
  5
D7
330
1E
100
AcDbEntity
  8
0
100
AcDbLine
 10
25.3
 20
0.0000000000000088
 30
0.0
 11
25.75
 21
0.0000000000000089
 31
0.0
  0
LINE
  5
D8
330
1E
100
AcDbEntity
  8
0
100
AcDbLine
 10
25.3
 20
0.0000000000000097
 30
0.0
 11
25.75
 21
0.0000000000000098
 31
0.0
  0
LINE
  5
D9
330
1E
100
AcDbEntity
  8
0
100
AcDbLine
 10
25.3
 20
0.0000000000000098
 30
0.0
 11
25.75
 21
0.0000000000000098
 31
0.0
  0
LINE
  5
DA
330
1E
100
AcDbEntity
  8
0
100
AcDbLine
 10
25.3
 20
0.0000000000000098
 30
0.0
 11
25.3
 21
1.50000000000001
 31
0.0
  0
LINE
  5
DB
330
1E
100
AcDbEntity
  8
0
100
AcDbLine
 10
25.3
 20
0.0000000000000089
 30
0.0
 11
25.75
 21
0.0000000000000089
 31
0.0
  0
LINE
  5
DC
330
1E
100
AcDbEntity
  8
0
100
AcDbLine
 10
25.3
 20
0.0000000000000079
 30
0.0
 11
25.75
 21
0.000000000000008
 31
0.0
  0
LINE
  5
DD
330
1E
100
AcDbEntity
  8
0
100
AcDbLine
 10
25.3
 20
0.000000000000008
 30
0.0
 11
25.75
 21
0.000000000000008
 31
0.0
  0
LINE
  5
DE
330
1E
100
AcDbEntity
  8
0
100
AcDbLine
 10
25.3
 20
0.0000000000000072
 30
0.0
 11
25.75
 21
0.0000000000000071
 31
0.0
  0
LINE
  5
DF
330
1E
100
AcDbEntity
  8
0
100
AcDbLine
 10
24.25
 20
0.0000000000000063
 30
0.0
 11
25.3
 21
0.0000000000000063
 31
0.0
  0
LINE
  5
E0
330
1E
100
AcDbEntity
  8
0
100
AcDbLine
 10
23.19999999999999
 20
0.0000000000000063
 30
0.0
 11
24.25
 21
0.0000000000000063
 31
0.0
  0
LINE
  5
E1
330
1E
100
AcDbEntity
  8
0
100
AcDbLine
 10
22.74999999999999
 20
0.0000000000000062
 30
0.0
 11
23.19999999999999
 21
0.0000000000000063
 31
0.0
  0
LINE
  5
E2
330
1E
100
AcDbEntity
  8
0
100
AcDbLine
 10
22.74999999999999
 20
0.0000000000000062
 30
0.0
 11
23.19999999999999
 21
0.0000000000000061
 31
0.0
  0
LINE
  5
E3
330
1E
100
AcDbEntity
  8
0
100
AcDbLine
 10
22.74999999999999
 20
0.0000000000000062
 30
0.0
 11
22.74999999999999
 21
1.50000000000001
 31
0.0
  0
LINE
  5
E4
330
1E
100
AcDbEntity
  8
0
100
AcDbLine
 10
7.90667
 20
1.5
 30
0.0
 11
9.250000000000008
 21
1.5
 31
0.0
  0
LINE
  5
E5
330
1E
100
AcDbEntity
  8
0
100
AcDbLine
 10
25.75
 20
0.0000000000000098
 30
0.0
 11
25.75
 21
1.50000000000001
 31
0.0
  0
LINE
  5
E6
330
1E
100
AcDbEntity
  8
0
100
AcDbLine
 10
36.25
 20
0.0000000000000027
 30
0.0
 11
36.7
 21
0.0000000000000026
 31
0.0
  0
LINE
  5
E7
330
1E
100
AcDbEntity
  8
0
100
AcDbLine
 10
36.25
 20
0.0000000000000027
 30
0.0
 11
36.7
 21
0.0000000000000027
 31
0.0
  0
LINE
  5
E8
330
1E
100
AcDbEntity
  8
0
100
AcDbLine
 10
36.25
 20
0.0000000000000027
 30
0.0
 11
36.25
 21
1.50000000000001
 31
0.0
  0
LINE
  5
E9
330
1E
100
AcDbEntity
  8
0
100
AcDbLine
 10
36.25
 20
0.0000000000000053
 30
0.0
 11
36.7
 21
0.0000000000000052
 31
0.0
  0
LINE
  5
EA
330
1E
100
AcDbEntity
  8
0
100
AcDbLine
 10
36.25
 20
0.0000000000000053
 30
0.0
 11
36.7
 21
0.0000000000000054
 31
0.0
  0
LINE
  5
EB
330
1E
100
AcDbEntity
  8
0
100
AcDbLine
 10
36.25
 20
0.0000000000000053
 30
0.0
 11
36.25
 21
1.50000000000001
 31
0.0
  0
LINE
  5
EC
330
1E
100
AcDbEntity
  8
0
100
AcDbLine
 10
36.25
 20
0.0000000000000044
 30
0.0
 11
36.7
 21
0.0000000000000044
 31
0.0
  0
LINE
  5
ED
330
1E
100
AcDbEntity
  8
0
100
AcDbLine
 10
36.25
 20
0.0000000000000044
 30
0.0
 11
36.7
 21
0.0000000000000045
 31
0.0
  0
LINE
  5
EE
330
1E
100
AcDbEntity
  8
0
100
AcDbLine
 10
36.25
 20
0.0000000000000044
 30
0.0
 11
36.25
 21
1.50000000000001
 31
0.0
  0
LINE
  5
EF
330
1E
100
AcDbEntity
  8
0
100
AcDbLine
 10
36.25
 20
0.0000000000000035
 30
0.0
 11
36.7
 21
0.0000000000000035
 31
0.0
  0
LINE
  5
F0
330
1E
100
AcDbEntity
  8
0
100
AcDbLine
 10
36.25
 20
0.0000000000000035
 30
0.0
 11
36.7
 21
0.0000000000000036
 31
0.0
  0
LINE
  5
F1
330
1E
100
AcDbEntity
  8
0
100
AcDbLine
 10
36.25
 20
0.0000000000000035
 30
0.0
 11
36.25
 21
1.50000000000001
 31
0.0
  0
LINE
  5
F2
330
1E
100
AcDbEntity
  8
0
100
AcDbLine
 10
36.25
 20
0.0000000000000018
 30
0.0
 11
36.7
 21
0.0000000000000017
 31
0.0
  0
LINE
  5
F3
330
1E
100
AcDbEntity
  8
0
100
AcDbLine
 10
36.25
 20
0.0000000000000018
 30
0.0
 11
36.7
 21
0.0000000000000018
 31
0.0
  0
LINE
  5
F4
330
1E
100
AcDbEntity
  8
0
100
AcDbLine
 10
36.25
 20
0.0000000000000018
 30
0.0
 11
36.25
 21
1.50000000000001
 31
0.0
  0
LINE
  5
F5
330
1E
100
AcDbEntity
  8
0
100
AcDbLine
 10
36.25
 20
0.0000000000000062
 30
0.0
 11
36.7
 21
0.0000000000000063
 31
0.0
  0
LINE
  5
F6
330
1E
100
AcDbEntity
  8
0
100
AcDbLine
 10
36.25
 20
0.0000000000000062
 30
0.0
 11
36.7
 21
0.0000000000000061
 31
0.0
  0
LINE
  5
F7
330
1E
100
AcDbEntity
  8
0
100
AcDbLine
 10
36.25
 20
0.0000000000000062
 30
0.0
 11
36.25
 21
1.50000000000001
 31
0.0
  0
LINE
  5
F8
330
1E
100
AcDbEntity
  8
0
100
AcDbLine
 10
36.25
 20
0.0000000000000071
 30
0.0
 11
36.7
 21
0.0000000000000072
 31
0.0
  0
LINE
  5
F9
330
1E
100
AcDbEntity
  8
0
100
AcDbLine
 10
36.25
 20
0.0000000000000071
 30
0.0
 11
36.7
 21
0.000000000000007
 31
0.0
  0
LINE
  5
FA
330
1E
100
AcDbEntity
  8
0
100
AcDbLine
 10
36.25
 20
0.0000000000000071
 30
0.0
 11
36.25
 21
1.50000000000001
 31
0.0
  0
LINE
  5
FB
330
1E
100
AcDbEntity
  8
0
100
AcDbLine
 10
36.25
 20
0.000000000000008
 30
0.0
 11
36.7
 21
0.000000000000008
 31
0.0
  0
LINE
  5
FC
330
1E
100
AcDbEntity
  8
0
100
AcDbLine
 10
36.25
 20
0.000000000000008
 30
0.0
 11
36.7
 21
0.0000000000000079
 31
0.0
  0
LINE
  5
FD
330
1E
100
AcDbEntity
  8
0
100
AcDbLine
 10
36.25
 20
0.000000000000008
 30
0.0
 11
36.25
 21
1.50000000000001
 31
0.0
  0
LINE
  5
FE
330
1E
100
AcDbEntity
  8
0
100
AcDbLine
 10
36.7
 20
0.0000000000000027
 30
0.0
 11
37.75
 21
0.0000000000000027
 31
0.0
  0
LINE
  5
FF
330
1E
100
AcDbEntity
  8
0
100
AcDbLine
 10
36.7
 20
0.0000000000000026
 30
0.0
 11
37.75
 21
0.0000000000000026
 31
0.0
  0
LINE
  5
100
330
1E
100
AcDbEntity
  8
0
100
AcDbLine
 10
36.7
 20
0.0000000000000054
 30
0.0
 11
37.75
 21
0.0000000000000054
 31
0.0
  0
LINE
  5
101
330
1E
100
AcDbEntity
  8
0
100
AcDbLine
 10
36.7
 20
0.0000000000000052
 30
0.0
 11
37.75
 21
0.0000000000000052
 31
0.0
  0
LINE
  5
102
330
1E
100
AcDbEntity
  8
0
100
AcDbLine
 10
36.7
 20
0.0000000000000045
 30
0.0
 11
37.75
 21
0.0000000000000045
 31
0.0
  0
LINE
  5
103
330
1E
100
AcDbEntity
  8
0
100
AcDbLine
 10
36.7
 20
0.0000000000000044
 30
0.0
 11
37.75
 21
0.0000000000000043
 31
0.0
  0
LINE
  5
104
330
1E
100
AcDbEntity
  8
0
100
AcDbLine
 10
36.7
 20
0.0000000000000036
 30
0.0
 11
37.75
 21
0.0000000000000036
 31
0.0
  0
LINE
  5
105
330
1E
100
AcDbEntity
  8
0
100
AcDbLine
 10
36.7
 20
0.0000000000000035
 30
0.0
 11
37.75
 21
0.0000000000000034
 31
0.0
  0
LINE
  5
106
330
1E
100
AcDbEntity
  8
0
100
AcDbLine
 10
36.7
 20
0.0000000000000018
 30
0.0
 11
37.75
 21
0.0000000000000019
 31
0.0
  0
LINE
  5
107
330
1E
100
AcDbEntity
  8
0
100
AcDbLine
 10
36.7
 20
0.0000000000000017
 30
0.0
 11
37.75
 21
0.0000000000000017
 31
0.0
  0
LINE
  5
108
330
1E
100
AcDbEntity
  8
0
100
AcDbLine
 10
36.7
 20
0.0000000000000061
 30
0.0
 11
37.75
 21
0.0000000000000061
 31
0.0
  0
LINE
  5
109
330
1E
100
AcDbEntity
  8
0
100
AcDbLine
 10
36.7
 20
0.0000000000000063
 30
0.0
 11
37.75
 21
0.0000000000000063
 31
0.0
  0
LINE
  5
10A
330
1E
100
AcDbEntity
  8
0
100
AcDbLine
 10
36.7
 20
0.000000000000007
 30
0.0
 11
37.75
 21
0.000000000000007
 31
0.0
  0
LINE
  5
10B
330
1E
100
AcDbEntity
  8
0
100
AcDbLine
 10
36.7
 20
0.0000000000000072
 30
0.0
 11
37.75
 21
0.0000000000000072
 31
0.0
  0
LINE
  5
10C
330
1E
100
AcDbEntity
  8
0
100
AcDbLine
 10
36.7
 20
0.0000000000000079
 30
0.0
 11
37.75
 21
0.0000000000000079
 31
0.0
  0
LINE
  5
10D
330
1E
100
AcDbEntity
  8
0
100
AcDbLine
 10
37.75
 20
0.0000000000000026
 30
0.0
 11
38.79999999999999
 21
0.0000000000000026
 31
0.0
  0
LINE
  5
10E
330
1E
100
AcDbEntity
  8
0
100
AcDbLine
 10
37.75
 20
0.0000000000000027
 30
0.0
 11
38.79999999999999
 21
0.0000000000000027
 31
0.0
  0
LINE
  5
10F
330
1E
100
AcDbEntity
  8
0
100
AcDbLine
 10
37.75
 20
0.0000000000000054
 30
0.0
 11
38.79999999999999
 21
0.0000000000000054
 31
0.0
  0
LINE
  5
110
330
1E
100
AcDbEntity
  8
0
100
AcDbLine
 10
37.75
 20
0.0000000000000052
 30
0.0
 11
38.79999999999999
 21
0.0000000000000052
 31
0.0
  0
LINE
  5
111
330
1E
100
AcDbEntity
  8
0
100
AcDbLine
 10
37.75
 20
0.0000000000000045
 30
0.0
 11
38.79999999999999
 21
0.0000000000000045
 31
0.0
  0
LINE
  5
112
330
1E
100
AcDbEntity
  8
0
100
AcDbLine
 10
37.75
 20
0.0000000000000043
 30
0.0
 11
38.79999999999999
 21
0.0000000000000044
 31
0.0
  0
LINE
  5
113
330
1E
100
AcDbEntity
  8
0
100
AcDbLine
 10
37.75
 20
0.0000000000000036
 30
0.0
 11
38.79999999999999
 21
0.0000000000000036
 31
0.0
  0
LINE
  5
114
330
1E
100
AcDbEntity
  8
0
100
AcDbLine
 10
37.75
 20
0.0000000000000034
 30
0.0
 11
38.79999999999999
 21
0.0000000000000035
 31
0.0
  0
LINE
  5
115
330
1E
100
AcDbEntity
  8
0
100
AcDbLine
 10
37.75
 20
0.0000000000000019
 30
0.0
 11
38.79999999999999
 21
0.0000000000000018
 31
0.0
  0
LINE
  5
116
330
1E
100
AcDbEntity
  8
0
100
AcDbLine
 10
37.75
 20
0.0000000000000017
 30
0.0
 11
38.79999999999999
 21
0.0000000000000017
 31
0.0
  0
LINE
  5
117
330
1E
100
AcDbEntity
  8
0
100
AcDbLine
 10
37.75
 20
0.0000000000000061
 30
0.0
 11
38.79999999999999
 21
0.0000000000000061
 31
0.0
  0
LINE
  5
118
330
1E
100
AcDbEntity
  8
0
100
AcDbLine
 10
37.75
 20
0.0000000000000063
 30
0.0
 11
38.79999999999999
 21
0.0000000000000063
 31
0.0
  0
LINE
  5
119
330
1E
100
AcDbEntity
  8
0
100
AcDbLine
 10
37.75
 20
0.000000000000007
 30
0.0
 11
38.79999999999999
 21
0.000000000000007
 31
0.0
  0
LINE
  5
11A
330
1E
100
AcDbEntity
  8
0
100
AcDbLine
 10
37.75
 20
0.0000000000000072
 30
0.0
 11
38.79999999999999
 21
0.0000000000000072
 31
0.0
  0
LINE
  5
11B
330
1E
100
AcDbEntity
  8
0
100
AcDbLine
 10
37.75
 20
0.0000000000000079
 30
0.0
 11
38.79999999999999
 21
0.0000000000000079
 31
0.0
  0
LINE
  5
11C
330
1E
100
AcDbEntity
  8
0
100
AcDbLine
 10
37.75
 20
0.0000000000000081
 30
0.0
 11
38.79999999999999
 21
0.000000000000008
 31
0.0
  0
LINE
  5
11D
330
1E
100
AcDbEntity
  8
0
100
AcDbLine
 10
36.7
 20
0.000000000000008
 30
0.0
 11
37.75
 21
0.0000000000000081
 31
0.0
  0
LINE
  5
11E
330
1E
100
AcDbEntity
  8
0
100
AcDbLine
 10
36.7
 20
0.0000000000000088
 30
0.0
 11
37.75
 21
0.0000000000000088
 31
0.0
  0
LINE
  5
11F
330
1E
100
AcDbEntity
  8
0
100
AcDbLine
 10
38.79999999999999
 20
0.0000000000000026
 30
0.0
 11
39.25
 21
0.0000000000000027
 31
0.0
  0
LINE
  5
120
330
1E
100
AcDbEntity
  8
0
100
AcDbLine
 10
38.79999999999999
 20
0.0000000000000027
 30
0.0
 11
39.25
 21
0.0000000000000027
 31
0.0
  0
LINE
  5
121
330
1E
100
AcDbEntity
  8
0
100
AcDbLine
 10
38.79999999999999
 20
0.0000000000000054
 30
0.0
 11
39.25
 21
0.0000000000000053
 31
0.0
  0
LINE
  5
122
330
1E
100
AcDbEntity
  8
0
100
AcDbLine
 10
38.79999999999999
 20
0.0000000000000052
 30
0.0
 11
39.25
 21
0.0000000000000053
 31
0.0
  0
LINE
  5
123
330
1E
100
AcDbEntity
  8
0
100
AcDbLine
 10
38.79999999999999
 20
0.0000000000000045
 30
0.0
 11
39.25
 21
0.0000000000000044
 31
0.0
  0
LINE
  5
124
330
1E
100
AcDbEntity
  8
0
100
AcDbLine
 10
38.79999999999999
 20
0.0000000000000044
 30
0.0
 11
39.25
 21
0.0000000000000044
 31
0.0
  0
LINE
  5
125
330
1E
100
AcDbEntity
  8
0
100
AcDbLine
 10
38.79999999999999
 20
0.0000000000000036
 30
0.0
 11
39.25
 21
0.0000000000000035
 31
0.0
  0
LINE
  5
126
330
1E
100
AcDbEntity
  8
0
100
AcDbLine
 10
38.79999999999999
 20
0.0000000000000035
 30
0.0
 11
39.25
 21
0.0000000000000035
 31
0.0
  0
LINE
  5
127
330
1E
100
AcDbEntity
  8
0
100
AcDbLine
 10
38.79999999999999
 20
0.0000000000000018
 30
0.0
 11
39.25
 21
0.0000000000000018
 31
0.0
  0
LINE
  5
128
330
1E
100
AcDbEntity
  8
0
100
AcDbLine
 10
38.79999999999999
 20
0.0000000000000017
 30
0.0
 11
39.25
 21
0.0000000000000018
 31
0.0
  0
LINE
  5
129
330
1E
100
AcDbEntity
  8
0
100
AcDbLine
 10
38.79999999999999
 20
0.0000000000000061
 30
0.0
 11
39.25
 21
0.0000000000000062
 31
0.0
  0
LINE
  5
12A
330
1E
100
AcDbEntity
  8
0
100
AcDbLine
 10
38.79999999999999
 20
0.0000000000000063
 30
0.0
 11
39.25
 21
0.0000000000000062
 31
0.0
  0
LINE
  5
12B
330
1E
100
AcDbEntity
  8
0
100
AcDbLine
 10
38.79999999999999
 20
0.000000000000007
 30
0.0
 11
39.25
 21
0.0000000000000071
 31
0.0
  0
LINE
  5
12C
330
1E
100
AcDbEntity
  8
0
100
AcDbLine
 10
38.79999999999999
 20
0.0000000000000072
 30
0.0
 11
39.25
 21
0.0000000000000071
 31
0.0
  0
LINE
  5
12D
330
1E
100
AcDbEntity
  8
0
100
AcDbLine
 10
38.79999999999999
 20
0.0000000000000079
 30
0.0
 11
39.25
 21
0.000000000000008
 31
0.0
  0
LINE
  5
12E
330
1E
100
AcDbEntity
  8
0
100
AcDbLine
 10
38.79999999999999
 20
0.000000000000008
 30
0.0
 11
39.25
 21
0.000000000000008
 31
0.0
  0
LINE
  5
12F
330
1E
100
AcDbEntity
  8
0
100
AcDbLine
 10
37.75
 20
0.0000000000000088
 30
0.0
 11
38.79999999999999
 21
0.0000000000000088
 31
0.0
  0
LINE
  5
130
330
1E
100
AcDbEntity
  8
0
100
AcDbLine
 10
38.79999999999999
 20
0.0000000000000088
 30
0.0
 11
39.25
 21
0.0000000000000089
 31
0.0
  0
LINE
  5
131
330
1E
100
AcDbEntity
  8
0
100
AcDbLine
 10
38.79999999999999
 20
0.0000000000000089
 30
0.0
 11
39.25
 21
0.0000000000000089
 31
0.0
  0
LINE
  5
132
330
1E
100
AcDbEntity
  8
0
100
AcDbLine
 10
37.75
 20
0.000000000000009
 30
0.0
 11
38.79999999999999
 21
0.0000000000000089
 31
0.0
  0
LINE
  5
133
330
1E
100
AcDbEntity
  8
0
100
AcDbLine
 10
36.7
 20
0.0000000000000089
 30
0.0
 11
37.75
 21
0.000000000000009
 31
0.0
  0
LINE
  5
134
330
1E
100
AcDbEntity
  8
0
100
AcDbLine
 10
36.25
 20
0.0000000000000089
 30
0.0
 11
36.7
 21
0.0000000000000089
 31
0.0
  0
LINE
  5
135
330
1E
100
AcDbEntity
  8
0
100
AcDbLine
 10
36.25
 20
0.0000000000000089
 30
0.0
 11
36.7
 21
0.0000000000000088
 31
0.0
  0
LINE
  5
136
330
1E
100
AcDbEntity
  8
0
100
AcDbLine
 10
36.25
 20
0.0000000000000089
 30
0.0
 11
36.25
 21
1.50000000000001
 31
0.0
  0
LINE
  5
137
330
1E
100
AcDbEntity
  8
0
100
AcDbLine
 10
36.7
 20
0.0000000000000097
 30
0.0
 11
37.75
 21
0.0000000000000097
 31
0.0
  0
LINE
  5
138
330
1E
100
AcDbEntity
  8
0
100
AcDbLine
 10
37.75
 20
0.0000000000000097
 30
0.0
 11
38.79999999999999
 21
0.0000000000000097
 31
0.0
  0
LINE
  5
139
330
1E
100
AcDbEntity
  8
0
100
AcDbLine
 10
39.25
 20
0.0000000000000098
 30
0.0
 11
39.25
 21
1.50000000000001
 31
0.0
  0
LINE
  5
13A
330
1E
100
AcDbEntity
  8
0
100
AcDbLine
 10
38.79999999999999
 20
0.0000000000000097
 30
0.0
 11
39.25
 21
0.0000000000000098
 31
0.0
  0
LINE
  5
13B
330
1E
100
AcDbEntity
  8
0
100
AcDbLine
 10
38.79999999999999
 20
0.0000000000000098
 30
0.0
 11
39.25
 21
0.0000000000000098
 31
0.0
  0
LINE
  5
13C
330
1E
100
AcDbEntity
  8
0
100
AcDbLine
 10
38.79999999999999
 20
0.0000000000000098
 30
0.0
 11
38.79999999999999
 21
1.50000000000001
 31
0.0
  0
LINE
  5
13D
330
1E
100
AcDbEntity
  8
0
100
AcDbLine
 10
37.75
 20
0.0000000000000098
 30
0.0
 11
38.79999999999999
 21
0.0000000000000098
 31
0.0
  0
LINE
  5
13E
330
1E
100
AcDbEntity
  8
0
100
AcDbLine
 10
37.75
 20
0.0000000000000098
 30
0.0
 11
37.75
 21
1.50000000000001
 31
0.0
  0
LINE
  5
13F
330
1E
100
AcDbEntity
  8
0
100
AcDbLine
 10
36.7
 20
0.0000000000000098
 30
0.0
 11
37.75
 21
0.0000000000000098
 31
0.0
  0
LINE
  5
140
330
1E
100
AcDbEntity
  8
0
100
AcDbLine
 10
36.7
 20
0.0000000000000098
 30
0.0
 11
36.7
 21
1.50000000000001
 31
0.0
  0
LINE
  5
141
330
1E
100
AcDbEntity
  8
0
100
AcDbLine
 10
36.25
 20
0.0000000000000098
 30
0.0
 11
36.7
 21
0.0000000000000098
 31
0.0
  0
LINE
  5
142
330
1E
100
AcDbEntity
  8
0
100
AcDbLine
 10
36.25
 20
0.0000000000000098
 30
0.0
 11
36.7
 21
0.0000000000000097
 31
0.0
  0
LINE
  5
143
330
1E
100
AcDbEntity
  8
0
100
AcDbLine
 10
36.25
 20
0.0000000000000098
 30
0.0
 11
36.25
 21
1.50000000000001
 31
0.0
  0
LINE
  5
144
330
1E
100
AcDbEntity
  8
0
100
AcDbLine
 10
39.25
 20
1.5
 30
0.0
 11
49.75
 21
1.5
 31
0.0
  0
LINE
  5
145
330
1E
100
AcDbEntity
  8
0
100
AcDbLine
 10
25.75
 20
1.5
 30
0.0
 11
36.25
 21
1.5
 31
0.0
  0
LINE
  5
146
330
1E
100
AcDbEntity
  8
0
100
AcDbLine
 10
12.25
 20
1.5
 30
0.0
 11
22.74999999999999
 21
1.5
 31
0.0
  0
LINE
  5
147
330
1E
100
AcDbEntity
  8
0
100
AcDbLine
 10
6.387199999999999
 20
1.5
 30
0.0
 11
7.90667
 21
1.5
 31
0.0
  0
LINE
  5
148
330
1E
100
AcDbEntity
  8
0
100
AcDbLine
 10
12.25
 20
1.5
 30
0.0
 11
22.74999999999999
 21
1.5
 31
0.0
  0
LINE
  5
149
330
1E
100
AcDbEntity
  8
0
100
AcDbLine
 10
49.75
 20
0.0000000000000027
 30
0.0
 11
50.2
 21
0.0000000000000026
 31
0.0
  0
LINE
  5
14A
330
1E
100
AcDbEntity
  8
0
100
AcDbLine
 10
49.75
 20
0.0000000000000027
 30
0.0
 11
50.2
 21
0.0000000000000027
 31
0.0
  0
LINE
  5
14B
330
1E
100
AcDbEntity
  8
0
100
AcDbLine
 10
49.75
 20
0.0000000000000027
 30
0.0
 11
49.75
 21
1.50000000000001
 31
0.0
  0
LINE
  5
14C
330
1E
100
AcDbEntity
  8
0
100
AcDbLine
 10
49.75
 20
0.0000000000000053
 30
0.0
 11
50.2
 21
0.0000000000000052
 31
0.0
  0
LINE
  5
14D
330
1E
100
AcDbEntity
  8
0
100
AcDbLine
 10
49.75
 20
0.0000000000000053
 30
0.0
 11
50.2
 21
0.0000000000000054
 31
0.0
  0
LINE
  5
14E
330
1E
100
AcDbEntity
  8
0
100
AcDbLine
 10
49.75
 20
0.0000000000000053
 30
0.0
 11
49.75
 21
1.50000000000001
 31
0.0
  0
LINE
  5
14F
330
1E
100
AcDbEntity
  8
0
100
AcDbLine
 10
49.75
 20
0.0000000000000044
 30
0.0
 11
50.2
 21
0.0000000000000044
 31
0.0
  0
LINE
  5
150
330
1E
100
AcDbEntity
  8
0
100
AcDbLine
 10
49.75
 20
0.0000000000000044
 30
0.0
 11
50.2
 21
0.0000000000000045
 31
0.0
  0
LINE
  5
151
330
1E
100
AcDbEntity
  8
0
100
AcDbLine
 10
49.75
 20
0.0000000000000044
 30
0.0
 11
49.75
 21
1.50000000000001
 31
0.0
  0
LINE
  5
152
330
1E
100
AcDbEntity
  8
0
100
AcDbLine
 10
49.75
 20
0.0000000000000035
 30
0.0
 11
50.2
 21
0.0000000000000035
 31
0.0
  0
LINE
  5
153
330
1E
100
AcDbEntity
  8
0
100
AcDbLine
 10
49.75
 20
0.0000000000000035
 30
0.0
 11
50.2
 21
0.0000000000000036
 31
0.0
  0
LINE
  5
154
330
1E
100
AcDbEntity
  8
0
100
AcDbLine
 10
49.75
 20
0.0000000000000035
 30
0.0
 11
49.75
 21
1.50000000000001
 31
0.0
  0
LINE
  5
155
330
1E
100
AcDbEntity
  8
0
100
AcDbLine
 10
49.75
 20
0.0000000000000018
 30
0.0
 11
50.2
 21
0.0000000000000017
 31
0.0
  0
LINE
  5
156
330
1E
100
AcDbEntity
  8
0
100
AcDbLine
 10
49.75
 20
0.0000000000000018
 30
0.0
 11
50.2
 21
0.0000000000000018
 31
0.0
  0
LINE
  5
157
330
1E
100
AcDbEntity
  8
0
100
AcDbLine
 10
49.75
 20
0.0000000000000018
 30
0.0
 11
49.75
 21
1.50000000000001
 31
0.0
  0
LINE
  5
158
330
1E
100
AcDbEntity
  8
0
100
AcDbLine
 10
49.75
 20
0.0000000000000062
 30
0.0
 11
50.2
 21
0.0000000000000063
 31
0.0
  0
LINE
  5
159
330
1E
100
AcDbEntity
  8
0
100
AcDbLine
 10
49.75
 20
0.0000000000000062
 30
0.0
 11
50.2
 21
0.0000000000000061
 31
0.0
  0
LINE
  5
15A
330
1E
100
AcDbEntity
  8
0
100
AcDbLine
 10
49.75
 20
0.0000000000000062
 30
0.0
 11
49.75
 21
1.50000000000001
 31
0.0
  0
LINE
  5
15B
330
1E
100
AcDbEntity
  8
0
100
AcDbLine
 10
49.75
 20
0.0000000000000071
 30
0.0
 11
50.2
 21
0.0000000000000072
 31
0.0
  0
LINE
  5
15C
330
1E
100
AcDbEntity
  8
0
100
AcDbLine
 10
49.75
 20
0.0000000000000071
 30
0.0
 11
50.2
 21
0.000000000000007
 31
0.0
  0
LINE
  5
15D
330
1E
100
AcDbEntity
  8
0
100
AcDbLine
 10
49.75
 20
0.0000000000000071
 30
0.0
 11
49.75
 21
1.50000000000001
 31
0.0
  0
LINE
  5
15E
330
1E
100
AcDbEntity
  8
0
100
AcDbLine
 10
49.75
 20
0.000000000000008
 30
0.0
 11
50.2
 21
0.000000000000008
 31
0.0
  0
LINE
  5
15F
330
1E
100
AcDbEntity
  8
0
100
AcDbLine
 10
49.75
 20
0.000000000000008
 30
0.0
 11
50.2
 21
0.0000000000000079
 31
0.0
  0
LINE
  5
160
330
1E
100
AcDbEntity
  8
0
100
AcDbLine
 10
49.75
 20
0.000000000000008
 30
0.0
 11
49.75
 21
1.50000000000001
 31
0.0
  0
LINE
  5
161
330
1E
100
AcDbEntity
  8
0
100
AcDbLine
 10
50.2
 20
0.0000000000000027
 30
0.0
 11
51.25
 21
0.0000000000000027
 31
0.0
  0
LINE
  5
162
330
1E
100
AcDbEntity
  8
0
100
AcDbLine
 10
50.2
 20
0.0000000000000026
 30
0.0
 11
51.25
 21
0.0000000000000026
 31
0.0
  0
LINE
  5
163
330
1E
100
AcDbEntity
  8
0
100
AcDbLine
 10
50.2
 20
0.0000000000000054
 30
0.0
 11
51.25
 21
0.0000000000000054
 31
0.0
  0
LINE
  5
164
330
1E
100
AcDbEntity
  8
0
100
AcDbLine
 10
50.2
 20
0.0000000000000052
 30
0.0
 11
51.25
 21
0.0000000000000052
 31
0.0
  0
LINE
  5
165
330
1E
100
AcDbEntity
  8
0
100
AcDbLine
 10
50.2
 20
0.0000000000000045
 30
0.0
 11
51.25
 21
0.0000000000000045
 31
0.0
  0
LINE
  5
166
330
1E
100
AcDbEntity
  8
0
100
AcDbLine
 10
50.2
 20
0.0000000000000044
 30
0.0
 11
51.25
 21
0.0000000000000043
 31
0.0
  0
LINE
  5
167
330
1E
100
AcDbEntity
  8
0
100
AcDbLine
 10
50.2
 20
0.0000000000000036
 30
0.0
 11
51.25
 21
0.0000000000000036
 31
0.0
  0
LINE
  5
168
330
1E
100
AcDbEntity
  8
0
100
AcDbLine
 10
50.2
 20
0.0000000000000035
 30
0.0
 11
51.25
 21
0.0000000000000034
 31
0.0
  0
LINE
  5
169
330
1E
100
AcDbEntity
  8
0
100
AcDbLine
 10
50.2
 20
0.0000000000000018
 30
0.0
 11
51.25
 21
0.0000000000000019
 31
0.0
  0
LINE
  5
16A
330
1E
100
AcDbEntity
  8
0
100
AcDbLine
 10
50.2
 20
0.0000000000000017
 30
0.0
 11
51.25
 21
0.0000000000000017
 31
0.0
  0
LINE
  5
16B
330
1E
100
AcDbEntity
  8
0
100
AcDbLine
 10
50.2
 20
0.0000000000000061
 30
0.0
 11
51.25
 21
0.0000000000000061
 31
0.0
  0
LINE
  5
16C
330
1E
100
AcDbEntity
  8
0
100
AcDbLine
 10
50.2
 20
0.0000000000000063
 30
0.0
 11
51.25
 21
0.0000000000000063
 31
0.0
  0
LINE
  5
16D
330
1E
100
AcDbEntity
  8
0
100
AcDbLine
 10
50.2
 20
0.000000000000007
 30
0.0
 11
51.25
 21
0.000000000000007
 31
0.0
  0
LINE
  5
16E
330
1E
100
AcDbEntity
  8
0
100
AcDbLine
 10
50.2
 20
0.0000000000000072
 30
0.0
 11
51.25
 21
0.0000000000000072
 31
0.0
  0
LINE
  5
16F
330
1E
100
AcDbEntity
  8
0
100
AcDbLine
 10
50.2
 20
0.0000000000000079
 30
0.0
 11
51.25
 21
0.0000000000000079
 31
0.0
  0
LINE
  5
170
330
1E
100
AcDbEntity
  8
0
100
AcDbLine
 10
51.25
 20
0.0000000000000026
 30
0.0
 11
52.3
 21
0.0000000000000026
 31
0.0
  0
LINE
  5
171
330
1E
100
AcDbEntity
  8
0
100
AcDbLine
 10
51.25
 20
0.0000000000000027
 30
0.0
 11
52.3
 21
0.0000000000000027
 31
0.0
  0
LINE
  5
172
330
1E
100
AcDbEntity
  8
0
100
AcDbLine
 10
51.25
 20
0.0000000000000054
 30
0.0
 11
52.3
 21
0.0000000000000054
 31
0.0
  0
LINE
  5
173
330
1E
100
AcDbEntity
  8
0
100
AcDbLine
 10
51.25
 20
0.0000000000000052
 30
0.0
 11
52.3
 21
0.0000000000000052
 31
0.0
  0
LINE
  5
174
330
1E
100
AcDbEntity
  8
0
100
AcDbLine
 10
51.25
 20
0.0000000000000045
 30
0.0
 11
52.3
 21
0.0000000000000045
 31
0.0
  0
LINE
  5
175
330
1E
100
AcDbEntity
  8
0
100
AcDbLine
 10
51.25
 20
0.0000000000000043
 30
0.0
 11
52.3
 21
0.0000000000000044
 31
0.0
  0
LINE
  5
176
330
1E
100
AcDbEntity
  8
0
100
AcDbLine
 10
51.25
 20
0.0000000000000036
 30
0.0
 11
52.3
 21
0.0000000000000036
 31
0.0
  0
LINE
  5
177
330
1E
100
AcDbEntity
  8
0
100
AcDbLine
 10
51.25
 20
0.0000000000000034
 30
0.0
 11
52.3
 21
0.0000000000000035
 31
0.0
  0
LINE
  5
178
330
1E
100
AcDbEntity
  8
0
100
AcDbLine
 10
51.25
 20
0.0000000000000019
 30
0.0
 11
52.3
 21
0.0000000000000018
 31
0.0
  0
LINE
  5
179
330
1E
100
AcDbEntity
  8
0
100
AcDbLine
 10
51.25
 20
0.0000000000000017
 30
0.0
 11
52.3
 21
0.0000000000000017
 31
0.0
  0
LINE
  5
17A
330
1E
100
AcDbEntity
  8
0
100
AcDbLine
 10
51.25
 20
0.0000000000000061
 30
0.0
 11
52.3
 21
0.0000000000000061
 31
0.0
  0
LINE
  5
17B
330
1E
100
AcDbEntity
  8
0
100
AcDbLine
 10
51.25
 20
0.0000000000000063
 30
0.0
 11
52.3
 21
0.0000000000000063
 31
0.0
  0
LINE
  5
17C
330
1E
100
AcDbEntity
  8
0
100
AcDbLine
 10
51.25
 20
0.000000000000007
 30
0.0
 11
52.3
 21
0.000000000000007
 31
0.0
  0
LINE
  5
17D
330
1E
100
AcDbEntity
  8
0
100
AcDbLine
 10
51.25
 20
0.0000000000000072
 30
0.0
 11
52.3
 21
0.0000000000000072
 31
0.0
  0
LINE
  5
17E
330
1E
100
AcDbEntity
  8
0
100
AcDbLine
 10
51.25
 20
0.0000000000000079
 30
0.0
 11
52.3
 21
0.0000000000000079
 31
0.0
  0
LINE
  5
17F
330
1E
100
AcDbEntity
  8
0
100
AcDbLine
 10
51.25
 20
0.0000000000000081
 30
0.0
 11
52.3
 21
0.000000000000008
 31
0.0
  0
LINE
  5
180
330
1E
100
AcDbEntity
  8
0
100
AcDbLine
 10
50.2
 20
0.000000000000008
 30
0.0
 11
51.25
 21
0.0000000000000081
 31
0.0
  0
LINE
  5
181
330
1E
100
AcDbEntity
  8
0
100
AcDbLine
 10
50.2
 20
0.0000000000000088
 30
0.0
 11
51.25
 21
0.0000000000000088
 31
0.0
  0
LINE
  5
182
330
1E
100
AcDbEntity
  8
0
100
AcDbLine
 10
52.3
 20
0.0000000000000026
 30
0.0
 11
52.75
 21
0.0000000000000027
 31
0.0
  0
LINE
  5
183
330
1E
100
AcDbEntity
  8
0
100
AcDbLine
 10
52.3
 20
0.0000000000000027
 30
0.0
 11
52.75
 21
0.0000000000000027
 31
0.0
  0
LINE
  5
184
330
1E
100
AcDbEntity
  8
0
100
AcDbLine
 10
52.3
 20
0.0000000000000054
 30
0.0
 11
52.75
 21
0.0000000000000053
 31
0.0
  0
LINE
  5
185
330
1E
100
AcDbEntity
  8
0
100
AcDbLine
 10
52.3
 20
0.0000000000000052
 30
0.0
 11
52.75
 21
0.0000000000000053
 31
0.0
  0
LINE
  5
186
330
1E
100
AcDbEntity
  8
0
100
AcDbLine
 10
52.3
 20
0.0000000000000045
 30
0.0
 11
52.75
 21
0.0000000000000044
 31
0.0
  0
LINE
  5
187
330
1E
100
AcDbEntity
  8
0
100
AcDbLine
 10
52.3
 20
0.0000000000000044
 30
0.0
 11
52.75
 21
0.0000000000000044
 31
0.0
  0
LINE
  5
188
330
1E
100
AcDbEntity
  8
0
100
AcDbLine
 10
52.3
 20
0.0000000000000036
 30
0.0
 11
52.75
 21
0.0000000000000035
 31
0.0
  0
LINE
  5
189
330
1E
100
AcDbEntity
  8
0
100
AcDbLine
 10
52.3
 20
0.0000000000000035
 30
0.0
 11
52.75
 21
0.0000000000000035
 31
0.0
  0
LINE
  5
18A
330
1E
100
AcDbEntity
  8
0
100
AcDbLine
 10
52.3
 20
0.0000000000000018
 30
0.0
 11
52.75
 21
0.0000000000000018
 31
0.0
  0
LINE
  5
18B
330
1E
100
AcDbEntity
  8
0
100
AcDbLine
 10
52.3
 20
0.0000000000000017
 30
0.0
 11
52.75
 21
0.0000000000000018
 31
0.0
  0
LINE
  5
18C
330
1E
100
AcDbEntity
  8
0
100
AcDbLine
 10
52.3
 20
0.0000000000000061
 30
0.0
 11
52.75
 21
0.0000000000000062
 31
0.0
  0
LINE
  5
18D
330
1E
100
AcDbEntity
  8
0
100
AcDbLine
 10
52.3
 20
0.0000000000000063
 30
0.0
 11
52.75
 21
0.0000000000000062
 31
0.0
  0
LINE
  5
18E
330
1E
100
AcDbEntity
  8
0
100
AcDbLine
 10
52.3
 20
0.000000000000007
 30
0.0
 11
52.75
 21
0.0000000000000071
 31
0.0
  0
LINE
  5
18F
330
1E
100
AcDbEntity
  8
0
100
AcDbLine
 10
52.3
 20
0.0000000000000072
 30
0.0
 11
52.75
 21
0.0000000000000071
 31
0.0
  0
LINE
  5
190
330
1E
100
AcDbEntity
  8
0
100
AcDbLine
 10
52.3
 20
0.0000000000000079
 30
0.0
 11
52.75
 21
0.000000000000008
 31
0.0
  0
LINE
  5
191
330
1E
100
AcDbEntity
  8
0
100
AcDbLine
 10
52.3
 20
0.000000000000008
 30
0.0
 11
52.75
 21
0.000000000000008
 31
0.0
  0
LINE
  5
192
330
1E
100
AcDbEntity
  8
0
100
AcDbLine
 10
51.25
 20
0.0000000000000088
 30
0.0
 11
52.3
 21
0.0000000000000088
 31
0.0
  0
LINE
  5
193
330
1E
100
AcDbEntity
  8
0
100
AcDbLine
 10
52.3
 20
0.0000000000000088
 30
0.0
 11
52.75
 21
0.0000000000000089
 31
0.0
  0
LINE
  5
194
330
1E
100
AcDbEntity
  8
0
100
AcDbLine
 10
52.3
 20
0.0000000000000089
 30
0.0
 11
52.75
 21
0.0000000000000089
 31
0.0
  0
LINE
  5
195
330
1E
100
AcDbEntity
  8
0
100
AcDbLine
 10
51.25
 20
0.000000000000009
 30
0.0
 11
52.3
 21
0.0000000000000089
 31
0.0
  0
LINE
  5
196
330
1E
100
AcDbEntity
  8
0
100
AcDbLine
 10
50.2
 20
0.0000000000000089
 30
0.0
 11
51.25
 21
0.000000000000009
 31
0.0
  0
LINE
  5
197
330
1E
100
AcDbEntity
  8
0
100
AcDbLine
 10
49.75
 20
0.0000000000000089
 30
0.0
 11
50.2
 21
0.0000000000000089
 31
0.0
  0
LINE
  5
198
330
1E
100
AcDbEntity
  8
0
100
AcDbLine
 10
49.75
 20
0.0000000000000089
 30
0.0
 11
50.2
 21
0.0000000000000088
 31
0.0
  0
LINE
  5
199
330
1E
100
AcDbEntity
  8
0
100
AcDbLine
 10
49.75
 20
0.0000000000000089
 30
0.0
 11
49.75
 21
1.50000000000001
 31
0.0
  0
LINE
  5
19A
330
1E
100
AcDbEntity
  8
0
100
AcDbLine
 10
50.2
 20
0.0000000000000097
 30
0.0
 11
51.25
 21
0.0000000000000097
 31
0.0
  0
LINE
  5
19B
330
1E
100
AcDbEntity
  8
0
100
AcDbLine
 10
51.25
 20
0.0000000000000097
 30
0.0
 11
52.3
 21
0.0000000000000097
 31
0.0
  0
LINE
  5
19C
330
1E
100
AcDbEntity
  8
0
100
AcDbLine
 10
52.75
 20
0.0000000000000098
 30
0.0
 11
52.75
 21
1.50000000000001
 31
0.0
  0
LINE
  5
19D
330
1E
100
AcDbEntity
  8
0
100
AcDbLine
 10
52.3
 20
0.0000000000000097
 30
0.0
 11
52.75
 21
0.0000000000000098
 31
0.0
  0
LINE
  5
19E
330
1E
100
AcDbEntity
  8
0
100
AcDbLine
 10
52.3
 20
0.0000000000000098
 30
0.0
 11
52.75
 21
0.0000000000000098
 31
0.0
  0
LINE
  5
19F
330
1E
100
AcDbEntity
  8
0
100
AcDbLine
 10
52.3
 20
0.0000000000000098
 30
0.0
 11
52.3
 21
1.50000000000001
 31
0.0
  0
LINE
  5
1A0
330
1E
100
AcDbEntity
  8
0
100
AcDbLine
 10
51.25
 20
0.0000000000000098
 30
0.0
 11
52.3
 21
0.0000000000000098
 31
0.0
  0
LINE
  5
1A1
330
1E
100
AcDbEntity
  8
0
100
AcDbLine
 10
51.25
 20
0.0000000000000098
 30
0.0
 11
51.25
 21
1.50000000000001
 31
0.0
  0
LINE
  5
1A2
330
1E
100
AcDbEntity
  8
0
100
AcDbLine
 10
50.2
 20
0.0000000000000098
 30
0.0
 11
51.25
 21
0.0000000000000098
 31
0.0
  0
LINE
  5
1A3
330
1E
100
AcDbEntity
  8
0
100
AcDbLine
 10
50.2
 20
0.0000000000000098
 30
0.0
 11
50.2
 21
1.50000000000001
 31
0.0
  0
LINE
  5
1A4
330
1E
100
AcDbEntity
  8
0
100
AcDbLine
 10
49.75
 20
0.0000000000000098
 30
0.0
 11
50.2
 21
0.0000000000000098
 31
0.0
  0
LINE
  5
1A5
330
1E
100
AcDbEntity
  8
0
100
AcDbLine
 10
49.75
 20
0.0000000000000098
 30
0.0
 11
50.2
 21
0.0000000000000097
 31
0.0
  0
LINE
  5
1A6
330
1E
100
AcDbEntity
  8
0
100
AcDbLine
 10
49.75
 20
0.0000000000000098
 30
0.0
 11
49.75
 21
1.50000000000001
 31
0.0
  0
LINE
  5
1A7
330
1E
100
AcDbEntity
  8
0
100
AcDbLine
 10
63.25
 20
0.0000000000000027
 30
0.0
 11
63.7
 21
0.0000000000000026
 31
0.0
  0
LINE
  5
1A8
330
1E
100
AcDbEntity
  8
0
100
AcDbLine
 10
63.25
 20
0.0000000000000027
 30
0.0
 11
63.7
 21
0.0000000000000027
 31
0.0
  0
LINE
  5
1A9
330
1E
100
AcDbEntity
  8
0
100
AcDbLine
 10
63.25
 20
0.0000000000000027
 30
0.0
 11
63.25
 21
1.50000000000001
 31
0.0
  0
LINE
  5
1AA
330
1E
100
AcDbEntity
  8
0
100
AcDbLine
 10
63.25
 20
0.0000000000000053
 30
0.0
 11
63.7
 21
0.0000000000000052
 31
0.0
  0
LINE
  5
1AB
330
1E
100
AcDbEntity
  8
0
100
AcDbLine
 10
63.25
 20
0.0000000000000053
 30
0.0
 11
63.7
 21
0.0000000000000054
 31
0.0
  0
LINE
  5
1AC
330
1E
100
AcDbEntity
  8
0
100
AcDbLine
 10
63.25
 20
0.0000000000000053
 30
0.0
 11
63.25
 21
1.50000000000001
 31
0.0
  0
LINE
  5
1AD
330
1E
100
AcDbEntity
  8
0
100
AcDbLine
 10
63.25
 20
0.0000000000000044
 30
0.0
 11
63.7
 21
0.0000000000000044
 31
0.0
  0
LINE
  5
1AE
330
1E
100
AcDbEntity
  8
0
100
AcDbLine
 10
63.25
 20
0.0000000000000044
 30
0.0
 11
63.7
 21
0.0000000000000045
 31
0.0
  0
LINE
  5
1AF
330
1E
100
AcDbEntity
  8
0
100
AcDbLine
 10
63.25
 20
0.0000000000000044
 30
0.0
 11
63.25
 21
1.50000000000001
 31
0.0
  0
LINE
  5
1B0
330
1E
100
AcDbEntity
  8
0
100
AcDbLine
 10
63.25
 20
0.0000000000000035
 30
0.0
 11
63.7
 21
0.0000000000000035
 31
0.0
  0
LINE
  5
1B1
330
1E
100
AcDbEntity
  8
0
100
AcDbLine
 10
63.25
 20
0.0000000000000035
 30
0.0
 11
63.7
 21
0.0000000000000036
 31
0.0
  0
LINE
  5
1B2
330
1E
100
AcDbEntity
  8
0
100
AcDbLine
 10
63.25
 20
0.0000000000000035
 30
0.0
 11
63.25
 21
1.50000000000001
 31
0.0
  0
LINE
  5
1B3
330
1E
100
AcDbEntity
  8
0
100
AcDbLine
 10
63.25
 20
0.0000000000000018
 30
0.0
 11
63.7
 21
0.0000000000000017
 31
0.0
  0
LINE
  5
1B4
330
1E
100
AcDbEntity
  8
0
100
AcDbLine
 10
63.25
 20
0.0000000000000018
 30
0.0
 11
63.7
 21
0.0000000000000018
 31
0.0
  0
LINE
  5
1B5
330
1E
100
AcDbEntity
  8
0
100
AcDbLine
 10
63.25
 20
0.0000000000000018
 30
0.0
 11
63.25
 21
1.50000000000001
 31
0.0
  0
LINE
  5
1B6
330
1E
100
AcDbEntity
  8
0
100
AcDbLine
 10
63.25
 20
0.0000000000000062
 30
0.0
 11
63.7
 21
0.0000000000000063
 31
0.0
  0
LINE
  5
1B7
330
1E
100
AcDbEntity
  8
0
100
AcDbLine
 10
63.25
 20
0.0000000000000062
 30
0.0
 11
63.7
 21
0.0000000000000061
 31
0.0
  0
LINE
  5
1B8
330
1E
100
AcDbEntity
  8
0
100
AcDbLine
 10
63.25
 20
0.0000000000000062
 30
0.0
 11
63.25
 21
1.50000000000001
 31
0.0
  0
LINE
  5
1B9
330
1E
100
AcDbEntity
  8
0
100
AcDbLine
 10
63.25
 20
0.0000000000000071
 30
0.0
 11
63.7
 21
0.0000000000000072
 31
0.0
  0
LINE
  5
1BA
330
1E
100
AcDbEntity
  8
0
100
AcDbLine
 10
63.25
 20
0.0000000000000071
 30
0.0
 11
63.7
 21
0.000000000000007
 31
0.0
  0
LINE
  5
1BB
330
1E
100
AcDbEntity
  8
0
100
AcDbLine
 10
63.25
 20
0.0000000000000071
 30
0.0
 11
63.25
 21
1.50000000000001
 31
0.0
  0
LINE
  5
1BC
330
1E
100
AcDbEntity
  8
0
100
AcDbLine
 10
63.25
 20
0.000000000000008
 30
0.0
 11
63.7
 21
0.000000000000008
 31
0.0
  0
LINE
  5
1BD
330
1E
100
AcDbEntity
  8
0
100
AcDbLine
 10
63.25
 20
0.000000000000008
 30
0.0
 11
63.7
 21
0.0000000000000079
 31
0.0
  0
LINE
  5
1BE
330
1E
100
AcDbEntity
  8
0
100
AcDbLine
 10
63.25
 20
0.000000000000008
 30
0.0
 11
63.25
 21
1.50000000000001
 31
0.0
  0
LINE
  5
1BF
330
1E
100
AcDbEntity
  8
0
100
AcDbLine
 10
63.7
 20
0.0000000000000027
 30
0.0
 11
64.75
 21
0.0000000000000027
 31
0.0
  0
LINE
  5
1C0
330
1E
100
AcDbEntity
  8
0
100
AcDbLine
 10
63.7
 20
0.0000000000000026
 30
0.0
 11
64.75
 21
0.0000000000000026
 31
0.0
  0
LINE
  5
1C1
330
1E
100
AcDbEntity
  8
0
100
AcDbLine
 10
63.7
 20
0.0000000000000054
 30
0.0
 11
64.75
 21
0.0000000000000054
 31
0.0
  0
LINE
  5
1C2
330
1E
100
AcDbEntity
  8
0
100
AcDbLine
 10
63.7
 20
0.0000000000000052
 30
0.0
 11
64.75
 21
0.0000000000000052
 31
0.0
  0
LINE
  5
1C3
330
1E
100
AcDbEntity
  8
0
100
AcDbLine
 10
63.7
 20
0.0000000000000045
 30
0.0
 11
64.75
 21
0.0000000000000045
 31
0.0
  0
LINE
  5
1C4
330
1E
100
AcDbEntity
  8
0
100
AcDbLine
 10
63.7
 20
0.0000000000000044
 30
0.0
 11
64.75
 21
0.0000000000000043
 31
0.0
  0
LINE
  5
1C5
330
1E
100
AcDbEntity
  8
0
100
AcDbLine
 10
63.7
 20
0.0000000000000036
 30
0.0
 11
64.75
 21
0.0000000000000036
 31
0.0
  0
LINE
  5
1C6
330
1E
100
AcDbEntity
  8
0
100
AcDbLine
 10
63.7
 20
0.0000000000000035
 30
0.0
 11
64.75
 21
0.0000000000000034
 31
0.0
  0
LINE
  5
1C7
330
1E
100
AcDbEntity
  8
0
100
AcDbLine
 10
63.7
 20
0.0000000000000018
 30
0.0
 11
64.75
 21
0.0000000000000019
 31
0.0
  0
LINE
  5
1C8
330
1E
100
AcDbEntity
  8
0
100
AcDbLine
 10
63.7
 20
0.0000000000000017
 30
0.0
 11
64.75
 21
0.0000000000000017
 31
0.0
  0
LINE
  5
1C9
330
1E
100
AcDbEntity
  8
0
100
AcDbLine
 10
63.7
 20
0.0000000000000061
 30
0.0
 11
64.75
 21
0.0000000000000061
 31
0.0
  0
LINE
  5
1CA
330
1E
100
AcDbEntity
  8
0
100
AcDbLine
 10
63.7
 20
0.0000000000000063
 30
0.0
 11
64.75
 21
0.0000000000000063
 31
0.0
  0
LINE
  5
1CB
330
1E
100
AcDbEntity
  8
0
100
AcDbLine
 10
63.7
 20
0.000000000000007
 30
0.0
 11
64.75
 21
0.000000000000007
 31
0.0
  0
LINE
  5
1CC
330
1E
100
AcDbEntity
  8
0
100
AcDbLine
 10
63.7
 20
0.0000000000000072
 30
0.0
 11
64.75
 21
0.0000000000000072
 31
0.0
  0
LINE
  5
1CD
330
1E
100
AcDbEntity
  8
0
100
AcDbLine
 10
63.7
 20
0.0000000000000079
 30
0.0
 11
64.75
 21
0.0000000000000079
 31
0.0
  0
LINE
  5
1CE
330
1E
100
AcDbEntity
  8
0
100
AcDbLine
 10
64.75
 20
0.0000000000000026
 30
0.0
 11
65.8
 21
0.0000000000000026
 31
0.0
  0
LINE
  5
1CF
330
1E
100
AcDbEntity
  8
0
100
AcDbLine
 10
64.75
 20
0.0000000000000027
 30
0.0
 11
65.8
 21
0.0000000000000027
 31
0.0
  0
LINE
  5
1D0
330
1E
100
AcDbEntity
  8
0
100
AcDbLine
 10
64.75
 20
0.0000000000000054
 30
0.0
 11
65.8
 21
0.0000000000000054
 31
0.0
  0
LINE
  5
1D1
330
1E
100
AcDbEntity
  8
0
100
AcDbLine
 10
64.75
 20
0.0000000000000052
 30
0.0
 11
65.8
 21
0.0000000000000052
 31
0.0
  0
LINE
  5
1D2
330
1E
100
AcDbEntity
  8
0
100
AcDbLine
 10
64.75
 20
0.0000000000000045
 30
0.0
 11
65.8
 21
0.0000000000000045
 31
0.0
  0
LINE
  5
1D3
330
1E
100
AcDbEntity
  8
0
100
AcDbLine
 10
64.75
 20
0.0000000000000043
 30
0.0
 11
65.8
 21
0.0000000000000044
 31
0.0
  0
LINE
  5
1D4
330
1E
100
AcDbEntity
  8
0
100
AcDbLine
 10
64.75
 20
0.0000000000000036
 30
0.0
 11
65.8
 21
0.0000000000000036
 31
0.0
  0
LINE
  5
1D5
330
1E
100
AcDbEntity
  8
0
100
AcDbLine
 10
64.75
 20
0.0000000000000034
 30
0.0
 11
65.8
 21
0.0000000000000035
 31
0.0
  0
LINE
  5
1D6
330
1E
100
AcDbEntity
  8
0
100
AcDbLine
 10
64.75
 20
0.0000000000000019
 30
0.0
 11
65.8
 21
0.0000000000000018
 31
0.0
  0
LINE
  5
1D7
330
1E
100
AcDbEntity
  8
0
100
AcDbLine
 10
64.75
 20
0.0000000000000017
 30
0.0
 11
65.8
 21
0.0000000000000017
 31
0.0
  0
LINE
  5
1D8
330
1E
100
AcDbEntity
  8
0
100
AcDbLine
 10
64.75
 20
0.0000000000000061
 30
0.0
 11
65.8
 21
0.0000000000000061
 31
0.0
  0
LINE
  5
1D9
330
1E
100
AcDbEntity
  8
0
100
AcDbLine
 10
64.75
 20
0.0000000000000063
 30
0.0
 11
65.8
 21
0.0000000000000063
 31
0.0
  0
LINE
  5
1DA
330
1E
100
AcDbEntity
  8
0
100
AcDbLine
 10
64.75
 20
0.000000000000007
 30
0.0
 11
65.8
 21
0.000000000000007
 31
0.0
  0
LINE
  5
1DB
330
1E
100
AcDbEntity
  8
0
100
AcDbLine
 10
64.75
 20
0.0000000000000072
 30
0.0
 11
65.8
 21
0.0000000000000072
 31
0.0
  0
LINE
  5
1DC
330
1E
100
AcDbEntity
  8
0
100
AcDbLine
 10
64.75
 20
0.0000000000000079
 30
0.0
 11
65.8
 21
0.0000000000000079
 31
0.0
  0
LINE
  5
1DD
330
1E
100
AcDbEntity
  8
0
100
AcDbLine
 10
64.75
 20
0.0000000000000081
 30
0.0
 11
65.8
 21
0.000000000000008
 31
0.0
  0
LINE
  5
1DE
330
1E
100
AcDbEntity
  8
0
100
AcDbLine
 10
63.7
 20
0.000000000000008
 30
0.0
 11
64.75
 21
0.0000000000000081
 31
0.0
  0
LINE
  5
1DF
330
1E
100
AcDbEntity
  8
0
100
AcDbLine
 10
63.7
 20
0.0000000000000088
 30
0.0
 11
64.75
 21
0.0000000000000088
 31
0.0
  0
LINE
  5
1E0
330
1E
100
AcDbEntity
  8
0
100
AcDbLine
 10
65.8
 20
0.0000000000000026
 30
0.0
 11
66.25
 21
0.0000000000000027
 31
0.0
  0
LINE
  5
1E1
330
1E
100
AcDbEntity
  8
0
100
AcDbLine
 10
65.8
 20
0.0000000000000027
 30
0.0
 11
66.25
 21
0.0000000000000027
 31
0.0
  0
LINE
  5
1E2
330
1E
100
AcDbEntity
  8
0
100
AcDbLine
 10
65.8
 20
0.0000000000000054
 30
0.0
 11
66.25
 21
0.0000000000000053
 31
0.0
  0
LINE
  5
1E3
330
1E
100
AcDbEntity
  8
0
100
AcDbLine
 10
65.8
 20
0.0000000000000052
 30
0.0
 11
66.25
 21
0.0000000000000053
 31
0.0
  0
LINE
  5
1E4
330
1E
100
AcDbEntity
  8
0
100
AcDbLine
 10
65.8
 20
0.0000000000000045
 30
0.0
 11
66.25
 21
0.0000000000000044
 31
0.0
  0
LINE
  5
1E5
330
1E
100
AcDbEntity
  8
0
100
AcDbLine
 10
65.8
 20
0.0000000000000044
 30
0.0
 11
66.25
 21
0.0000000000000044
 31
0.0
  0
LINE
  5
1E6
330
1E
100
AcDbEntity
  8
0
100
AcDbLine
 10
65.8
 20
0.0000000000000036
 30
0.0
 11
66.25
 21
0.0000000000000035
 31
0.0
  0
LINE
  5
1E7
330
1E
100
AcDbEntity
  8
0
100
AcDbLine
 10
65.8
 20
0.0000000000000035
 30
0.0
 11
66.25
 21
0.0000000000000035
 31
0.0
  0
LINE
  5
1E8
330
1E
100
AcDbEntity
  8
0
100
AcDbLine
 10
65.8
 20
0.0000000000000018
 30
0.0
 11
66.25
 21
0.0000000000000018
 31
0.0
  0
LINE
  5
1E9
330
1E
100
AcDbEntity
  8
0
100
AcDbLine
 10
65.8
 20
0.0000000000000017
 30
0.0
 11
66.25
 21
0.0000000000000018
 31
0.0
  0
LINE
  5
1EA
330
1E
100
AcDbEntity
  8
0
100
AcDbLine
 10
65.8
 20
0.0000000000000061
 30
0.0
 11
66.25
 21
0.0000000000000062
 31
0.0
  0
LINE
  5
1EB
330
1E
100
AcDbEntity
  8
0
100
AcDbLine
 10
65.8
 20
0.0000000000000063
 30
0.0
 11
66.25
 21
0.0000000000000062
 31
0.0
  0
LINE
  5
1EC
330
1E
100
AcDbEntity
  8
0
100
AcDbLine
 10
65.8
 20
0.000000000000007
 30
0.0
 11
66.25
 21
0.0000000000000071
 31
0.0
  0
LINE
  5
1ED
330
1E
100
AcDbEntity
  8
0
100
AcDbLine
 10
65.8
 20
0.0000000000000072
 30
0.0
 11
66.25
 21
0.0000000000000071
 31
0.0
  0
LINE
  5
1EE
330
1E
100
AcDbEntity
  8
0
100
AcDbLine
 10
65.8
 20
0.0000000000000079
 30
0.0
 11
66.25
 21
0.000000000000008
 31
0.0
  0
LINE
  5
1EF
330
1E
100
AcDbEntity
  8
0
100
AcDbLine
 10
65.8
 20
0.000000000000008
 30
0.0
 11
66.25
 21
0.000000000000008
 31
0.0
  0
LINE
  5
1F0
330
1E
100
AcDbEntity
  8
0
100
AcDbLine
 10
64.75
 20
0.0000000000000088
 30
0.0
 11
65.8
 21
0.0000000000000088
 31
0.0
  0
LINE
  5
1F1
330
1E
100
AcDbEntity
  8
0
100
AcDbLine
 10
65.8
 20
0.0000000000000088
 30
0.0
 11
66.25
 21
0.0000000000000089
 31
0.0
  0
LINE
  5
1F2
330
1E
100
AcDbEntity
  8
0
100
AcDbLine
 10
65.8
 20
0.0000000000000089
 30
0.0
 11
66.25
 21
0.0000000000000089
 31
0.0
  0
LINE
  5
1F3
330
1E
100
AcDbEntity
  8
0
100
AcDbLine
 10
64.75
 20
0.000000000000009
 30
0.0
 11
65.8
 21
0.0000000000000089
 31
0.0
  0
LINE
  5
1F4
330
1E
100
AcDbEntity
  8
0
100
AcDbLine
 10
63.7
 20
0.0000000000000089
 30
0.0
 11
64.75
 21
0.000000000000009
 31
0.0
  0
LINE
  5
1F5
330
1E
100
AcDbEntity
  8
0
100
AcDbLine
 10
63.25
 20
0.0000000000000089
 30
0.0
 11
63.7
 21
0.0000000000000089
 31
0.0
  0
LINE
  5
1F6
330
1E
100
AcDbEntity
  8
0
100
AcDbLine
 10
63.25
 20
0.0000000000000089
 30
0.0
 11
63.7
 21
0.0000000000000088
 31
0.0
  0
LINE
  5
1F7
330
1E
100
AcDbEntity
  8
0
100
AcDbLine
 10
63.25
 20
0.0000000000000089
 30
0.0
 11
63.25
 21
1.50000000000001
 31
0.0
  0
LINE
  5
1F8
330
1E
100
AcDbEntity
  8
0
100
AcDbLine
 10
63.7
 20
0.0000000000000097
 30
0.0
 11
64.75
 21
0.0000000000000097
 31
0.0
  0
LINE
  5
1F9
330
1E
100
AcDbEntity
  8
0
100
AcDbLine
 10
64.75
 20
0.0000000000000097
 30
0.0
 11
65.8
 21
0.0000000000000097
 31
0.0
  0
LINE
  5
1FA
330
1E
100
AcDbEntity
  8
0
100
AcDbLine
 10
66.25
 20
0.0000000000000098
 30
0.0
 11
66.25
 21
1.50000000000001
 31
0.0
  0
LINE
  5
1FB
330
1E
100
AcDbEntity
  8
0
100
AcDbLine
 10
65.8
 20
0.0000000000000097
 30
0.0
 11
66.25
 21
0.0000000000000098
 31
0.0
  0
LINE
  5
1FC
330
1E
100
AcDbEntity
  8
0
100
AcDbLine
 10
65.8
 20
0.0000000000000098
 30
0.0
 11
66.25
 21
0.0000000000000098
 31
0.0
  0
LINE
  5
1FD
330
1E
100
AcDbEntity
  8
0
100
AcDbLine
 10
65.8
 20
0.0000000000000098
 30
0.0
 11
65.8
 21
1.50000000000001
 31
0.0
  0
LINE
  5
1FE
330
1E
100
AcDbEntity
  8
0
100
AcDbLine
 10
64.75
 20
0.0000000000000098
 30
0.0
 11
65.8
 21
0.0000000000000098
 31
0.0
  0
LINE
  5
1FF
330
1E
100
AcDbEntity
  8
0
100
AcDbLine
 10
64.75
 20
0.0000000000000098
 30
0.0
 11
64.75
 21
1.50000000000001
 31
0.0
  0
LINE
  5
200
330
1E
100
AcDbEntity
  8
0
100
AcDbLine
 10
63.7
 20
0.0000000000000098
 30
0.0
 11
64.75
 21
0.0000000000000098
 31
0.0
  0
LINE
  5
201
330
1E
100
AcDbEntity
  8
0
100
AcDbLine
 10
63.7
 20
0.0000000000000098
 30
0.0
 11
63.7
 21
1.50000000000001
 31
0.0
  0
LINE
  5
202
330
1E
100
AcDbEntity
  8
0
100
AcDbLine
 10
63.25
 20
0.0000000000000098
 30
0.0
 11
63.7
 21
0.0000000000000098
 31
0.0
  0
LINE
  5
203
330
1E
100
AcDbEntity
  8
0
100
AcDbLine
 10
63.25
 20
0.0000000000000098
 30
0.0
 11
63.7
 21
0.0000000000000097
 31
0.0
  0
LINE
  5
204
330
1E
100
AcDbEntity
  8
0
100
AcDbLine
 10
63.25
 20
0.0000000000000098
 30
0.0
 11
63.25
 21
1.50000000000001
 31
0.0
  0
LINE
  5
205
330
1E
100
AcDbEntity
  8
0
100
AcDbLine
 10
52.75
 20
1.5
 30
0.0
 11
63.25
 21
1.5
 31
0.0
  0
LINE
  5
206
330
1E
100
AcDbEntity
  8
0
100
AcDbLine
 10
66.25
 20
1.5
 30
0.0
 11
76.75
 21
1.5
 31
0.0
  0
LINE
  5
207
330
1E
100
AcDbEntity
  8
0
100
AcDbLine
 10
76.75
 20
0.0000000000000018
 30
0.0
 11
77.2
 21
0.0000000000000017
 31
0.0
  0
LINE
  5
208
330
1E
100
AcDbEntity
  8
0
100
AcDbLine
 10
76.75
 20
0.0000000000000018
 30
0.0
 11
77.2
 21
0.0000000000000018
 31
0.0
  0
LINE
  5
209
330
1E
100
AcDbEntity
  8
0
100
AcDbLine
 10
76.75
 20
0.0000000000000018
 30
0.0
 11
76.75
 21
1.50000000000001
 31
0.0
  0
LINE
  5
20A
330
1E
100
AcDbEntity
  8
0
100
AcDbLine
 10
76.75
 20
0.0000000000000027
 30
0.0
 11
77.2
 21
0.0000000000000026
 31
0.0
  0
LINE
  5
20B
330
1E
100
AcDbEntity
  8
0
100
AcDbLine
 10
76.75
 20
0.0000000000000027
 30
0.0
 11
77.2
 21
0.0000000000000027
 31
0.0
  0
LINE
  5
20C
330
1E
100
AcDbEntity
  8
0
100
AcDbLine
 10
76.75
 20
0.0000000000000027
 30
0.0
 11
76.75
 21
1.50000000000001
 31
0.0
  0
LINE
  5
20D
330
1E
100
AcDbEntity
  8
0
100
AcDbLine
 10
76.75
 20
0.0000000000000035
 30
0.0
 11
77.2
 21
0.0000000000000035
 31
0.0
  0
LINE
  5
20E
330
1E
100
AcDbEntity
  8
0
100
AcDbLine
 10
76.75
 20
0.0000000000000035
 30
0.0
 11
77.2
 21
0.0000000000000036
 31
0.0
  0
LINE
  5
20F
330
1E
100
AcDbEntity
  8
0
100
AcDbLine
 10
76.75
 20
0.0000000000000035
 30
0.0
 11
76.75
 21
1.50000000000001
 31
0.0
  0
LINE
  5
210
330
1E
100
AcDbEntity
  8
0
100
AcDbLine
 10
76.75
 20
0.0000000000000053
 30
0.0
 11
77.2
 21
0.0000000000000052
 31
0.0
  0
LINE
  5
211
330
1E
100
AcDbEntity
  8
0
100
AcDbLine
 10
76.75
 20
0.0000000000000053
 30
0.0
 11
77.2
 21
0.0000000000000054
 31
0.0
  0
LINE
  5
212
330
1E
100
AcDbEntity
  8
0
100
AcDbLine
 10
76.75
 20
0.0000000000000053
 30
0.0
 11
76.75
 21
1.50000000000001
 31
0.0
  0
LINE
  5
213
330
1E
100
AcDbEntity
  8
0
100
AcDbLine
 10
76.75
 20
0.0000000000000044
 30
0.0
 11
77.2
 21
0.0000000000000044
 31
0.0
  0
LINE
  5
214
330
1E
100
AcDbEntity
  8
0
100
AcDbLine
 10
76.75
 20
0.0000000000000044
 30
0.0
 11
77.2
 21
0.0000000000000045
 31
0.0
  0
LINE
  5
215
330
1E
100
AcDbEntity
  8
0
100
AcDbLine
 10
76.75
 20
0.0000000000000044
 30
0.0
 11
76.75
 21
1.50000000000001
 31
0.0
  0
LINE
  5
216
330
1E
100
AcDbEntity
  8
0
100
AcDbLine
 10
76.75
 20
0.0000000000000062
 30
0.0
 11
77.2
 21
0.0000000000000063
 31
0.0
  0
LINE
  5
217
330
1E
100
AcDbEntity
  8
0
100
AcDbLine
 10
76.75
 20
0.0000000000000062
 30
0.0
 11
77.2
 21
0.0000000000000061
 31
0.0
  0
LINE
  5
218
330
1E
100
AcDbEntity
  8
0
100
AcDbLine
 10
76.75
 20
0.0000000000000062
 30
0.0
 11
76.75
 21
1.50000000000001
 31
0.0
  0
LINE
  5
219
330
1E
100
AcDbEntity
  8
0
100
AcDbLine
 10
76.75
 20
0.0000000000000071
 30
0.0
 11
77.2
 21
0.0000000000000072
 31
0.0
  0
LINE
  5
21A
330
1E
100
AcDbEntity
  8
0
100
AcDbLine
 10
76.75
 20
0.0000000000000071
 30
0.0
 11
77.2
 21
0.000000000000007
 31
0.0
  0
LINE
  5
21B
330
1E
100
AcDbEntity
  8
0
100
AcDbLine
 10
76.75
 20
0.0000000000000071
 30
0.0
 11
76.75
 21
1.50000000000001
 31
0.0
  0
LINE
  5
21C
330
1E
100
AcDbEntity
  8
0
100
AcDbLine
 10
76.75
 20
0.000000000000008
 30
0.0
 11
77.2
 21
0.000000000000008
 31
0.0
  0
LINE
  5
21D
330
1E
100
AcDbEntity
  8
0
100
AcDbLine
 10
76.75
 20
0.000000000000008
 30
0.0
 11
77.2
 21
0.0000000000000079
 31
0.0
  0
LINE
  5
21E
330
1E
100
AcDbEntity
  8
0
100
AcDbLine
 10
76.75
 20
0.000000000000008
 30
0.0
 11
76.75
 21
1.50000000000001
 31
0.0
  0
LINE
  5
21F
330
1E
100
AcDbEntity
  8
0
100
AcDbLine
 10
76.75
 20
0.0000000000000089
 30
0.0
 11
77.2
 21
0.0000000000000089
 31
0.0
  0
LINE
  5
220
330
1E
100
AcDbEntity
  8
0
100
AcDbLine
 10
76.75
 20
0.0000000000000089
 30
0.0
 11
77.2
 21
0.0000000000000088
 31
0.0
  0
LINE
  5
221
330
1E
100
AcDbEntity
  8
0
100
AcDbLine
 10
76.75
 20
0.0000000000000089
 30
0.0
 11
76.75
 21
1.50000000000001
 31
0.0
  0
LINE
  5
222
330
1E
100
AcDbEntity
  8
0
100
AcDbLine
 10
77.2
 20
0.0000000000000018
 30
0.0
 11
78.25
 21
0.0000000000000019
 31
0.0
  0
LINE
  5
223
330
1E
100
AcDbEntity
  8
0
100
AcDbLine
 10
77.2
 20
0.0000000000000017
 30
0.0
 11
78.25
 21
0.0000000000000017
 31
0.0
  0
LINE
  5
224
330
1E
100
AcDbEntity
  8
0
100
AcDbLine
 10
77.2
 20
0.0000000000000027
 30
0.0
 11
78.25
 21
0.0000000000000027
 31
0.0
  0
LINE
  5
225
330
1E
100
AcDbEntity
  8
0
100
AcDbLine
 10
77.2
 20
0.0000000000000026
 30
0.0
 11
78.25
 21
0.0000000000000026
 31
0.0
  0
LINE
  5
226
330
1E
100
AcDbEntity
  8
0
100
AcDbLine
 10
77.2
 20
0.0000000000000036
 30
0.0
 11
78.25
 21
0.0000000000000036
 31
0.0
  0
LINE
  5
227
330
1E
100
AcDbEntity
  8
0
100
AcDbLine
 10
77.2
 20
0.0000000000000035
 30
0.0
 11
78.25
 21
0.0000000000000034
 31
0.0
  0
LINE
  5
228
330
1E
100
AcDbEntity
  8
0
100
AcDbLine
 10
77.2
 20
0.0000000000000054
 30
0.0
 11
78.25
 21
0.0000000000000054
 31
0.0
  0
LINE
  5
229
330
1E
100
AcDbEntity
  8
0
100
AcDbLine
 10
77.2
 20
0.0000000000000052
 30
0.0
 11
78.25
 21
0.0000000000000052
 31
0.0
  0
LINE
  5
22A
330
1E
100
AcDbEntity
  8
0
100
AcDbLine
 10
77.2
 20
0.0000000000000045
 30
0.0
 11
78.25
 21
0.0000000000000045
 31
0.0
  0
LINE
  5
22B
330
1E
100
AcDbEntity
  8
0
100
AcDbLine
 10
77.2
 20
0.0000000000000044
 30
0.0
 11
78.25
 21
0.0000000000000043
 31
0.0
  0
LINE
  5
22C
330
1E
100
AcDbEntity
  8
0
100
AcDbLine
 10
77.2
 20
0.0000000000000061
 30
0.0
 11
78.25
 21
0.0000000000000061
 31
0.0
  0
LINE
  5
22D
330
1E
100
AcDbEntity
  8
0
100
AcDbLine
 10
77.2
 20
0.0000000000000063
 30
0.0
 11
78.25
 21
0.0000000000000063
 31
0.0
  0
LINE
  5
22E
330
1E
100
AcDbEntity
  8
0
100
AcDbLine
 10
77.2
 20
0.000000000000007
 30
0.0
 11
78.25
 21
0.000000000000007
 31
0.0
  0
LINE
  5
22F
330
1E
100
AcDbEntity
  8
0
100
AcDbLine
 10
77.2
 20
0.0000000000000072
 30
0.0
 11
78.25
 21
0.0000000000000072
 31
0.0
  0
LINE
  5
230
330
1E
100
AcDbEntity
  8
0
100
AcDbLine
 10
77.2
 20
0.0000000000000079
 30
0.0
 11
78.25
 21
0.0000000000000079
 31
0.0
  0
LINE
  5
231
330
1E
100
AcDbEntity
  8
0
100
AcDbLine
 10
77.2
 20
0.000000000000008
 30
0.0
 11
78.25
 21
0.0000000000000081
 31
0.0
  0
LINE
  5
232
330
1E
100
AcDbEntity
  8
0
100
AcDbLine
 10
77.2
 20
0.0000000000000088
 30
0.0
 11
78.25
 21
0.0000000000000088
 31
0.0
  0
LINE
  5
233
330
1E
100
AcDbEntity
  8
0
100
AcDbLine
 10
78.25
 20
0.0000000000000019
 30
0.0
 11
79.29999999999999
 21
0.0000000000000018
 31
0.0
  0
LINE
  5
234
330
1E
100
AcDbEntity
  8
0
100
AcDbLine
 10
78.25
 20
0.0000000000000017
 30
0.0
 11
79.29999999999999
 21
0.0000000000000017
 31
0.0
  0
LINE
  5
235
330
1E
100
AcDbEntity
  8
0
100
AcDbLine
 10
78.25
 20
0.0000000000000027
 30
0.0
 11
79.29999999999999
 21
0.0000000000000027
 31
0.0
  0
LINE
  5
236
330
1E
100
AcDbEntity
  8
0
100
AcDbLine
 10
78.25
 20
0.0000000000000026
 30
0.0
 11
79.29999999999999
 21
0.0000000000000026
 31
0.0
  0
LINE
  5
237
330
1E
100
AcDbEntity
  8
0
100
AcDbLine
 10
78.25
 20
0.0000000000000036
 30
0.0
 11
79.29999999999999
 21
0.0000000000000036
 31
0.0
  0
LINE
  5
238
330
1E
100
AcDbEntity
  8
0
100
AcDbLine
 10
78.25
 20
0.0000000000000034
 30
0.0
 11
79.29999999999999
 21
0.0000000000000035
 31
0.0
  0
LINE
  5
239
330
1E
100
AcDbEntity
  8
0
100
AcDbLine
 10
78.25
 20
0.0000000000000054
 30
0.0
 11
79.29999999999999
 21
0.0000000000000054
 31
0.0
  0
LINE
  5
23A
330
1E
100
AcDbEntity
  8
0
100
AcDbLine
 10
78.25
 20
0.0000000000000052
 30
0.0
 11
79.29999999999999
 21
0.0000000000000052
 31
0.0
  0
LINE
  5
23B
330
1E
100
AcDbEntity
  8
0
100
AcDbLine
 10
78.25
 20
0.0000000000000045
 30
0.0
 11
79.29999999999999
 21
0.0000000000000045
 31
0.0
  0
LINE
  5
23C
330
1E
100
AcDbEntity
  8
0
100
AcDbLine
 10
78.25
 20
0.0000000000000043
 30
0.0
 11
79.29999999999999
 21
0.0000000000000044
 31
0.0
  0
LINE
  5
23D
330
1E
100
AcDbEntity
  8
0
100
AcDbLine
 10
78.25
 20
0.0000000000000061
 30
0.0
 11
79.29999999999999
 21
0.0000000000000061
 31
0.0
  0
LINE
  5
23E
330
1E
100
AcDbEntity
  8
0
100
AcDbLine
 10
78.25
 20
0.0000000000000063
 30
0.0
 11
79.29999999999999
 21
0.0000000000000063
 31
0.0
  0
LINE
  5
23F
330
1E
100
AcDbEntity
  8
0
100
AcDbLine
 10
78.25
 20
0.000000000000007
 30
0.0
 11
79.29999999999999
 21
0.000000000000007
 31
0.0
  0
LINE
  5
240
330
1E
100
AcDbEntity
  8
0
100
AcDbLine
 10
78.25
 20
0.0000000000000072
 30
0.0
 11
79.29999999999999
 21
0.0000000000000072
 31
0.0
  0
LINE
  5
241
330
1E
100
AcDbEntity
  8
0
100
AcDbLine
 10
78.25
 20
0.0000000000000079
 30
0.0
 11
79.29999999999999
 21
0.0000000000000079
 31
0.0
  0
LINE
  5
242
330
1E
100
AcDbEntity
  8
0
100
AcDbLine
 10
78.25
 20
0.0000000000000081
 30
0.0
 11
79.29999999999999
 21
0.000000000000008
 31
0.0
  0
LINE
  5
243
330
1E
100
AcDbEntity
  8
0
100
AcDbLine
 10
78.25
 20
0.0000000000000088
 30
0.0
 11
79.29999999999999
 21
0.0000000000000088
 31
0.0
  0
LINE
  5
244
330
1E
100
AcDbEntity
  8
0
100
AcDbLine
 10
78.25
 20
0.000000000000009
 30
0.0
 11
79.29999999999999
 21
0.0000000000000089
 31
0.0
  0
LINE
  5
245
330
1E
100
AcDbEntity
  8
0
100
AcDbLine
 10
77.2
 20
0.0000000000000089
 30
0.0
 11
78.25
 21
0.000000000000009
 31
0.0
  0
LINE
  5
246
330
1E
100
AcDbEntity
  8
0
100
AcDbLine
 10
77.2
 20
0.0000000000000097
 30
0.0
 11
78.25
 21
0.0000000000000097
 31
0.0
  0
LINE
  5
247
330
1E
100
AcDbEntity
  8
0
100
AcDbLine
 10
79.29999999999999
 20
0.0000000000000018
 30
0.0
 11
79.75
 21
0.0000000000000018
 31
0.0
  0
LINE
  5
248
330
1E
100
AcDbEntity
  8
0
100
AcDbLine
 10
79.29999999999999
 20
0.0000000000000017
 30
0.0
 11
79.75
 21
0.0000000000000018
 31
0.0
  0
LINE
  5
249
330
1E
100
AcDbEntity
  8
0
100
AcDbLine
 10
79.29999999999999
 20
0.0000000000000027
 30
0.0
 11
79.75
 21
0.0000000000000027
 31
0.0
  0
LINE
  5
24A
330
1E
100
AcDbEntity
  8
0
100
AcDbLine
 10
79.29999999999999
 20
0.0000000000000026
 30
0.0
 11
79.75
 21
0.0000000000000027
 31
0.0
  0
LINE
  5
24B
330
1E
100
AcDbEntity
  8
0
100
AcDbLine
 10
79.29999999999999
 20
0.0000000000000036
 30
0.0
 11
79.75
 21
0.0000000000000035
 31
0.0
  0
LINE
  5
24C
330
1E
100
AcDbEntity
  8
0
100
AcDbLine
 10
79.29999999999999
 20
0.0000000000000035
 30
0.0
 11
79.75
 21
0.0000000000000035
 31
0.0
  0
LINE
  5
24D
330
1E
100
AcDbEntity
  8
0
100
AcDbLine
 10
79.29999999999999
 20
0.0000000000000054
 30
0.0
 11
79.75
 21
0.0000000000000053
 31
0.0
  0
LINE
  5
24E
330
1E
100
AcDbEntity
  8
0
100
AcDbLine
 10
79.29999999999999
 20
0.0000000000000052
 30
0.0
 11
79.75
 21
0.0000000000000053
 31
0.0
  0
LINE
  5
24F
330
1E
100
AcDbEntity
  8
0
100
AcDbLine
 10
79.29999999999999
 20
0.0000000000000045
 30
0.0
 11
79.75
 21
0.0000000000000044
 31
0.0
  0
LINE
  5
250
330
1E
100
AcDbEntity
  8
0
100
AcDbLine
 10
79.29999999999999
 20
0.0000000000000044
 30
0.0
 11
79.75
 21
0.0000000000000044
 31
0.0
  0
LINE
  5
251
330
1E
100
AcDbEntity
  8
0
100
AcDbLine
 10
79.29999999999999
 20
0.0000000000000061
 30
0.0
 11
79.75
 21
0.0000000000000062
 31
0.0
  0
LINE
  5
252
330
1E
100
AcDbEntity
  8
0
100
AcDbLine
 10
79.29999999999999
 20
0.0000000000000063
 30
0.0
 11
79.75
 21
0.0000000000000062
 31
0.0
  0
LINE
  5
253
330
1E
100
AcDbEntity
  8
0
100
AcDbLine
 10
79.29999999999999
 20
0.000000000000007
 30
0.0
 11
79.75
 21
0.0000000000000071
 31
0.0
  0
LINE
  5
254
330
1E
100
AcDbEntity
  8
0
100
AcDbLine
 10
79.29999999999999
 20
0.0000000000000072
 30
0.0
 11
79.75
 21
0.0000000000000071
 31
0.0
  0
LINE
  5
255
330
1E
100
AcDbEntity
  8
0
100
AcDbLine
 10
79.29999999999999
 20
0.0000000000000079
 30
0.0
 11
79.75
 21
0.000000000000008
 31
0.0
  0
LINE
  5
256
330
1E
100
AcDbEntity
  8
0
100
AcDbLine
 10
79.29999999999999
 20
0.000000000000008
 30
0.0
 11
79.75
 21
0.000000000000008
 31
0.0
  0
LINE
  5
257
330
1E
100
AcDbEntity
  8
0
100
AcDbLine
 10
79.29999999999999
 20
0.0000000000000088
 30
0.0
 11
79.75
 21
0.0000000000000089
 31
0.0
  0
LINE
  5
258
330
1E
100
AcDbEntity
  8
0
100
AcDbLine
 10
79.29999999999999
 20
0.0000000000000089
 30
0.0
 11
79.75
 21
0.0000000000000089
 31
0.0
  0
LINE
  5
259
330
1E
100
AcDbEntity
  8
0
100
AcDbLine
 10
78.25
 20
0.0000000000000097
 30
0.0
 11
79.29999999999999
 21
0.0000000000000097
 31
0.0
  0
LINE
  5
25A
330
1E
100
AcDbEntity
  8
0
100
AcDbLine
 10
79.29999999999999
 20
0.0000000000000097
 30
0.0
 11
79.75
 21
0.0000000000000098
 31
0.0
  0
LINE
  5
25B
330
1E
100
AcDbEntity
  8
0
100
AcDbLine
 10
90.25
 20
0.0000000000000053
 30
0.0
 11
90.7
 21
0.0000000000000052
 31
0.0
  0
LINE
  5
25C
330
1E
100
AcDbEntity
  8
0
100
AcDbLine
 10
90.25
 20
0.0000000000000053
 30
0.0
 11
90.7
 21
0.0000000000000054
 31
0.0
  0
LINE
  5
25D
330
1E
100
AcDbEntity
  8
0
100
AcDbLine
 10
90.25
 20
0.0000000000000053
 30
0.0
 11
90.25
 21
1.50000000000001
 31
0.0
  0
LINE
  5
25E
330
1E
100
AcDbEntity
  8
0
100
AcDbLine
 10
90.25
 20
0.0000000000000044
 30
0.0
 11
90.7
 21
0.0000000000000044
 31
0.0
  0
LINE
  5
25F
330
1E
100
AcDbEntity
  8
0
100
AcDbLine
 10
90.25
 20
0.0000000000000044
 30
0.0
 11
90.7
 21
0.0000000000000045
 31
0.0
  0
LINE
  5
260
330
1E
100
AcDbEntity
  8
0
100
AcDbLine
 10
90.25
 20
0.0000000000000044
 30
0.0
 11
90.25
 21
1.50000000000001
 31
0.0
  0
LINE
  5
261
330
1E
100
AcDbEntity
  8
0
100
AcDbLine
 10
90.25
 20
0.0000000000000027
 30
0.0
 11
90.7
 21
0.0000000000000026
 31
0.0
  0
LINE
  5
262
330
1E
100
AcDbEntity
  8
0
100
AcDbLine
 10
90.25
 20
0.0000000000000027
 30
0.0
 11
90.7
 21
0.0000000000000027
 31
0.0
  0
LINE
  5
263
330
1E
100
AcDbEntity
  8
0
100
AcDbLine
 10
90.25
 20
0.0000000000000027
 30
0.0
 11
90.25
 21
1.50000000000001
 31
0.0
  0
LINE
  5
264
330
1E
100
AcDbEntity
  8
0
100
AcDbLine
 10
90.25
 20
0.0000000000000035
 30
0.0
 11
90.7
 21
0.0000000000000035
 31
0.0
  0
LINE
  5
265
330
1E
100
AcDbEntity
  8
0
100
AcDbLine
 10
90.25
 20
0.0000000000000035
 30
0.0
 11
90.7
 21
0.0000000000000036
 31
0.0
  0
LINE
  5
266
330
1E
100
AcDbEntity
  8
0
100
AcDbLine
 10
90.25
 20
0.0000000000000035
 30
0.0
 11
90.25
 21
1.50000000000001
 31
0.0
  0
LINE
  5
267
330
1E
100
AcDbEntity
  8
0
100
AcDbLine
 10
90.25
 20
0.0000000000000018
 30
0.0
 11
90.7
 21
0.0000000000000017
 31
0.0
  0
LINE
  5
268
330
1E
100
AcDbEntity
  8
0
100
AcDbLine
 10
90.25
 20
0.0000000000000018
 30
0.0
 11
90.7
 21
0.0000000000000018
 31
0.0
  0
LINE
  5
269
330
1E
100
AcDbEntity
  8
0
100
AcDbLine
 10
90.25
 20
0.0000000000000018
 30
0.0
 11
90.25
 21
1.50000000000001
 31
0.0
  0
LINE
  5
26A
330
1E
100
AcDbEntity
  8
0
100
AcDbLine
 10
90.25
 20
0.0000000000000062
 30
0.0
 11
90.7
 21
0.0000000000000063
 31
0.0
  0
LINE
  5
26B
330
1E
100
AcDbEntity
  8
0
100
AcDbLine
 10
90.25
 20
0.0000000000000062
 30
0.0
 11
90.7
 21
0.0000000000000061
 31
0.0
  0
LINE
  5
26C
330
1E
100
AcDbEntity
  8
0
100
AcDbLine
 10
90.25
 20
0.0000000000000062
 30
0.0
 11
90.25
 21
1.50000000000001
 31
0.0
  0
LINE
  5
26D
330
1E
100
AcDbEntity
  8
0
100
AcDbLine
 10
90.25
 20
0.0000000000000071
 30
0.0
 11
90.7
 21
0.0000000000000072
 31
0.0
  0
LINE
  5
26E
330
1E
100
AcDbEntity
  8
0
100
AcDbLine
 10
90.25
 20
0.0000000000000071
 30
0.0
 11
90.7
 21
0.000000000000007
 31
0.0
  0
LINE
  5
26F
330
1E
100
AcDbEntity
  8
0
100
AcDbLine
 10
90.25
 20
0.0000000000000071
 30
0.0
 11
90.25
 21
1.50000000000001
 31
0.0
  0
LINE
  5
270
330
1E
100
AcDbEntity
  8
0
100
AcDbLine
 10
90.25
 20
0.000000000000008
 30
0.0
 11
90.7
 21
0.000000000000008
 31
0.0
  0
LINE
  5
271
330
1E
100
AcDbEntity
  8
0
100
AcDbLine
 10
90.25
 20
0.000000000000008
 30
0.0
 11
90.7
 21
0.0000000000000079
 31
0.0
  0
LINE
  5
272
330
1E
100
AcDbEntity
  8
0
100
AcDbLine
 10
90.25
 20
0.000000000000008
 30
0.0
 11
90.25
 21
1.50000000000001
 31
0.0
  0
LINE
  5
273
330
1E
100
AcDbEntity
  8
0
100
AcDbLine
 10
90.25
 20
0.0000000000000089
 30
0.0
 11
90.7
 21
0.0000000000000089
 31
0.0
  0
LINE
  5
274
330
1E
100
AcDbEntity
  8
0
100
AcDbLine
 10
90.25
 20
0.0000000000000089
 30
0.0
 11
90.7
 21
0.0000000000000088
 31
0.0
  0
LINE
  5
275
330
1E
100
AcDbEntity
  8
0
100
AcDbLine
 10
90.25
 20
0.0000000000000089
 30
0.0
 11
90.25
 21
1.50000000000001
 31
0.0
  0
LINE
  5
276
330
1E
100
AcDbEntity
  8
0
100
AcDbLine
 10
90.7
 20
0.0000000000000027
 30
0.0
 11
91.75
 21
0.0000000000000027
 31
0.0
  0
LINE
  5
277
330
1E
100
AcDbEntity
  8
0
100
AcDbLine
 10
90.7
 20
0.0000000000000026
 30
0.0
 11
91.75
 21
0.0000000000000026
 31
0.0
  0
LINE
  5
278
330
1E
100
AcDbEntity
  8
0
100
AcDbLine
 10
90.7
 20
0.0000000000000054
 30
0.0
 11
91.75
 21
0.0000000000000054
 31
0.0
  0
LINE
  5
279
330
1E
100
AcDbEntity
  8
0
100
AcDbLine
 10
90.7
 20
0.0000000000000052
 30
0.0
 11
91.75
 21
0.0000000000000052
 31
0.0
  0
LINE
  5
27A
330
1E
100
AcDbEntity
  8
0
100
AcDbLine
 10
90.7
 20
0.0000000000000045
 30
0.0
 11
91.75
 21
0.0000000000000045
 31
0.0
  0
LINE
  5
27B
330
1E
100
AcDbEntity
  8
0
100
AcDbLine
 10
90.7
 20
0.0000000000000044
 30
0.0
 11
91.75
 21
0.0000000000000043
 31
0.0
  0
LINE
  5
27C
330
1E
100
AcDbEntity
  8
0
100
AcDbLine
 10
90.7
 20
0.0000000000000036
 30
0.0
 11
91.75
 21
0.0000000000000036
 31
0.0
  0
LINE
  5
27D
330
1E
100
AcDbEntity
  8
0
100
AcDbLine
 10
90.7
 20
0.0000000000000035
 30
0.0
 11
91.75
 21
0.0000000000000034
 31
0.0
  0
LINE
  5
27E
330
1E
100
AcDbEntity
  8
0
100
AcDbLine
 10
90.7
 20
0.0000000000000018
 30
0.0
 11
91.75
 21
0.0000000000000019
 31
0.0
  0
LINE
  5
27F
330
1E
100
AcDbEntity
  8
0
100
AcDbLine
 10
90.7
 20
0.0000000000000017
 30
0.0
 11
91.75
 21
0.0000000000000017
 31
0.0
  0
LINE
  5
280
330
1E
100
AcDbEntity
  8
0
100
AcDbLine
 10
90.7
 20
0.0000000000000061
 30
0.0
 11
91.75
 21
0.0000000000000061
 31
0.0
  0
LINE
  5
281
330
1E
100
AcDbEntity
  8
0
100
AcDbLine
 10
90.7
 20
0.0000000000000063
 30
0.0
 11
91.75
 21
0.0000000000000063
 31
0.0
  0
LINE
  5
282
330
1E
100
AcDbEntity
  8
0
100
AcDbLine
 10
90.7
 20
0.000000000000007
 30
0.0
 11
91.75
 21
0.000000000000007
 31
0.0
  0
LINE
  5
283
330
1E
100
AcDbEntity
  8
0
100
AcDbLine
 10
90.7
 20
0.0000000000000072
 30
0.0
 11
91.75
 21
0.0000000000000072
 31
0.0
  0
LINE
  5
284
330
1E
100
AcDbEntity
  8
0
100
AcDbLine
 10
90.7
 20
0.0000000000000079
 30
0.0
 11
91.75
 21
0.0000000000000079
 31
0.0
  0
LINE
  5
285
330
1E
100
AcDbEntity
  8
0
100
AcDbLine
 10
90.7
 20
0.000000000000008
 30
0.0
 11
91.75
 21
0.0000000000000081
 31
0.0
  0
LINE
  5
286
330
1E
100
AcDbEntity
  8
0
100
AcDbLine
 10
90.7
 20
0.0000000000000088
 30
0.0
 11
91.75
 21
0.0000000000000088
 31
0.0
  0
LINE
  5
287
330
1E
100
AcDbEntity
  8
0
100
AcDbLine
 10
91.75
 20
0.0000000000000026
 30
0.0
 11
92.79999999999999
 21
0.0000000000000026
 31
0.0
  0
LINE
  5
288
330
1E
100
AcDbEntity
  8
0
100
AcDbLine
 10
91.75
 20
0.0000000000000027
 30
0.0
 11
92.79999999999999
 21
0.0000000000000027
 31
0.0
  0
LINE
  5
289
330
1E
100
AcDbEntity
  8
0
100
AcDbLine
 10
91.75
 20
0.0000000000000054
 30
0.0
 11
92.79999999999999
 21
0.0000000000000054
 31
0.0
  0
LINE
  5
28A
330
1E
100
AcDbEntity
  8
0
100
AcDbLine
 10
91.75
 20
0.0000000000000052
 30
0.0
 11
92.79999999999999
 21
0.0000000000000052
 31
0.0
  0
LINE
  5
28B
330
1E
100
AcDbEntity
  8
0
100
AcDbLine
 10
91.75
 20
0.0000000000000045
 30
0.0
 11
92.79999999999999
 21
0.0000000000000045
 31
0.0
  0
LINE
  5
28C
330
1E
100
AcDbEntity
  8
0
100
AcDbLine
 10
91.75
 20
0.0000000000000043
 30
0.0
 11
92.79999999999999
 21
0.0000000000000044
 31
0.0
  0
LINE
  5
28D
330
1E
100
AcDbEntity
  8
0
100
AcDbLine
 10
91.75
 20
0.0000000000000036
 30
0.0
 11
92.79999999999999
 21
0.0000000000000036
 31
0.0
  0
LINE
  5
28E
330
1E
100
AcDbEntity
  8
0
100
AcDbLine
 10
91.75
 20
0.0000000000000034
 30
0.0
 11
92.79999999999999
 21
0.0000000000000035
 31
0.0
  0
LINE
  5
28F
330
1E
100
AcDbEntity
  8
0
100
AcDbLine
 10
91.75
 20
0.0000000000000019
 30
0.0
 11
92.79999999999999
 21
0.0000000000000018
 31
0.0
  0
LINE
  5
290
330
1E
100
AcDbEntity
  8
0
100
AcDbLine
 10
91.75
 20
0.0000000000000017
 30
0.0
 11
92.79999999999999
 21
0.0000000000000017
 31
0.0
  0
LINE
  5
291
330
1E
100
AcDbEntity
  8
0
100
AcDbLine
 10
91.75
 20
0.0000000000000061
 30
0.0
 11
92.79999999999999
 21
0.0000000000000061
 31
0.0
  0
LINE
  5
292
330
1E
100
AcDbEntity
  8
0
100
AcDbLine
 10
91.75
 20
0.0000000000000063
 30
0.0
 11
92.79999999999999
 21
0.0000000000000063
 31
0.0
  0
LINE
  5
293
330
1E
100
AcDbEntity
  8
0
100
AcDbLine
 10
91.75
 20
0.000000000000007
 30
0.0
 11
92.79999999999999
 21
0.000000000000007
 31
0.0
  0
LINE
  5
294
330
1E
100
AcDbEntity
  8
0
100
AcDbLine
 10
91.75
 20
0.0000000000000072
 30
0.0
 11
92.79999999999999
 21
0.0000000000000072
 31
0.0
  0
LINE
  5
295
330
1E
100
AcDbEntity
  8
0
100
AcDbLine
 10
91.75
 20
0.0000000000000079
 30
0.0
 11
92.79999999999999
 21
0.0000000000000079
 31
0.0
  0
LINE
  5
296
330
1E
100
AcDbEntity
  8
0
100
AcDbLine
 10
91.75
 20
0.0000000000000081
 30
0.0
 11
92.79999999999999
 21
0.000000000000008
 31
0.0
  0
LINE
  5
297
330
1E
100
AcDbEntity
  8
0
100
AcDbLine
 10
91.75
 20
0.0000000000000088
 30
0.0
 11
92.79999999999999
 21
0.0000000000000088
 31
0.0
  0
LINE
  5
298
330
1E
100
AcDbEntity
  8
0
100
AcDbLine
 10
91.75
 20
0.000000000000009
 30
0.0
 11
92.79999999999999
 21
0.0000000000000089
 31
0.0
  0
LINE
  5
299
330
1E
100
AcDbEntity
  8
0
100
AcDbLine
 10
90.7
 20
0.0000000000000089
 30
0.0
 11
91.75
 21
0.000000000000009
 31
0.0
  0
LINE
  5
29A
330
1E
100
AcDbEntity
  8
0
100
AcDbLine
 10
90.7
 20
0.0000000000000097
 30
0.0
 11
91.75
 21
0.0000000000000097
 31
0.0
  0
LINE
  5
29B
330
1E
100
AcDbEntity
  8
0
100
AcDbLine
 10
92.79999999999999
 20
0.0000000000000026
 30
0.0
 11
93.25000000000001
 21
0.0000000000000027
 31
0.0
  0
LINE
  5
29C
330
1E
100
AcDbEntity
  8
0
100
AcDbLine
 10
92.79999999999999
 20
0.0000000000000027
 30
0.0
 11
93.25000000000001
 21
0.0000000000000027
 31
0.0
  0
LINE
  5
29D
330
1E
100
AcDbEntity
  8
0
100
AcDbLine
 10
92.79999999999999
 20
0.0000000000000054
 30
0.0
 11
93.25000000000001
 21
0.0000000000000053
 31
0.0
  0
LINE
  5
29E
330
1E
100
AcDbEntity
  8
0
100
AcDbLine
 10
92.79999999999999
 20
0.0000000000000052
 30
0.0
 11
93.25000000000001
 21
0.0000000000000053
 31
0.0
  0
LINE
  5
29F
330
1E
100
AcDbEntity
  8
0
100
AcDbLine
 10
92.79999999999999
 20
0.0000000000000045
 30
0.0
 11
93.25000000000001
 21
0.0000000000000044
 31
0.0
  0
LINE
  5
2A0
330
1E
100
AcDbEntity
  8
0
100
AcDbLine
 10
92.79999999999999
 20
0.0000000000000044
 30
0.0
 11
93.25000000000001
 21
0.0000000000000044
 31
0.0
  0
LINE
  5
2A1
330
1E
100
AcDbEntity
  8
0
100
AcDbLine
 10
92.79999999999999
 20
0.0000000000000036
 30
0.0
 11
93.25000000000001
 21
0.0000000000000035
 31
0.0
  0
LINE
  5
2A2
330
1E
100
AcDbEntity
  8
0
100
AcDbLine
 10
92.79999999999999
 20
0.0000000000000035
 30
0.0
 11
93.25000000000001
 21
0.0000000000000035
 31
0.0
  0
LINE
  5
2A3
330
1E
100
AcDbEntity
  8
0
100
AcDbLine
 10
92.79999999999999
 20
0.0000000000000018
 30
0.0
 11
93.25000000000001
 21
0.0000000000000018
 31
0.0
  0
LINE
  5
2A4
330
1E
100
AcDbEntity
  8
0
100
AcDbLine
 10
92.79999999999999
 20
0.0000000000000017
 30
0.0
 11
93.25000000000001
 21
0.0000000000000018
 31
0.0
  0
LINE
  5
2A5
330
1E
100
AcDbEntity
  8
0
100
AcDbLine
 10
92.79999999999999
 20
0.0000000000000061
 30
0.0
 11
93.25000000000001
 21
0.0000000000000062
 31
0.0
  0
LINE
  5
2A6
330
1E
100
AcDbEntity
  8
0
100
AcDbLine
 10
92.79999999999999
 20
0.0000000000000063
 30
0.0
 11
93.25000000000001
 21
0.0000000000000062
 31
0.0
  0
LINE
  5
2A7
330
1E
100
AcDbEntity
  8
0
100
AcDbLine
 10
92.79999999999999
 20
0.000000000000007
 30
0.0
 11
93.25000000000001
 21
0.0000000000000071
 31
0.0
  0
LINE
  5
2A8
330
1E
100
AcDbEntity
  8
0
100
AcDbLine
 10
92.79999999999999
 20
0.0000000000000072
 30
0.0
 11
93.25000000000001
 21
0.0000000000000071
 31
0.0
  0
LINE
  5
2A9
330
1E
100
AcDbEntity
  8
0
100
AcDbLine
 10
92.79999999999999
 20
0.0000000000000079
 30
0.0
 11
93.25000000000001
 21
0.000000000000008
 31
0.0
  0
LINE
  5
2AA
330
1E
100
AcDbEntity
  8
0
100
AcDbLine
 10
92.79999999999999
 20
0.000000000000008
 30
0.0
 11
93.25000000000001
 21
0.000000000000008
 31
0.0
  0
LINE
  5
2AB
330
1E
100
AcDbEntity
  8
0
100
AcDbLine
 10
92.79999999999999
 20
0.0000000000000088
 30
0.0
 11
93.25000000000001
 21
0.0000000000000089
 31
0.0
  0
LINE
  5
2AC
330
1E
100
AcDbEntity
  8
0
100
AcDbLine
 10
92.79999999999999
 20
0.0000000000000089
 30
0.0
 11
93.25000000000001
 21
0.0000000000000089
 31
0.0
  0
LINE
  5
2AD
330
1E
100
AcDbEntity
  8
0
100
AcDbLine
 10
91.75
 20
0.0000000000000097
 30
0.0
 11
92.79999999999999
 21
0.0000000000000097
 31
0.0
  0
LINE
  5
2AE
330
1E
100
AcDbEntity
  8
0
100
AcDbLine
 10
93.25000000000001
 20
0.0000000000000098
 30
0.0
 11
93.25000000000001
 21
1.50000000000001
 31
0.0
  0
LINE
  5
2AF
330
1E
100
AcDbEntity
  8
0
100
AcDbLine
 10
92.79999999999999
 20
0.0000000000000097
 30
0.0
 11
93.25000000000001
 21
0.0000000000000098
 31
0.0
  0
LINE
  5
2B0
330
1E
100
AcDbEntity
  8
0
100
AcDbLine
 10
90.25
 20
0.0000000000000098
 30
0.0
 11
90.7
 21
0.0000000000000098
 31
0.0
  0
LINE
  5
2B1
330
1E
100
AcDbEntity
  8
0
100
AcDbLine
 10
90.25
 20
0.0000000000000098
 30
0.0
 11
90.7
 21
0.0000000000000097
 31
0.0
  0
LINE
  5
2B2
330
1E
100
AcDbEntity
  8
0
100
AcDbLine
 10
90.25
 20
0.0000000000000098
 30
0.0
 11
90.25
 21
1.50000000000001
 31
0.0
  0
LINE
  5
2B3
330
1E
100
AcDbEntity
  8
0
100
AcDbLine
 10
92.79999999999999
 20
0.0000000000000098
 30
0.0
 11
93.25000000000001
 21
0.0000000000000098
 31
0.0
  0
LINE
  5
2B4
330
1E
100
AcDbEntity
  8
0
100
AcDbLine
 10
92.79999999999999
 20
0.0000000000000098
 30
0.0
 11
92.79999999999999
 21
1.50000000000001
 31
0.0
  0
LINE
  5
2B5
330
1E
100
AcDbEntity
  8
0
100
AcDbLine
 10
90.7
 20
0.0000000000000098
 30
0.0
 11
91.75
 21
0.0000000000000098
 31
0.0
  0
LINE
  5
2B6
330
1E
100
AcDbEntity
  8
0
100
AcDbLine
 10
90.7
 20
0.0000000000000098
 30
0.0
 11
90.7
 21
1.50000000000001
 31
0.0
  0
LINE
  5
2B7
330
1E
100
AcDbEntity
  8
0
100
AcDbLine
 10
79.75
 20
0.0000000000000098
 30
0.0
 11
79.75
 21
1.50000000000001
 31
0.0
  0
LINE
  5
2B8
330
1E
100
AcDbEntity
  8
0
100
AcDbLine
 10
79.29999999999999
 20
0.0000000000000098
 30
0.0
 11
79.75
 21
0.0000000000000098
 31
0.0
  0
LINE
  5
2B9
330
1E
100
AcDbEntity
  8
0
100
AcDbLine
 10
79.29999999999999
 20
0.0000000000000098
 30
0.0
 11
79.29999999999999
 21
1.50000000000001
 31
0.0
  0
LINE
  5
2BA
330
1E
100
AcDbEntity
  8
0
100
AcDbLine
 10
91.75
 20
0.0000000000000098
 30
0.0
 11
92.79999999999999
 21
0.0000000000000098
 31
0.0
  0
LINE
  5
2BB
330
1E
100
AcDbEntity
  8
0
100
AcDbLine
 10
91.75
 20
0.0000000000000098
 30
0.0
 11
91.75
 21
1.50000000000001
 31
0.0
  0
LINE
  5
2BC
330
1E
100
AcDbEntity
  8
0
100
AcDbLine
 10
78.25
 20
0.0000000000000098
 30
0.0
 11
79.29999999999999
 21
0.0000000000000098
 31
0.0
  0
LINE
  5
2BD
330
1E
100
AcDbEntity
  8
0
100
AcDbLine
 10
78.25
 20
0.0000000000000098
 30
0.0
 11
78.25
 21
1.50000000000001
 31
0.0
  0
LINE
  5
2BE
330
1E
100
AcDbEntity
  8
0
100
AcDbLine
 10
77.2
 20
0.0000000000000098
 30
0.0
 11
78.25
 21
0.0000000000000098
 31
0.0
  0
LINE
  5
2BF
330
1E
100
AcDbEntity
  8
0
100
AcDbLine
 10
77.2
 20
0.0000000000000098
 30
0.0
 11
77.2
 21
1.50000000000001
 31
0.0
  0
LINE
  5
2C0
330
1E
100
AcDbEntity
  8
0
100
AcDbLine
 10
76.75
 20
0.0000000000000098
 30
0.0
 11
77.2
 21
0.0000000000000098
 31
0.0
  0
LINE
  5
2C1
330
1E
100
AcDbEntity
  8
0
100
AcDbLine
 10
76.75
 20
0.0000000000000098
 30
0.0
 11
77.2
 21
0.0000000000000097
 31
0.0
  0
LINE
  5
2C2
330
1E
100
AcDbEntity
  8
0
100
AcDbLine
 10
76.75
 20
0.0000000000000098
 30
0.0
 11
76.75
 21
1.50000000000001
 31
0.0
  0
LINE
  5
2C3
330
1E
100
AcDbEntity
  8
0
100
AcDbLine
 10
79.75
 20
1.5
 30
0.0
 11
90.25
 21
1.5
 31
0.0
  0
LINE
  5
2C4
330
1E
100
AcDbEntity
  8
0
100
AcDbLine
 10
66.25
 20
1.5
 30
0.0
 11
76.75
 21
1.5
 31
0.0
  0
LINE
  5
2C5
330
1E
100
AcDbEntity
  8
0
100
AcDbLine
 10
52.75
 20
1.5
 30
0.0
 11
63.25
 21
1.5
 31
0.0
  0
LINE
  5
2C6
330
1E
100
AcDbEntity
  8
0
100
AcDbLine
 10
39.25
 20
1.5
 30
0.0
 11
49.75
 21
1.5
 31
0.0
  0
LINE
  5
2C7
330
1E
100
AcDbEntity
  8
0
100
AcDbLine
 10
25.75
 20
1.5
 30
0.0
 11
36.25
 21
1.5
 31
0.0
  0
LINE
  5
2C8
330
1E
100
AcDbEntity
  8
0
100
AcDbLine
 10
103.75
 20
0.0000000000000053
 30
0.0
 11
104.2
 21
0.0000000000000052
 31
0.0
  0
LINE
  5
2C9
330
1E
100
AcDbEntity
  8
0
100
AcDbLine
 10
103.75
 20
0.0000000000000053
 30
0.0
 11
104.2
 21
0.0000000000000054
 31
0.0
  0
LINE
  5
2CA
330
1E
100
AcDbEntity
  8
0
100
AcDbLine
 10
103.75
 20
0.0000000000000053
 30
0.0
 11
103.75
 21
1.50000000000001
 31
0.0
  0
LINE
  5
2CB
330
1E
100
AcDbEntity
  8
0
100
AcDbLine
 10
103.75
 20
0.0000000000000044
 30
0.0
 11
104.2
 21
0.0000000000000044
 31
0.0
  0
LINE
  5
2CC
330
1E
100
AcDbEntity
  8
0
100
AcDbLine
 10
103.75
 20
0.0000000000000044
 30
0.0
 11
104.2
 21
0.0000000000000045
 31
0.0
  0
LINE
  5
2CD
330
1E
100
AcDbEntity
  8
0
100
AcDbLine
 10
103.75
 20
0.0000000000000044
 30
0.0
 11
103.75
 21
1.50000000000001
 31
0.0
  0
LINE
  5
2CE
330
1E
100
AcDbEntity
  8
0
100
AcDbLine
 10
103.75
 20
0.0000000000000027
 30
0.0
 11
104.2
 21
0.0000000000000026
 31
0.0
  0
LINE
  5
2CF
330
1E
100
AcDbEntity
  8
0
100
AcDbLine
 10
103.75
 20
0.0000000000000027
 30
0.0
 11
104.2
 21
0.0000000000000027
 31
0.0
  0
LINE
  5
2D0
330
1E
100
AcDbEntity
  8
0
100
AcDbLine
 10
103.75
 20
0.0000000000000027
 30
0.0
 11
103.75
 21
1.50000000000001
 31
0.0
  0
LINE
  5
2D1
330
1E
100
AcDbEntity
  8
0
100
AcDbLine
 10
103.75
 20
0.0000000000000035
 30
0.0
 11
104.2
 21
0.0000000000000035
 31
0.0
  0
LINE
  5
2D2
330
1E
100
AcDbEntity
  8
0
100
AcDbLine
 10
103.75
 20
0.0000000000000035
 30
0.0
 11
104.2
 21
0.0000000000000036
 31
0.0
  0
LINE
  5
2D3
330
1E
100
AcDbEntity
  8
0
100
AcDbLine
 10
103.75
 20
0.0000000000000035
 30
0.0
 11
103.75
 21
1.50000000000001
 31
0.0
  0
LINE
  5
2D4
330
1E
100
AcDbEntity
  8
0
100
AcDbLine
 10
103.75
 20
0.0000000000000062
 30
0.0
 11
104.2
 21
0.0000000000000063
 31
0.0
  0
LINE
  5
2D5
330
1E
100
AcDbEntity
  8
0
100
AcDbLine
 10
103.75
 20
0.0000000000000062
 30
0.0
 11
104.2
 21
0.0000000000000061
 31
0.0
  0
LINE
  5
2D6
330
1E
100
AcDbEntity
  8
0
100
AcDbLine
 10
103.75
 20
0.0000000000000062
 30
0.0
 11
103.75
 21
1.50000000000001
 31
0.0
  0
LINE
  5
2D7
330
1E
100
AcDbEntity
  8
0
100
AcDbLine
 10
103.75
 20
0.0000000000000071
 30
0.0
 11
104.2
 21
0.0000000000000072
 31
0.0
  0
LINE
  5
2D8
330
1E
100
AcDbEntity
  8
0
100
AcDbLine
 10
103.75
 20
0.0000000000000071
 30
0.0
 11
104.2
 21
0.000000000000007
 31
0.0
  0
LINE
  5
2D9
330
1E
100
AcDbEntity
  8
0
100
AcDbLine
 10
103.75
 20
0.0000000000000071
 30
0.0
 11
103.75
 21
1.50000000000001
 31
0.0
  0
LINE
  5
2DA
330
1E
100
AcDbEntity
  8
0
100
AcDbLine
 10
103.75
 20
0.000000000000008
 30
0.0
 11
104.2
 21
0.000000000000008
 31
0.0
  0
LINE
  5
2DB
330
1E
100
AcDbEntity
  8
0
100
AcDbLine
 10
103.75
 20
0.000000000000008
 30
0.0
 11
104.2
 21
0.0000000000000079
 31
0.0
  0
LINE
  5
2DC
330
1E
100
AcDbEntity
  8
0
100
AcDbLine
 10
103.75
 20
0.000000000000008
 30
0.0
 11
103.75
 21
1.50000000000001
 31
0.0
  0
LINE
  5
2DD
330
1E
100
AcDbEntity
  8
0
100
AcDbLine
 10
104.2
 20
0.0000000000000027
 30
0.0
 11
105.2499999999999
 21
0.0000000000000027
 31
0.0
  0
LINE
  5
2DE
330
1E
100
AcDbEntity
  8
0
100
AcDbLine
 10
104.2
 20
0.0000000000000026
 30
0.0
 11
105.2499999999999
 21
0.0000000000000026
 31
0.0
  0
LINE
  5
2DF
330
1E
100
AcDbEntity
  8
0
100
AcDbLine
 10
104.2
 20
0.0000000000000054
 30
0.0
 11
105.2499999999999
 21
0.0000000000000054
 31
0.0
  0
LINE
  5
2E0
330
1E
100
AcDbEntity
  8
0
100
AcDbLine
 10
104.2
 20
0.0000000000000052
 30
0.0
 11
105.2499999999999
 21
0.0000000000000052
 31
0.0
  0
LINE
  5
2E1
330
1E
100
AcDbEntity
  8
0
100
AcDbLine
 10
104.2
 20
0.0000000000000045
 30
0.0
 11
105.2499999999999
 21
0.0000000000000045
 31
0.0
  0
LINE
  5
2E2
330
1E
100
AcDbEntity
  8
0
100
AcDbLine
 10
104.2
 20
0.0000000000000044
 30
0.0
 11
105.2499999999999
 21
0.0000000000000043
 31
0.0
  0
LINE
  5
2E3
330
1E
100
AcDbEntity
  8
0
100
AcDbLine
 10
104.2
 20
0.0000000000000036
 30
0.0
 11
105.2499999999999
 21
0.0000000000000036
 31
0.0
  0
LINE
  5
2E4
330
1E
100
AcDbEntity
  8
0
100
AcDbLine
 10
104.2
 20
0.0000000000000035
 30
0.0
 11
105.2499999999999
 21
0.0000000000000034
 31
0.0
  0
LINE
  5
2E5
330
1E
100
AcDbEntity
  8
0
100
AcDbLine
 10
104.2
 20
0.0000000000000061
 30
0.0
 11
105.2499999999999
 21
0.0000000000000061
 31
0.0
  0
LINE
  5
2E6
330
1E
100
AcDbEntity
  8
0
100
AcDbLine
 10
104.2
 20
0.0000000000000063
 30
0.0
 11
105.2499999999999
 21
0.0000000000000063
 31
0.0
  0
LINE
  5
2E7
330
1E
100
AcDbEntity
  8
0
100
AcDbLine
 10
104.2
 20
0.000000000000007
 30
0.0
 11
105.2499999999999
 21
0.000000000000007
 31
0.0
  0
LINE
  5
2E8
330
1E
100
AcDbEntity
  8
0
100
AcDbLine
 10
104.2
 20
0.0000000000000072
 30
0.0
 11
105.2499999999999
 21
0.0000000000000072
 31
0.0
  0
LINE
  5
2E9
330
1E
100
AcDbEntity
  8
0
100
AcDbLine
 10
104.2
 20
0.0000000000000079
 30
0.0
 11
105.2499999999999
 21
0.0000000000000079
 31
0.0
  0
LINE
  5
2EA
330
1E
100
AcDbEntity
  8
0
100
AcDbLine
 10
105.2499999999999
 20
0.0000000000000027
 30
0.0
 11
106.2999999999999
 21
0.0000000000000027
 31
0.0
  0
LINE
  5
2EB
330
1E
100
AcDbEntity
  8
0
100
AcDbLine
 10
105.2499999999999
 20
0.0000000000000026
 30
0.0
 11
106.2999999999999
 21
0.0000000000000026
 31
0.0
  0
LINE
  5
2EC
330
1E
100
AcDbEntity
  8
0
100
AcDbLine
 10
105.2499999999999
 20
0.0000000000000054
 30
0.0
 11
106.2999999999999
 21
0.0000000000000054
 31
0.0
  0
LINE
  5
2ED
330
1E
100
AcDbEntity
  8
0
100
AcDbLine
 10
105.2499999999999
 20
0.0000000000000052
 30
0.0
 11
106.2999999999999
 21
0.0000000000000052
 31
0.0
  0
LINE
  5
2EE
330
1E
100
AcDbEntity
  8
0
100
AcDbLine
 10
105.2499999999999
 20
0.0000000000000045
 30
0.0
 11
106.2999999999999
 21
0.0000000000000045
 31
0.0
  0
LINE
  5
2EF
330
1E
100
AcDbEntity
  8
0
100
AcDbLine
 10
105.2499999999999
 20
0.0000000000000043
 30
0.0
 11
106.2999999999999
 21
0.0000000000000044
 31
0.0
  0
LINE
  5
2F0
330
1E
100
AcDbEntity
  8
0
100
AcDbLine
 10
105.2499999999999
 20
0.0000000000000036
 30
0.0
 11
106.2999999999999
 21
0.0000000000000036
 31
0.0
  0
LINE
  5
2F1
330
1E
100
AcDbEntity
  8
0
100
AcDbLine
 10
105.2499999999999
 20
0.0000000000000034
 30
0.0
 11
106.2999999999999
 21
0.0000000000000035
 31
0.0
  0
LINE
  5
2F2
330
1E
100
AcDbEntity
  8
0
100
AcDbLine
 10
105.2499999999999
 20
0.0000000000000061
 30
0.0
 11
106.2999999999999
 21
0.0000000000000061
 31
0.0
  0
LINE
  5
2F3
330
1E
100
AcDbEntity
  8
0
100
AcDbLine
 10
105.2499999999999
 20
0.0000000000000063
 30
0.0
 11
106.2999999999999
 21
0.0000000000000063
 31
0.0
  0
LINE
  5
2F4
330
1E
100
AcDbEntity
  8
0
100
AcDbLine
 10
105.2499999999999
 20
0.000000000000007
 30
0.0
 11
106.2999999999999
 21
0.000000000000007
 31
0.0
  0
LINE
  5
2F5
330
1E
100
AcDbEntity
  8
0
100
AcDbLine
 10
105.2499999999999
 20
0.0000000000000072
 30
0.0
 11
106.2999999999999
 21
0.0000000000000072
 31
0.0
  0
LINE
  5
2F6
330
1E
100
AcDbEntity
  8
0
100
AcDbLine
 10
105.2499999999999
 20
0.0000000000000079
 30
0.0
 11
106.2999999999999
 21
0.0000000000000079
 31
0.0
  0
LINE
  5
2F7
330
1E
100
AcDbEntity
  8
0
100
AcDbLine
 10
105.2499999999999
 20
0.0000000000000081
 30
0.0
 11
106.2999999999999
 21
0.000000000000008
 31
0.0
  0
LINE
  5
2F8
330
1E
100
AcDbEntity
  8
0
100
AcDbLine
 10
104.2
 20
0.000000000000008
 30
0.0
 11
105.2499999999999
 21
0.0000000000000081
 31
0.0
  0
LINE
  5
2F9
330
1E
100
AcDbEntity
  8
0
100
AcDbLine
 10
104.2
 20
0.0000000000000088
 30
0.0
 11
105.2499999999999
 21
0.0000000000000088
 31
0.0
  0
LINE
  5
2FA
330
1E
100
AcDbEntity
  8
0
100
AcDbLine
 10
106.2999999999999
 20
0.0000000000000027
 30
0.0
 11
106.75
 21
0.0000000000000027
 31
0.0
  0
LINE
  5
2FB
330
1E
100
AcDbEntity
  8
0
100
AcDbLine
 10
106.2999999999999
 20
0.0000000000000026
 30
0.0
 11
106.75
 21
0.0000000000000027
 31
0.0
  0
LINE
  5
2FC
330
1E
100
AcDbEntity
  8
0
100
AcDbLine
 10
106.2999999999999
 20
0.0000000000000054
 30
0.0
 11
106.75
 21
0.0000000000000053
 31
0.0
  0
LINE
  5
2FD
330
1E
100
AcDbEntity
  8
0
100
AcDbLine
 10
106.2999999999999
 20
0.0000000000000052
 30
0.0
 11
106.75
 21
0.0000000000000053
 31
0.0
  0
LINE
  5
2FE
330
1E
100
AcDbEntity
  8
0
100
AcDbLine
 10
106.2999999999999
 20
0.0000000000000045
 30
0.0
 11
106.75
 21
0.0000000000000044
 31
0.0
  0
LINE
  5
2FF
330
1E
100
AcDbEntity
  8
0
100
AcDbLine
 10
106.2999999999999
 20
0.0000000000000044
 30
0.0
 11
106.75
 21
0.0000000000000044
 31
0.0
  0
LINE
  5
300
330
1E
100
AcDbEntity
  8
0
100
AcDbLine
 10
106.2999999999999
 20
0.0000000000000036
 30
0.0
 11
106.75
 21
0.0000000000000035
 31
0.0
  0
LINE
  5
301
330
1E
100
AcDbEntity
  8
0
100
AcDbLine
 10
106.2999999999999
 20
0.0000000000000035
 30
0.0
 11
106.75
 21
0.0000000000000035
 31
0.0
  0
LINE
  5
302
330
1E
100
AcDbEntity
  8
0
100
AcDbLine
 10
106.2999999999999
 20
0.0000000000000061
 30
0.0
 11
106.75
 21
0.0000000000000062
 31
0.0
  0
LINE
  5
303
330
1E
100
AcDbEntity
  8
0
100
AcDbLine
 10
106.2999999999999
 20
0.0000000000000063
 30
0.0
 11
106.75
 21
0.0000000000000062
 31
0.0
  0
LINE
  5
304
330
1E
100
AcDbEntity
  8
0
100
AcDbLine
 10
106.2999999999999
 20
0.000000000000007
 30
0.0
 11
106.75
 21
0.0000000000000071
 31
0.0
  0
LINE
  5
305
330
1E
100
AcDbEntity
  8
0
100
AcDbLine
 10
106.2999999999999
 20
0.0000000000000072
 30
0.0
 11
106.75
 21
0.0000000000000071
 31
0.0
  0
LINE
  5
306
330
1E
100
AcDbEntity
  8
0
100
AcDbLine
 10
106.2999999999999
 20
0.0000000000000079
 30
0.0
 11
106.75
 21
0.000000000000008
 31
0.0
  0
LINE
  5
307
330
1E
100
AcDbEntity
  8
0
100
AcDbLine
 10
106.2999999999999
 20
0.000000000000008
 30
0.0
 11
106.75
 21
0.000000000000008
 31
0.0
  0
LINE
  5
308
330
1E
100
AcDbEntity
  8
0
100
AcDbLine
 10
105.2499999999999
 20
0.0000000000000088
 30
0.0
 11
106.2999999999999
 21
0.0000000000000088
 31
0.0
  0
LINE
  5
309
330
1E
100
AcDbEntity
  8
0
100
AcDbLine
 10
106.2999999999999
 20
0.0000000000000088
 30
0.0
 11
106.75
 21
0.0000000000000089
 31
0.0
  0
LINE
  5
30A
330
1E
100
AcDbEntity
  8
0
100
AcDbLine
 10
106.2999999999999
 20
0.0000000000000089
 30
0.0
 11
106.75
 21
0.0000000000000089
 31
0.0
  0
LINE
  5
30B
330
1E
100
AcDbEntity
  8
0
100
AcDbLine
 10
105.2499999999999
 20
0.000000000000009
 30
0.0
 11
106.2999999999999
 21
0.0000000000000089
 31
0.0
  0
LINE
  5
30C
330
1E
100
AcDbEntity
  8
0
100
AcDbLine
 10
104.2
 20
0.0000000000000089
 30
0.0
 11
105.2499999999999
 21
0.000000000000009
 31
0.0
  0
LINE
  5
30D
330
1E
100
AcDbEntity
  8
0
100
AcDbLine
 10
103.75
 20
0.0000000000000089
 30
0.0
 11
104.2
 21
0.0000000000000089
 31
0.0
  0
LINE
  5
30E
330
1E
100
AcDbEntity
  8
0
100
AcDbLine
 10
103.75
 20
0.0000000000000089
 30
0.0
 11
104.2
 21
0.0000000000000088
 31
0.0
  0
LINE
  5
30F
330
1E
100
AcDbEntity
  8
0
100
AcDbLine
 10
103.75
 20
0.0000000000000089
 30
0.0
 11
103.75
 21
1.50000000000001
 31
0.0
  0
LINE
  5
310
330
1E
100
AcDbEntity
  8
0
100
AcDbLine
 10
104.2
 20
0.0000000000000097
 30
0.0
 11
105.2499999999999
 21
0.0000000000000097
 31
0.0
  0
LINE
  5
311
330
1E
100
AcDbEntity
  8
0
100
AcDbLine
 10
105.2499999999999
 20
0.0000000000000097
 30
0.0
 11
106.2999999999999
 21
0.0000000000000097
 31
0.0
  0
LINE
  5
312
330
1E
100
AcDbEntity
  8
0
100
AcDbLine
 10
106.75
 20
0.0000000000000098
 30
0.0
 11
106.75
 21
1.50000000000001
 31
0.0
  0
LINE
  5
313
330
1E
100
AcDbEntity
  8
0
100
AcDbLine
 10
106.2999999999999
 20
0.0000000000000097
 30
0.0
 11
106.75
 21
0.0000000000000098
 31
0.0
  0
LINE
  5
314
330
1E
100
AcDbEntity
  8
0
100
AcDbLine
 10
106.2999999999999
 20
0.0000000000000098
 30
0.0
 11
106.75
 21
0.0000000000000098
 31
0.0
  0
LINE
  5
315
330
1E
100
AcDbEntity
  8
0
100
AcDbLine
 10
106.2999999999999
 20
0.0000000000000098
 30
0.0
 11
106.2999999999999
 21
1.50000000000001
 31
0.0
  0
LINE
  5
316
330
1E
100
AcDbEntity
  8
0
100
AcDbLine
 10
105.2499999999999
 20
0.0000000000000098
 30
0.0
 11
106.2999999999999
 21
0.0000000000000098
 31
0.0
  0
LINE
  5
317
330
1E
100
AcDbEntity
  8
0
100
AcDbLine
 10
105.2499999999999
 20
0.0000000000000098
 30
0.0
 11
105.2499999999999
 21
1.50000000000001
 31
0.0
  0
LINE
  5
318
330
1E
100
AcDbEntity
  8
0
100
AcDbLine
 10
104.2
 20
0.0000000000000098
 30
0.0
 11
105.2499999999999
 21
0.0000000000000098
 31
0.0
  0
LINE
  5
319
330
1E
100
AcDbEntity
  8
0
100
AcDbLine
 10
104.2
 20
0.0000000000000098
 30
0.0
 11
104.2
 21
1.50000000000001
 31
0.0
  0
LINE
  5
31A
330
1E
100
AcDbEntity
  8
0
100
AcDbLine
 10
103.75
 20
0.0000000000000098
 30
0.0
 11
104.2
 21
0.0000000000000098
 31
0.0
  0
LINE
  5
31B
330
1E
100
AcDbEntity
  8
0
100
AcDbLine
 10
103.75
 20
0.0000000000000098
 30
0.0
 11
104.2
 21
0.0000000000000097
 31
0.0
  0
LINE
  5
31C
330
1E
100
AcDbEntity
  8
0
100
AcDbLine
 10
103.75
 20
0.0000000000000098
 30
0.0
 11
103.75
 21
1.50000000000001
 31
0.0
  0
LINE
  5
31D
330
1E
100
AcDbEntity
  8
0
100
AcDbLine
 10
93.25000000000001
 20
1.5
 30
0.0
 11
103.75
 21
1.5
 31
0.0
  0
LINE
  5
31E
330
1E
100
AcDbEntity
  8
0
100
AcDbLine
 10
79.75
 20
1.5
 30
0.0
 11
90.25
 21
1.5
 31
0.0
  0
LINE
  5
31F
330
1E
100
AcDbEntity
  8
0
100
AcDbLine
 10
117.25
 20
0.0000000000000044
 30
0.0
 11
117.7
 21
0.0000000000000044
 31
0.0
  0
LINE
  5
320
330
1E
100
AcDbEntity
  8
0
100
AcDbLine
 10
117.25
 20
0.0000000000000044
 30
0.0
 11
117.7
 21
0.0000000000000045
 31
0.0
  0
LINE
  5
321
330
1E
100
AcDbEntity
  8
0
100
AcDbLine
 10
117.25
 20
0.0000000000000027
 30
0.0
 11
117.7
 21
0.0000000000000026
 31
0.0
  0
LINE
  5
322
330
1E
100
AcDbEntity
  8
0
100
AcDbLine
 10
117.25
 20
0.0000000000000027
 30
0.0
 11
117.7
 21
0.0000000000000027
 31
0.0
  0
LINE
  5
323
330
1E
100
AcDbEntity
  8
0
100
AcDbLine
 10
118.75
 20
0.0000000000000026
 30
0.0
 11
119.7999999999999
 21
0.0000000000000026
 31
0.0
  0
LINE
  5
324
330
1E
100
AcDbEntity
  8
0
100
AcDbLine
 10
117.7
 20
0.0000000000000027
 30
0.0
 11
118.75
 21
0.0000000000000027
 31
0.0
  0
LINE
  5
325
330
1E
100
AcDbEntity
  8
0
100
AcDbLine
 10
118.75
 20
0.0000000000000027
 30
0.0
 11
119.7999999999999
 21
0.0000000000000027
 31
0.0
  0
LINE
  5
326
330
1E
100
AcDbEntity
  8
0
100
AcDbLine
 10
117.7
 20
0.0000000000000026
 30
0.0
 11
118.75
 21
0.0000000000000026
 31
0.0
  0
LINE
  5
327
330
1E
100
AcDbEntity
  8
0
100
AcDbLine
 10
119.7999999999999
 20
0.0000000000000027
 30
0.0
 11
120.25
 21
0.0000000000000027
 31
0.0
  0
LINE
  5
328
330
1E
100
AcDbEntity
  8
0
100
AcDbLine
 10
119.7999999999999
 20
0.0000000000000026
 30
0.0
 11
120.25
 21
0.0000000000000027
 31
0.0
  0
LINE
  5
329
330
1E
100
AcDbEntity
  8
0
100
AcDbLine
 10
119.7999999999999
 20
0.0000000000000035
 30
0.0
 11
120.25
 21
0.0000000000000035
 31
0.0
  0
LINE
  5
32A
330
1E
100
AcDbEntity
  8
0
100
AcDbLine
 10
118.75
 20
0.0000000000000034
 30
0.0
 11
119.7999999999999
 21
0.0000000000000035
 31
0.0
  0
LINE
  5
32B
330
1E
100
AcDbEntity
  8
0
100
AcDbLine
 10
117.7
 20
0.0000000000000036
 30
0.0
 11
118.75
 21
0.0000000000000036
 31
0.0
  0
LINE
  5
32C
330
1E
100
AcDbEntity
  8
0
100
AcDbLine
 10
117.7
 20
0.0000000000000045
 30
0.0
 11
118.75
 21
0.0000000000000045
 31
0.0
  0
LINE
  5
32D
330
1E
100
AcDbEntity
  8
0
100
AcDbLine
 10
118.75
 20
0.0000000000000045
 30
0.0
 11
119.7999999999999
 21
0.0000000000000045
 31
0.0
  0
LINE
  5
32E
330
1E
100
AcDbEntity
  8
0
100
AcDbLine
 10
119.7999999999999
 20
0.0000000000000045
 30
0.0
 11
120.25
 21
0.0000000000000044
 31
0.0
  0
LINE
  5
32F
330
1E
100
AcDbEntity
  8
0
100
AcDbLine
 10
119.7999999999999
 20
0.0000000000000044
 30
0.0
 11
120.25
 21
0.0000000000000044
 31
0.0
  0
LINE
  5
330
330
1E
100
AcDbEntity
  8
0
100
AcDbLine
 10
118.75
 20
0.0000000000000043
 30
0.0
 11
119.7999999999999
 21
0.0000000000000044
 31
0.0
  0
LINE
  5
331
330
1E
100
AcDbEntity
  8
0
100
AcDbLine
 10
117.7
 20
0.0000000000000044
 30
0.0
 11
118.75
 21
0.0000000000000043
 31
0.0
  0
LINE
  5
332
330
1E
100
AcDbEntity
  8
0
100
AcDbLine
 10
118.75
 20
0.0000000000000036
 30
0.0
 11
119.7999999999999
 21
0.0000000000000036
 31
0.0
  0
LINE
  5
333
330
1E
100
AcDbEntity
  8
0
100
AcDbLine
 10
119.7999999999999
 20
0.0000000000000036
 30
0.0
 11
120.25
 21
0.0000000000000035
 31
0.0
  0
LINE
  5
334
330
1E
100
AcDbEntity
  8
0
100
AcDbLine
 10
117.7
 20
0.0000000000000035
 30
0.0
 11
118.75
 21
0.0000000000000034
 31
0.0
  0
LINE
  5
335
330
1E
100
AcDbEntity
  8
0
100
AcDbLine
 10
117.25
 20
0.0000000000000035
 30
0.0
 11
117.7
 21
0.0000000000000035
 31
0.0
  0
LINE
  5
336
330
1E
100
AcDbEntity
  8
0
100
AcDbLine
 10
117.25
 20
0.0000000000000035
 30
0.0
 11
117.7
 21
0.0000000000000036
 31
0.0
  0
LINE
  5
337
330
1E
100
AcDbEntity
  8
0
100
AcDbLine
 10
122.94
 20
0.0000000000000052
 30
0.0
 11
125.5
 21
0.0000000000000051
 31
0.0
  0
LINE
  5
339
330
1E
100
AcDbEntity
  8
0
100
AcDbLine
 10
120.54
 20
0.0000000000000052
 30
0.0
 11
122.94
 21
0.0000000000000052
 31
0.0
  0
LINE
  5
33A
330
1E
100
AcDbEntity
  8
0
100
AcDbLine
 10
118.42
 20
0.0000000000000053
 30
0.0
 11
120.54
 21
0.0000000000000052
 31
0.0
  0
LINE
  5
355
330
1E
100
AcDbEntity
  8
0
100
AcDbLine
 10
116.8199999999999
 20
0.0000000000000055
 30
0.0
 11
118.42
 21
0.0000000000000053
 31
0.0
  0
LINE
  5
356
330
1E
100
AcDbEntity
  8
0
100
AcDbLine
 10
115.86
 20
0.0000000000000056
 30
0.0
 11
116.8199999999999
 21
0.0000000000000055
 31
0.0
  0
LINE
  5
35D
330
1E
100
AcDbEntity
  8
0
100
AcDbLine
 10
117.7
 20
0.000000000000007
 30
0.0
 11
118.75
 21
0.000000000000007
 31
0.0
  0
LINE
  5
35E
330
1E
100
AcDbEntity
  8
0
100
AcDbLine
 10
117.25
 20
0.0000000000000098
 30
0.0
 11
117.7
 21
0.0000000000000098
 31
0.0
  0
LINE
  5
35F
330
1E
100
AcDbEntity
  8
0
100
AcDbLine
 10
117.25
 20
0.0000000000000098
 30
0.0
 11
117.7
 21
0.0000000000000097
 31
0.0
  0
LINE
  5
360
330
1E
100
AcDbEntity
  8
0
100
AcDbLine
 10
117.25
 20
0.0000000000000098
 30
0.0
 11
117.25
 21
1.50000000000001
 31
0.0
  0
LINE
  5
361
330
1E
100
AcDbEntity
  8
0
100
AcDbLine
 10
117.25
 20
0.000000000000008
 30
0.0
 11
117.7
 21
0.000000000000008
 31
0.0
  0
LINE
  5
362
330
1E
100
AcDbEntity
  8
0
100
AcDbLine
 10
117.25
 20
0.000000000000008
 30
0.0
 11
117.7
 21
0.0000000000000079
 31
0.0
  0
LINE
  5
363
330
1E
100
AcDbEntity
  8
0
100
AcDbLine
 10
117.25
 20
0.000000000000008
 30
0.0
 11
117.25
 21
1.50000000000001
 31
0.0
  0
LINE
  5
364
330
1E
100
AcDbEntity
  8
0
100
AcDbLine
 10
117.7
 20
0.0000000000000079
 30
0.0
 11
118.75
 21
0.0000000000000079
 31
0.0
  0
LINE
  5
365
330
1E
100
AcDbEntity
  8
0
100
AcDbLine
 10
117.7
 20
0.000000000000008
 30
0.0
 11
118.75
 21
0.0000000000000081
 31
0.0
  0
LINE
  5
366
330
1E
100
AcDbEntity
  8
0
100
AcDbLine
 10
117.7
 20
0.0000000000000088
 30
0.0
 11
118.75
 21
0.0000000000000088
 31
0.0
  0
LINE
  5
367
330
1E
100
AcDbEntity
  8
0
100
AcDbLine
 10
117.7
 20
0.0000000000000097
 30
0.0
 11
118.75
 21
0.0000000000000097
 31
0.0
  0
LINE
  5
368
330
1E
100
AcDbEntity
  8
0
100
AcDbLine
 10
117.7
 20
0.0000000000000098
 30
0.0
 11
118.75
 21
0.0000000000000098
 31
0.0
  0
LINE
  5
369
330
1E
100
AcDbEntity
  8
0
100
AcDbLine
 10
117.7
 20
0.0000000000000098
 30
0.0
 11
117.7
 21
1.50000000000001
 31
0.0
  0
LINE
  5
36A
330
1E
100
AcDbEntity
  8
0
100
AcDbLine
 10
117.7
 20
0.0000000000000089
 30
0.0
 11
118.75
 21
0.000000000000009
 31
0.0
  0
LINE
  5
36B
330
1E
100
AcDbEntity
  8
0
100
AcDbLine
 10
117.25
 20
0.0000000000000089
 30
0.0
 11
117.7
 21
0.0000000000000089
 31
0.0
  0
LINE
  5
36C
330
1E
100
AcDbEntity
  8
0
100
AcDbLine
 10
117.25
 20
0.0000000000000089
 30
0.0
 11
117.7
 21
0.0000000000000088
 31
0.0
  0
LINE
  5
36D
330
1E
100
AcDbEntity
  8
0
100
AcDbLine
 10
117.25
 20
0.0000000000000089
 30
0.0
 11
117.25
 21
1.50000000000001
 31
0.0
  0
LINE
  5
36E
330
1E
100
AcDbEntity
  8
0
100
AcDbLine
 10
117.7
 20
0.0000000000000072
 30
0.0
 11
118.75
 21
0.0000000000000072
 31
0.0
  0
LINE
  5
36F
330
1E
100
AcDbEntity
  8
0
100
AcDbLine
 10
117.25
 20
0.0000000000000071
 30
0.0
 11
117.7
 21
0.0000000000000072
 31
0.0
  0
LINE
  5
370
330
1E
100
AcDbEntity
  8
0
100
AcDbLine
 10
117.25
 20
0.0000000000000071
 30
0.0
 11
117.7
 21
0.000000000000007
 31
0.0
  0
LINE
  5
371
330
1E
100
AcDbEntity
  8
0
100
AcDbLine
 10
117.25
 20
0.0000000000000071
 30
0.0
 11
117.25
 21
1.50000000000001
 31
0.0
  0
LINE
  5
374
330
1E
100
AcDbEntity
  8
0
100
AcDbLine
 10
118.75
 20
0.000000000000007
 30
0.0
 11
119.7999999999999
 21
0.000000000000007
 31
0.0
  0
LINE
  5
375
330
1E
100
AcDbEntity
  8
0
100
AcDbLine
 10
119.7999999999999
 20
0.000000000000007
 30
0.0
 11
120.25
 21
0.0000000000000071
 31
0.0
  0
LINE
  5
376
330
1E
100
AcDbEntity
  8
0
100
AcDbLine
 10
119.7999999999999
 20
0.0000000000000072
 30
0.0
 11
120.25
 21
0.0000000000000071
 31
0.0
  0
LINE
  5
377
330
1E
100
AcDbEntity
  8
0
100
AcDbLine
 10
118.75
 20
0.0000000000000079
 30
0.0
 11
119.7999999999999
 21
0.0000000000000079
 31
0.0
  0
LINE
  5
378
330
1E
100
AcDbEntity
  8
0
100
AcDbLine
 10
118.75
 20
0.0000000000000081
 30
0.0
 11
119.7999999999999
 21
0.000000000000008
 31
0.0
  0
LINE
  5
379
330
1E
100
AcDbEntity
  8
0
100
AcDbLine
 10
118.75
 20
0.0000000000000088
 30
0.0
 11
119.7999999999999
 21
0.0000000000000088
 31
0.0
  0
LINE
  5
37A
330
1E
100
AcDbEntity
  8
0
100
AcDbLine
 10
118.75
 20
0.0000000000000097
 30
0.0
 11
119.7999999999999
 21
0.0000000000000097
 31
0.0
  0
LINE
  5
37B
330
1E
100
AcDbEntity
  8
0
100
AcDbLine
 10
118.75
 20
0.0000000000000098
 30
0.0
 11
119.7999999999999
 21
0.0000000000000098
 31
0.0
  0
LINE
  5
37C
330
1E
100
AcDbEntity
  8
0
100
AcDbLine
 10
118.75
 20
0.0000000000000098
 30
0.0
 11
118.75
 21
1.50000000000001
 31
0.0
  0
LINE
  5
37D
330
1E
100
AcDbEntity
  8
0
100
AcDbLine
 10
118.75
 20
0.000000000000009
 30
0.0
 11
119.7999999999999
 21
0.0000000000000089
 31
0.0
  0
LINE
  5
37E
330
1E
100
AcDbEntity
  8
0
100
AcDbLine
 10
119.7999999999999
 20
0.0000000000000079
 30
0.0
 11
120.25
 21
0.000000000000008
 31
0.0
  0
LINE
  5
37F
330
1E
100
AcDbEntity
  8
0
100
AcDbLine
 10
119.7999999999999
 20
0.000000000000008
 30
0.0
 11
120.25
 21
0.000000000000008
 31
0.0
  0
LINE
  5
380
330
1E
100
AcDbEntity
  8
0
100
AcDbLine
 10
119.7999999999999
 20
0.0000000000000097
 30
0.0
 11
120.25
 21
0.0000000000000098
 31
0.0
  0
LINE
  5
381
330
1E
100
AcDbEntity
  8
0
100
AcDbLine
 10
119.7999999999999
 20
0.0000000000000098
 30
0.0
 11
120.25
 21
0.0000000000000098
 31
0.0
  0
LINE
  5
382
330
1E
100
AcDbEntity
  8
0
100
AcDbLine
 10
119.7999999999999
 20
0.0000000000000098
 30
0.0
 11
119.7999999999999
 21
1.50000000000001
 31
0.0
  0
LINE
  5
383
330
1E
100
AcDbEntity
  8
0
100
AcDbLine
 10
119.7999999999999
 20
0.0000000000000088
 30
0.0
 11
120.25
 21
0.0000000000000089
 31
0.0
  0
LINE
  5
384
330
1E
100
AcDbEntity
  8
0
100
AcDbLine
 10
120.25
 20
0.0000000000000098
 30
0.0
 11
120.25
 21
1.50000000000001
 31
0.0
  0
LINE
  5
385
330
1E
100
AcDbEntity
  8
0
100
AcDbLine
 10
119.7999999999999
 20
0.0000000000000089
 30
0.0
 11
120.25
 21
0.0000000000000089
 31
0.0
  0
LINE
  5
386
330
1E
100
AcDbEntity
  8
0
100
AcDbLine
 10
118.75
 20
0.0000000000000072
 30
0.0
 11
119.7999999999999
 21
0.0000000000000072
 31
0.0
  0
LINE
  5
3B1
330
1E
100
AcDbEntity
  8
0
100
AcDbLine
 10
122.94
 20
0.0000000000000063
 30
0.0
 11
125.5
 21
0.0000000000000064
 31
0.0
  0
LINE
  5
3B2
330
1E
100
AcDbEntity
  8
0
100
AcDbLine
 10
120.54
 20
0.0000000000000063
 30
0.0
 11
122.94
 21
0.0000000000000063
 31
0.0
  0
LINE
  5
3B3
330
1E
100
AcDbEntity
  8
0
100
AcDbLine
 10
118.42
 20
0.0000000000000062
 30
0.0
 11
120.54
 21
0.0000000000000063
 31
0.0
  0
LINE
  5
3B4
330
1E
100
AcDbEntity
  8
0
100
AcDbLine
 10
116.8199999999999
 20
0.0000000000000061
 30
0.0
 11
118.42
 21
0.0000000000000062
 31
0.0
  0
LINE
  5
3B5
330
1E
100
AcDbEntity
  8
0
100
AcDbLine
 10
115.86
 20
0.0000000000000059
 30
0.0
 11
116.8199999999999
 21
0.0000000000000061
 31
0.0
  0
LINE
  5
3B6
330
1E
100
AcDbEntity
  8
0
100
AcDbLine
 10
115.86
 20
0.0000000000000059
 30
0.0
 11
115.86
 21
1.50000000000001
 31
0.0
  0
LINE
  5
3B7
330
1E
100
AcDbEntity
  8
0
100
AcDbLine
 10
115.5
 20
0.0000000000000058
 30
0.0
 11
115.86
 21
0.0000000000000059
 31
0.0
  0
LINE
  5
3B8
330
1E
100
AcDbEntity
  8
0
100
AcDbLine
 10
115.5
 20
0.0000000000000058
 30
0.0
 11
115.86
 21
0.0000000000000056
 31
0.0
  0
LINE
  5
3B9
330
1E
100
AcDbEntity
  8
0
100
AcDbLine
 10
115.5
 20
0.0000000000000058
 30
0.0
 11
115.5
 21
1.50000000000001
 31
0.0
  0
LINE
  5
6B0
330
1E
100
AcDbEntity
  8
0
100
AcDbLine
 10
106.75
 20
1.5
 30
0.0
 11
115.5
 21
1.5
 31
0.0
  0
LINE
  5
6B1
330
1E
100
AcDbEntity
  8
0
100
AcDbLine
 10
106.75
 20
1.5
 30
0.0
 11
115.5
 21
1.5
 31
0.0
  0
LINE
  5
6B2
330
1E
100
AcDbEntity
  8
0
100
AcDbLine
 10
7.90667
 20
1.5
 30
0.0
 11
9.25
 21
1.5
 31
0.0
  0
LINE
  5
6B3
330
1E
100
AcDbEntity
  8
0
100
AcDbLine
 10
2.479999999999999
 20
1.5
 30
0.0
 11
3.56533
 21
1.5
 31
0.0
  0
LINE
  5
6B4
330
1E
100
AcDbEntity
  8
0
100
AcDbLine
 10
9.25
 20
1.50000000000001
 30
0.0
 11
9.25
 21
0.0000000000000097
 31
0.0
  0
LINE
  5
6B5
330
1E
100
AcDbEntity
  8
0
100
AcDbLine
 10
9.25
 20
1.50000000000001
 30
0.0
 11
9.25
 21
0.0000000000000088
 31
0.0
  0
LINE
  5
6B6
330
1E
100
AcDbEntity
  8
0
100
AcDbLine
 10
9.25
 20
1.50000000000001
 30
0.0
 11
9.25
 21
0.0000000000000081
 31
0.0
  0
LINE
  5
6B7
330
1E
100
AcDbEntity
  8
0
100
AcDbLine
 10
9.25
 20
1.50000000000001
 30
0.0
 11
9.25
 21
0.0000000000000071
 31
0.0
  0
LINE
  5
6B8
330
1E
100
AcDbEntity
  8
0
100
AcDbLine
 10
9.25
 20
1.50000000000001
 30
0.0
 11
9.25
 21
0.0000000000000062
 31
0.0
  0
LINE
  5
6B9
330
1E
100
AcDbEntity
  8
0
100
AcDbLine
 10
9.25
 20
1.50000000000001
 30
0.0
 11
9.25
 21
0.0000000000000016
 31
0.0
  0
LINE
  5
6BA
330
1E
100
AcDbEntity
  8
0
100
AcDbLine
 10
9.25
 20
1.50000000000001
 30
0.0
 11
9.25
 21
0.0000000000000036
 31
0.0
  0
LINE
  5
6BB
330
1E
100
AcDbEntity
  8
0
100
AcDbLine
 10
9.25
 20
1.50000000000001
 30
0.0
 11
9.25
 21
0.0000000000000026
 31
0.0
  0
LINE
  5
6BC
330
1E
100
AcDbEntity
  8
0
100
AcDbLine
 10
9.25
 20
1.50000000000001
 30
0.0
 11
9.25
 21
0.0000000000000045
 31
0.0
  0
LINE
  5
6BD
330
1E
100
AcDbEntity
  8
0
100
AcDbLine
 10
9.25
 20
1.50000000000001
 30
0.0
 11
9.25
 21
0.0000000000000052
 31
0.0
  0
LINE
  5
6BE
330
1E
100
AcDbEntity
  8
0
100
AcDbLine
 10
12.25
 20
1.50000000000001
 30
0.0
 11
12.25
 21
0.0000000000000097
 31
0.0
  0
LINE
  5
6BF
330
1E
100
AcDbEntity
  8
0
100
AcDbLine
 10
11.8
 20
1.50000000000001
 30
0.0
 11
11.8
 21
0.0000000000000097
 31
0.0
  0
LINE
  5
6C0
330
1E
100
AcDbEntity
  8
0
100
AcDbLine
 10
10.74999999999999
 20
1.50000000000001
 30
0.0
 11
10.74999999999999
 21
0.0000000000000097
 31
0.0
  0
LINE
  5
6C1
330
1E
100
AcDbEntity
  8
0
100
AcDbLine
 10
9.699999999999999
 20
1.50000000000001
 30
0.0
 11
9.699999999999999
 21
0.0000000000000097
 31
0.0
  0
LINE
  5
6C2
330
1E
100
AcDbEntity
  8
0
100
AcDbLine
 10
36.25
 20
1.50000000000001
 30
0.0
 11
36.25
 21
0.0000000000000097
 31
0.0
  0
LINE
  5
6C3
330
1E
100
AcDbEntity
  8
0
100
AcDbLine
 10
36.25
 20
1.50000000000001
 30
0.0
 11
36.25
 21
0.0000000000000088
 31
0.0
  0
LINE
  5
6C4
330
1E
100
AcDbEntity
  8
0
100
AcDbLine
 10
36.25
 20
1.50000000000001
 30
0.0
 11
36.25
 21
0.0000000000000081
 31
0.0
  0
LINE
  5
6C5
330
1E
100
AcDbEntity
  8
0
100
AcDbLine
 10
36.25
 20
1.50000000000001
 30
0.0
 11
36.25
 21
0.0000000000000071
 31
0.0
  0
LINE
  5
6C6
330
1E
100
AcDbEntity
  8
0
100
AcDbLine
 10
36.25
 20
1.50000000000001
 30
0.0
 11
36.25
 21
0.0000000000000062
 31
0.0
  0
LINE
  5
6C7
330
1E
100
AcDbEntity
  8
0
100
AcDbLine
 10
36.25
 20
1.50000000000001
 30
0.0
 11
36.25
 21
0.0000000000000016
 31
0.0
  0
LINE
  5
6C8
330
1E
100
AcDbEntity
  8
0
100
AcDbLine
 10
36.25
 20
1.50000000000001
 30
0.0
 11
36.25
 21
0.0000000000000036
 31
0.0
  0
LINE
  5
6C9
330
1E
100
AcDbEntity
  8
0
100
AcDbLine
 10
36.25
 20
1.50000000000001
 30
0.0
 11
36.25
 21
0.0000000000000026
 31
0.0
  0
LINE
  5
6CA
330
1E
100
AcDbEntity
  8
0
100
AcDbLine
 10
36.25
 20
1.50000000000001
 30
0.0
 11
36.25
 21
0.0000000000000045
 31
0.0
  0
LINE
  5
6CB
330
1E
100
AcDbEntity
  8
0
100
AcDbLine
 10
36.25
 20
1.50000000000001
 30
0.0
 11
36.25
 21
0.0000000000000052
 31
0.0
  0
LINE
  5
6CC
330
1E
100
AcDbEntity
  8
0
100
AcDbLine
 10
49.75
 20
1.50000000000001
 30
0.0
 11
49.75
 21
0.0000000000000097
 31
0.0
  0
LINE
  5
6CD
330
1E
100
AcDbEntity
  8
0
100
AcDbLine
 10
49.75
 20
1.50000000000001
 30
0.0
 11
49.75
 21
0.0000000000000088
 31
0.0
  0
LINE
  5
6CE
330
1E
100
AcDbEntity
  8
0
100
AcDbLine
 10
49.75
 20
1.50000000000001
 30
0.0
 11
49.75
 21
0.0000000000000081
 31
0.0
  0
LINE
  5
6CF
330
1E
100
AcDbEntity
  8
0
100
AcDbLine
 10
49.75
 20
1.50000000000001
 30
0.0
 11
49.75
 21
0.0000000000000071
 31
0.0
  0
LINE
  5
6D0
330
1E
100
AcDbEntity
  8
0
100
AcDbLine
 10
49.75
 20
1.50000000000001
 30
0.0
 11
49.75
 21
0.0000000000000062
 31
0.0
  0
LINE
  5
6D1
330
1E
100
AcDbEntity
  8
0
100
AcDbLine
 10
49.75
 20
1.50000000000001
 30
0.0
 11
49.75
 21
0.0000000000000016
 31
0.0
  0
LINE
  5
6D2
330
1E
100
AcDbEntity
  8
0
100
AcDbLine
 10
49.75
 20
1.50000000000001
 30
0.0
 11
49.75
 21
0.0000000000000036
 31
0.0
  0
LINE
  5
6D3
330
1E
100
AcDbEntity
  8
0
100
AcDbLine
 10
49.75
 20
1.50000000000001
 30
0.0
 11
49.75
 21
0.0000000000000026
 31
0.0
  0
LINE
  5
6D4
330
1E
100
AcDbEntity
  8
0
100
AcDbLine
 10
49.75
 20
1.50000000000001
 30
0.0
 11
49.75
 21
0.0000000000000045
 31
0.0
  0
LINE
  5
6D5
330
1E
100
AcDbEntity
  8
0
100
AcDbLine
 10
49.75
 20
1.50000000000001
 30
0.0
 11
49.75
 21
0.0000000000000052
 31
0.0
  0
LINE
  5
6D6
330
1E
100
AcDbEntity
  8
0
100
AcDbLine
 10
63.25
 20
1.50000000000001
 30
0.0
 11
63.25
 21
0.0000000000000097
 31
0.0
  0
LINE
  5
6D7
330
1E
100
AcDbEntity
  8
0
100
AcDbLine
 10
63.25
 20
1.50000000000001
 30
0.0
 11
63.25
 21
0.0000000000000088
 31
0.0
  0
LINE
  5
6D8
330
1E
100
AcDbEntity
  8
0
100
AcDbLine
 10
63.25
 20
1.50000000000001
 30
0.0
 11
63.25
 21
0.0000000000000081
 31
0.0
  0
LINE
  5
6D9
330
1E
100
AcDbEntity
  8
0
100
AcDbLine
 10
63.25
 20
1.50000000000001
 30
0.0
 11
63.25
 21
0.0000000000000071
 31
0.0
  0
LINE
  5
6DA
330
1E
100
AcDbEntity
  8
0
100
AcDbLine
 10
63.25
 20
1.50000000000001
 30
0.0
 11
63.25
 21
0.0000000000000062
 31
0.0
  0
LINE
  5
6DB
330
1E
100
AcDbEntity
  8
0
100
AcDbLine
 10
63.25
 20
1.50000000000001
 30
0.0
 11
63.25
 21
0.0000000000000016
 31
0.0
  0
LINE
  5
6DC
330
1E
100
AcDbEntity
  8
0
100
AcDbLine
 10
63.25
 20
1.50000000000001
 30
0.0
 11
63.25
 21
0.0000000000000036
 31
0.0
  0
LINE
  5
6DD
330
1E
100
AcDbEntity
  8
0
100
AcDbLine
 10
63.25
 20
1.50000000000001
 30
0.0
 11
63.25
 21
0.0000000000000026
 31
0.0
  0
LINE
  5
6DE
330
1E
100
AcDbEntity
  8
0
100
AcDbLine
 10
63.25
 20
1.50000000000001
 30
0.0
 11
63.25
 21
0.0000000000000045
 31
0.0
  0
LINE
  5
6DF
330
1E
100
AcDbEntity
  8
0
100
AcDbLine
 10
63.25
 20
1.50000000000001
 30
0.0
 11
63.25
 21
0.0000000000000052
 31
0.0
  0
LINE
  5
6E0
330
1E
100
AcDbEntity
  8
0
100
AcDbLine
 10
66.25
 20
1.50000000000001
 30
0.0
 11
66.25
 21
0.0000000000000097
 31
0.0
  0
LINE
  5
6E1
330
1E
100
AcDbEntity
  8
0
100
AcDbLine
 10
65.8
 20
1.50000000000001
 30
0.0
 11
65.8
 21
0.0000000000000097
 31
0.0
  0
LINE
  5
6E2
330
1E
100
AcDbEntity
  8
0
100
AcDbLine
 10
64.75
 20
1.50000000000001
 30
0.0
 11
64.75
 21
0.0000000000000097
 31
0.0
  0
LINE
  5
6E3
330
1E
100
AcDbEntity
  8
0
100
AcDbLine
 10
63.7
 20
1.50000000000001
 30
0.0
 11
63.7
 21
0.0000000000000097
 31
0.0
  0
LINE
  5
6E4
330
1E
100
AcDbEntity
  8
0
100
AcDbLine
 10
52.75
 20
1.50000000000001
 30
0.0
 11
52.75
 21
0.0000000000000097
 31
0.0
  0
LINE
  5
6E5
330
1E
100
AcDbEntity
  8
0
100
AcDbLine
 10
52.3
 20
1.50000000000001
 30
0.0
 11
52.3
 21
0.0000000000000097
 31
0.0
  0
LINE
  5
6E6
330
1E
100
AcDbEntity
  8
0
100
AcDbLine
 10
51.25
 20
1.50000000000001
 30
0.0
 11
51.25
 21
0.0000000000000097
 31
0.0
  0
LINE
  5
6E7
330
1E
100
AcDbEntity
  8
0
100
AcDbLine
 10
50.2
 20
1.50000000000001
 30
0.0
 11
50.2
 21
0.0000000000000097
 31
0.0
  0
LINE
  5
6E8
330
1E
100
AcDbEntity
  8
0
100
AcDbLine
 10
39.25
 20
1.50000000000001
 30
0.0
 11
39.25
 21
0.0000000000000097
 31
0.0
  0
LINE
  5
6E9
330
1E
100
AcDbEntity
  8
0
100
AcDbLine
 10
38.79999999999999
 20
1.50000000000001
 30
0.0
 11
38.79999999999999
 21
0.0000000000000097
 31
0.0
  0
LINE
  5
6EA
330
1E
100
AcDbEntity
  8
0
100
AcDbLine
 10
37.75
 20
1.50000000000001
 30
0.0
 11
37.75
 21
0.0000000000000097
 31
0.0
  0
LINE
  5
6EB
330
1E
100
AcDbEntity
  8
0
100
AcDbLine
 10
36.7
 20
1.50000000000001
 30
0.0
 11
36.7
 21
0.0000000000000097
 31
0.0
  0
LINE
  5
6EC
330
1E
100
AcDbEntity
  8
0
100
AcDbLine
 10
25.75
 20
1.50000000000001
 30
0.0
 11
25.75
 21
0.0000000000000097
 31
0.0
  0
LINE
  5
6ED
330
1E
100
AcDbEntity
  8
0
100
AcDbLine
 10
25.3
 20
1.50000000000001
 30
0.0
 11
25.3
 21
0.0000000000000097
 31
0.0
  0
LINE
  5
6EE
330
1E
100
AcDbEntity
  8
0
100
AcDbLine
 10
24.25
 20
1.50000000000001
 30
0.0
 11
24.25
 21
0.0000000000000097
 31
0.0
  0
LINE
  5
6EF
330
1E
100
AcDbEntity
  8
0
100
AcDbLine
 10
23.19999999999999
 20
1.50000000000001
 30
0.0
 11
23.19999999999999
 21
0.0000000000000097
 31
0.0
  0
LINE
  5
6F0
330
1E
100
AcDbEntity
  8
0
100
AcDbLine
 10
22.74999999999999
 20
1.50000000000001
 30
0.0
 11
22.74999999999999
 21
0.0000000000000062
 31
0.0
  0
LINE
  5
6F1
330
1E
100
AcDbEntity
  8
0
100
AcDbLine
 10
22.74999999999999
 20
1.50000000000001
 30
0.0
 11
22.74999999999999
 21
0.0000000000000071
 31
0.0
  0
LINE
  5
6F2
330
1E
100
AcDbEntity
  8
0
100
AcDbLine
 10
22.74999999999999
 20
1.50000000000001
 30
0.0
 11
22.74999999999999
 21
0.0000000000000081
 31
0.0
  0
LINE
  5
6F3
330
1E
100
AcDbEntity
  8
0
100
AcDbLine
 10
22.74999999999999
 20
1.50000000000001
 30
0.0
 11
22.74999999999999
 21
0.0000000000000088
 31
0.0
  0
LINE
  5
6F4
330
1E
100
AcDbEntity
  8
0
100
AcDbLine
 10
22.74999999999999
 20
1.50000000000001
 30
0.0
 11
22.74999999999999
 21
0.0000000000000097
 31
0.0
  0
LINE
  5
6F5
330
1E
100
AcDbEntity
  8
0
100
AcDbLine
 10
22.74999999999999
 20
1.50000000000001
 30
0.0
 11
22.74999999999999
 21
0.0000000000000016
 31
0.0
  0
LINE
  5
6F6
330
1E
100
AcDbEntity
  8
0
100
AcDbLine
 10
22.74999999999999
 20
1.50000000000001
 30
0.0
 11
22.74999999999999
 21
0.0000000000000036
 31
0.0
  0
LINE
  5
6F7
330
1E
100
AcDbEntity
  8
0
100
AcDbLine
 10
22.74999999999999
 20
1.50000000000001
 30
0.0
 11
22.74999999999999
 21
0.0000000000000026
 31
0.0
  0
LINE
  5
6F8
330
1E
100
AcDbEntity
  8
0
100
AcDbLine
 10
22.74999999999999
 20
1.50000000000001
 30
0.0
 11
22.74999999999999
 21
0.0000000000000045
 31
0.0
  0
LINE
  5
6F9
330
1E
100
AcDbEntity
  8
0
100
AcDbLine
 10
22.74999999999999
 20
1.50000000000001
 30
0.0
 11
22.74999999999999
 21
0.0000000000000052
 31
0.0
  0
LINE
  5
6FA
330
1E
100
AcDbEntity
  8
0
100
AcDbLine
 10
76.75
 20
1.50000000000001
 30
0.0
 11
76.75
 21
0.0000000000000097
 31
0.0
  0
LINE
  5
6FB
330
1E
100
AcDbEntity
  8
0
100
AcDbLine
 10
76.75
 20
1.50000000000001
 30
0.0
 11
76.75
 21
0.0000000000000088
 31
0.0
  0
LINE
  5
6FC
330
1E
100
AcDbEntity
  8
0
100
AcDbLine
 10
76.75
 20
1.50000000000001
 30
0.0
 11
76.75
 21
0.0000000000000081
 31
0.0
  0
LINE
  5
6FD
330
1E
100
AcDbEntity
  8
0
100
AcDbLine
 10
76.75
 20
1.50000000000001
 30
0.0
 11
76.75
 21
0.0000000000000071
 31
0.0
  0
LINE
  5
6FE
330
1E
100
AcDbEntity
  8
0
100
AcDbLine
 10
76.75
 20
1.50000000000001
 30
0.0
 11
76.75
 21
0.0000000000000062
 31
0.0
  0
LINE
  5
6FF
330
1E
100
AcDbEntity
  8
0
100
AcDbLine
 10
76.75
 20
1.50000000000001
 30
0.0
 11
76.75
 21
0.0000000000000045
 31
0.0
  0
LINE
  5
700
330
1E
100
AcDbEntity
  8
0
100
AcDbLine
 10
76.75
 20
1.50000000000001
 30
0.0
 11
76.75
 21
0.0000000000000036
 31
0.0
  0
LINE
  5
701
330
1E
100
AcDbEntity
  8
0
100
AcDbLine
 10
76.75
 20
1.50000000000001
 30
0.0
 11
76.75
 21
0.0000000000000026
 31
0.0
  0
LINE
  5
702
330
1E
100
AcDbEntity
  8
0
100
AcDbLine
 10
76.75
 20
1.50000000000001
 30
0.0
 11
76.75
 21
0.0000000000000016
 31
0.0
  0
LINE
  5
703
330
1E
100
AcDbEntity
  8
0
100
AcDbLine
 10
76.75
 20
1.50000000000001
 30
0.0
 11
76.75
 21
0.0000000000000052
 31
0.0
  0
LINE
  5
704
330
1E
100
AcDbEntity
  8
0
100
AcDbLine
 10
90.25
 20
1.50000000000001
 30
0.0
 11
90.25
 21
0.0000000000000097
 31
0.0
  0
LINE
  5
705
330
1E
100
AcDbEntity
  8
0
100
AcDbLine
 10
90.25
 20
1.50000000000001
 30
0.0
 11
90.25
 21
0.0000000000000088
 31
0.0
  0
LINE
  5
706
330
1E
100
AcDbEntity
  8
0
100
AcDbLine
 10
90.25
 20
1.50000000000001
 30
0.0
 11
90.25
 21
0.0000000000000081
 31
0.0
  0
LINE
  5
707
330
1E
100
AcDbEntity
  8
0
100
AcDbLine
 10
90.25
 20
1.50000000000001
 30
0.0
 11
90.25
 21
0.0000000000000071
 31
0.0
  0
LINE
  5
708
330
1E
100
AcDbEntity
  8
0
100
AcDbLine
 10
90.25
 20
1.50000000000001
 30
0.0
 11
90.25
 21
0.0000000000000062
 31
0.0
  0
LINE
  5
709
330
1E
100
AcDbEntity
  8
0
100
AcDbLine
 10
90.25
 20
1.50000000000001
 30
0.0
 11
90.25
 21
0.0000000000000016
 31
0.0
  0
LINE
  5
70A
330
1E
100
AcDbEntity
  8
0
100
AcDbLine
 10
90.25
 20
1.50000000000001
 30
0.0
 11
90.25
 21
0.0000000000000036
 31
0.0
  0
LINE
  5
70B
330
1E
100
AcDbEntity
  8
0
100
AcDbLine
 10
90.25
 20
1.50000000000001
 30
0.0
 11
90.25
 21
0.0000000000000026
 31
0.0
  0
LINE
  5
70C
330
1E
100
AcDbEntity
  8
0
100
AcDbLine
 10
90.25
 20
1.50000000000001
 30
0.0
 11
90.25
 21
0.0000000000000045
 31
0.0
  0
LINE
  5
70D
330
1E
100
AcDbEntity
  8
0
100
AcDbLine
 10
90.25
 20
1.50000000000001
 30
0.0
 11
90.25
 21
0.0000000000000052
 31
0.0
  0
LINE
  5
70E
330
1E
100
AcDbEntity
  8
0
100
AcDbLine
 10
93.25000000000001
 20
1.50000000000001
 30
0.0
 11
93.25000000000001
 21
0.0000000000000097
 31
0.0
  0
LINE
  5
70F
330
1E
100
AcDbEntity
  8
0
100
AcDbLine
 10
92.79999999999999
 20
1.50000000000001
 30
0.0
 11
92.79999999999999
 21
0.0000000000000097
 31
0.0
  0
LINE
  5
710
330
1E
100
AcDbEntity
  8
0
100
AcDbLine
 10
91.75
 20
1.50000000000001
 30
0.0
 11
91.75
 21
0.0000000000000097
 31
0.0
  0
LINE
  5
711
330
1E
100
AcDbEntity
  8
0
100
AcDbLine
 10
90.7
 20
1.50000000000001
 30
0.0
 11
90.7
 21
0.0000000000000097
 31
0.0
  0
LINE
  5
712
330
1E
100
AcDbEntity
  8
0
100
AcDbLine
 10
79.75
 20
1.50000000000001
 30
0.0
 11
79.75
 21
0.0000000000000097
 31
0.0
  0
LINE
  5
713
330
1E
100
AcDbEntity
  8
0
100
AcDbLine
 10
79.29999999999999
 20
1.50000000000001
 30
0.0
 11
79.29999999999999
 21
0.0000000000000097
 31
0.0
  0
LINE
  5
714
330
1E
100
AcDbEntity
  8
0
100
AcDbLine
 10
78.25
 20
1.50000000000001
 30
0.0
 11
78.25
 21
0.0000000000000097
 31
0.0
  0
LINE
  5
715
330
1E
100
AcDbEntity
  8
0
100
AcDbLine
 10
77.2
 20
1.50000000000001
 30
0.0
 11
77.2
 21
0.0000000000000097
 31
0.0
  0
LINE
  5
716
330
1E
100
AcDbEntity
  8
0
100
AcDbLine
 10
103.75
 20
1.50000000000001
 30
0.0
 11
103.75
 21
0.0000000000000097
 31
0.0
  0
LINE
  5
717
330
1E
100
AcDbEntity
  8
0
100
AcDbLine
 10
103.75
 20
1.50000000000001
 30
0.0
 11
103.75
 21
0.0000000000000088
 31
0.0
  0
LINE
  5
718
330
1E
100
AcDbEntity
  8
0
100
AcDbLine
 10
103.75
 20
1.50000000000001
 30
0.0
 11
103.75
 21
0.0000000000000081
 31
0.0
  0
LINE
  5
719
330
1E
100
AcDbEntity
  8
0
100
AcDbLine
 10
103.75
 20
1.50000000000001
 30
0.0
 11
103.75
 21
0.0000000000000071
 31
0.0
  0
LINE
  5
71A
330
1E
100
AcDbEntity
  8
0
100
AcDbLine
 10
103.75
 20
1.50000000000001
 30
0.0
 11
103.75
 21
0.0000000000000062
 31
0.0
  0
LINE
  5
71B
330
1E
100
AcDbEntity
  8
0
100
AcDbLine
 10
103.75
 20
1.50000000000001
 30
0.0
 11
103.75
 21
0.0000000000000036
 31
0.0
  0
LINE
  5
71C
330
1E
100
AcDbEntity
  8
0
100
AcDbLine
 10
103.75
 20
1.50000000000001
 30
0.0
 11
103.75
 21
0.0000000000000026
 31
0.0
  0
LINE
  5
71D
330
1E
100
AcDbEntity
  8
0
100
AcDbLine
 10
103.75
 20
1.50000000000001
 30
0.0
 11
103.75
 21
0.0000000000000045
 31
0.0
  0
LINE
  5
71E
330
1E
100
AcDbEntity
  8
0
100
AcDbLine
 10
103.75
 20
1.50000000000001
 30
0.0
 11
103.75
 21
0.0000000000000052
 31
0.0
  0
LINE
  5
71F
330
1E
100
AcDbEntity
  8
0
100
AcDbLine
 10
106.75
 20
1.50000000000001
 30
0.0
 11
106.75
 21
0.0000000000000097
 31
0.0
  0
LINE
  5
720
330
1E
100
AcDbEntity
  8
0
100
AcDbLine
 10
106.2999999999999
 20
1.50000000000001
 30
0.0
 11
106.2999999999999
 21
0.0000000000000097
 31
0.0
  0
LINE
  5
721
330
1E
100
AcDbEntity
  8
0
100
AcDbLine
 10
105.2499999999999
 20
1.50000000000001
 30
0.0
 11
105.2499999999999
 21
0.0000000000000097
 31
0.0
  0
LINE
  5
722
330
1E
100
AcDbEntity
  8
0
100
AcDbLine
 10
104.2
 20
1.50000000000001
 30
0.0
 11
104.2
 21
0.0000000000000097
 31
0.0
  0
LINE
  5
79A
330
1E
100
AcDbEntity
  8
0
100
AcDbLine
 10
120.25
 20
1.50000000000001
 30
0.0
 11
120.25
 21
0.0000000000000097
 31
0.0
  0
LINE
  5
79B
330
1E
100
AcDbEntity
  8
0
100
AcDbLine
 10
119.7999999999999
 20
1.50000000000001
 30
0.0
 11
119.7999999999999
 21
0.0000000000000097
 31
0.0
  0
LINE
  5
79C
330
1E
100
AcDbEntity
  8
0
100
AcDbLine
 10
118.75
 20
1.50000000000001
 30
0.0
 11
118.75
 21
0.0000000000000097
 31
0.0
  0
LINE
  5
79D
330
1E
100
AcDbEntity
  8
0
100
AcDbLine
 10
117.7
 20
1.50000000000001
 30
0.0
 11
117.7
 21
0.0000000000000097
 31
0.0
  0
LINE
  5
79E
330
1E
100
AcDbEntity
  8
0
100
AcDbLine
 10
117.25
 20
1.50000000000001
 30
0.0
 11
117.25
 21
0.0000000000000071
 31
0.0
  0
LINE
  5
79F
330
1E
100
AcDbEntity
  8
0
100
AcDbLine
 10
117.25
 20
1.50000000000001
 30
0.0
 11
117.25
 21
0.0000000000000088
 31
0.0
  0
LINE
  5
7A0
330
1E
100
AcDbEntity
  8
0
100
AcDbLine
 10
117.25
 20
1.50000000000001
 30
0.0
 11
117.25
 21
0.0000000000000081
 31
0.0
  0
LINE
  5
7A1
330
1E
100
AcDbEntity
  8
0
100
AcDbLine
 10
117.25
 20
1.50000000000001
 30
0.0
 11
117.25
 21
0.0000000000000097
 31
0.0
  0
LINE
  5
7A2
330
1E
100
AcDbEntity
  8
0
100
AcDbLine
 10
125.5
 20
1.50000000000001
 30
0.0
 11
125.5
 21
0.0000000000000065
 31
0.0
  0
LINE
  5
7A3
330
1E
100
AcDbEntity
  8
0
100
AcDbLine
 10
115.5
 20
1.50000000000001
 30
0.0
 11
115.5
 21
0.0000000000000058
 31
0.0
  0
LINE
  5
7A6
330
1E
100
AcDbEntity
  8
0
100
AcDbLine
 10
1.69067
 20
1.5
 30
0.0
 11
2.479999999999999
 21
1.5
 31
0.0
  0
LINE
  5
7A7
330
1E
100
AcDbEntity
  8
0
100
AcDbLine
 10
1.0
 20
1.5
 30
0.0
 11
1.177599999999999
 21
1.5
 31
0.0
  0
LINE
  5
7AB
330
1E
100
AcDbEntity
  8
0
100
AcDbLine
 10
4.94667
 20
1.50000000000001
 30
0.0
 11
6.387199999999999
 21
1.50000000000001
 31
0.0
  0
LINE
  5
7AC
330
1E
100
AcDbEntity
  8
0
100
AcDbLine
 10
0.7
 20
2.16667000000001
 30
0.0
 11
1.5
 21
2.16667000000001
 31
0.0
  0
LINE
  5
7AD
330
1E
100
AcDbEntity
  8
0
100
AcDbLine
 10
0.18
 20
13.5
 30
0.0
 11
0.7
 21
13.5
 31
0.0
  0
LINE
  5
7AE
330
1E
100
AcDbEntity
  8
0
100
AcDbLine
 10
1.5
 20
13.5
 30
0.0
 11
2.6
 21
13.5
 31
0.0
  0
LINE
  5
7AF
330
1E
100
AcDbEntity
  8
0
100
AcDbLine
 10
0.7
 20
13.5
 30
0.0
 11
1.5
 21
13.5
 31
0.0
  0
LINE
  5
7B0
330
1E
100
AcDbEntity
  8
0
100
AcDbLine
 10
0.5
 20
14.1667
 30
0.0
 11
4.0
 21
15.5
 31
0.0
  0
LINE
  5
7B1
330
1E
100
AcDbEntity
  8
0
100
AcDbLine
 10
0.18
 20
13.5
 30
0.0
 11
0.7
 21
13.5
 31
0.0
  0
LINE
  5
7B2
330
1E
100
AcDbEntity
  8
0
100
AcDbLine
 10
2.6
 20
2.16667000000001
 30
0.0
 11
4.0
 21
2.16667000000001
 31
0.0
  0
LINE
  5
7B3
330
1E
100
AcDbEntity
  8
0
100
AcDbLine
 10
4.0
 20
2.16667000000001
 30
0.0
 11
5.459999999999999
 21
2.16667000000001
 31
0.0
  0
LINE
  5
7BA
330
1E
100
AcDbEntity
  8
0
100
AcDbLine
 10
7.0
 20
2.16667000000001
 30
0.0
 11
125.5
 21
2.16667000000001
 31
0.0
  0
LINE
  5
7BB
330
1E
100
AcDbEntity
  8
0
100
AcDbLine
 10
5.459999999999999
 20
2.16667000000001
 30
0.0
 11
7.0
 21
2.16667000000001
 31
0.0
  0
LINE
  5
7BC
330
1E
100
AcDbEntity
  8
0
100
AcDbLine
 10
2.6
 20
13.5
 30
0.0
 11
4.0
 21
13.5
 31
0.0
  0
LINE
  5
7BD
330
1E
100
AcDbEntity
  8
0
100
AcDbLine
 10
6.99999999999999
 20
13.5
 30
0.0
 11
125.5
 21
13.5
 31
0.0
  0
LINE
  5
7BE
330
1E
100
AcDbEntity
  8
0
100
AcDbLine
 10
4.0
 20
13.5
 30
0.0
 11
5.459999999999999
 21
13.5
 31
0.0
  0
LINE
  5
7BF
330
1E
100
AcDbEntity
  8
0
100
AcDbLine
 10
4.0
 20
15.5
 30
0.0
 11
10.0
 21
16.8333
 31
0.0
  0
LINE
  5
7C0
330
1E
100
AcDbEntity
  8
0
100
AcDbLine
 10
5.459999999999999
 20
13.5
 30
0.0
 11
7.0
 21
13.5
 31
0.0
  0
LINE
  5
7D1
330
1E
100
AcDbEntity
  8
0
100
AcDbLine
 10
60.52
 20
21.49999999999999
 30
0.0
 11
60.8
 21
21.49999999999999
 31
0.0
  0
LINE
  5
7D2
330
1E
100
AcDbEntity
  8
0
100
AcDbLine
 10
60.8
 20
21.49999999999999
 30
0.0
 11
61.092
 21
21.49999999999999
 31
0.0
  0
LINE
  5
7D4
330
1E
100
AcDbEntity
  8
0
100
AcDbLine
 10
110.4999999999999
 20
21.49999999999999
 30
0.0
 11
110.4999999999999
 21
31.0727
 31
0.0
  0
LINE
  5
7DB
330
1E
100
AcDbEntity
  8
0
100
AcDbLine
 10
61.092
 20
21.49999999999999
 30
0.0
 11
61.4
 21
21.49999999999999
 31
0.0
  0
LINE
  5
7DC
330
1E
100
AcDbEntity
  8
0
100
AcDbLine
 10
111.04
 20
31.0727
 30
0.0
 11
112.48
 21
31.0727
 31
0.0
  0
LINE
  5
7DD
330
1E
100
AcDbEntity
  8
0
100
AcDbLine
 10
112.48
 20
31.0727
 30
0.0
 11
114.88
 21
31.0727
 31
0.0
  0
LINE
  5
7DE
330
1E
100
AcDbEntity
  8
0
100
AcDbLine
 10
114.88
 20
31.0727
 30
0.0
 11
118.06
 21
31.0727
 31
0.0
  0
LINE
  5
7DF
330
1E
100
AcDbEntity
  8
0
100
AcDbLine
 10
118.06
 20
31.0727
 30
0.0
 11
121.6599999999999
 21
31.0727
 31
0.0
  0
LINE
  5
7E0
330
1E
100
AcDbEntity
  8
0
100
AcDbLine
 10
121.6599999999999
 20
31.0727
 30
0.0
 11
125.5
 21
31.0727
 31
0.0
  0
LINE
  5
7E7
330
1E
100
AcDbEntity
  8
0
100
AcDbLine
 10
111.0
 20
31.5
 30
0.0
 11
111.0
 21
53.07269999999999
 31
0.0
  0
LINE
  5
7E8
330
1E
100
AcDbEntity
  8
0
100
AcDbLine
 10
110.86
 20
31.5
 30
0.0
 11
111.4
 21
31.5
 31
0.0
  0
LINE
  5
7E9
330
1E
100
AcDbEntity
  8
0
100
AcDbLine
 10
111.4
 20
31.5
 30
0.0
 11
112.84
 21
31.5
 31
0.0
  0
LINE
  5
7EA
330
1E
100
AcDbEntity
  8
0
100
AcDbLine
 10
112.84
 20
31.5
 30
0.0
 11
115.18
 21
31.5
 31
0.0
  0
LINE
  5
7EB
330
1E
100
AcDbEntity
  8
0
100
AcDbLine
 10
115.18
 20
31.5
 30
0.0
 11
118.2399999999999
 21
31.5
 31
0.0
  0
LINE
  5
7EC
330
1E
100
AcDbEntity
  8
0
100
AcDbLine
 10
118.2399999999999
 20
31.5
 30
0.0
 11
121.72
 21
31.5
 31
0.0
  0
LINE
  5
7ED
330
1E
100
AcDbEntity
  8
0
100
AcDbLine
 10
86.23739999999999
 20
173.05
 30
0.0
 11
86.30929999999999
 21
172.601
 31
0.0
  0
LINE
  5
7EE
330
1E
100
AcDbEntity
  8
0
100
AcDbLine
 10
86.2307
 20
173.1489999999999
 30
0.0
 11
86.23739999999999
 21
173.05
 31
0.0
  0
LINE
  5
7EF
330
1E
100
AcDbEntity
  8
0
100
AcDbLine
 10
85.5419
 20
187.0
 30
0.0
 11
85.64770000000001
 21
187.0
 31
0.0
  0
LINE
  5
7F0
330
1E
100
AcDbEntity
  8
0
100
AcDbLine
 10
85.86020000000001
 20
187.0
 30
0.0
 11
85.9351
 21
187.0
 31
0.0
  0
LINE
  5
7F1
330
1E
100
AcDbEntity
  8
0
100
AcDbLine
 10
86.23650000000001
 20
187.0
 30
0.0
 11
86.39409999999999
 21
187.0
 31
0.0
  0
LINE
  5
7F2
330
1E
100
AcDbEntity
  8
0
100
AcDbLine
 10
85.9351
 20
187.0
 30
0.0
 11
86.1217
 21
187.0
 31
0.0
  0
LINE
  5
7F3
330
1E
100
AcDbEntity
  8
0
100
AcDbLine
 10
86.1217
 20
187.0
 30
0.0
 11
86.23650000000001
 21
187.0
 31
0.0
  0
LINE
  5
7F4
330
1E
100
AcDbEntity
  8
0
100
AcDbLine
 10
85.64770000000001
 20
187.0
 30
0.0
 11
85.86020000000001
 21
187.0
 31
0.0
  0
LINE
  5
7F5
330
1E
100
AcDbEntity
  8
0
100
AcDbLine
 10
86.2025
 20
173.564
 30
0.0
 11
86.23739999999999
 21
173.05
 31
0.0
  0
LINE
  5
7F6
330
1E
100
AcDbEntity
  8
0
100
AcDbLine
 10
86.2025
 20
173.564
 30
0.0
 11
86.2307
 21
173.1489999999999
 31
0.0
  0
LINE
  5
7F9
330
1E
100
AcDbEntity
  8
0
100
AcDbLine
 10
87.48079999999999
 20
171.409
 30
0.0
 11
87.93989999999999
 21
171.333
 31
0.0
  0
LINE
  5
7FA
330
1E
100
AcDbEntity
  8
0
100
AcDbLine
 10
88.4678
 20
171.299
 30
0.0
 11
111.829
 21
170.518
 31
0.0
  0
LINE
  5
7FF
330
1E
100
AcDbEntity
  8
0
100
AcDbLine
 10
88.01579999999999
 20
171.328
 30
0.0
 11
88.4678
 21
171.299
 31
0.0
  0
LINE
  5
803
330
1E
100
AcDbEntity
  8
0
100
AcDbLine
 10
87.93989999999999
 20
171.333
 30
0.0
 11
88.01579999999999
 21
171.328
 31
0.0
  0
LINE
  5
808
330
1E
100
AcDbEntity
  8
0
100
AcDbLine
 10
87.0547
 20
171.569
 30
0.0
 11
87.48079999999999
 21
171.409
 31
0.0
  0
LINE
  5
809
330
1E
100
AcDbEntity
  8
0
100
AcDbLine
 10
87.00320000000001
 20
171.607
 30
0.0
 11
87.0547
 21
171.569
 31
0.0
  0
LINE
  5
80D
330
1E
100
AcDbEntity
  8
0
100
AcDbLine
 10
86.71339999999998
 20
171.8229999999999
 30
0.0
 11
87.00320000000001
 21
171.607
 31
0.0
  0
LINE
  5
80F
330
1E
100
AcDbEntity
  8
0
100
AcDbLine
 10
86.50249999999999
 20
172.117
 30
0.0
 11
86.71339999999998
 21
171.8229999999999
 31
0.0
  0
LINE
  5
812
330
1E
100
AcDbEntity
  8
0
100
AcDbLine
 10
87.6106
 20
187.0
 30
0.0
 11
88.2003
 21
187.0
 31
0.0
  0
LINE
  5
813
330
1E
100
AcDbEntity
  8
0
100
AcDbLine
 10
87.31619999999999
 20
187.0
 30
0.0
 11
87.6106
 21
187.0
 31
0.0
  0
LINE
  5
814
330
1E
100
AcDbEntity
  8
0
100
AcDbLine
 10
88.2003
 20
187.0
 30
0.0
 11
88.54460000000001
 21
187.0
 31
0.0
  0
LINE
  5
815
330
1E
100
AcDbEntity
  8
0
100
AcDbLine
 10
87.06470000000001
 20
187.0
 30
0.0
 11
87.31619999999999
 21
187.0
 31
0.0
  0
LINE
  5
816
330
1E
100
AcDbEntity
  8
0
100
AcDbLine
 10
86.6656
 20
187.0
 30
0.0
 11
86.8462
 21
187.0
 31
0.0
  0
LINE
  5
817
330
1E
100
AcDbEntity
  8
0
100
AcDbLine
 10
86.39409999999999
 20
187.0
 30
0.0
 11
86.6656
 21
187.0
 31
0.0
  0
LINE
  5
818
330
1E
100
AcDbEntity
  8
0
100
AcDbLine
 10
86.8462
 20
187.0
 30
0.0
 11
87.06470000000001
 21
187.0
 31
0.0
  0
LINE
  5
819
330
1E
100
AcDbEntity
  8
0
100
AcDbLine
 10
90.7849
 20
187.0
 30
0.0
 11
91.70200000000001
 21
187.0
 31
0.0
  0
LINE
  5
81A
330
1E
100
AcDbEntity
  8
0
100
AcDbLine
 10
91.70200000000001
 20
187.0
 30
0.0
 11
92.642
 21
187.0
 31
0.0
  0
LINE
  5
81B
330
1E
100
AcDbEntity
  8
0
100
AcDbLine
 10
92.642
 20
187.0
 30
0.0
 11
93.59299999999999
 21
187.0
 31
0.0
  0
LINE
  5
81C
330
1E
100
AcDbEntity
  8
0
100
AcDbLine
 10
93.59299999999999
 20
187.0
 30
0.0
 11
94.53299999999998
 21
187.0
 31
0.0
  0
LINE
  5
81D
330
1E
100
AcDbEntity
  8
0
100
AcDbLine
 10
94.53299999999998
 20
187.0
 30
0.0
 11
96.42610000000001
 21
187.0
 31
0.0
  0
LINE
  5
81E
330
1E
100
AcDbEntity
  8
0
100
AcDbLine
 10
89.80999999999999
 20
187.0
 30
0.0
 11
90.7849
 21
187.0
 31
0.0
  0
LINE
  5
81F
330
1E
100
AcDbEntity
  8
0
100
AcDbLine
 10
89.3509
 20
187.0
 30
0.0
 11
89.80999999999999
 21
187.0
 31
0.0
  0
LINE
  5
820
330
1E
100
AcDbEntity
  8
0
100
AcDbLine
 10
88.91679999999999
 20
187.0
 30
0.0
 11
89.3509
 21
187.0
 31
0.0
  0
LINE
  5
821
330
1E
100
AcDbEntity
  8
0
100
AcDbLine
 10
88.54460000000001
 20
187.0
 30
0.0
 11
88.91679999999999
 21
187.0
 31
0.0
  0
LINE
  5
822
330
1E
100
AcDbEntity
  8
0
100
AcDbLine
 10
99.40980000000001
 20
187.0
 30
0.0
 11
104.3819999999999
 21
187.0
 31
0.0
  0
LINE
  5
823
330
1E
100
AcDbEntity
  8
0
100
AcDbLine
 10
104.3819999999999
 20
187.0
 30
0.0
 11
111.451
 21
187.0
 31
0.0
  0
LINE
  5
824
330
1E
100
AcDbEntity
  8
0
100
AcDbLine
 10
96.42610000000001
 20
187.0
 30
0.0
 11
99.40980000000001
 21
187.0
 31
0.0
  0
LINE
  5
825
330
1E
100
AcDbEntity
  8
0
100
AcDbLine
 10
86.46500000000001
 20
172.169
 30
0.0
 11
86.50249999999999
 21
172.117
 31
0.0
  0
LINE
  5
826
330
1E
100
AcDbEntity
  8
0
100
AcDbLine
 10
86.30929999999999
 20
172.601
 30
0.0
 11
86.46500000000001
 21
172.169
 31
0.0
  0
LINE
  5
827
330
1E
100
AcDbEntity
  8
0
100
AcDbLine
 10
85.5
 20
187.0
 30
0.0
 11
86.2025
 21
173.564
 31
0.0
  0
LINE
  5
828
330
1E
100
AcDbEntity
  8
0
100
AcDbLine
 10
85.5
 20
187.0
 30
0.0
 11
86.23739999999999
 21
173.05
 31
0.0
  0
LINE
  5
829
330
1E
100
AcDbEntity
  8
0
100
AcDbLine
 10
111.522
 20
53.07269999999999
 30
0.0
 11
112.914
 21
53.07269999999999
 31
0.0
  0
LINE
  5
82A
330
1E
100
AcDbEntity
  8
0
100
AcDbLine
 10
112.914
 20
53.07269999999999
 30
0.0
 11
115.2339999999999
 21
53.07269999999999
 31
0.0
  0
LINE
  5
82B
330
1E
100
AcDbEntity
  8
0
100
AcDbLine
 10
115.2339999999999
 20
53.07269999999999
 30
0.0
 11
118.3079999999999
 21
53.07269999999999
 31
0.0
  0
LINE
  5
82C
330
1E
100
AcDbEntity
  8
0
100
AcDbLine
 10
118.3079999999999
 20
53.07269999999999
 30
0.0
 11
121.788
 21
53.07269999999999
 31
0.0
  0
LINE
  5
82D
330
1E
100
AcDbEntity
  8
0
100
AcDbLine
 10
121.788
 20
53.07269999999999
 30
0.0
 11
125.5
 21
53.07269999999999
 31
0.0
  0
LINE
  5
82E
330
1E
100
AcDbEntity
  8
0
100
AcDbLine
 10
112.5
 20
53.5
 30
0.0
 11
113.07
 21
54.78629999999999
 31
0.0
  0
LINE
  5
82F
330
1E
100
AcDbEntity
  8
0
100
AcDbLine
 10
111.348
 20
53.5
 30
0.0
 11
111.87
 21
53.5
 31
0.0
  0
LINE
  5
830
330
1E
100
AcDbEntity
  8
0
100
AcDbLine
 10
111.87
 20
53.5
 30
0.0
 11
113.2619999999999
 21
53.5
 31
0.0
  0
LINE
  5
833
330
1E
100
AcDbEntity
  8
0
100
AcDbLine
 10
113.2619999999999
 20
53.5
 30
0.0
 11
115.524
 21
53.5
 31
0.0
  0
LINE
  5
834
330
1E
100
AcDbEntity
  8
0
100
AcDbLine
 10
115.524
 20
53.5
 30
0.0
 11
118.482
 21
53.5
 31
0.0
  0
LINE
  5
837
330
1E
100
AcDbEntity
  8
0
100
AcDbLine
 10
118.482
 20
53.5
 30
0.0
 11
121.846
 21
53.5
 31
0.0
  0
LINE
  5
838
330
1E
100
AcDbEntity
  8
0
100
AcDbLine
 10
113.3
 20
58.5
 30
0.0
 11
113.7499999999999
 21
58.5
 31
0.0
  0
LINE
  5
839
330
1E
100
AcDbEntity
  8
0
100
AcDbLine
 10
113.7499999999999
 20
58.5
 30
0.0
 11
114.9499999999999
 21
58.5
 31
0.0
  0
LINE
  5
83A
330
1E
100
AcDbEntity
  8
0
100
AcDbLine
 10
114.9499999999999
 20
58.5
 30
0.0
 11
116.666
 21
58.5
 31
0.0
  0
LINE
  5
83B
330
1E
100
AcDbEntity
  8
0
100
AcDbLine
 10
114.9499999999999
 20
58.5
 30
0.0
 11
116.9
 21
58.5
 31
0.0
  0
LINE
  5
83C
330
1E
100
AcDbEntity
  8
0
100
AcDbLine
 10
115.3669999999999
 20
57.5784
 30
0.0
 11
116.666
 21
58.5
 31
0.0
  0
LINE
  5
83D
330
1E
100
AcDbEntity
  8
0
100
AcDbLine
 10
113.07
 20
54.78629999999999
 30
0.0
 11
115.3669999999999
 21
57.5784
 31
0.0
  0
LINE
  5
840
330
1E
100
AcDbEntity
  8
0
100
AcDbLine
 10
116.9
 20
58.5
 30
0.0
 11
119.45
 21
58.5
 31
0.0
  0
LINE
  5
841
330
1E
100
AcDbEntity
  8
0
100
AcDbLine
 10
116.666
 20
58.5
 30
0.0
 11
116.905
 21
58.5
 31
0.0
  0
LINE
  5
842
330
1E
100
AcDbEntity
  8
0
100
AcDbLine
 10
116.905
 20
58.5
 30
0.0
 11
118.5729999999999
 21
58.5
 31
0.0
  0
LINE
  5
844
330
1E
100
AcDbEntity
  8
0
100
AcDbLine
 10
118.5729999999999
 20
58.5
 30
0.0
 11
119.113
 21
58.5
 31
0.0
  0
LINE
  5
849
330
1E
100
AcDbEntity
  8
0
100
AcDbLine
 10
119.45
 20
58.5
 30
0.0
 11
122.35
 21
58.5
 31
0.0
  0
LINE
  5
84A
330
1E
100
AcDbEntity
  8
0
100
AcDbLine
 10
122.35
 20
58.5
 30
0.0
 11
125.5
 21
58.5
 31
0.0
  0
LINE
  5
84B
330
1E
100
AcDbEntity
  8
0
100
AcDbLine
 10
119.113
 20
58.5
 30
0.0
 11
122.5489999999999
 21
58.5
 31
0.0
  0
LINE
  5
84C
330
1E
100
AcDbEntity
  8
0
100
AcDbLine
 10
122.5489999999999
 20
58.5
 30
0.0
 11
122.8979999999999
 21
58.5
 31
0.0
  0
LINE
  5
84D
330
1E
100
AcDbEntity
  8
0
100
AcDbLine
 10
122.8979999999999
 20
58.5
 30
0.0
 11
125.5
 21
58.5
 31
0.0
  0
LINE
  5
858
330
1E
100
AcDbEntity
  8
0
100
AcDbLine
 10
112.9469999999999
 20
71.0
 30
0.0
 11
113.0
 21
71.0
 31
0.0
  0
LINE
  5
859
330
1E
100
AcDbEntity
  8
0
100
AcDbLine
 10
112.9469999999999
 20
71.0
 30
0.0
 11
113.6579999999999
 21
71.0
 31
0.0
  0
LINE
  5
85A
330
1E
100
AcDbEntity
  8
0
100
AcDbLine
 10
112.9469999999999
 20
71.0
 30
0.0
 11
113.3995689075499
 21
71.0
 31
0.0
  0
LINE
  5
85B
330
1E
100
AcDbEntity
  8
0
100
AcDbLine
 10
112.5799999999999
 20
71.0
 30
0.0
 11
112.9469999999999
 21
71.0
 31
0.0
  0
LINE
  5
85C
330
1E
100
AcDbEntity
  8
0
100
AcDbLine
 10
112.5799999999999
 20
71.0
 30
0.0
 11
113.0
 21
71.0
 31
0.0
  0
LINE
  5
85D
330
1E
100
AcDbEntity
  8
0
100
AcDbLine
 10
111.959
 20
170.517
 30
0.0
 11
112.082651943241
 21
170.516683754621
 31
0.0
  0
LINE
  5
85E
330
1E
100
AcDbEntity
  8
0
100
AcDbLine
 10
111.959
 20
170.517
 30
0.0
 11
112.3499999999999
 21
170.516
 31
0.0
  0
LINE
  5
85F
330
1E
100
AcDbEntity
  8
0
100
AcDbLine
 10
111.451
 20
187.0
 30
0.0
 11
116.1669999999999
 21
187.0
 31
0.0
  0
LINE
  5
860
330
1E
100
AcDbEntity
  8
0
100
AcDbLine
 10
112.074
 20
170.5230980245989
 30
0.0
 11
112.074
 21
71.5
 31
0.0
  0
LINE
  5
861
330
1E
100
AcDbEntity
  8
0
100
AcDbLine
 10
111.829
 20
170.518
 30
0.0
 11
111.959
 21
170.517
 31
0.0
  0
LINE
  5
862
330
1E
100
AcDbEntity
  8
0
100
AcDbLine
 10
112.465
 20
71.5
 30
0.0
 11
113.2029999999999
 21
71.5
 31
0.0
  0
LINE
  5
863
330
1E
100
AcDbEntity
  8
0
100
AcDbLine
 10
112.3499999999999
 20
170.516
 30
0.0
 11
112.992
 21
170.514
 31
0.0
  0
LINE
  5
869
330
1E
100
AcDbEntity
  8
0
100
AcDbLine
 10
112.992
 20
170.514
 30
0.0
 11
113.874
 21
170.513
 31
0.0
  0
LINE
  5
86D
330
1E
100
AcDbEntity
  8
0
100
AcDbLine
 10
112.0829999999999
 20
71.5
 30
0.0
 11
112.465
 21
71.5
 31
0.0
  0
LINE
  5
86E
330
1E
100
AcDbEntity
  8
0
100
AcDbLine
 10
112.074
 20
71.5
 30
0.0
 11
112.5709999999999
 21
71.0
 31
0.0
  0
LINE
  5
86F
330
1E
100
AcDbEntity
  8
0
100
AcDbLine
 10
112.074
 20
71.5
 30
0.0
 11
112.074
 21
170.5230980245989
 31
0.0
  0
LINE
  5
870
330
1E
100
AcDbEntity
  8
0
100
AcDbLine
 10
113.0
 20
71.0
 30
0.0
 11
113.0
 21
59.1154
 31
0.0
  0
LINE
  5
871
330
1E
100
AcDbEntity
  8
0
100
AcDbLine
 10
113.6579999999999
 20
71.0
 30
0.0
 11
114.692
 21
71.0
 31
0.0
  0
LINE
  5
872
330
1E
100
AcDbEntity
  8
0
100
AcDbLine
 10
114.692
 20
71.0
 30
0.0
 11
116.0199999999999
 21
71.0
 31
0.0
  0
LINE
  5
873
330
1E
100
AcDbEntity
  8
0
100
AcDbLine
 10
114.276
 20
71.5
 30
0.0
 11
115.656
 21
71.5
 31
0.0
  0
LINE
  5
874
330
1E
100
AcDbEntity
  8
0
100
AcDbLine
 10
113.2029999999999
 20
71.5
 30
0.0
 11
114.276
 21
71.5
 31
0.0
  0
LINE
  5
875
330
1E
100
AcDbEntity
  8
0
100
AcDbLine
 10
117.607
 20
71.0
 30
0.0
 11
119.4089999999999
 21
71.0
 31
0.0
  0
LINE
  5
876
330
1E
100
AcDbEntity
  8
0
100
AcDbLine
 10
116.0199999999999
 20
71.0
 30
0.0
 11
117.607
 21
71.0
 31
0.0
  0
LINE
  5
877
330
1E
100
AcDbEntity
  8
0
100
AcDbLine
 10
119.4089999999999
 20
71.0
 30
0.0
 11
121.3779999999999
 21
71.0
 31
0.0
  0
LINE
  5
878
330
1E
100
AcDbEntity
  8
0
100
AcDbLine
 10
121.3779999999999
 20
71.0
 30
0.0
 11
123.458
 21
71.0
 31
0.0
  0
LINE
  5
879
330
1E
100
AcDbEntity
  8
0
100
AcDbLine
 10
123.458
 20
71.0
 30
0.0
 11
125.5
 21
71.0
 31
0.0
  0
LINE
  5
87B
330
1E
100
AcDbEntity
  8
0
100
AcDbLine
 10
123.38
 20
71.5
 30
0.0
 11
125.5
 21
71.5
 31
0.0
  0
LINE
  5
87C
330
1E
100
AcDbEntity
  8
0
100
AcDbLine
 10
121.2189999999999
 20
71.5
 30
0.0
 11
123.38
 21
71.5
 31
0.0
  0
LINE
  5
87D
330
1E
100
AcDbEntity
  8
0
100
AcDbLine
 10
119.174
 20
71.5
 30
0.0
 11
121.2189999999999
 21
71.5
 31
0.0
  0
LINE
  5
87E
330
1E
100
AcDbEntity
  8
0
100
AcDbLine
 10
117.303
 20
71.5
 30
0.0
 11
119.174
 21
71.5
 31
0.0
  0
LINE
  5
87F
330
1E
100
AcDbEntity
  8
0
100
AcDbLine
 10
115.656
 20
71.5
 30
0.0
 11
117.303
 21
71.5
 31
0.0
  0
LINE
  5
880
330
1E
100
AcDbEntity
  8
0
100
AcDbLine
 10
113.874
 20
170.513
 30
0.0
 11
115.1429999999999
 21
170.5109999999999
 31
0.0
  0
LINE
  5
881
330
1E
100
AcDbEntity
  8
0
100
AcDbLine
 10
115.1429999999999
 20
170.5109999999999
 30
0.0
 11
116.666
 21
170.5109999999999
 31
0.0
  0
LINE
  5
883
330
1E
100
AcDbEntity
  8
0
100
AcDbLine
 10
116.666
 20
170.5109999999999
 30
0.0
 11
118.347
 21
170.513
 31
0.0
  0
LINE
  5
884
330
1E
100
AcDbEntity
  8
0
100
AcDbLine
 10
120.1929999999999
 20
170.514
 30
0.0
 11
122.162
 21
170.516
 31
0.0
  0
LINE
  5
885
330
1E
100
AcDbEntity
  8
0
100
AcDbLine
 10
122.162
 20
170.516
 30
0.0
 11
124.208
 21
170.517
 31
0.0
  0
LINE
  5
886
330
1E
100
AcDbEntity
  8
0
100
AcDbLine
 10
124.208
 20
170.517
 30
0.0
 11
125.5
 21
170.518
 31
0.0
  0
LINE
  5
887
330
1E
100
AcDbEntity
  8
0
100
AcDbLine
 10
118.347
 20
170.513
 30
0.0
 11
120.1929999999999
 21
170.514
 31
0.0
  0
LINE
  5
88A
330
1E
100
AcDbEntity
  8
0
100
AcDbLine
 10
116.1669999999999
 20
187.0
 30
0.0
 11
125.5
 21
187.0
 31
0.0
  0
LINE
  5
89E
330
1E
100
AcDbEntity
  8
0
100
AcDbLine
 10
113.0
 20
59.1154
 30
0.0
 11
113.0
 21
71.0
 31
0.0
  0
LINE
  5
89F
330
1E
100
AcDbEntity
  8
0
100
AcDbLine
 10
113.0
 20
59.1154
 30
0.0
 11
113.3
 21
58.5
 31
0.0
  0
LINE
  5
8A3
330
1E
100
AcDbEntity
  8
0
100
AcDbLine
 10
121.846
 20
53.5
 30
0.0
 11
125.5
 21
53.5
 31
0.0
  0
LINE
  5
8A6
330
1E
100
AcDbEntity
  8
0
100
AcDbLine
 10
111.0
 20
53.07269999999999
 30
0.0
 11
111.348
 21
53.5
 31
0.0
  0
LINE
  5
8A7
330
1E
100
AcDbEntity
  8
0
100
AcDbLine
 10
111.0
 20
53.07269999999999
 30
0.0
 11
111.0
 21
31.5
 31
0.0
  0
LINE
  5
8A8
330
1E
100
AcDbEntity
  8
0
100
AcDbLine
 10
111.0
 20
53.07269999999999
 30
0.0
 11
111.522
 21
53.07269999999999
 31
0.0
  0
LINE
  5
8A9
330
1E
100
AcDbEntity
  8
0
100
AcDbLine
 10
121.72
 20
31.5
 30
0.0
 11
125.5
 21
31.5
 31
0.0
  0
LINE
  5
90A
330
1E
100
AcDbEntity
  8
0
100
AcDbLine
 10
110.4999999999999
 20
31.0727
 30
0.0
 11
110.86
 21
31.5
 31
0.0
  0
LINE
  5
90B
330
1E
100
AcDbEntity
  8
0
100
AcDbLine
 10
110.4999999999999
 20
31.0727
 30
0.0
 11
110.4999999999999
 21
21.49999999999999
 31
0.0
  0
LINE
  5
90C
330
1E
100
AcDbEntity
  8
0
100
AcDbLine
 10
110.4999999999999
 20
31.0727
 30
0.0
 11
111.04
 21
31.0727
 31
0.0
  0
LINE
  5
94B
330
1E
100
AcDbEntity
  8
0
100
AcDbLine
 10
61.4
 20
21.49999999999999
 30
0.0
 11
125.5
 21
21.49999999999999
 31
0.0
  0
LINE
  5
94C
330
1E
100
AcDbEntity
  8
0
100
AcDbLine
 10
60.036
 20
21.49999999999999
 30
0.0
 11
60.14
 21
21.49999999999999
 31
0.0
  0
LINE
  5
94D
330
1E
100
AcDbEntity
  8
0
100
AcDbLine
 10
45.0
 20
20.8333
 30
0.0
 11
60.0
 21
21.49999999999999
 31
0.0
  0
LINE
  5
94E
330
1E
100
AcDbEntity
  8
0
100
AcDbLine
 10
36.0
 20
20.16669999999999
 30
0.0
 11
45.0
 21
20.8333
 31
0.0
  0
LINE
  5
94F
330
1E
100
AcDbEntity
  8
0
100
AcDbLine
 10
29.0
 20
19.5
 30
0.0
 11
36.0
 21
20.16669999999999
 31
0.0
  0
LINE
  5
950
330
1E
100
AcDbEntity
  8
0
100
AcDbLine
 10
18.0
 20
18.1667
 30
0.0
 11
29.0
 21
19.5
 31
0.0
  0
LINE
  5
951
330
1E
100
AcDbEntity
  8
0
100
AcDbLine
 10
10.0
 20
16.8333
 30
0.0
 11
18.0
 21
18.1667
 31
0.0
  0
LINE
  5
952
330
1E
100
AcDbEntity
  8
0
100
AcDbLine
 10
7.0
 20
13.5
 30
0.0
 11
125.5
 21
13.5
 31
0.0
  0
LINE
  5
953
330
1E
100
AcDbEntity
  8
0
100
AcDbLine
 10
6.99999999999999
 20
2.16667000000001
 30
0.0
 11
125.5
 21
2.16667000000001
 31
0.0
  0
LINE
  5
954
330
1E
100
AcDbEntity
  8
0
100
AcDbLine
 10
1.5
 20
2.16667000000001
 30
0.0
 11
2.6
 21
2.16667000000001
 31
0.0
  0
LINE
  5
955
330
1E
100
AcDbEntity
  8
0
100
AcDbLine
 10
0.18
 20
2.16667000000001
 30
0.0
 11
0.7
 21
2.16667000000001
 31
0.0
  0
LINE
  5
956
330
1E
100
AcDbEntity
  8
0
100
AcDbLine
 10
0.0
 20
2.16667000000001
 30
0.0
 11
0.18
 21
2.16667000000001
 31
0.0
  0
LINE
  5
957
330
1E
100
AcDbEntity
  8
0
100
AcDbLine
 10
0.0
 20
2.16667000000001
 30
0.0
 11
0.0
 21
13.5
 31
0.0
  0
LINE
  5
95C
330
1E
100
AcDbEntity
  8
0
100
AcDbLine
 10
138.9259999999999
 20
71.5
 30
0.0
 11
138.9259999999999
 21
170.5230980245989
 31
0.0
  0
LINE
  5
95D
330
1E
100
AcDbEntity
  8
0
100
AcDbLine
 10
138.9259999999999
 20
170.5230980245989
 30
0.0
 11
138.9259999999999
 21
71.5
 31
0.0
  0
LINE
  5
95E
330
1E
100
AcDbEntity
  8
0
100
AcDbLine
 10
244.0
 20
2.16667000000001
 30
0.0
 11
125.5
 21
2.16667000000001
 31
0.0
  0
LINE
  5
95F
330
1E
100
AcDbEntity
  8
0
100
AcDbLine
 10
244.0
 20
13.5
 30
0.0
 11
125.5
 21
13.5
 31
0.0
  0
LINE
  5
960
330
1E
100
AcDbEntity
  8
0
100
AcDbLine
 10
206.0
 20
20.8333
 30
0.0
 11
191.0
 21
21.49999999999999
 31
0.0
  0
LINE
  5
961
330
1E
100
AcDbEntity
  8
0
100
AcDbLine
 10
244.0
 20
13.5
 30
0.0
 11
125.5
 21
13.5
 31
0.0
  0
LINE
  5
962
330
1E
100
AcDbEntity
  8
0
100
AcDbLine
 10
244.0
 20
2.16667000000001
 30
0.0
 11
125.5
 21
2.16667000000001
 31
0.0
  0
LINE
  5
963
330
1E
100
AcDbEntity
  8
0
100
AcDbLine
 10
211.75
 20
1.5
 30
0.0
 11
201.25
 21
1.5
 31
0.0
  0
LINE
  5
964
330
1E
100
AcDbEntity
  8
0
100
AcDbLine
 10
211.75
 20
1.5
 30
0.0
 11
201.25
 21
1.5
 31
0.0
  0
LINE
  5
965
330
1E
100
AcDbEntity
  8
0
100
AcDbLine
 10
244.6127999999999
 20
1.5
 30
0.0
 11
243.0933299999999
 21
1.5
 31
0.0
  0
LINE
  5
966
330
1E
100
AcDbEntity
  8
0
100
AcDbLine
 10
247.0
 20
15.5
 30
0.0
 11
241.0
 21
16.8333
 31
0.0
  0
LINE
  5
967
330
1E
100
AcDbEntity
  8
0
100
AcDbLine
 10
251.0
 20
2.16667000000001
 30
0.0
 11
251.0
 21
13.5
 31
0.0
  0
LINE
  5
968
330
1E
100
AcDbEntity
  8
0
100
AcDbLine
 10
251.0
 20
13.5
 30
0.0
 11
251.0
 21
2.16667000000001
 31
0.0
  0
LINE
  5
969
330
1E
100
AcDbEntity
  8
0
100
AcDbLine
 10
248.3999999999999
 20
2.16667000000001
 30
0.0
 11
247.0
 21
2.16667000000001
 31
0.0
  0
LINE
  5
96A
330
1E
100
AcDbEntity
  8
0
100
AcDbLine
 10
248.52
 20
1.5
 30
0.0
 11
247.43467
 21
1.5
 31
0.0
  0
LINE
  5
96B
330
1E
100
AcDbEntity
  8
0
100
AcDbLine
 10
250.8199999999999
 20
2.16667000000001
 30
0.0
 11
250.3
 21
2.16667000000001
 31
0.0
  0
LINE
  5
96C
330
1E
100
AcDbEntity
  8
0
100
AcDbLine
 10
250.8199999999999
 20
2.16667000000001
 30
0.0
 11
250.3
 21
2.16667000000001
 31
0.0
  0
LINE
  5
96D
330
1E
100
AcDbEntity
  8
0
100
AcDbLine
 10
251.0
 20
2.166669999999999
 30
0.0
 11
250.0
 21
1.5
 31
0.0
  0
LINE
  5
96E
330
1E
100
AcDbEntity
  8
0
100
AcDbLine
 10
251.0
 20
2.16667000000001
 30
0.0
 11
250.8199999999999
 21
2.16667000000001
 31
0.0
  0
LINE
  5
96F
330
1E
100
AcDbEntity
  8
0
100
AcDbLine
 10
250.3
 20
2.16667000000001
 30
0.0
 11
249.5
 21
2.16667000000001
 31
0.0
  0
LINE
  5
970
330
1E
100
AcDbEntity
  8
0
100
AcDbLine
 10
250.0
 20
1.5
 30
0.0
 11
249.8224
 21
1.5
 31
0.0
  0
LINE
  5
971
330
1E
100
AcDbEntity
  8
0
100
AcDbLine
 10
249.5
 20
2.16667000000001
 30
0.0
 11
248.3999999999999
 21
2.16667000000001
 31
0.0
  0
LINE
  5
972
330
1E
100
AcDbEntity
  8
0
100
AcDbLine
 10
249.3093299999999
 20
1.5
 30
0.0
 11
248.52
 21
1.5
 31
0.0
  0
LINE
  5
973
330
1E
100
AcDbEntity
  8
0
100
AcDbLine
 10
247.0
 20
2.16667000000001
 30
0.0
 11
245.54
 21
2.16667000000001
 31
0.0
  0
LINE
  5
974
330
1E
100
AcDbEntity
  8
0
100
AcDbLine
 10
246.0533299999999
 20
1.50000000000001
 30
0.0
 11
244.6127999999999
 21
1.50000000000001
 31
0.0
  0
LINE
  5
975
330
1E
100
AcDbEntity
  8
0
100
AcDbLine
 10
246.0533299999999
 20
1.5
 30
0.0
 11
244.6127999999999
 21
1.5
 31
0.0
  0
LINE
  5
976
330
1E
100
AcDbEntity
  8
0
100
AcDbLine
 10
247.43467
 20
1.5
 30
0.0
 11
246.0533299999999
 21
1.5
 31
0.0
  0
LINE
  5
977
330
1E
100
AcDbEntity
  8
0
100
AcDbLine
 10
245.54
 20
2.16667000000001
 30
0.0
 11
244.0
 21
2.16667000000001
 31
0.0
  0
LINE
  5
978
330
1E
100
AcDbEntity
  8
0
100
AcDbLine
 10
248.3999999999999
 20
13.5
 30
0.0
 11
247.0
 21
13.5
 31
0.0
  0
LINE
  5
979
330
1E
100
AcDbEntity
  8
0
100
AcDbLine
 10
250.4999999999999
 20
14.1667
 30
0.0
 11
247.0
 21
15.5
 31
0.0
  0
LINE
  5
97A
330
1E
100
AcDbEntity
  8
0
100
AcDbLine
 10
250.8199999999999
 20
13.5
 30
0.0
 11
250.3
 21
13.5
 31
0.0
  0
LINE
  5
97B
330
1E
100
AcDbEntity
  8
0
100
AcDbLine
 10
250.8199999999999
 20
13.5
 30
0.0
 11
250.3
 21
13.5
 31
0.0
  0
LINE
  5
97C
330
1E
100
AcDbEntity
  8
0
100
AcDbLine
 10
251.0
 20
13.5
 30
0.0
 11
250.4999999999999
 21
14.1667
 31
0.0
  0
LINE
  5
97D
330
1E
100
AcDbEntity
  8
0
100
AcDbLine
 10
251.0
 20
13.5
 30
0.0
 11
250.8199999999999
 21
13.5
 31
0.0
  0
LINE
  5
97E
330
1E
100
AcDbEntity
  8
0
100
AcDbLine
 10
250.3
 20
13.5
 30
0.0
 11
249.5
 21
13.5
 31
0.0
  0
LINE
  5
97F
330
1E
100
AcDbEntity
  8
0
100
AcDbLine
 10
249.5
 20
13.5
 30
0.0
 11
248.3999999999999
 21
13.5
 31
0.0
  0
LINE
  5
980
330
1E
100
AcDbEntity
  8
0
100
AcDbLine
 10
247.0
 20
13.5
 30
0.0
 11
245.54
 21
13.5
 31
0.0
  0
LINE
  5
981
330
1E
100
AcDbEntity
  8
0
100
AcDbLine
 10
245.54
 20
13.5
 30
0.0
 11
244.0
 21
13.5
 31
0.0
  0
LINE
  5
982
330
1E
100
AcDbEntity
  8
0
100
AcDbLine
 10
225.2499999999999
 20
1.5
 30
0.0
 11
214.7499999999999
 21
1.5
 31
0.0
  0
LINE
  5
983
330
1E
100
AcDbEntity
  8
0
100
AcDbLine
 10
225.2499999999999
 20
1.5
 30
0.0
 11
214.7499999999999
 21
1.5
 31
0.0
  0
LINE
  5
984
330
1E
100
AcDbEntity
  8
0
100
AcDbLine
 10
238.75
 20
1.5
 30
0.0
 11
228.25
 21
1.5
 31
0.0
  0
LINE
  5
985
330
1E
100
AcDbEntity
  8
0
100
AcDbLine
 10
238.75
 20
1.5
 30
0.0
 11
228.25
 21
1.5
 31
0.0
  0
LINE
  5
986
330
1E
100
AcDbEntity
  8
0
100
AcDbLine
 10
241.3
 20
0.0000000000000098
 30
0.0
 11
240.2499999999999
 21
0.0000000000000098
 31
0.0
  0
LINE
  5
987
330
1E
100
AcDbEntity
  8
0
100
AcDbLine
 10
241.3
 20
0.0000000000000097
 30
0.0
 11
240.2499999999999
 21
0.0000000000000097
 31
0.0
  0
LINE
  5
988
330
1E
100
AcDbEntity
  8
0
100
AcDbLine
 10
241.3
 20
0.0000000000000089
 30
0.0
 11
240.2499999999999
 21
0.000000000000009
 31
0.0
  0
LINE
  5
989
330
1E
100
AcDbEntity
  8
0
100
AcDbLine
 10
241.3
 20
0.0000000000000088
 30
0.0
 11
240.2499999999999
 21
0.0000000000000088
 31
0.0
  0
LINE
  5
98A
330
1E
100
AcDbEntity
  8
0
100
AcDbLine
 10
241.3
 20
0.000000000000008
 30
0.0
 11
240.2499999999999
 21
0.0000000000000081
 31
0.0
  0
LINE
  5
98B
330
1E
100
AcDbEntity
  8
0
100
AcDbLine
 10
241.3
 20
0.0000000000000079
 30
0.0
 11
240.2499999999999
 21
0.0000000000000079
 31
0.0
  0
LINE
  5
98C
330
1E
100
AcDbEntity
  8
0
100
AcDbLine
 10
241.3
 20
0.0000000000000072
 30
0.0
 11
240.2499999999999
 21
0.0000000000000072
 31
0.0
  0
LINE
  5
98D
330
1E
100
AcDbEntity
  8
0
100
AcDbLine
 10
241.3
 20
0.000000000000007
 30
0.0
 11
240.2499999999999
 21
0.000000000000007
 31
0.0
  0
LINE
  5
98E
330
1E
100
AcDbEntity
  8
0
100
AcDbLine
 10
241.3
 20
0.0000000000000063
 30
0.0
 11
240.2499999999999
 21
0.0000000000000063
 31
0.0
  0
LINE
  5
98F
330
1E
100
AcDbEntity
  8
0
100
AcDbLine
 10
241.3
 20
0.0000000000000061
 30
0.0
 11
240.2499999999999
 21
0.0000000000000061
 31
0.0
  0
LINE
  5
990
330
1E
100
AcDbEntity
  8
0
100
AcDbLine
 10
241.3
 20
0.0000000000000017
 30
0.0
 11
240.2499999999999
 21
0.0000000000000017
 31
0.0
  0
LINE
  5
991
330
1E
100
AcDbEntity
  8
0
100
AcDbLine
 10
241.3
 20
0.0000000000000018
 30
0.0
 11
240.2499999999999
 21
0.0000000000000019
 31
0.0
  0
LINE
  5
992
330
1E
100
AcDbEntity
  8
0
100
AcDbLine
 10
241.3
 20
0.0000000000000035
 30
0.0
 11
240.2499999999999
 21
0.0000000000000034
 31
0.0
  0
LINE
  5
993
330
1E
100
AcDbEntity
  8
0
100
AcDbLine
 10
241.3
 20
0.0000000000000036
 30
0.0
 11
240.2499999999999
 21
0.0000000000000036
 31
0.0
  0
LINE
  5
994
330
1E
100
AcDbEntity
  8
0
100
AcDbLine
 10
241.3
 20
0.0000000000000044
 30
0.0
 11
240.2499999999999
 21
0.0000000000000043
 31
0.0
  0
LINE
  5
995
330
1E
100
AcDbEntity
  8
0
100
AcDbLine
 10
241.3
 20
0.0000000000000045
 30
0.0
 11
240.2499999999999
 21
0.0000000000000045
 31
0.0
  0
LINE
  5
996
330
1E
100
AcDbEntity
  8
0
100
AcDbLine
 10
241.3
 20
0.0000000000000052
 30
0.0
 11
240.2499999999999
 21
0.0000000000000052
 31
0.0
  0
LINE
  5
997
330
1E
100
AcDbEntity
  8
0
100
AcDbLine
 10
241.3
 20
0.0000000000000054
 30
0.0
 11
240.2499999999999
 21
0.0000000000000054
 31
0.0
  0
LINE
  5
998
330
1E
100
AcDbEntity
  8
0
100
AcDbLine
 10
241.3
 20
0.0000000000000026
 30
0.0
 11
240.2499999999999
 21
0.0000000000000026
 31
0.0
  0
LINE
  5
999
330
1E
100
AcDbEntity
  8
0
100
AcDbLine
 10
241.3
 20
0.0000000000000027
 30
0.0
 11
240.2499999999999
 21
0.0000000000000027
 31
0.0
  0
LINE
  5
99A
330
1E
100
AcDbEntity
  8
0
100
AcDbLine
 10
243.0933299999999
 20
1.5
 30
0.0
 11
241.7499999999999
 21
1.5
 31
0.0
  0
LINE
  5
99B
330
1E
100
AcDbEntity
  8
0
100
AcDbLine
 10
243.0933299999999
 20
1.5
 30
0.0
 11
241.7499999999999
 21
1.5
 31
0.0
  0
LINE
  5
99C
330
1E
100
AcDbEntity
  8
0
100
AcDbLine
 10
241.7499999999999
 20
0.0000000000000098
 30
0.0
 11
241.3
 21
0.0000000000000097
 31
0.0
  0
LINE
  5
99D
330
1E
100
AcDbEntity
  8
0
100
AcDbLine
 10
241.7499999999999
 20
0.0000000000000098
 30
0.0
 11
241.3
 21
0.0000000000000098
 31
0.0
  0
LINE
  5
99E
330
1E
100
AcDbEntity
  8
0
100
AcDbLine
 10
241.7499999999999
 20
0.0000000000000089
 30
0.0
 11
241.3
 21
0.0000000000000088
 31
0.0
  0
LINE
  5
99F
330
1E
100
AcDbEntity
  8
0
100
AcDbLine
 10
241.7499999999999
 20
0.0000000000000089
 30
0.0
 11
241.3
 21
0.0000000000000089
 31
0.0
  0
LINE
  5
9A0
330
1E
100
AcDbEntity
  8
0
100
AcDbLine
 10
241.7499999999999
 20
0.000000000000008
 30
0.0
 11
241.3
 21
0.0000000000000079
 31
0.0
  0
LINE
  5
9A1
330
1E
100
AcDbEntity
  8
0
100
AcDbLine
 10
241.7499999999999
 20
0.000000000000008
 30
0.0
 11
241.3
 21
0.000000000000008
 31
0.0
  0
LINE
  5
9A2
330
1E
100
AcDbEntity
  8
0
100
AcDbLine
 10
241.7499999999999
 20
0.0000000000000071
 30
0.0
 11
241.3
 21
0.000000000000007
 31
0.0
  0
LINE
  5
9A3
330
1E
100
AcDbEntity
  8
0
100
AcDbLine
 10
241.7499999999999
 20
0.0000000000000071
 30
0.0
 11
241.3
 21
0.0000000000000072
 31
0.0
  0
LINE
  5
9A4
330
1E
100
AcDbEntity
  8
0
100
AcDbLine
 10
241.7499999999999
 20
0.0000000000000062
 30
0.0
 11
241.3
 21
0.0000000000000061
 31
0.0
  0
LINE
  5
9A5
330
1E
100
AcDbEntity
  8
0
100
AcDbLine
 10
241.7499999999999
 20
0.0000000000000062
 30
0.0
 11
241.3
 21
0.0000000000000063
 31
0.0
  0
LINE
  5
9A6
330
1E
100
AcDbEntity
  8
0
100
AcDbLine
 10
241.7499999999999
 20
0.0000000000000018
 30
0.0
 11
241.3
 21
0.0000000000000018
 31
0.0
  0
LINE
  5
9A7
330
1E
100
AcDbEntity
  8
0
100
AcDbLine
 10
241.7499999999999
 20
0.0000000000000018
 30
0.0
 11
241.3
 21
0.0000000000000017
 31
0.0
  0
LINE
  5
9A8
330
1E
100
AcDbEntity
  8
0
100
AcDbLine
 10
241.7499999999999
 20
0.0000000000000035
 30
0.0
 11
241.3
 21
0.0000000000000036
 31
0.0
  0
LINE
  5
9A9
330
1E
100
AcDbEntity
  8
0
100
AcDbLine
 10
241.7499999999999
 20
0.0000000000000035
 30
0.0
 11
241.3
 21
0.0000000000000035
 31
0.0
  0
LINE
  5
9AA
330
1E
100
AcDbEntity
  8
0
100
AcDbLine
 10
241.7499999999999
 20
0.0000000000000044
 30
0.0
 11
241.3
 21
0.0000000000000045
 31
0.0
  0
LINE
  5
9AB
330
1E
100
AcDbEntity
  8
0
100
AcDbLine
 10
241.7499999999999
 20
0.0000000000000044
 30
0.0
 11
241.3
 21
0.0000000000000044
 31
0.0
  0
LINE
  5
9AC
330
1E
100
AcDbEntity
  8
0
100
AcDbLine
 10
241.7499999999999
 20
0.0000000000000053
 30
0.0
 11
241.3
 21
0.0000000000000054
 31
0.0
  0
LINE
  5
9AD
330
1E
100
AcDbEntity
  8
0
100
AcDbLine
 10
241.7499999999999
 20
0.0000000000000053
 30
0.0
 11
241.3
 21
0.0000000000000052
 31
0.0
  0
LINE
  5
9AE
330
1E
100
AcDbEntity
  8
0
100
AcDbLine
 10
241.7499999999999
 20
0.0000000000000027
 30
0.0
 11
241.3
 21
0.0000000000000027
 31
0.0
  0
LINE
  5
9AF
330
1E
100
AcDbEntity
  8
0
100
AcDbLine
 10
241.7499999999999
 20
0.0000000000000027
 30
0.0
 11
241.3
 21
0.0000000000000026
 31
0.0
  0
LINE
  5
9B0
330
1E
100
AcDbEntity
  8
0
100
AcDbLine
 10
241.3
 20
1.50000000000001
 30
0.0
 11
241.3
 21
0.0000000000000097
 31
0.0
  0
LINE
  5
9B1
330
1E
100
AcDbEntity
  8
0
100
AcDbLine
 10
241.7499999999999
 20
1.50000000000001
 30
0.0
 11
241.7499999999999
 21
0.0000000000000052
 31
0.0
  0
LINE
  5
9B2
330
1E
100
AcDbEntity
  8
0
100
AcDbLine
 10
241.7499999999999
 20
1.50000000000001
 30
0.0
 11
241.7499999999999
 21
0.0000000000000045
 31
0.0
  0
LINE
  5
9B3
330
1E
100
AcDbEntity
  8
0
100
AcDbLine
 10
241.7499999999999
 20
1.50000000000001
 30
0.0
 11
241.7499999999999
 21
0.0000000000000026
 31
0.0
  0
LINE
  5
9B4
330
1E
100
AcDbEntity
  8
0
100
AcDbLine
 10
241.7499999999999
 20
1.50000000000001
 30
0.0
 11
241.7499999999999
 21
0.0000000000000036
 31
0.0
  0
LINE
  5
9B5
330
1E
100
AcDbEntity
  8
0
100
AcDbLine
 10
241.7499999999999
 20
1.50000000000001
 30
0.0
 11
241.7499999999999
 21
0.0000000000000016
 31
0.0
  0
LINE
  5
9B6
330
1E
100
AcDbEntity
  8
0
100
AcDbLine
 10
241.7499999999999
 20
1.50000000000001
 30
0.0
 11
241.7499999999999
 21
0.0000000000000062
 31
0.0
  0
LINE
  5
9B7
330
1E
100
AcDbEntity
  8
0
100
AcDbLine
 10
241.7499999999999
 20
1.50000000000001
 30
0.0
 11
241.7499999999999
 21
0.0000000000000071
 31
0.0
  0
LINE
  5
9B8
330
1E
100
AcDbEntity
  8
0
100
AcDbLine
 10
241.7499999999999
 20
1.50000000000001
 30
0.0
 11
241.7499999999999
 21
0.0000000000000081
 31
0.0
  0
LINE
  5
9B9
330
1E
100
AcDbEntity
  8
0
100
AcDbLine
 10
241.7499999999999
 20
1.50000000000001
 30
0.0
 11
241.7499999999999
 21
0.0000000000000088
 31
0.0
  0
LINE
  5
9BA
330
1E
100
AcDbEntity
  8
0
100
AcDbLine
 10
241.7499999999999
 20
1.50000000000001
 30
0.0
 11
241.7499999999999
 21
0.0000000000000097
 31
0.0
  0
LINE
  5
9BB
330
1E
100
AcDbEntity
  8
0
100
AcDbLine
 10
241.7499999999999
 20
0.0000000000000098
 30
0.0
 11
241.7499999999999
 21
1.50000000000001
 31
0.0
  0
LINE
  5
9BC
330
1E
100
AcDbEntity
  8
0
100
AcDbLine
 10
241.3
 20
0.0000000000000098
 30
0.0
 11
241.3
 21
1.50000000000001
 31
0.0
  0
LINE
  5
9BD
330
1E
100
AcDbEntity
  8
0
100
AcDbLine
 10
241.7499999999999
 20
0.0000000000000089
 30
0.0
 11
241.7499999999999
 21
1.50000000000001
 31
0.0
  0
LINE
  5
9BE
330
1E
100
AcDbEntity
  8
0
100
AcDbLine
 10
241.7499999999999
 20
0.000000000000008
 30
0.0
 11
241.7499999999999
 21
1.50000000000001
 31
0.0
  0
LINE
  5
9BF
330
1E
100
AcDbEntity
  8
0
100
AcDbLine
 10
241.7499999999999
 20
0.0000000000000071
 30
0.0
 11
241.7499999999999
 21
1.50000000000001
 31
0.0
  0
LINE
  5
9C0
330
1E
100
AcDbEntity
  8
0
100
AcDbLine
 10
241.7499999999999
 20
0.0000000000000062
 30
0.0
 11
241.7499999999999
 21
1.50000000000001
 31
0.0
  0
LINE
  5
9C1
330
1E
100
AcDbEntity
  8
0
100
AcDbLine
 10
241.7499999999999
 20
0.0000000000000018
 30
0.0
 11
241.7499999999999
 21
1.50000000000001
 31
0.0
  0
LINE
  5
9C2
330
1E
100
AcDbEntity
  8
0
100
AcDbLine
 10
241.7499999999999
 20
0.0000000000000035
 30
0.0
 11
241.7499999999999
 21
1.50000000000001
 31
0.0
  0
LINE
  5
9C3
330
1E
100
AcDbEntity
  8
0
100
AcDbLine
 10
241.7499999999999
 20
0.0000000000000044
 30
0.0
 11
241.7499999999999
 21
1.50000000000001
 31
0.0
  0
LINE
  5
9C4
330
1E
100
AcDbEntity
  8
0
100
AcDbLine
 10
241.7499999999999
 20
0.0000000000000053
 30
0.0
 11
241.7499999999999
 21
1.50000000000001
 31
0.0
  0
LINE
  5
9C5
330
1E
100
AcDbEntity
  8
0
100
AcDbLine
 10
241.7499999999999
 20
0.0000000000000027
 30
0.0
 11
241.7499999999999
 21
1.50000000000001
 31
0.0
  0
LINE
  5
9C6
330
1E
100
AcDbEntity
  8
0
100
AcDbLine
 10
239.1999999999999
 20
0.0000000000000098
 30
0.0
 11
238.75
 21
0.0000000000000098
 31
0.0
  0
LINE
  5
9C7
330
1E
100
AcDbEntity
  8
0
100
AcDbLine
 10
239.1999999999999
 20
0.0000000000000097
 30
0.0
 11
238.75
 21
0.0000000000000098
 31
0.0
  0
LINE
  5
9C8
330
1E
100
AcDbEntity
  8
0
100
AcDbLine
 10
239.1999999999999
 20
0.0000000000000089
 30
0.0
 11
238.75
 21
0.0000000000000089
 31
0.0
  0
LINE
  5
9C9
330
1E
100
AcDbEntity
  8
0
100
AcDbLine
 10
239.1999999999999
 20
0.0000000000000088
 30
0.0
 11
238.75
 21
0.0000000000000089
 31
0.0
  0
LINE
  5
9CA
330
1E
100
AcDbEntity
  8
0
100
AcDbLine
 10
239.1999999999999
 20
0.000000000000008
 30
0.0
 11
238.75
 21
0.000000000000008
 31
0.0
  0
LINE
  5
9CB
330
1E
100
AcDbEntity
  8
0
100
AcDbLine
 10
239.1999999999999
 20
0.0000000000000079
 30
0.0
 11
238.75
 21
0.000000000000008
 31
0.0
  0
LINE
  5
9CC
330
1E
100
AcDbEntity
  8
0
100
AcDbLine
 10
239.1999999999999
 20
0.0000000000000072
 30
0.0
 11
238.75
 21
0.0000000000000071
 31
0.0
  0
LINE
  5
9CD
330
1E
100
AcDbEntity
  8
0
100
AcDbLine
 10
239.1999999999999
 20
0.000000000000007
 30
0.0
 11
238.75
 21
0.0000000000000071
 31
0.0
  0
LINE
  5
9CE
330
1E
100
AcDbEntity
  8
0
100
AcDbLine
 10
239.1999999999999
 20
0.0000000000000063
 30
0.0
 11
238.75
 21
0.0000000000000062
 31
0.0
  0
LINE
  5
9CF
330
1E
100
AcDbEntity
  8
0
100
AcDbLine
 10
239.1999999999999
 20
0.0000000000000061
 30
0.0
 11
238.75
 21
0.0000000000000062
 31
0.0
  0
LINE
  5
9D0
330
1E
100
AcDbEntity
  8
0
100
AcDbLine
 10
239.1999999999999
 20
0.0000000000000017
 30
0.0
 11
238.75
 21
0.0000000000000018
 31
0.0
  0
LINE
  5
9D1
330
1E
100
AcDbEntity
  8
0
100
AcDbLine
 10
239.1999999999999
 20
0.0000000000000018
 30
0.0
 11
238.75
 21
0.0000000000000018
 31
0.0
  0
LINE
  5
9D2
330
1E
100
AcDbEntity
  8
0
100
AcDbLine
 10
239.1999999999999
 20
0.0000000000000035
 30
0.0
 11
238.75
 21
0.0000000000000035
 31
0.0
  0
LINE
  5
9D3
330
1E
100
AcDbEntity
  8
0
100
AcDbLine
 10
239.1999999999999
 20
0.0000000000000036
 30
0.0
 11
238.75
 21
0.0000000000000035
 31
0.0
  0
LINE
  5
9D4
330
1E
100
AcDbEntity
  8
0
100
AcDbLine
 10
239.1999999999999
 20
0.0000000000000044
 30
0.0
 11
238.75
 21
0.0000000000000044
 31
0.0
  0
LINE
  5
9D5
330
1E
100
AcDbEntity
  8
0
100
AcDbLine
 10
239.1999999999999
 20
0.0000000000000045
 30
0.0
 11
238.75
 21
0.0000000000000044
 31
0.0
  0
LINE
  5
9D6
330
1E
100
AcDbEntity
  8
0
100
AcDbLine
 10
239.1999999999999
 20
0.0000000000000052
 30
0.0
 11
238.75
 21
0.0000000000000053
 31
0.0
  0
LINE
  5
9D7
330
1E
100
AcDbEntity
  8
0
100
AcDbLine
 10
239.1999999999999
 20
0.0000000000000054
 30
0.0
 11
238.75
 21
0.0000000000000053
 31
0.0
  0
LINE
  5
9D8
330
1E
100
AcDbEntity
  8
0
100
AcDbLine
 10
239.1999999999999
 20
0.0000000000000027
 30
0.0
 11
238.75
 21
0.0000000000000027
 31
0.0
  0
LINE
  5
9D9
330
1E
100
AcDbEntity
  8
0
100
AcDbLine
 10
239.1999999999999
 20
0.0000000000000026
 30
0.0
 11
238.75
 21
0.0000000000000027
 31
0.0
  0
LINE
  5
9DA
330
1E
100
AcDbEntity
  8
0
100
AcDbLine
 10
239.1999999999999
 20
1.50000000000001
 30
0.0
 11
239.1999999999999
 21
0.0000000000000097
 31
0.0
  0
LINE
  5
9DB
330
1E
100
AcDbEntity
  8
0
100
AcDbLine
 10
238.75
 20
1.50000000000001
 30
0.0
 11
238.75
 21
0.0000000000000097
 31
0.0
  0
LINE
  5
9DC
330
1E
100
AcDbEntity
  8
0
100
AcDbLine
 10
239.1999999999999
 20
0.0000000000000098
 30
0.0
 11
239.1999999999999
 21
1.50000000000001
 31
0.0
  0
LINE
  5
9DD
330
1E
100
AcDbEntity
  8
0
100
AcDbLine
 10
238.75
 20
0.0000000000000098
 30
0.0
 11
238.75
 21
1.50000000000001
 31
0.0
  0
LINE
  5
9DE
330
1E
100
AcDbEntity
  8
0
100
AcDbLine
 10
240.2499999999999
 20
1.50000000000001
 30
0.0
 11
240.2499999999999
 21
0.0000000000000097
 31
0.0
  0
LINE
  5
9DF
330
1E
100
AcDbEntity
  8
0
100
AcDbLine
 10
240.2499999999999
 20
0.0000000000000098
 30
0.0
 11
240.2499999999999
 21
1.50000000000001
 31
0.0
  0
LINE
  5
9E0
330
1E
100
AcDbEntity
  8
0
100
AcDbLine
 10
240.2499999999999
 20
0.0000000000000098
 30
0.0
 11
239.1999999999999
 21
0.0000000000000098
 31
0.0
  0
LINE
  5
9E1
330
1E
100
AcDbEntity
  8
0
100
AcDbLine
 10
240.2499999999999
 20
0.0000000000000097
 30
0.0
 11
239.1999999999999
 21
0.0000000000000097
 31
0.0
  0
LINE
  5
9E2
330
1E
100
AcDbEntity
  8
0
100
AcDbLine
 10
240.2499999999999
 20
0.000000000000009
 30
0.0
 11
239.1999999999999
 21
0.0000000000000089
 31
0.0
  0
LINE
  5
9E3
330
1E
100
AcDbEntity
  8
0
100
AcDbLine
 10
240.2499999999999
 20
0.0000000000000088
 30
0.0
 11
239.1999999999999
 21
0.0000000000000088
 31
0.0
  0
LINE
  5
9E4
330
1E
100
AcDbEntity
  8
0
100
AcDbLine
 10
240.2499999999999
 20
0.0000000000000081
 30
0.0
 11
239.1999999999999
 21
0.000000000000008
 31
0.0
  0
LINE
  5
9E5
330
1E
100
AcDbEntity
  8
0
100
AcDbLine
 10
240.2499999999999
 20
0.0000000000000079
 30
0.0
 11
239.1999999999999
 21
0.0000000000000079
 31
0.0
  0
LINE
  5
9E6
330
1E
100
AcDbEntity
  8
0
100
AcDbLine
 10
240.2499999999999
 20
0.0000000000000072
 30
0.0
 11
239.1999999999999
 21
0.0000000000000072
 31
0.0
  0
LINE
  5
9E7
330
1E
100
AcDbEntity
  8
0
100
AcDbLine
 10
240.2499999999999
 20
0.000000000000007
 30
0.0
 11
239.1999999999999
 21
0.000000000000007
 31
0.0
  0
LINE
  5
9E8
330
1E
100
AcDbEntity
  8
0
100
AcDbLine
 10
240.2499999999999
 20
0.0000000000000063
 30
0.0
 11
239.1999999999999
 21
0.0000000000000063
 31
0.0
  0
LINE
  5
9E9
330
1E
100
AcDbEntity
  8
0
100
AcDbLine
 10
240.2499999999999
 20
0.0000000000000061
 30
0.0
 11
239.1999999999999
 21
0.0000000000000061
 31
0.0
  0
LINE
  5
9EA
330
1E
100
AcDbEntity
  8
0
100
AcDbLine
 10
240.2499999999999
 20
0.0000000000000017
 30
0.0
 11
239.1999999999999
 21
0.0000000000000017
 31
0.0
  0
LINE
  5
9EB
330
1E
100
AcDbEntity
  8
0
100
AcDbLine
 10
240.2499999999999
 20
0.0000000000000019
 30
0.0
 11
239.1999999999999
 21
0.0000000000000018
 31
0.0
  0
LINE
  5
9EC
330
1E
100
AcDbEntity
  8
0
100
AcDbLine
 10
240.2499999999999
 20
0.0000000000000034
 30
0.0
 11
239.1999999999999
 21
0.0000000000000035
 31
0.0
  0
LINE
  5
9ED
330
1E
100
AcDbEntity
  8
0
100
AcDbLine
 10
240.2499999999999
 20
0.0000000000000036
 30
0.0
 11
239.1999999999999
 21
0.0000000000000036
 31
0.0
  0
LINE
  5
9EE
330
1E
100
AcDbEntity
  8
0
100
AcDbLine
 10
240.2499999999999
 20
0.0000000000000043
 30
0.0
 11
239.1999999999999
 21
0.0000000000000044
 31
0.0
  0
LINE
  5
9EF
330
1E
100
AcDbEntity
  8
0
100
AcDbLine
 10
240.2499999999999
 20
0.0000000000000045
 30
0.0
 11
239.1999999999999
 21
0.0000000000000045
 31
0.0
  0
LINE
  5
9F0
330
1E
100
AcDbEntity
  8
0
100
AcDbLine
 10
240.2499999999999
 20
0.0000000000000052
 30
0.0
 11
239.1999999999999
 21
0.0000000000000052
 31
0.0
  0
LINE
  5
9F1
330
1E
100
AcDbEntity
  8
0
100
AcDbLine
 10
240.2499999999999
 20
0.0000000000000054
 30
0.0
 11
239.1999999999999
 21
0.0000000000000054
 31
0.0
  0
LINE
  5
9F2
330
1E
100
AcDbEntity
  8
0
100
AcDbLine
 10
240.2499999999999
 20
0.0000000000000027
 30
0.0
 11
239.1999999999999
 21
0.0000000000000027
 31
0.0
  0
LINE
  5
9F3
330
1E
100
AcDbEntity
  8
0
100
AcDbLine
 10
240.2499999999999
 20
0.0000000000000026
 30
0.0
 11
239.1999999999999
 21
0.0000000000000026
 31
0.0
  0
LINE
  5
9F4
330
1E
100
AcDbEntity
  8
0
100
AcDbLine
 10
226.75
 20
0.0000000000000063
 30
0.0
 11
225.7
 21
0.0000000000000063
 31
0.0
  0
LINE
  5
9F5
330
1E
100
AcDbEntity
  8
0
100
AcDbLine
 10
226.75
 20
0.0000000000000072
 30
0.0
 11
225.7
 21
0.0000000000000072
 31
0.0
  0
LINE
  5
9F6
330
1E
100
AcDbEntity
  8
0
100
AcDbLine
 10
226.75
 20
0.0000000000000081
 30
0.0
 11
225.7
 21
0.000000000000008
 31
0.0
  0
LINE
  5
9F7
330
1E
100
AcDbEntity
  8
0
100
AcDbLine
 10
226.75
 20
0.000000000000009
 30
0.0
 11
225.7
 21
0.0000000000000089
 31
0.0
  0
LINE
  5
9F8
330
1E
100
AcDbEntity
  8
0
100
AcDbLine
 10
226.75
 20
0.0000000000000098
 30
0.0
 11
225.7
 21
0.0000000000000098
 31
0.0
  0
LINE
  5
9F9
330
1E
100
AcDbEntity
  8
0
100
AcDbLine
 10
226.75
 20
0.0000000000000097
 30
0.0
 11
225.7
 21
0.0000000000000097
 31
0.0
  0
LINE
  5
9FA
330
1E
100
AcDbEntity
  8
0
100
AcDbLine
 10
226.75
 20
0.0000000000000088
 30
0.0
 11
225.7
 21
0.0000000000000088
 31
0.0
  0
LINE
  5
9FB
330
1E
100
AcDbEntity
  8
0
100
AcDbLine
 10
226.75
 20
0.0000000000000079
 30
0.0
 11
225.7
 21
0.0000000000000079
 31
0.0
  0
LINE
  5
9FC
330
1E
100
AcDbEntity
  8
0
100
AcDbLine
 10
226.75
 20
0.000000000000007
 30
0.0
 11
225.7
 21
0.000000000000007
 31
0.0
  0
LINE
  5
9FD
330
1E
100
AcDbEntity
  8
0
100
AcDbLine
 10
226.75
 20
0.0000000000000061
 30
0.0
 11
225.7
 21
0.0000000000000061
 31
0.0
  0
LINE
  5
9FE
330
1E
100
AcDbEntity
  8
0
100
AcDbLine
 10
226.75
 20
0.0000000000000017
 30
0.0
 11
225.7
 21
0.0000000000000017
 31
0.0
  0
LINE
  5
9FF
330
1E
100
AcDbEntity
  8
0
100
AcDbLine
 10
226.75
 20
0.0000000000000019
 30
0.0
 11
225.7
 21
0.0000000000000018
 31
0.0
  0
LINE
  5
A00
330
1E
100
AcDbEntity
  8
0
100
AcDbLine
 10
226.75
 20
0.0000000000000034
 30
0.0
 11
225.7
 21
0.0000000000000035
 31
0.0
  0
LINE
  5
A01
330
1E
100
AcDbEntity
  8
0
100
AcDbLine
 10
226.75
 20
0.0000000000000036
 30
0.0
 11
225.7
 21
0.0000000000000036
 31
0.0
  0
LINE
  5
A02
330
1E
100
AcDbEntity
  8
0
100
AcDbLine
 10
226.75
 20
0.0000000000000043
 30
0.0
 11
225.7
 21
0.0000000000000044
 31
0.0
  0
LINE
  5
A03
330
1E
100
AcDbEntity
  8
0
100
AcDbLine
 10
226.75
 20
0.0000000000000045
 30
0.0
 11
225.7
 21
0.0000000000000045
 31
0.0
  0
LINE
  5
A04
330
1E
100
AcDbEntity
  8
0
100
AcDbLine
 10
226.75
 20
0.0000000000000052
 30
0.0
 11
225.7
 21
0.0000000000000052
 31
0.0
  0
LINE
  5
A05
330
1E
100
AcDbEntity
  8
0
100
AcDbLine
 10
226.75
 20
0.0000000000000054
 30
0.0
 11
225.7
 21
0.0000000000000054
 31
0.0
  0
LINE
  5
A06
330
1E
100
AcDbEntity
  8
0
100
AcDbLine
 10
226.75
 20
0.0000000000000027
 30
0.0
 11
225.7
 21
0.0000000000000027
 31
0.0
  0
LINE
  5
A07
330
1E
100
AcDbEntity
  8
0
100
AcDbLine
 10
226.75
 20
0.0000000000000026
 30
0.0
 11
225.7
 21
0.0000000000000026
 31
0.0
  0
LINE
  5
A08
330
1E
100
AcDbEntity
  8
0
100
AcDbLine
 10
227.8
 20
0.0000000000000063
 30
0.0
 11
226.75
 21
0.0000000000000063
 31
0.0
  0
LINE
  5
A09
330
1E
100
AcDbEntity
  8
0
100
AcDbLine
 10
227.8
 20
0.0000000000000072
 30
0.0
 11
226.75
 21
0.0000000000000072
 31
0.0
  0
LINE
  5
A0A
330
1E
100
AcDbEntity
  8
0
100
AcDbLine
 10
227.8
 20
0.0000000000000089
 30
0.0
 11
226.75
 21
0.000000000000009
 31
0.0
  0
LINE
  5
A0B
330
1E
100
AcDbEntity
  8
0
100
AcDbLine
 10
227.8
 20
0.0000000000000098
 30
0.0
 11
226.75
 21
0.0000000000000098
 31
0.0
  0
LINE
  5
A0C
330
1E
100
AcDbEntity
  8
0
100
AcDbLine
 10
227.8
 20
0.0000000000000097
 30
0.0
 11
226.75
 21
0.0000000000000097
 31
0.0
  0
LINE
  5
A0D
330
1E
100
AcDbEntity
  8
0
100
AcDbLine
 10
227.8
 20
0.0000000000000088
 30
0.0
 11
226.75
 21
0.0000000000000088
 31
0.0
  0
LINE
  5
A0E
330
1E
100
AcDbEntity
  8
0
100
AcDbLine
 10
227.8
 20
0.000000000000008
 30
0.0
 11
226.75
 21
0.0000000000000081
 31
0.0
  0
LINE
  5
A0F
330
1E
100
AcDbEntity
  8
0
100
AcDbLine
 10
227.8
 20
0.0000000000000079
 30
0.0
 11
226.75
 21
0.0000000000000079
 31
0.0
  0
LINE
  5
A10
330
1E
100
AcDbEntity
  8
0
100
AcDbLine
 10
227.8
 20
0.000000000000007
 30
0.0
 11
226.75
 21
0.000000000000007
 31
0.0
  0
LINE
  5
A11
330
1E
100
AcDbEntity
  8
0
100
AcDbLine
 10
227.8
 20
0.0000000000000061
 30
0.0
 11
226.75
 21
0.0000000000000061
 31
0.0
  0
LINE
  5
A12
330
1E
100
AcDbEntity
  8
0
100
AcDbLine
 10
227.8
 20
0.0000000000000017
 30
0.0
 11
226.75
 21
0.0000000000000017
 31
0.0
  0
LINE
  5
A13
330
1E
100
AcDbEntity
  8
0
100
AcDbLine
 10
227.8
 20
0.0000000000000018
 30
0.0
 11
226.75
 21
0.0000000000000019
 31
0.0
  0
LINE
  5
A14
330
1E
100
AcDbEntity
  8
0
100
AcDbLine
 10
227.8
 20
0.0000000000000035
 30
0.0
 11
226.75
 21
0.0000000000000034
 31
0.0
  0
LINE
  5
A15
330
1E
100
AcDbEntity
  8
0
100
AcDbLine
 10
227.8
 20
0.0000000000000036
 30
0.0
 11
226.75
 21
0.0000000000000036
 31
0.0
  0
LINE
  5
A16
330
1E
100
AcDbEntity
  8
0
100
AcDbLine
 10
227.8
 20
0.0000000000000044
 30
0.0
 11
226.75
 21
0.0000000000000043
 31
0.0
  0
LINE
  5
A17
330
1E
100
AcDbEntity
  8
0
100
AcDbLine
 10
227.8
 20
0.0000000000000045
 30
0.0
 11
226.75
 21
0.0000000000000045
 31
0.0
  0
LINE
  5
A18
330
1E
100
AcDbEntity
  8
0
100
AcDbLine
 10
227.8
 20
0.0000000000000052
 30
0.0
 11
226.75
 21
0.0000000000000052
 31
0.0
  0
LINE
  5
A19
330
1E
100
AcDbEntity
  8
0
100
AcDbLine
 10
227.8
 20
0.0000000000000054
 30
0.0
 11
226.75
 21
0.0000000000000054
 31
0.0
  0
LINE
  5
A1A
330
1E
100
AcDbEntity
  8
0
100
AcDbLine
 10
227.8
 20
0.0000000000000026
 30
0.0
 11
226.75
 21
0.0000000000000026
 31
0.0
  0
LINE
  5
A1B
330
1E
100
AcDbEntity
  8
0
100
AcDbLine
 10
227.8
 20
0.0000000000000027
 30
0.0
 11
226.75
 21
0.0000000000000027
 31
0.0
  0
LINE
  5
A1C
330
1E
100
AcDbEntity
  8
0
100
AcDbLine
 10
227.8
 20
1.50000000000001
 30
0.0
 11
227.8
 21
0.0000000000000097
 31
0.0
  0
LINE
  5
A1D
330
1E
100
AcDbEntity
  8
0
100
AcDbLine
 10
226.75
 20
1.50000000000001
 30
0.0
 11
226.75
 21
0.0000000000000097
 31
0.0
  0
LINE
  5
A1E
330
1E
100
AcDbEntity
  8
0
100
AcDbLine
 10
226.75
 20
0.0000000000000098
 30
0.0
 11
226.75
 21
1.50000000000001
 31
0.0
  0
LINE
  5
A1F
330
1E
100
AcDbEntity
  8
0
100
AcDbLine
 10
227.8
 20
0.0000000000000098
 30
0.0
 11
227.8
 21
1.50000000000001
 31
0.0
  0
LINE
  5
A20
330
1E
100
AcDbEntity
  8
0
100
AcDbLine
 10
228.25
 20
1.50000000000001
 30
0.0
 11
228.25
 21
0.0000000000000052
 31
0.0
  0
LINE
  5
A21
330
1E
100
AcDbEntity
  8
0
100
AcDbLine
 10
228.25
 20
1.50000000000001
 30
0.0
 11
228.25
 21
0.0000000000000045
 31
0.0
  0
LINE
  5
A22
330
1E
100
AcDbEntity
  8
0
100
AcDbLine
 10
228.25
 20
1.50000000000001
 30
0.0
 11
228.25
 21
0.0000000000000026
 31
0.0
  0
LINE
  5
A23
330
1E
100
AcDbEntity
  8
0
100
AcDbLine
 10
228.25
 20
1.50000000000001
 30
0.0
 11
228.25
 21
0.0000000000000036
 31
0.0
  0
LINE
  5
A24
330
1E
100
AcDbEntity
  8
0
100
AcDbLine
 10
228.25
 20
1.50000000000001
 30
0.0
 11
228.25
 21
0.0000000000000016
 31
0.0
  0
LINE
  5
A25
330
1E
100
AcDbEntity
  8
0
100
AcDbLine
 10
228.25
 20
1.50000000000001
 30
0.0
 11
228.25
 21
0.0000000000000097
 31
0.0
  0
LINE
  5
A26
330
1E
100
AcDbEntity
  8
0
100
AcDbLine
 10
228.25
 20
1.50000000000001
 30
0.0
 11
228.25
 21
0.0000000000000088
 31
0.0
  0
LINE
  5
A27
330
1E
100
AcDbEntity
  8
0
100
AcDbLine
 10
228.25
 20
1.50000000000001
 30
0.0
 11
228.25
 21
0.0000000000000081
 31
0.0
  0
LINE
  5
A28
330
1E
100
AcDbEntity
  8
0
100
AcDbLine
 10
228.25
 20
1.50000000000001
 30
0.0
 11
228.25
 21
0.0000000000000071
 31
0.0
  0
LINE
  5
A29
330
1E
100
AcDbEntity
  8
0
100
AcDbLine
 10
228.25
 20
1.50000000000001
 30
0.0
 11
228.25
 21
0.0000000000000062
 31
0.0
  0
LINE
  5
A2A
330
1E
100
AcDbEntity
  8
0
100
AcDbLine
 10
228.25
 20
0.0000000000000062
 30
0.0
 11
228.25
 21
1.50000000000001
 31
0.0
  0
LINE
  5
A2B
330
1E
100
AcDbEntity
  8
0
100
AcDbLine
 10
228.25
 20
0.0000000000000071
 30
0.0
 11
228.25
 21
1.50000000000001
 31
0.0
  0
LINE
  5
A2C
330
1E
100
AcDbEntity
  8
0
100
AcDbLine
 10
228.25
 20
0.000000000000008
 30
0.0
 11
228.25
 21
1.50000000000001
 31
0.0
  0
LINE
  5
A2D
330
1E
100
AcDbEntity
  8
0
100
AcDbLine
 10
228.25
 20
0.0000000000000089
 30
0.0
 11
228.25
 21
1.50000000000001
 31
0.0
  0
LINE
  5
A2E
330
1E
100
AcDbEntity
  8
0
100
AcDbLine
 10
228.25
 20
0.0000000000000098
 30
0.0
 11
228.25
 21
1.50000000000001
 31
0.0
  0
LINE
  5
A2F
330
1E
100
AcDbEntity
  8
0
100
AcDbLine
 10
228.25
 20
0.0000000000000018
 30
0.0
 11
228.25
 21
1.50000000000001
 31
0.0
  0
LINE
  5
A30
330
1E
100
AcDbEntity
  8
0
100
AcDbLine
 10
228.25
 20
0.0000000000000035
 30
0.0
 11
228.25
 21
1.50000000000001
 31
0.0
  0
LINE
  5
A31
330
1E
100
AcDbEntity
  8
0
100
AcDbLine
 10
228.25
 20
0.0000000000000027
 30
0.0
 11
228.25
 21
1.50000000000001
 31
0.0
  0
LINE
  5
A32
330
1E
100
AcDbEntity
  8
0
100
AcDbLine
 10
228.25
 20
0.0000000000000044
 30
0.0
 11
228.25
 21
1.50000000000001
 31
0.0
  0
LINE
  5
A33
330
1E
100
AcDbEntity
  8
0
100
AcDbLine
 10
228.25
 20
0.0000000000000053
 30
0.0
 11
228.25
 21
1.50000000000001
 31
0.0
  0
LINE
  5
A34
330
1E
100
AcDbEntity
  8
0
100
AcDbLine
 10
228.25
 20
0.0000000000000062
 30
0.0
 11
227.8
 21
0.0000000000000061
 31
0.0
  0
LINE
  5
A35
330
1E
100
AcDbEntity
  8
0
100
AcDbLine
 10
228.25
 20
0.0000000000000062
 30
0.0
 11
227.8
 21
0.0000000000000063
 31
0.0
  0
LINE
  5
A36
330
1E
100
AcDbEntity
  8
0
100
AcDbLine
 10
228.25
 20
0.0000000000000071
 30
0.0
 11
227.8
 21
0.000000000000007
 31
0.0
  0
LINE
  5
A37
330
1E
100
AcDbEntity
  8
0
100
AcDbLine
 10
228.25
 20
0.0000000000000071
 30
0.0
 11
227.8
 21
0.0000000000000072
 31
0.0
  0
LINE
  5
A38
330
1E
100
AcDbEntity
  8
0
100
AcDbLine
 10
228.25
 20
0.000000000000008
 30
0.0
 11
227.8
 21
0.0000000000000079
 31
0.0
  0
LINE
  5
A39
330
1E
100
AcDbEntity
  8
0
100
AcDbLine
 10
228.25
 20
0.000000000000008
 30
0.0
 11
227.8
 21
0.000000000000008
 31
0.0
  0
LINE
  5
A3A
330
1E
100
AcDbEntity
  8
0
100
AcDbLine
 10
228.25
 20
0.0000000000000089
 30
0.0
 11
227.8
 21
0.0000000000000088
 31
0.0
  0
LINE
  5
A3B
330
1E
100
AcDbEntity
  8
0
100
AcDbLine
 10
228.25
 20
0.0000000000000089
 30
0.0
 11
227.8
 21
0.0000000000000089
 31
0.0
  0
LINE
  5
A3C
330
1E
100
AcDbEntity
  8
0
100
AcDbLine
 10
228.25
 20
0.0000000000000098
 30
0.0
 11
227.8
 21
0.0000000000000097
 31
0.0
  0
LINE
  5
A3D
330
1E
100
AcDbEntity
  8
0
100
AcDbLine
 10
228.25
 20
0.0000000000000098
 30
0.0
 11
227.8
 21
0.0000000000000098
 31
0.0
  0
LINE
  5
A3E
330
1E
100
AcDbEntity
  8
0
100
AcDbLine
 10
228.25
 20
0.0000000000000018
 30
0.0
 11
227.8
 21
0.0000000000000018
 31
0.0
  0
LINE
  5
A3F
330
1E
100
AcDbEntity
  8
0
100
AcDbLine
 10
228.25
 20
0.0000000000000018
 30
0.0
 11
227.8
 21
0.0000000000000017
 31
0.0
  0
LINE
  5
A40
330
1E
100
AcDbEntity
  8
0
100
AcDbLine
 10
228.25
 20
0.0000000000000035
 30
0.0
 11
227.8
 21
0.0000000000000036
 31
0.0
  0
LINE
  5
A41
330
1E
100
AcDbEntity
  8
0
100
AcDbLine
 10
228.25
 20
0.0000000000000035
 30
0.0
 11
227.8
 21
0.0000000000000035
 31
0.0
  0
LINE
  5
A42
330
1E
100
AcDbEntity
  8
0
100
AcDbLine
 10
228.25
 20
0.0000000000000027
 30
0.0
 11
227.8
 21
0.0000000000000027
 31
0.0
  0
LINE
  5
A43
330
1E
100
AcDbEntity
  8
0
100
AcDbLine
 10
228.25
 20
0.0000000000000027
 30
0.0
 11
227.8
 21
0.0000000000000026
 31
0.0
  0
LINE
  5
A44
330
1E
100
AcDbEntity
  8
0
100
AcDbLine
 10
228.25
 20
0.0000000000000044
 30
0.0
 11
227.8
 21
0.0000000000000045
 31
0.0
  0
LINE
  5
A45
330
1E
100
AcDbEntity
  8
0
100
AcDbLine
 10
228.25
 20
0.0000000000000044
 30
0.0
 11
227.8
 21
0.0000000000000044
 31
0.0
  0
LINE
  5
A46
330
1E
100
AcDbEntity
  8
0
100
AcDbLine
 10
228.25
 20
0.0000000000000053
 30
0.0
 11
227.8
 21
0.0000000000000054
 31
0.0
  0
LINE
  5
A47
330
1E
100
AcDbEntity
  8
0
100
AcDbLine
 10
228.25
 20
0.0000000000000053
 30
0.0
 11
227.8
 21
0.0000000000000052
 31
0.0
  0
LINE
  5
A48
330
1E
100
AcDbEntity
  8
0
100
AcDbLine
 10
225.7
 20
0.0000000000000072
 30
0.0
 11
225.2499999999999
 21
0.0000000000000071
 31
0.0
  0
LINE
  5
A49
330
1E
100
AcDbEntity
  8
0
100
AcDbLine
 10
225.7
 20
0.000000000000008
 30
0.0
 11
225.2499999999999
 21
0.000000000000008
 31
0.0
  0
LINE
  5
A4A
330
1E
100
AcDbEntity
  8
0
100
AcDbLine
 10
225.7
 20
0.0000000000000079
 30
0.0
 11
225.2499999999999
 21
0.000000000000008
 31
0.0
  0
LINE
  5
A4B
330
1E
100
AcDbEntity
  8
0
100
AcDbLine
 10
225.7
 20
0.0000000000000089
 30
0.0
 11
225.2499999999999
 21
0.0000000000000089
 31
0.0
  0
LINE
  5
A4C
330
1E
100
AcDbEntity
  8
0
100
AcDbLine
 10
225.7
 20
0.0000000000000098
 30
0.0
 11
225.2499999999999
 21
0.0000000000000098
 31
0.0
  0
LINE
  5
A4D
330
1E
100
AcDbEntity
  8
0
100
AcDbLine
 10
225.7
 20
0.0000000000000097
 30
0.0
 11
225.2499999999999
 21
0.0000000000000098
 31
0.0
  0
LINE
  5
A4E
330
1E
100
AcDbEntity
  8
0
100
AcDbLine
 10
225.7
 20
0.0000000000000088
 30
0.0
 11
225.2499999999999
 21
0.0000000000000089
 31
0.0
  0
LINE
  5
A4F
330
1E
100
AcDbEntity
  8
0
100
AcDbLine
 10
225.7
 20
0.000000000000007
 30
0.0
 11
225.2499999999999
 21
0.0000000000000071
 31
0.0
  0
LINE
  5
A50
330
1E
100
AcDbEntity
  8
0
100
AcDbLine
 10
225.7
 20
0.0000000000000063
 30
0.0
 11
225.2499999999999
 21
0.0000000000000062
 31
0.0
  0
LINE
  5
A51
330
1E
100
AcDbEntity
  8
0
100
AcDbLine
 10
225.7
 20
0.0000000000000061
 30
0.0
 11
225.2499999999999
 21
0.0000000000000062
 31
0.0
  0
LINE
  5
A52
330
1E
100
AcDbEntity
  8
0
100
AcDbLine
 10
225.7
 20
0.0000000000000017
 30
0.0
 11
225.2499999999999
 21
0.0000000000000018
 31
0.0
  0
LINE
  5
A53
330
1E
100
AcDbEntity
  8
0
100
AcDbLine
 10
225.7
 20
0.0000000000000018
 30
0.0
 11
225.2499999999999
 21
0.0000000000000018
 31
0.0
  0
LINE
  5
A54
330
1E
100
AcDbEntity
  8
0
100
AcDbLine
 10
225.7
 20
0.0000000000000035
 30
0.0
 11
225.2499999999999
 21
0.0000000000000035
 31
0.0
  0
LINE
  5
A55
330
1E
100
AcDbEntity
  8
0
100
AcDbLine
 10
225.7
 20
0.0000000000000036
 30
0.0
 11
225.2499999999999
 21
0.0000000000000035
 31
0.0
  0
LINE
  5
A56
330
1E
100
AcDbEntity
  8
0
100
AcDbLine
 10
225.7
 20
0.0000000000000044
 30
0.0
 11
225.2499999999999
 21
0.0000000000000044
 31
0.0
  0
LINE
  5
A57
330
1E
100
AcDbEntity
  8
0
100
AcDbLine
 10
225.7
 20
0.0000000000000045
 30
0.0
 11
225.2499999999999
 21
0.0000000000000044
 31
0.0
  0
LINE
  5
A58
330
1E
100
AcDbEntity
  8
0
100
AcDbLine
 10
225.7
 20
0.0000000000000052
 30
0.0
 11
225.2499999999999
 21
0.0000000000000053
 31
0.0
  0
LINE
  5
A59
330
1E
100
AcDbEntity
  8
0
100
AcDbLine
 10
225.7
 20
0.0000000000000054
 30
0.0
 11
225.2499999999999
 21
0.0000000000000053
 31
0.0
  0
LINE
  5
A5A
330
1E
100
AcDbEntity
  8
0
100
AcDbLine
 10
225.7
 20
0.0000000000000027
 30
0.0
 11
225.2499999999999
 21
0.0000000000000027
 31
0.0
  0
LINE
  5
A5B
330
1E
100
AcDbEntity
  8
0
100
AcDbLine
 10
225.7
 20
0.0000000000000026
 30
0.0
 11
225.2499999999999
 21
0.0000000000000027
 31
0.0
  0
LINE
  5
A5C
330
1E
100
AcDbEntity
  8
0
100
AcDbLine
 10
225.7
 20
1.50000000000001
 30
0.0
 11
225.7
 21
0.0000000000000097
 31
0.0
  0
LINE
  5
A5D
330
1E
100
AcDbEntity
  8
0
100
AcDbLine
 10
225.2499999999999
 20
1.50000000000001
 30
0.0
 11
225.2499999999999
 21
0.0000000000000097
 31
0.0
  0
LINE
  5
A5E
330
1E
100
AcDbEntity
  8
0
100
AcDbLine
 10
225.2499999999999
 20
0.0000000000000098
 30
0.0
 11
225.2499999999999
 21
1.50000000000001
 31
0.0
  0
LINE
  5
A5F
330
1E
100
AcDbEntity
  8
0
100
AcDbLine
 10
225.7
 20
0.0000000000000098
 30
0.0
 11
225.7
 21
1.50000000000001
 31
0.0
  0
LINE
  5
A60
330
1E
100
AcDbEntity
  8
0
100
AcDbLine
 10
214.3
 20
0.0000000000000098
 30
0.0
 11
213.2499999999999
 21
0.0000000000000098
 31
0.0
  0
LINE
  5
A61
330
1E
100
AcDbEntity
  8
0
100
AcDbLine
 10
214.3
 20
0.0000000000000097
 30
0.0
 11
213.2499999999999
 21
0.0000000000000097
 31
0.0
  0
LINE
  5
A62
330
1E
100
AcDbEntity
  8
0
100
AcDbLine
 10
214.3
 20
0.0000000000000089
 30
0.0
 11
213.2499999999999
 21
0.000000000000009
 31
0.0
  0
LINE
  5
A63
330
1E
100
AcDbEntity
  8
0
100
AcDbLine
 10
214.3
 20
0.0000000000000088
 30
0.0
 11
213.2499999999999
 21
0.0000000000000088
 31
0.0
  0
LINE
  5
A64
330
1E
100
AcDbEntity
  8
0
100
AcDbLine
 10
214.3
 20
0.000000000000008
 30
0.0
 11
213.2499999999999
 21
0.0000000000000081
 31
0.0
  0
LINE
  5
A65
330
1E
100
AcDbEntity
  8
0
100
AcDbLine
 10
214.3
 20
0.0000000000000079
 30
0.0
 11
213.2499999999999
 21
0.0000000000000079
 31
0.0
  0
LINE
  5
A66
330
1E
100
AcDbEntity
  8
0
100
AcDbLine
 10
214.3
 20
0.0000000000000072
 30
0.0
 11
213.2499999999999
 21
0.0000000000000072
 31
0.0
  0
LINE
  5
A67
330
1E
100
AcDbEntity
  8
0
100
AcDbLine
 10
214.3
 20
0.000000000000007
 30
0.0
 11
213.2499999999999
 21
0.000000000000007
 31
0.0
  0
LINE
  5
A68
330
1E
100
AcDbEntity
  8
0
100
AcDbLine
 10
214.3
 20
0.0000000000000063
 30
0.0
 11
213.2499999999999
 21
0.0000000000000063
 31
0.0
  0
LINE
  5
A69
330
1E
100
AcDbEntity
  8
0
100
AcDbLine
 10
214.3
 20
0.0000000000000061
 30
0.0
 11
213.2499999999999
 21
0.0000000000000061
 31
0.0
  0
LINE
  5
A6A
330
1E
100
AcDbEntity
  8
0
100
AcDbLine
 10
214.3
 20
0.0000000000000017
 30
0.0
 11
213.2499999999999
 21
0.0000000000000017
 31
0.0
  0
LINE
  5
A6B
330
1E
100
AcDbEntity
  8
0
100
AcDbLine
 10
214.3
 20
0.0000000000000018
 30
0.0
 11
213.2499999999999
 21
0.0000000000000019
 31
0.0
  0
LINE
  5
A6C
330
1E
100
AcDbEntity
  8
0
100
AcDbLine
 10
214.3
 20
0.0000000000000035
 30
0.0
 11
213.2499999999999
 21
0.0000000000000034
 31
0.0
  0
LINE
  5
A6D
330
1E
100
AcDbEntity
  8
0
100
AcDbLine
 10
214.3
 20
0.0000000000000036
 30
0.0
 11
213.2499999999999
 21
0.0000000000000036
 31
0.0
  0
LINE
  5
A6E
330
1E
100
AcDbEntity
  8
0
100
AcDbLine
 10
214.3
 20
0.0000000000000044
 30
0.0
 11
213.2499999999999
 21
0.0000000000000043
 31
0.0
  0
LINE
  5
A6F
330
1E
100
AcDbEntity
  8
0
100
AcDbLine
 10
214.3
 20
0.0000000000000045
 30
0.0
 11
213.2499999999999
 21
0.0000000000000045
 31
0.0
  0
LINE
  5
A70
330
1E
100
AcDbEntity
  8
0
100
AcDbLine
 10
214.3
 20
0.0000000000000052
 30
0.0
 11
213.2499999999999
 21
0.0000000000000052
 31
0.0
  0
LINE
  5
A71
330
1E
100
AcDbEntity
  8
0
100
AcDbLine
 10
214.3
 20
0.0000000000000054
 30
0.0
 11
213.2499999999999
 21
0.0000000000000054
 31
0.0
  0
LINE
  5
A72
330
1E
100
AcDbEntity
  8
0
100
AcDbLine
 10
214.3
 20
0.0000000000000026
 30
0.0
 11
213.2499999999999
 21
0.0000000000000026
 31
0.0
  0
LINE
  5
A73
330
1E
100
AcDbEntity
  8
0
100
AcDbLine
 10
214.3
 20
0.0000000000000027
 30
0.0
 11
213.2499999999999
 21
0.0000000000000027
 31
0.0
  0
LINE
  5
A74
330
1E
100
AcDbEntity
  8
0
100
AcDbLine
 10
214.3
 20
1.50000000000001
 30
0.0
 11
214.3
 21
0.0000000000000097
 31
0.0
  0
LINE
  5
A75
330
1E
100
AcDbEntity
  8
0
100
AcDbLine
 10
214.7499999999999
 20
1.50000000000001
 30
0.0
 11
214.7499999999999
 21
0.0000000000000052
 31
0.0
  0
LINE
  5
A76
330
1E
100
AcDbEntity
  8
0
100
AcDbLine
 10
214.7499999999999
 20
1.50000000000001
 30
0.0
 11
214.7499999999999
 21
0.0000000000000045
 31
0.0
  0
LINE
  5
A77
330
1E
100
AcDbEntity
  8
0
100
AcDbLine
 10
214.7499999999999
 20
1.50000000000001
 30
0.0
 11
214.7499999999999
 21
0.0000000000000026
 31
0.0
  0
LINE
  5
A78
330
1E
100
AcDbEntity
  8
0
100
AcDbLine
 10
214.7499999999999
 20
1.50000000000001
 30
0.0
 11
214.7499999999999
 21
0.0000000000000036
 31
0.0
  0
LINE
  5
A79
330
1E
100
AcDbEntity
  8
0
100
AcDbLine
 10
214.7499999999999
 20
1.50000000000001
 30
0.0
 11
214.7499999999999
 21
0.0000000000000016
 31
0.0
  0
LINE
  5
A7A
330
1E
100
AcDbEntity
  8
0
100
AcDbLine
 10
214.7499999999999
 20
1.50000000000001
 30
0.0
 11
214.7499999999999
 21
0.0000000000000062
 31
0.0
  0
LINE
  5
A7B
330
1E
100
AcDbEntity
  8
0
100
AcDbLine
 10
214.7499999999999
 20
1.50000000000001
 30
0.0
 11
214.7499999999999
 21
0.0000000000000071
 31
0.0
  0
LINE
  5
A7C
330
1E
100
AcDbEntity
  8
0
100
AcDbLine
 10
214.7499999999999
 20
1.50000000000001
 30
0.0
 11
214.7499999999999
 21
0.0000000000000081
 31
0.0
  0
LINE
  5
A7D
330
1E
100
AcDbEntity
  8
0
100
AcDbLine
 10
214.7499999999999
 20
1.50000000000001
 30
0.0
 11
214.7499999999999
 21
0.0000000000000088
 31
0.0
  0
LINE
  5
A7E
330
1E
100
AcDbEntity
  8
0
100
AcDbLine
 10
214.7499999999999
 20
1.50000000000001
 30
0.0
 11
214.7499999999999
 21
0.0000000000000097
 31
0.0
  0
LINE
  5
A7F
330
1E
100
AcDbEntity
  8
0
100
AcDbLine
 10
214.7499999999999
 20
0.0000000000000098
 30
0.0
 11
214.7499999999999
 21
1.50000000000001
 31
0.0
  0
LINE
  5
A80
330
1E
100
AcDbEntity
  8
0
100
AcDbLine
 10
214.7499999999999
 20
0.0000000000000098
 30
0.0
 11
214.3
 21
0.0000000000000097
 31
0.0
  0
LINE
  5
A81
330
1E
100
AcDbEntity
  8
0
100
AcDbLine
 10
214.7499999999999
 20
0.0000000000000098
 30
0.0
 11
214.3
 21
0.0000000000000098
 31
0.0
  0
LINE
  5
A82
330
1E
100
AcDbEntity
  8
0
100
AcDbLine
 10
214.3
 20
0.0000000000000098
 30
0.0
 11
214.3
 21
1.50000000000001
 31
0.0
  0
LINE
  5
A83
330
1E
100
AcDbEntity
  8
0
100
AcDbLine
 10
214.7499999999999
 20
0.0000000000000089
 30
0.0
 11
214.7499999999999
 21
1.50000000000001
 31
0.0
  0
LINE
  5
A84
330
1E
100
AcDbEntity
  8
0
100
AcDbLine
 10
214.7499999999999
 20
0.0000000000000089
 30
0.0
 11
214.3
 21
0.0000000000000088
 31
0.0
  0
LINE
  5
A85
330
1E
100
AcDbEntity
  8
0
100
AcDbLine
 10
214.7499999999999
 20
0.0000000000000089
 30
0.0
 11
214.3
 21
0.0000000000000089
 31
0.0
  0
LINE
  5
A86
330
1E
100
AcDbEntity
  8
0
100
AcDbLine
 10
214.7499999999999
 20
0.000000000000008
 30
0.0
 11
214.7499999999999
 21
1.50000000000001
 31
0.0
  0
LINE
  5
A87
330
1E
100
AcDbEntity
  8
0
100
AcDbLine
 10
214.7499999999999
 20
0.000000000000008
 30
0.0
 11
214.3
 21
0.0000000000000079
 31
0.0
  0
LINE
  5
A88
330
1E
100
AcDbEntity
  8
0
100
AcDbLine
 10
214.7499999999999
 20
0.000000000000008
 30
0.0
 11
214.3
 21
0.000000000000008
 31
0.0
  0
LINE
  5
A89
330
1E
100
AcDbEntity
  8
0
100
AcDbLine
 10
214.7499999999999
 20
0.0000000000000071
 30
0.0
 11
214.7499999999999
 21
1.50000000000001
 31
0.0
  0
LINE
  5
A8A
330
1E
100
AcDbEntity
  8
0
100
AcDbLine
 10
214.7499999999999
 20
0.0000000000000071
 30
0.0
 11
214.3
 21
0.000000000000007
 31
0.0
  0
LINE
  5
A8B
330
1E
100
AcDbEntity
  8
0
100
AcDbLine
 10
214.7499999999999
 20
0.0000000000000071
 30
0.0
 11
214.3
 21
0.0000000000000072
 31
0.0
  0
LINE
  5
A8C
330
1E
100
AcDbEntity
  8
0
100
AcDbLine
 10
214.7499999999999
 20
0.0000000000000062
 30
0.0
 11
214.7499999999999
 21
1.50000000000001
 31
0.0
  0
LINE
  5
A8D
330
1E
100
AcDbEntity
  8
0
100
AcDbLine
 10
214.7499999999999
 20
0.0000000000000062
 30
0.0
 11
214.3
 21
0.0000000000000061
 31
0.0
  0
LINE
  5
A8E
330
1E
100
AcDbEntity
  8
0
100
AcDbLine
 10
214.7499999999999
 20
0.0000000000000062
 30
0.0
 11
214.3
 21
0.0000000000000063
 31
0.0
  0
LINE
  5
A8F
330
1E
100
AcDbEntity
  8
0
100
AcDbLine
 10
214.7499999999999
 20
0.0000000000000018
 30
0.0
 11
214.7499999999999
 21
1.50000000000001
 31
0.0
  0
LINE
  5
A90
330
1E
100
AcDbEntity
  8
0
100
AcDbLine
 10
214.7499999999999
 20
0.0000000000000018
 30
0.0
 11
214.3
 21
0.0000000000000018
 31
0.0
  0
LINE
  5
A91
330
1E
100
AcDbEntity
  8
0
100
AcDbLine
 10
214.7499999999999
 20
0.0000000000000018
 30
0.0
 11
214.3
 21
0.0000000000000017
 31
0.0
  0
LINE
  5
A92
330
1E
100
AcDbEntity
  8
0
100
AcDbLine
 10
214.7499999999999
 20
0.0000000000000035
 30
0.0
 11
214.7499999999999
 21
1.50000000000001
 31
0.0
  0
LINE
  5
A93
330
1E
100
AcDbEntity
  8
0
100
AcDbLine
 10
214.7499999999999
 20
0.0000000000000035
 30
0.0
 11
214.3
 21
0.0000000000000036
 31
0.0
  0
LINE
  5
A94
330
1E
100
AcDbEntity
  8
0
100
AcDbLine
 10
214.7499999999999
 20
0.0000000000000035
 30
0.0
 11
214.3
 21
0.0000000000000035
 31
0.0
  0
LINE
  5
A95
330
1E
100
AcDbEntity
  8
0
100
AcDbLine
 10
214.7499999999999
 20
0.0000000000000044
 30
0.0
 11
214.7499999999999
 21
1.50000000000001
 31
0.0
  0
LINE
  5
A96
330
1E
100
AcDbEntity
  8
0
100
AcDbLine
 10
214.7499999999999
 20
0.0000000000000044
 30
0.0
 11
214.3
 21
0.0000000000000045
 31
0.0
  0
LINE
  5
A97
330
1E
100
AcDbEntity
  8
0
100
AcDbLine
 10
214.7499999999999
 20
0.0000000000000044
 30
0.0
 11
214.3
 21
0.0000000000000044
 31
0.0
  0
LINE
  5
A98
330
1E
100
AcDbEntity
  8
0
100
AcDbLine
 10
214.7499999999999
 20
0.0000000000000053
 30
0.0
 11
214.7499999999999
 21
1.50000000000001
 31
0.0
  0
LINE
  5
A99
330
1E
100
AcDbEntity
  8
0
100
AcDbLine
 10
214.7499999999999
 20
0.0000000000000053
 30
0.0
 11
214.3
 21
0.0000000000000054
 31
0.0
  0
LINE
  5
A9A
330
1E
100
AcDbEntity
  8
0
100
AcDbLine
 10
214.7499999999999
 20
0.0000000000000053
 30
0.0
 11
214.3
 21
0.0000000000000052
 31
0.0
  0
LINE
  5
A9B
330
1E
100
AcDbEntity
  8
0
100
AcDbLine
 10
214.7499999999999
 20
0.0000000000000027
 30
0.0
 11
214.7499999999999
 21
1.50000000000001
 31
0.0
  0
LINE
  5
A9C
330
1E
100
AcDbEntity
  8
0
100
AcDbLine
 10
214.7499999999999
 20
0.0000000000000027
 30
0.0
 11
214.3
 21
0.0000000000000027
 31
0.0
  0
LINE
  5
A9D
330
1E
100
AcDbEntity
  8
0
100
AcDbLine
 10
214.7499999999999
 20
0.0000000000000027
 30
0.0
 11
214.3
 21
0.0000000000000026
 31
0.0
  0
LINE
  5
A9E
330
1E
100
AcDbEntity
  8
0
100
AcDbLine
 10
213.2499999999999
 20
1.50000000000001
 30
0.0
 11
213.2499999999999
 21
0.0000000000000097
 31
0.0
  0
LINE
  5
A9F
330
1E
100
AcDbEntity
  8
0
100
AcDbLine
 10
212.1999999999999
 20
1.50000000000001
 30
0.0
 11
212.1999999999999
 21
0.0000000000000097
 31
0.0
  0
LINE
  5
AA0
330
1E
100
AcDbEntity
  8
0
100
AcDbLine
 10
211.75
 20
1.50000000000001
 30
0.0
 11
211.75
 21
0.0000000000000097
 31
0.0
  0
LINE
  5
AA1
330
1E
100
AcDbEntity
  8
0
100
AcDbLine
 10
213.2499999999999
 20
0.0000000000000098
 30
0.0
 11
213.2499999999999
 21
1.50000000000001
 31
0.0
  0
LINE
  5
AA2
330
1E
100
AcDbEntity
  8
0
100
AcDbLine
 10
213.2499999999999
 20
0.0000000000000098
 30
0.0
 11
212.1999999999999
 21
0.0000000000000098
 31
0.0
  0
LINE
  5
AA3
330
1E
100
AcDbEntity
  8
0
100
AcDbLine
 10
212.1999999999999
 20
0.0000000000000098
 30
0.0
 11
212.1999999999999
 21
1.50000000000001
 31
0.0
  0
LINE
  5
AA4
330
1E
100
AcDbEntity
  8
0
100
AcDbLine
 10
212.1999999999999
 20
0.0000000000000098
 30
0.0
 11
211.75
 21
0.0000000000000098
 31
0.0
  0
LINE
  5
AA5
330
1E
100
AcDbEntity
  8
0
100
AcDbLine
 10
212.1999999999999
 20
0.0000000000000097
 30
0.0
 11
211.75
 21
0.0000000000000098
 31
0.0
  0
LINE
  5
AA6
330
1E
100
AcDbEntity
  8
0
100
AcDbLine
 10
211.75
 20
0.0000000000000098
 30
0.0
 11
211.75
 21
1.50000000000001
 31
0.0
  0
LINE
  5
AA7
330
1E
100
AcDbEntity
  8
0
100
AcDbLine
 10
213.2499999999999
 20
0.0000000000000097
 30
0.0
 11
212.1999999999999
 21
0.0000000000000097
 31
0.0
  0
LINE
  5
AA8
330
1E
100
AcDbEntity
  8
0
100
AcDbLine
 10
213.2499999999999
 20
0.000000000000009
 30
0.0
 11
212.1999999999999
 21
0.0000000000000089
 31
0.0
  0
LINE
  5
AA9
330
1E
100
AcDbEntity
  8
0
100
AcDbLine
 10
212.1999999999999
 20
0.0000000000000089
 30
0.0
 11
211.75
 21
0.0000000000000089
 31
0.0
  0
LINE
  5
AAA
330
1E
100
AcDbEntity
  8
0
100
AcDbLine
 10
212.1999999999999
 20
0.0000000000000088
 30
0.0
 11
211.75
 21
0.0000000000000089
 31
0.0
  0
LINE
  5
AAB
330
1E
100
AcDbEntity
  8
0
100
AcDbLine
 10
213.2499999999999
 20
0.0000000000000088
 30
0.0
 11
212.1999999999999
 21
0.0000000000000088
 31
0.0
  0
LINE
  5
AAC
330
1E
100
AcDbEntity
  8
0
100
AcDbLine
 10
212.1999999999999
 20
0.000000000000008
 30
0.0
 11
211.75
 21
0.000000000000008
 31
0.0
  0
LINE
  5
AAD
330
1E
100
AcDbEntity
  8
0
100
AcDbLine
 10
212.1999999999999
 20
0.0000000000000079
 30
0.0
 11
211.75
 21
0.000000000000008
 31
0.0
  0
LINE
  5
AAE
330
1E
100
AcDbEntity
  8
0
100
AcDbLine
 10
212.1999999999999
 20
0.0000000000000072
 30
0.0
 11
211.75
 21
0.0000000000000071
 31
0.0
  0
LINE
  5
AAF
330
1E
100
AcDbEntity
  8
0
100
AcDbLine
 10
212.1999999999999
 20
0.000000000000007
 30
0.0
 11
211.75
 21
0.0000000000000071
 31
0.0
  0
LINE
  5
AB0
330
1E
100
AcDbEntity
  8
0
100
AcDbLine
 10
212.1999999999999
 20
0.0000000000000063
 30
0.0
 11
211.75
 21
0.0000000000000062
 31
0.0
  0
LINE
  5
AB1
330
1E
100
AcDbEntity
  8
0
100
AcDbLine
 10
212.1999999999999
 20
0.0000000000000061
 30
0.0
 11
211.75
 21
0.0000000000000062
 31
0.0
  0
LINE
  5
AB2
330
1E
100
AcDbEntity
  8
0
100
AcDbLine
 10
212.1999999999999
 20
0.0000000000000017
 30
0.0
 11
211.75
 21
0.0000000000000018
 31
0.0
  0
LINE
  5
AB3
330
1E
100
AcDbEntity
  8
0
100
AcDbLine
 10
212.1999999999999
 20
0.0000000000000018
 30
0.0
 11
211.75
 21
0.0000000000000018
 31
0.0
  0
LINE
  5
AB4
330
1E
100
AcDbEntity
  8
0
100
AcDbLine
 10
212.1999999999999
 20
0.0000000000000035
 30
0.0
 11
211.75
 21
0.0000000000000035
 31
0.0
  0
LINE
  5
AB5
330
1E
100
AcDbEntity
  8
0
100
AcDbLine
 10
212.1999999999999
 20
0.0000000000000036
 30
0.0
 11
211.75
 21
0.0000000000000035
 31
0.0
  0
LINE
  5
AB6
330
1E
100
AcDbEntity
  8
0
100
AcDbLine
 10
212.1999999999999
 20
0.0000000000000044
 30
0.0
 11
211.75
 21
0.0000000000000044
 31
0.0
  0
LINE
  5
AB7
330
1E
100
AcDbEntity
  8
0
100
AcDbLine
 10
212.1999999999999
 20
0.0000000000000045
 30
0.0
 11
211.75
 21
0.0000000000000044
 31
0.0
  0
LINE
  5
AB8
330
1E
100
AcDbEntity
  8
0
100
AcDbLine
 10
212.1999999999999
 20
0.0000000000000052
 30
0.0
 11
211.75
 21
0.0000000000000053
 31
0.0
  0
LINE
  5
AB9
330
1E
100
AcDbEntity
  8
0
100
AcDbLine
 10
212.1999999999999
 20
0.0000000000000054
 30
0.0
 11
211.75
 21
0.0000000000000053
 31
0.0
  0
LINE
  5
ABA
330
1E
100
AcDbEntity
  8
0
100
AcDbLine
 10
212.1999999999999
 20
0.0000000000000027
 30
0.0
 11
211.75
 21
0.0000000000000027
 31
0.0
  0
LINE
  5
ABB
330
1E
100
AcDbEntity
  8
0
100
AcDbLine
 10
212.1999999999999
 20
0.0000000000000026
 30
0.0
 11
211.75
 21
0.0000000000000027
 31
0.0
  0
LINE
  5
ABC
330
1E
100
AcDbEntity
  8
0
100
AcDbLine
 10
213.2499999999999
 20
0.0000000000000081
 30
0.0
 11
212.1999999999999
 21
0.000000000000008
 31
0.0
  0
LINE
  5
ABD
330
1E
100
AcDbEntity
  8
0
100
AcDbLine
 10
213.2499999999999
 20
0.0000000000000079
 30
0.0
 11
212.1999999999999
 21
0.0000000000000079
 31
0.0
  0
LINE
  5
ABE
330
1E
100
AcDbEntity
  8
0
100
AcDbLine
 10
213.2499999999999
 20
0.0000000000000072
 30
0.0
 11
212.1999999999999
 21
0.0000000000000072
 31
0.0
  0
LINE
  5
ABF
330
1E
100
AcDbEntity
  8
0
100
AcDbLine
 10
213.2499999999999
 20
0.000000000000007
 30
0.0
 11
212.1999999999999
 21
0.000000000000007
 31
0.0
  0
LINE
  5
AC0
330
1E
100
AcDbEntity
  8
0
100
AcDbLine
 10
213.2499999999999
 20
0.0000000000000063
 30
0.0
 11
212.1999999999999
 21
0.0000000000000063
 31
0.0
  0
LINE
  5
AC1
330
1E
100
AcDbEntity
  8
0
100
AcDbLine
 10
213.2499999999999
 20
0.0000000000000061
 30
0.0
 11
212.1999999999999
 21
0.0000000000000061
 31
0.0
  0
LINE
  5
AC2
330
1E
100
AcDbEntity
  8
0
100
AcDbLine
 10
213.2499999999999
 20
0.0000000000000017
 30
0.0
 11
212.1999999999999
 21
0.0000000000000017
 31
0.0
  0
LINE
  5
AC3
330
1E
100
AcDbEntity
  8
0
100
AcDbLine
 10
213.2499999999999
 20
0.0000000000000019
 30
0.0
 11
212.1999999999999
 21
0.0000000000000018
 31
0.0
  0
LINE
  5
AC4
330
1E
100
AcDbEntity
  8
0
100
AcDbLine
 10
213.2499999999999
 20
0.0000000000000034
 30
0.0
 11
212.1999999999999
 21
0.0000000000000035
 31
0.0
  0
LINE
  5
AC5
330
1E
100
AcDbEntity
  8
0
100
AcDbLine
 10
213.2499999999999
 20
0.0000000000000036
 30
0.0
 11
212.1999999999999
 21
0.0000000000000036
 31
0.0
  0
LINE
  5
AC6
330
1E
100
AcDbEntity
  8
0
100
AcDbLine
 10
213.2499999999999
 20
0.0000000000000043
 30
0.0
 11
212.1999999999999
 21
0.0000000000000044
 31
0.0
  0
LINE
  5
AC7
330
1E
100
AcDbEntity
  8
0
100
AcDbLine
 10
213.2499999999999
 20
0.0000000000000045
 30
0.0
 11
212.1999999999999
 21
0.0000000000000045
 31
0.0
  0
LINE
  5
AC8
330
1E
100
AcDbEntity
  8
0
100
AcDbLine
 10
213.2499999999999
 20
0.0000000000000052
 30
0.0
 11
212.1999999999999
 21
0.0000000000000052
 31
0.0
  0
LINE
  5
AC9
330
1E
100
AcDbEntity
  8
0
100
AcDbLine
 10
213.2499999999999
 20
0.0000000000000054
 30
0.0
 11
212.1999999999999
 21
0.0000000000000054
 31
0.0
  0
LINE
  5
ACA
330
1E
100
AcDbEntity
  8
0
100
AcDbLine
 10
213.2499999999999
 20
0.0000000000000027
 30
0.0
 11
212.1999999999999
 21
0.0000000000000027
 31
0.0
  0
LINE
  5
ACB
330
1E
100
AcDbEntity
  8
0
100
AcDbLine
 10
213.2499999999999
 20
0.0000000000000026
 30
0.0
 11
212.1999999999999
 21
0.0000000000000026
 31
0.0
  0
LINE
  5
ACC
330
1E
100
AcDbEntity
  8
0
100
AcDbLine
 10
233.0
 20
18.1667
 30
0.0
 11
222.0
 21
19.5
 31
0.0
  0
LINE
  5
ACD
330
1E
100
AcDbEntity
  8
0
100
AcDbLine
 10
241.0
 20
16.8333
 30
0.0
 11
233.0
 21
18.1667
 31
0.0
  0
LINE
  5
ACE
330
1E
100
AcDbEntity
  8
0
100
AcDbLine
 10
215.0
 20
20.16669999999999
 30
0.0
 11
206.0
 21
20.8333
 31
0.0
  0
LINE
  5
ACF
330
1E
100
AcDbEntity
  8
0
100
AcDbLine
 10
222.0
 20
19.5
 30
0.0
 11
215.0
 21
20.16669999999999
 31
0.0
  0
LINE
  5
AD0
330
1E
100
AcDbEntity
  8
0
100
AcDbLine
 10
140.0
 20
53.07269999999999
 30
0.0
 11
140.0
 21
31.5
 31
0.0
  0
LINE
  5
AD1
330
1E
100
AcDbEntity
  8
0
100
AcDbLine
 10
140.0
 20
31.5
 30
0.0
 11
140.0
 21
53.07269999999999
 31
0.0
  0
LINE
  5
AD2
330
1E
100
AcDbEntity
  8
0
100
AcDbLine
 10
189.5999999999999
 20
21.49999999999999
 30
0.0
 11
125.5
 21
21.49999999999999
 31
0.0
  0
LINE
  5
AD3
330
1E
100
AcDbEntity
  8
0
100
AcDbLine
 10
171.25
 20
1.5
 30
0.0
 11
160.7499999999999
 21
1.5
 31
0.0
  0
LINE
  5
AD4
330
1E
100
AcDbEntity
  8
0
100
AcDbLine
 10
171.25
 20
1.5
 30
0.0
 11
160.7499999999999
 21
1.5
 31
0.0
  0
LINE
  5
AD5
330
1E
100
AcDbEntity
  8
0
100
AcDbLine
 10
184.75
 20
1.5
 30
0.0
 11
174.2499999999999
 21
1.5
 31
0.0
  0
LINE
  5
AD6
330
1E
100
AcDbEntity
  8
0
100
AcDbLine
 10
184.75
 20
1.5
 30
0.0
 11
174.2499999999999
 21
1.5
 31
0.0
  0
LINE
  5
AD7
330
1E
100
AcDbEntity
  8
0
100
AcDbLine
 10
198.25
 20
1.5
 30
0.0
 11
187.7499999999999
 21
1.5
 31
0.0
  0
LINE
  5
AD8
330
1E
100
AcDbEntity
  8
0
100
AcDbLine
 10
198.25
 20
1.5
 30
0.0
 11
187.7499999999999
 21
1.5
 31
0.0
  0
LINE
  5
AD9
330
1E
100
AcDbEntity
  8
0
100
AcDbLine
 10
199.75
 20
0.0000000000000098
 30
0.0
 11
198.6999999999999
 21
0.0000000000000098
 31
0.0
  0
LINE
  5
ADA
330
1E
100
AcDbEntity
  8
0
100
AcDbLine
 10
199.75
 20
0.0000000000000097
 30
0.0
 11
198.6999999999999
 21
0.0000000000000097
 31
0.0
  0
LINE
  5
ADB
330
1E
100
AcDbEntity
  8
0
100
AcDbLine
 10
199.75
 20
0.000000000000009
 30
0.0
 11
198.6999999999999
 21
0.0000000000000089
 31
0.0
  0
LINE
  5
ADC
330
1E
100
AcDbEntity
  8
0
100
AcDbLine
 10
199.75
 20
0.0000000000000088
 30
0.0
 11
198.6999999999999
 21
0.0000000000000088
 31
0.0
  0
LINE
  5
ADD
330
1E
100
AcDbEntity
  8
0
100
AcDbLine
 10
199.75
 20
0.0000000000000081
 30
0.0
 11
198.6999999999999
 21
0.000000000000008
 31
0.0
  0
LINE
  5
ADE
330
1E
100
AcDbEntity
  8
0
100
AcDbLine
 10
199.75
 20
0.0000000000000079
 30
0.0
 11
198.6999999999999
 21
0.0000000000000079
 31
0.0
  0
LINE
  5
ADF
330
1E
100
AcDbEntity
  8
0
100
AcDbLine
 10
199.75
 20
0.0000000000000072
 30
0.0
 11
198.6999999999999
 21
0.0000000000000072
 31
0.0
  0
LINE
  5
AE0
330
1E
100
AcDbEntity
  8
0
100
AcDbLine
 10
199.75
 20
0.000000000000007
 30
0.0
 11
198.6999999999999
 21
0.000000000000007
 31
0.0
  0
LINE
  5
AE1
330
1E
100
AcDbEntity
  8
0
100
AcDbLine
 10
199.75
 20
0.0000000000000063
 30
0.0
 11
198.6999999999999
 21
0.0000000000000063
 31
0.0
  0
LINE
  5
AE2
330
1E
100
AcDbEntity
  8
0
100
AcDbLine
 10
199.75
 20
0.0000000000000061
 30
0.0
 11
198.6999999999999
 21
0.0000000000000061
 31
0.0
  0
LINE
  5
AE3
330
1E
100
AcDbEntity
  8
0
100
AcDbLine
 10
199.75
 20
0.0000000000000017
 30
0.0
 11
198.6999999999999
 21
0.0000000000000017
 31
0.0
  0
LINE
  5
AE4
330
1E
100
AcDbEntity
  8
0
100
AcDbLine
 10
199.75
 20
0.0000000000000019
 30
0.0
 11
198.6999999999999
 21
0.0000000000000018
 31
0.0
  0
LINE
  5
AE5
330
1E
100
AcDbEntity
  8
0
100
AcDbLine
 10
199.75
 20
0.0000000000000034
 30
0.0
 11
198.6999999999999
 21
0.0000000000000035
 31
0.0
  0
LINE
  5
AE6
330
1E
100
AcDbEntity
  8
0
100
AcDbLine
 10
199.75
 20
0.0000000000000036
 30
0.0
 11
198.6999999999999
 21
0.0000000000000036
 31
0.0
  0
LINE
  5
AE7
330
1E
100
AcDbEntity
  8
0
100
AcDbLine
 10
199.75
 20
0.0000000000000043
 30
0.0
 11
198.6999999999999
 21
0.0000000000000044
 31
0.0
  0
LINE
  5
AE8
330
1E
100
AcDbEntity
  8
0
100
AcDbLine
 10
199.75
 20
0.0000000000000045
 30
0.0
 11
198.6999999999999
 21
0.0000000000000045
 31
0.0
  0
LINE
  5
AE9
330
1E
100
AcDbEntity
  8
0
100
AcDbLine
 10
199.75
 20
0.0000000000000052
 30
0.0
 11
198.6999999999999
 21
0.0000000000000052
 31
0.0
  0
LINE
  5
AEA
330
1E
100
AcDbEntity
  8
0
100
AcDbLine
 10
199.75
 20
0.0000000000000054
 30
0.0
 11
198.6999999999999
 21
0.0000000000000054
 31
0.0
  0
LINE
  5
AEB
330
1E
100
AcDbEntity
  8
0
100
AcDbLine
 10
199.75
 20
0.0000000000000027
 30
0.0
 11
198.6999999999999
 21
0.0000000000000027
 31
0.0
  0
LINE
  5
AEC
330
1E
100
AcDbEntity
  8
0
100
AcDbLine
 10
199.75
 20
0.0000000000000026
 30
0.0
 11
198.6999999999999
 21
0.0000000000000026
 31
0.0
  0
LINE
  5
AED
330
1E
100
AcDbEntity
  8
0
100
AcDbLine
 10
200.8
 20
1.50000000000001
 30
0.0
 11
200.8
 21
0.0000000000000097
 31
0.0
  0
LINE
  5
AEE
330
1E
100
AcDbEntity
  8
0
100
AcDbLine
 10
199.75
 20
1.50000000000001
 30
0.0
 11
199.75
 21
0.0000000000000097
 31
0.0
  0
LINE
  5
AEF
330
1E
100
AcDbEntity
  8
0
100
AcDbLine
 10
201.25
 20
1.50000000000001
 30
0.0
 11
201.25
 21
0.0000000000000052
 31
0.0
  0
LINE
  5
AF0
330
1E
100
AcDbEntity
  8
0
100
AcDbLine
 10
201.25
 20
1.50000000000001
 30
0.0
 11
201.25
 21
0.0000000000000045
 31
0.0
  0
LINE
  5
AF1
330
1E
100
AcDbEntity
  8
0
100
AcDbLine
 10
201.25
 20
1.50000000000001
 30
0.0
 11
201.25
 21
0.0000000000000026
 31
0.0
  0
LINE
  5
AF2
330
1E
100
AcDbEntity
  8
0
100
AcDbLine
 10
201.25
 20
1.50000000000001
 30
0.0
 11
201.25
 21
0.0000000000000036
 31
0.0
  0
LINE
  5
AF3
330
1E
100
AcDbEntity
  8
0
100
AcDbLine
 10
201.25
 20
1.50000000000001
 30
0.0
 11
201.25
 21
0.0000000000000016
 31
0.0
  0
LINE
  5
AF4
330
1E
100
AcDbEntity
  8
0
100
AcDbLine
 10
201.25
 20
1.50000000000001
 30
0.0
 11
201.25
 21
0.0000000000000062
 31
0.0
  0
LINE
  5
AF5
330
1E
100
AcDbEntity
  8
0
100
AcDbLine
 10
201.25
 20
1.50000000000001
 30
0.0
 11
201.25
 21
0.0000000000000071
 31
0.0
  0
LINE
  5
AF6
330
1E
100
AcDbEntity
  8
0
100
AcDbLine
 10
201.25
 20
1.50000000000001
 30
0.0
 11
201.25
 21
0.0000000000000081
 31
0.0
  0
LINE
  5
AF7
330
1E
100
AcDbEntity
  8
0
100
AcDbLine
 10
201.25
 20
1.50000000000001
 30
0.0
 11
201.25
 21
0.0000000000000088
 31
0.0
  0
LINE
  5
AF8
330
1E
100
AcDbEntity
  8
0
100
AcDbLine
 10
201.25
 20
1.50000000000001
 30
0.0
 11
201.25
 21
0.0000000000000097
 31
0.0
  0
LINE
  5
AF9
330
1E
100
AcDbEntity
  8
0
100
AcDbLine
 10
201.25
 20
0.0000000000000098
 30
0.0
 11
201.25
 21
1.50000000000001
 31
0.0
  0
LINE
  5
AFA
330
1E
100
AcDbEntity
  8
0
100
AcDbLine
 10
201.25
 20
0.0000000000000098
 30
0.0
 11
200.8
 21
0.0000000000000097
 31
0.0
  0
LINE
  5
AFB
330
1E
100
AcDbEntity
  8
0
100
AcDbLine
 10
201.25
 20
0.0000000000000098
 30
0.0
 11
200.8
 21
0.0000000000000098
 31
0.0
  0
LINE
  5
AFC
330
1E
100
AcDbEntity
  8
0
100
AcDbLine
 10
200.8
 20
0.0000000000000098
 30
0.0
 11
200.8
 21
1.50000000000001
 31
0.0
  0
LINE
  5
AFD
330
1E
100
AcDbEntity
  8
0
100
AcDbLine
 10
200.8
 20
0.0000000000000098
 30
0.0
 11
199.75
 21
0.0000000000000098
 31
0.0
  0
LINE
  5
AFE
330
1E
100
AcDbEntity
  8
0
100
AcDbLine
 10
199.75
 20
0.0000000000000098
 30
0.0
 11
199.75
 21
1.50000000000001
 31
0.0
  0
LINE
  5
AFF
330
1E
100
AcDbEntity
  8
0
100
AcDbLine
 10
200.8
 20
0.0000000000000097
 30
0.0
 11
199.75
 21
0.0000000000000097
 31
0.0
  0
LINE
  5
B00
330
1E
100
AcDbEntity
  8
0
100
AcDbLine
 10
201.25
 20
0.0000000000000089
 30
0.0
 11
201.25
 21
1.50000000000001
 31
0.0
  0
LINE
  5
B01
330
1E
100
AcDbEntity
  8
0
100
AcDbLine
 10
201.25
 20
0.0000000000000089
 30
0.0
 11
200.8
 21
0.0000000000000088
 31
0.0
  0
LINE
  5
B02
330
1E
100
AcDbEntity
  8
0
100
AcDbLine
 10
201.25
 20
0.0000000000000089
 30
0.0
 11
200.8
 21
0.0000000000000089
 31
0.0
  0
LINE
  5
B03
330
1E
100
AcDbEntity
  8
0
100
AcDbLine
 10
200.8
 20
0.0000000000000089
 30
0.0
 11
199.75
 21
0.000000000000009
 31
0.0
  0
LINE
  5
B04
330
1E
100
AcDbEntity
  8
0
100
AcDbLine
 10
200.8
 20
0.0000000000000088
 30
0.0
 11
199.75
 21
0.0000000000000088
 31
0.0
  0
LINE
  5
B05
330
1E
100
AcDbEntity
  8
0
100
AcDbLine
 10
200.8
 20
0.000000000000008
 30
0.0
 11
199.75
 21
0.0000000000000081
 31
0.0
  0
LINE
  5
B06
330
1E
100
AcDbEntity
  8
0
100
AcDbLine
 10
200.8
 20
0.0000000000000079
 30
0.0
 11
199.75
 21
0.0000000000000079
 31
0.0
  0
LINE
  5
B07
330
1E
100
AcDbEntity
  8
0
100
AcDbLine
 10
200.8
 20
0.0000000000000072
 30
0.0
 11
199.75
 21
0.0000000000000072
 31
0.0
  0
LINE
  5
B08
330
1E
100
AcDbEntity
  8
0
100
AcDbLine
 10
200.8
 20
0.000000000000007
 30
0.0
 11
199.75
 21
0.000000000000007
 31
0.0
  0
LINE
  5
B09
330
1E
100
AcDbEntity
  8
0
100
AcDbLine
 10
200.8
 20
0.0000000000000063
 30
0.0
 11
199.75
 21
0.0000000000000063
 31
0.0
  0
LINE
  5
B0A
330
1E
100
AcDbEntity
  8
0
100
AcDbLine
 10
200.8
 20
0.0000000000000061
 30
0.0
 11
199.75
 21
0.0000000000000061
 31
0.0
  0
LINE
  5
B0B
330
1E
100
AcDbEntity
  8
0
100
AcDbLine
 10
200.8
 20
0.0000000000000017
 30
0.0
 11
199.75
 21
0.0000000000000017
 31
0.0
  0
LINE
  5
B0C
330
1E
100
AcDbEntity
  8
0
100
AcDbLine
 10
200.8
 20
0.0000000000000018
 30
0.0
 11
199.75
 21
0.0000000000000019
 31
0.0
  0
LINE
  5
B0D
330
1E
100
AcDbEntity
  8
0
100
AcDbLine
 10
200.8
 20
0.0000000000000035
 30
0.0
 11
199.75
 21
0.0000000000000034
 31
0.0
  0
LINE
  5
B0E
330
1E
100
AcDbEntity
  8
0
100
AcDbLine
 10
200.8
 20
0.0000000000000036
 30
0.0
 11
199.75
 21
0.0000000000000036
 31
0.0
  0
LINE
  5
B0F
330
1E
100
AcDbEntity
  8
0
100
AcDbLine
 10
200.8
 20
0.0000000000000044
 30
0.0
 11
199.75
 21
0.0000000000000043
 31
0.0
  0
LINE
  5
B10
330
1E
100
AcDbEntity
  8
0
100
AcDbLine
 10
200.8
 20
0.0000000000000045
 30
0.0
 11
199.75
 21
0.0000000000000045
 31
0.0
  0
LINE
  5
B11
330
1E
100
AcDbEntity
  8
0
100
AcDbLine
 10
200.8
 20
0.0000000000000052
 30
0.0
 11
199.75
 21
0.0000000000000052
 31
0.0
  0
LINE
  5
B12
330
1E
100
AcDbEntity
  8
0
100
AcDbLine
 10
200.8
 20
0.0000000000000054
 30
0.0
 11
199.75
 21
0.0000000000000054
 31
0.0
  0
LINE
  5
B13
330
1E
100
AcDbEntity
  8
0
100
AcDbLine
 10
200.8
 20
0.0000000000000026
 30
0.0
 11
199.75
 21
0.0000000000000026
 31
0.0
  0
LINE
  5
B14
330
1E
100
AcDbEntity
  8
0
100
AcDbLine
 10
200.8
 20
0.0000000000000027
 30
0.0
 11
199.75
 21
0.0000000000000027
 31
0.0
  0
LINE
  5
B15
330
1E
100
AcDbEntity
  8
0
100
AcDbLine
 10
201.25
 20
0.000000000000008
 30
0.0
 11
201.25
 21
1.50000000000001
 31
0.0
  0
LINE
  5
B16
330
1E
100
AcDbEntity
  8
0
100
AcDbLine
 10
201.25
 20
0.000000000000008
 30
0.0
 11
200.8
 21
0.0000000000000079
 31
0.0
  0
LINE
  5
B17
330
1E
100
AcDbEntity
  8
0
100
AcDbLine
 10
201.25
 20
0.000000000000008
 30
0.0
 11
200.8
 21
0.000000000000008
 31
0.0
  0
LINE
  5
B18
330
1E
100
AcDbEntity
  8
0
100
AcDbLine
 10
201.25
 20
0.0000000000000071
 30
0.0
 11
201.25
 21
1.50000000000001
 31
0.0
  0
LINE
  5
B19
330
1E
100
AcDbEntity
  8
0
100
AcDbLine
 10
201.25
 20
0.0000000000000071
 30
0.0
 11
200.8
 21
0.000000000000007
 31
0.0
  0
LINE
  5
B1A
330
1E
100
AcDbEntity
  8
0
100
AcDbLine
 10
201.25
 20
0.0000000000000071
 30
0.0
 11
200.8
 21
0.0000000000000072
 31
0.0
  0
LINE
  5
B1B
330
1E
100
AcDbEntity
  8
0
100
AcDbLine
 10
201.25
 20
0.0000000000000062
 30
0.0
 11
201.25
 21
1.50000000000001
 31
0.0
  0
LINE
  5
B1C
330
1E
100
AcDbEntity
  8
0
100
AcDbLine
 10
201.25
 20
0.0000000000000062
 30
0.0
 11
200.8
 21
0.0000000000000061
 31
0.0
  0
LINE
  5
B1D
330
1E
100
AcDbEntity
  8
0
100
AcDbLine
 10
201.25
 20
0.0000000000000062
 30
0.0
 11
200.8
 21
0.0000000000000063
 31
0.0
  0
LINE
  5
B1E
330
1E
100
AcDbEntity
  8
0
100
AcDbLine
 10
201.25
 20
0.0000000000000018
 30
0.0
 11
201.25
 21
1.50000000000001
 31
0.0
  0
LINE
  5
B1F
330
1E
100
AcDbEntity
  8
0
100
AcDbLine
 10
201.25
 20
0.0000000000000018
 30
0.0
 11
200.8
 21
0.0000000000000018
 31
0.0
  0
LINE
  5
B20
330
1E
100
AcDbEntity
  8
0
100
AcDbLine
 10
201.25
 20
0.0000000000000018
 30
0.0
 11
200.8
 21
0.0000000000000017
 31
0.0
  0
LINE
  5
B21
330
1E
100
AcDbEntity
  8
0
100
AcDbLine
 10
201.25
 20
0.0000000000000035
 30
0.0
 11
201.25
 21
1.50000000000001
 31
0.0
  0
LINE
  5
B22
330
1E
100
AcDbEntity
  8
0
100
AcDbLine
 10
201.25
 20
0.0000000000000035
 30
0.0
 11
200.8
 21
0.0000000000000036
 31
0.0
  0
LINE
  5
B23
330
1E
100
AcDbEntity
  8
0
100
AcDbLine
 10
201.25
 20
0.0000000000000035
 30
0.0
 11
200.8
 21
0.0000000000000035
 31
0.0
  0
LINE
  5
B24
330
1E
100
AcDbEntity
  8
0
100
AcDbLine
 10
201.25
 20
0.0000000000000044
 30
0.0
 11
201.25
 21
1.50000000000001
 31
0.0
  0
LINE
  5
B25
330
1E
100
AcDbEntity
  8
0
100
AcDbLine
 10
201.25
 20
0.0000000000000044
 30
0.0
 11
200.8
 21
0.0000000000000045
 31
0.0
  0
LINE
  5
B26
330
1E
100
AcDbEntity
  8
0
100
AcDbLine
 10
201.25
 20
0.0000000000000044
 30
0.0
 11
200.8
 21
0.0000000000000044
 31
0.0
  0
LINE
  5
B27
330
1E
100
AcDbEntity
  8
0
100
AcDbLine
 10
201.25
 20
0.0000000000000053
 30
0.0
 11
201.25
 21
1.50000000000001
 31
0.0
  0
LINE
  5
B28
330
1E
100
AcDbEntity
  8
0
100
AcDbLine
 10
201.25
 20
0.0000000000000053
 30
0.0
 11
200.8
 21
0.0000000000000054
 31
0.0
  0
LINE
  5
B29
330
1E
100
AcDbEntity
  8
0
100
AcDbLine
 10
201.25
 20
0.0000000000000053
 30
0.0
 11
200.8
 21
0.0000000000000052
 31
0.0
  0
LINE
  5
B2A
330
1E
100
AcDbEntity
  8
0
100
AcDbLine
 10
201.25
 20
0.0000000000000027
 30
0.0
 11
201.25
 21
1.50000000000001
 31
0.0
  0
LINE
  5
B2B
330
1E
100
AcDbEntity
  8
0
100
AcDbLine
 10
201.25
 20
0.0000000000000027
 30
0.0
 11
200.8
 21
0.0000000000000027
 31
0.0
  0
LINE
  5
B2C
330
1E
100
AcDbEntity
  8
0
100
AcDbLine
 10
201.25
 20
0.0000000000000027
 30
0.0
 11
200.8
 21
0.0000000000000026
 31
0.0
  0
LINE
  5
B2D
330
1E
100
AcDbEntity
  8
0
100
AcDbLine
 10
198.6999999999999
 20
1.50000000000001
 30
0.0
 11
198.6999999999999
 21
0.0000000000000097
 31
0.0
  0
LINE
  5
B2E
330
1E
100
AcDbEntity
  8
0
100
AcDbLine
 10
198.25
 20
1.50000000000001
 30
0.0
 11
198.25
 21
0.0000000000000097
 31
0.0
  0
LINE
  5
B2F
330
1E
100
AcDbEntity
  8
0
100
AcDbLine
 10
198.6999999999999
 20
0.0000000000000098
 30
0.0
 11
198.6999999999999
 21
1.50000000000001
 31
0.0
  0
LINE
  5
B30
330
1E
100
AcDbEntity
  8
0
100
AcDbLine
 10
198.6999999999999
 20
0.0000000000000098
 30
0.0
 11
198.25
 21
0.0000000000000098
 31
0.0
  0
LINE
  5
B31
330
1E
100
AcDbEntity
  8
0
100
AcDbLine
 10
198.6999999999999
 20
0.0000000000000097
 30
0.0
 11
198.25
 21
0.0000000000000098
 31
0.0
  0
LINE
  5
B32
330
1E
100
AcDbEntity
  8
0
100
AcDbLine
 10
198.25
 20
0.0000000000000098
 30
0.0
 11
198.25
 21
1.50000000000001
 31
0.0
  0
LINE
  5
B33
330
1E
100
AcDbEntity
  8
0
100
AcDbLine
 10
198.6999999999999
 20
0.0000000000000089
 30
0.0
 11
198.25
 21
0.0000000000000089
 31
0.0
  0
LINE
  5
B34
330
1E
100
AcDbEntity
  8
0
100
AcDbLine
 10
198.6999999999999
 20
0.0000000000000088
 30
0.0
 11
198.25
 21
0.0000000000000089
 31
0.0
  0
LINE
  5
B35
330
1E
100
AcDbEntity
  8
0
100
AcDbLine
 10
198.6999999999999
 20
0.000000000000008
 30
0.0
 11
198.25
 21
0.000000000000008
 31
0.0
  0
LINE
  5
B36
330
1E
100
AcDbEntity
  8
0
100
AcDbLine
 10
198.6999999999999
 20
0.0000000000000079
 30
0.0
 11
198.25
 21
0.000000000000008
 31
0.0
  0
LINE
  5
B37
330
1E
100
AcDbEntity
  8
0
100
AcDbLine
 10
198.6999999999999
 20
0.0000000000000072
 30
0.0
 11
198.25
 21
0.0000000000000071
 31
0.0
  0
LINE
  5
B38
330
1E
100
AcDbEntity
  8
0
100
AcDbLine
 10
198.6999999999999
 20
0.000000000000007
 30
0.0
 11
198.25
 21
0.0000000000000071
 31
0.0
  0
LINE
  5
B39
330
1E
100
AcDbEntity
  8
0
100
AcDbLine
 10
198.6999999999999
 20
0.0000000000000063
 30
0.0
 11
198.25
 21
0.0000000000000062
 31
0.0
  0
LINE
  5
B3A
330
1E
100
AcDbEntity
  8
0
100
AcDbLine
 10
198.6999999999999
 20
0.0000000000000061
 30
0.0
 11
198.25
 21
0.0000000000000062
 31
0.0
  0
LINE
  5
B3B
330
1E
100
AcDbEntity
  8
0
100
AcDbLine
 10
198.6999999999999
 20
0.0000000000000017
 30
0.0
 11
198.25
 21
0.0000000000000018
 31
0.0
  0
LINE
  5
B3C
330
1E
100
AcDbEntity
  8
0
100
AcDbLine
 10
198.6999999999999
 20
0.0000000000000018
 30
0.0
 11
198.25
 21
0.0000000000000018
 31
0.0
  0
LINE
  5
B3D
330
1E
100
AcDbEntity
  8
0
100
AcDbLine
 10
198.6999999999999
 20
0.0000000000000035
 30
0.0
 11
198.25
 21
0.0000000000000035
 31
0.0
  0
LINE
  5
B3E
330
1E
100
AcDbEntity
  8
0
100
AcDbLine
 10
198.6999999999999
 20
0.0000000000000036
 30
0.0
 11
198.25
 21
0.0000000000000035
 31
0.0
  0
LINE
  5
B3F
330
1E
100
AcDbEntity
  8
0
100
AcDbLine
 10
198.6999999999999
 20
0.0000000000000044
 30
0.0
 11
198.25
 21
0.0000000000000044
 31
0.0
  0
LINE
  5
B40
330
1E
100
AcDbEntity
  8
0
100
AcDbLine
 10
198.6999999999999
 20
0.0000000000000045
 30
0.0
 11
198.25
 21
0.0000000000000044
 31
0.0
  0
LINE
  5
B41
330
1E
100
AcDbEntity
  8
0
100
AcDbLine
 10
198.6999999999999
 20
0.0000000000000052
 30
0.0
 11
198.25
 21
0.0000000000000053
 31
0.0
  0
LINE
  5
B42
330
1E
100
AcDbEntity
  8
0
100
AcDbLine
 10
198.6999999999999
 20
0.0000000000000054
 30
0.0
 11
198.25
 21
0.0000000000000053
 31
0.0
  0
LINE
  5
B43
330
1E
100
AcDbEntity
  8
0
100
AcDbLine
 10
198.6999999999999
 20
0.0000000000000027
 30
0.0
 11
198.25
 21
0.0000000000000027
 31
0.0
  0
LINE
  5
B44
330
1E
100
AcDbEntity
  8
0
100
AcDbLine
 10
198.6999999999999
 20
0.0000000000000026
 30
0.0
 11
198.25
 21
0.0000000000000027
 31
0.0
  0
LINE
  5
B45
330
1E
100
AcDbEntity
  8
0
100
AcDbLine
 10
187.3
 20
0.0000000000000098
 30
0.0
 11
186.25
 21
0.0000000000000098
 31
0.0
  0
LINE
  5
B46
330
1E
100
AcDbEntity
  8
0
100
AcDbLine
 10
187.3
 20
0.0000000000000097
 30
0.0
 11
186.25
 21
0.0000000000000097
 31
0.0
  0
LINE
  5
B47
330
1E
100
AcDbEntity
  8
0
100
AcDbLine
 10
187.3
 20
0.0000000000000089
 30
0.0
 11
186.25
 21
0.000000000000009
 31
0.0
  0
LINE
  5
B48
330
1E
100
AcDbEntity
  8
0
100
AcDbLine
 10
187.3
 20
0.0000000000000088
 30
0.0
 11
186.25
 21
0.0000000000000088
 31
0.0
  0
LINE
  5
B49
330
1E
100
AcDbEntity
  8
0
100
AcDbLine
 10
187.3
 20
0.000000000000008
 30
0.0
 11
186.25
 21
0.0000000000000081
 31
0.0
  0
LINE
  5
B4A
330
1E
100
AcDbEntity
  8
0
100
AcDbLine
 10
187.3
 20
0.0000000000000079
 30
0.0
 11
186.25
 21
0.0000000000000079
 31
0.0
  0
LINE
  5
B4B
330
1E
100
AcDbEntity
  8
0
100
AcDbLine
 10
187.3
 20
0.0000000000000072
 30
0.0
 11
186.25
 21
0.0000000000000072
 31
0.0
  0
LINE
  5
B4C
330
1E
100
AcDbEntity
  8
0
100
AcDbLine
 10
187.3
 20
0.000000000000007
 30
0.0
 11
186.25
 21
0.000000000000007
 31
0.0
  0
LINE
  5
B4D
330
1E
100
AcDbEntity
  8
0
100
AcDbLine
 10
187.3
 20
0.0000000000000063
 30
0.0
 11
186.25
 21
0.0000000000000063
 31
0.0
  0
LINE
  5
B4E
330
1E
100
AcDbEntity
  8
0
100
AcDbLine
 10
187.3
 20
0.0000000000000061
 30
0.0
 11
186.25
 21
0.0000000000000061
 31
0.0
  0
LINE
  5
B4F
330
1E
100
AcDbEntity
  8
0
100
AcDbLine
 10
187.3
 20
0.0000000000000017
 30
0.0
 11
186.25
 21
0.0000000000000017
 31
0.0
  0
LINE
  5
B50
330
1E
100
AcDbEntity
  8
0
100
AcDbLine
 10
187.3
 20
0.0000000000000018
 30
0.0
 11
186.25
 21
0.0000000000000019
 31
0.0
  0
LINE
  5
B51
330
1E
100
AcDbEntity
  8
0
100
AcDbLine
 10
187.3
 20
0.0000000000000035
 30
0.0
 11
186.25
 21
0.0000000000000034
 31
0.0
  0
LINE
  5
B52
330
1E
100
AcDbEntity
  8
0
100
AcDbLine
 10
187.3
 20
0.0000000000000036
 30
0.0
 11
186.25
 21
0.0000000000000036
 31
0.0
  0
LINE
  5
B53
330
1E
100
AcDbEntity
  8
0
100
AcDbLine
 10
187.3
 20
0.0000000000000044
 30
0.0
 11
186.25
 21
0.0000000000000043
 31
0.0
  0
LINE
  5
B54
330
1E
100
AcDbEntity
  8
0
100
AcDbLine
 10
187.3
 20
0.0000000000000045
 30
0.0
 11
186.25
 21
0.0000000000000045
 31
0.0
  0
LINE
  5
B55
330
1E
100
AcDbEntity
  8
0
100
AcDbLine
 10
187.3
 20
0.0000000000000052
 30
0.0
 11
186.25
 21
0.0000000000000052
 31
0.0
  0
LINE
  5
B56
330
1E
100
AcDbEntity
  8
0
100
AcDbLine
 10
187.3
 20
0.0000000000000054
 30
0.0
 11
186.25
 21
0.0000000000000054
 31
0.0
  0
LINE
  5
B57
330
1E
100
AcDbEntity
  8
0
100
AcDbLine
 10
187.3
 20
0.0000000000000026
 30
0.0
 11
186.25
 21
0.0000000000000026
 31
0.0
  0
LINE
  5
B58
330
1E
100
AcDbEntity
  8
0
100
AcDbLine
 10
187.3
 20
0.0000000000000027
 30
0.0
 11
186.25
 21
0.0000000000000027
 31
0.0
  0
LINE
  5
B59
330
1E
100
AcDbEntity
  8
0
100
AcDbLine
 10
187.3
 20
1.50000000000001
 30
0.0
 11
187.3
 21
0.0000000000000097
 31
0.0
  0
LINE
  5
B5A
330
1E
100
AcDbEntity
  8
0
100
AcDbLine
 10
187.7499999999999
 20
1.50000000000001
 30
0.0
 11
187.7499999999999
 21
0.0000000000000052
 31
0.0
  0
LINE
  5
B5B
330
1E
100
AcDbEntity
  8
0
100
AcDbLine
 10
187.7499999999999
 20
1.50000000000001
 30
0.0
 11
187.7499999999999
 21
0.0000000000000045
 31
0.0
  0
LINE
  5
B5C
330
1E
100
AcDbEntity
  8
0
100
AcDbLine
 10
187.7499999999999
 20
1.50000000000001
 30
0.0
 11
187.7499999999999
 21
0.0000000000000026
 31
0.0
  0
LINE
  5
B5D
330
1E
100
AcDbEntity
  8
0
100
AcDbLine
 10
187.7499999999999
 20
1.50000000000001
 30
0.0
 11
187.7499999999999
 21
0.0000000000000036
 31
0.0
  0
LINE
  5
B5E
330
1E
100
AcDbEntity
  8
0
100
AcDbLine
 10
187.7499999999999
 20
1.50000000000001
 30
0.0
 11
187.7499999999999
 21
0.0000000000000016
 31
0.0
  0
LINE
  5
B5F
330
1E
100
AcDbEntity
  8
0
100
AcDbLine
 10
187.7499999999999
 20
1.50000000000001
 30
0.0
 11
187.7499999999999
 21
0.0000000000000062
 31
0.0
  0
LINE
  5
B60
330
1E
100
AcDbEntity
  8
0
100
AcDbLine
 10
187.7499999999999
 20
1.50000000000001
 30
0.0
 11
187.7499999999999
 21
0.0000000000000071
 31
0.0
  0
LINE
  5
B61
330
1E
100
AcDbEntity
  8
0
100
AcDbLine
 10
187.7499999999999
 20
1.50000000000001
 30
0.0
 11
187.7499999999999
 21
0.0000000000000081
 31
0.0
  0
LINE
  5
B62
330
1E
100
AcDbEntity
  8
0
100
AcDbLine
 10
187.7499999999999
 20
1.50000000000001
 30
0.0
 11
187.7499999999999
 21
0.0000000000000088
 31
0.0
  0
LINE
  5
B63
330
1E
100
AcDbEntity
  8
0
100
AcDbLine
 10
187.7499999999999
 20
1.50000000000001
 30
0.0
 11
187.7499999999999
 21
0.0000000000000097
 31
0.0
  0
LINE
  5
B64
330
1E
100
AcDbEntity
  8
0
100
AcDbLine
 10
187.7499999999999
 20
0.0000000000000098
 30
0.0
 11
187.7499999999999
 21
1.50000000000001
 31
0.0
  0
LINE
  5
B65
330
1E
100
AcDbEntity
  8
0
100
AcDbLine
 10
187.7499999999999
 20
0.0000000000000098
 30
0.0
 11
187.3
 21
0.0000000000000097
 31
0.0
  0
LINE
  5
B66
330
1E
100
AcDbEntity
  8
0
100
AcDbLine
 10
187.7499999999999
 20
0.0000000000000098
 30
0.0
 11
187.3
 21
0.0000000000000098
 31
0.0
  0
LINE
  5
B67
330
1E
100
AcDbEntity
  8
0
100
AcDbLine
 10
187.3
 20
0.0000000000000098
 30
0.0
 11
187.3
 21
1.50000000000001
 31
0.0
  0
LINE
  5
B68
330
1E
100
AcDbEntity
  8
0
100
AcDbLine
 10
187.7499999999999
 20
0.0000000000000089
 30
0.0
 11
187.7499999999999
 21
1.50000000000001
 31
0.0
  0
LINE
  5
B69
330
1E
100
AcDbEntity
  8
0
100
AcDbLine
 10
187.7499999999999
 20
0.0000000000000089
 30
0.0
 11
187.3
 21
0.0000000000000088
 31
0.0
  0
LINE
  5
B6A
330
1E
100
AcDbEntity
  8
0
100
AcDbLine
 10
187.7499999999999
 20
0.0000000000000089
 30
0.0
 11
187.3
 21
0.0000000000000089
 31
0.0
  0
LINE
  5
B6B
330
1E
100
AcDbEntity
  8
0
100
AcDbLine
 10
187.7499999999999
 20
0.000000000000008
 30
0.0
 11
187.7499999999999
 21
1.50000000000001
 31
0.0
  0
LINE
  5
B6C
330
1E
100
AcDbEntity
  8
0
100
AcDbLine
 10
187.7499999999999
 20
0.000000000000008
 30
0.0
 11
187.3
 21
0.0000000000000079
 31
0.0
  0
LINE
  5
B6D
330
1E
100
AcDbEntity
  8
0
100
AcDbLine
 10
187.7499999999999
 20
0.000000000000008
 30
0.0
 11
187.3
 21
0.000000000000008
 31
0.0
  0
LINE
  5
B6E
330
1E
100
AcDbEntity
  8
0
100
AcDbLine
 10
187.7499999999999
 20
0.0000000000000071
 30
0.0
 11
187.7499999999999
 21
1.50000000000001
 31
0.0
  0
LINE
  5
B6F
330
1E
100
AcDbEntity
  8
0
100
AcDbLine
 10
187.7499999999999
 20
0.0000000000000071
 30
0.0
 11
187.3
 21
0.000000000000007
 31
0.0
  0
LINE
  5
B70
330
1E
100
AcDbEntity
  8
0
100
AcDbLine
 10
187.7499999999999
 20
0.0000000000000071
 30
0.0
 11
187.3
 21
0.0000000000000072
 31
0.0
  0
LINE
  5
B71
330
1E
100
AcDbEntity
  8
0
100
AcDbLine
 10
187.7499999999999
 20
0.0000000000000062
 30
0.0
 11
187.7499999999999
 21
1.50000000000001
 31
0.0
  0
LINE
  5
B72
330
1E
100
AcDbEntity
  8
0
100
AcDbLine
 10
187.7499999999999
 20
0.0000000000000062
 30
0.0
 11
187.3
 21
0.0000000000000061
 31
0.0
  0
LINE
  5
B73
330
1E
100
AcDbEntity
  8
0
100
AcDbLine
 10
187.7499999999999
 20
0.0000000000000062
 30
0.0
 11
187.3
 21
0.0000000000000063
 31
0.0
  0
LINE
  5
B74
330
1E
100
AcDbEntity
  8
0
100
AcDbLine
 10
187.7499999999999
 20
0.0000000000000018
 30
0.0
 11
187.7499999999999
 21
1.50000000000001
 31
0.0
  0
LINE
  5
B75
330
1E
100
AcDbEntity
  8
0
100
AcDbLine
 10
187.7499999999999
 20
0.0000000000000018
 30
0.0
 11
187.3
 21
0.0000000000000018
 31
0.0
  0
LINE
  5
B76
330
1E
100
AcDbEntity
  8
0
100
AcDbLine
 10
187.7499999999999
 20
0.0000000000000018
 30
0.0
 11
187.3
 21
0.0000000000000017
 31
0.0
  0
LINE
  5
B77
330
1E
100
AcDbEntity
  8
0
100
AcDbLine
 10
187.7499999999999
 20
0.0000000000000035
 30
0.0
 11
187.7499999999999
 21
1.50000000000001
 31
0.0
  0
LINE
  5
B78
330
1E
100
AcDbEntity
  8
0
100
AcDbLine
 10
187.7499999999999
 20
0.0000000000000035
 30
0.0
 11
187.3
 21
0.0000000000000036
 31
0.0
  0
LINE
  5
B79
330
1E
100
AcDbEntity
  8
0
100
AcDbLine
 10
187.7499999999999
 20
0.0000000000000035
 30
0.0
 11
187.3
 21
0.0000000000000035
 31
0.0
  0
LINE
  5
B7A
330
1E
100
AcDbEntity
  8
0
100
AcDbLine
 10
187.7499999999999
 20
0.0000000000000044
 30
0.0
 11
187.7499999999999
 21
1.50000000000001
 31
0.0
  0
LINE
  5
B7B
330
1E
100
AcDbEntity
  8
0
100
AcDbLine
 10
187.7499999999999
 20
0.0000000000000044
 30
0.0
 11
187.3
 21
0.0000000000000045
 31
0.0
  0
LINE
  5
B7C
330
1E
100
AcDbEntity
  8
0
100
AcDbLine
 10
187.7499999999999
 20
0.0000000000000044
 30
0.0
 11
187.3
 21
0.0000000000000044
 31
0.0
  0
LINE
  5
B7D
330
1E
100
AcDbEntity
  8
0
100
AcDbLine
 10
187.7499999999999
 20
0.0000000000000053
 30
0.0
 11
187.7499999999999
 21
1.50000000000001
 31
0.0
  0
LINE
  5
B7E
330
1E
100
AcDbEntity
  8
0
100
AcDbLine
 10
187.7499999999999
 20
0.0000000000000053
 30
0.0
 11
187.3
 21
0.0000000000000054
 31
0.0
  0
LINE
  5
B7F
330
1E
100
AcDbEntity
  8
0
100
AcDbLine
 10
187.7499999999999
 20
0.0000000000000053
 30
0.0
 11
187.3
 21
0.0000000000000052
 31
0.0
  0
LINE
  5
B80
330
1E
100
AcDbEntity
  8
0
100
AcDbLine
 10
187.7499999999999
 20
0.0000000000000027
 30
0.0
 11
187.7499999999999
 21
1.50000000000001
 31
0.0
  0
LINE
  5
B81
330
1E
100
AcDbEntity
  8
0
100
AcDbLine
 10
187.7499999999999
 20
0.0000000000000027
 30
0.0
 11
187.3
 21
0.0000000000000027
 31
0.0
  0
LINE
  5
B82
330
1E
100
AcDbEntity
  8
0
100
AcDbLine
 10
187.7499999999999
 20
0.0000000000000027
 30
0.0
 11
187.3
 21
0.0000000000000026
 31
0.0
  0
LINE
  5
B83
330
1E
100
AcDbEntity
  8
0
100
AcDbLine
 10
186.25
 20
1.50000000000001
 30
0.0
 11
186.25
 21
0.0000000000000097
 31
0.0
  0
LINE
  5
B84
330
1E
100
AcDbEntity
  8
0
100
AcDbLine
 10
185.1999999999999
 20
1.50000000000001
 30
0.0
 11
185.1999999999999
 21
0.0000000000000097
 31
0.0
  0
LINE
  5
B85
330
1E
100
AcDbEntity
  8
0
100
AcDbLine
 10
184.75
 20
1.50000000000001
 30
0.0
 11
184.75
 21
0.0000000000000097
 31
0.0
  0
LINE
  5
B86
330
1E
100
AcDbEntity
  8
0
100
AcDbLine
 10
186.25
 20
0.0000000000000098
 30
0.0
 11
186.25
 21
1.50000000000001
 31
0.0
  0
LINE
  5
B87
330
1E
100
AcDbEntity
  8
0
100
AcDbLine
 10
186.25
 20
0.0000000000000098
 30
0.0
 11
185.1999999999999
 21
0.0000000000000098
 31
0.0
  0
LINE
  5
B88
330
1E
100
AcDbEntity
  8
0
100
AcDbLine
 10
185.1999999999999
 20
0.0000000000000098
 30
0.0
 11
185.1999999999999
 21
1.50000000000001
 31
0.0
  0
LINE
  5
B89
330
1E
100
AcDbEntity
  8
0
100
AcDbLine
 10
185.1999999999999
 20
0.0000000000000098
 30
0.0
 11
184.75
 21
0.0000000000000098
 31
0.0
  0
LINE
  5
B8A
330
1E
100
AcDbEntity
  8
0
100
AcDbLine
 10
185.1999999999999
 20
0.0000000000000097
 30
0.0
 11
184.75
 21
0.0000000000000098
 31
0.0
  0
LINE
  5
B8B
330
1E
100
AcDbEntity
  8
0
100
AcDbLine
 10
184.75
 20
0.0000000000000098
 30
0.0
 11
184.75
 21
1.50000000000001
 31
0.0
  0
LINE
  5
B8C
330
1E
100
AcDbEntity
  8
0
100
AcDbLine
 10
186.25
 20
0.0000000000000097
 30
0.0
 11
185.1999999999999
 21
0.0000000000000097
 31
0.0
  0
LINE
  5
B8D
330
1E
100
AcDbEntity
  8
0
100
AcDbLine
 10
186.25
 20
0.000000000000009
 30
0.0
 11
185.1999999999999
 21
0.0000000000000089
 31
0.0
  0
LINE
  5
B8E
330
1E
100
AcDbEntity
  8
0
100
AcDbLine
 10
185.1999999999999
 20
0.0000000000000089
 30
0.0
 11
184.75
 21
0.0000000000000089
 31
0.0
  0
LINE
  5
B8F
330
1E
100
AcDbEntity
  8
0
100
AcDbLine
 10
185.1999999999999
 20
0.0000000000000088
 30
0.0
 11
184.75
 21
0.0000000000000089
 31
0.0
  0
LINE
  5
B90
330
1E
100
AcDbEntity
  8
0
100
AcDbLine
 10
186.25
 20
0.0000000000000088
 30
0.0
 11
185.1999999999999
 21
0.0000000000000088
 31
0.0
  0
LINE
  5
B91
330
1E
100
AcDbEntity
  8
0
100
AcDbLine
 10
185.1999999999999
 20
0.000000000000008
 30
0.0
 11
184.75
 21
0.000000000000008
 31
0.0
  0
LINE
  5
B92
330
1E
100
AcDbEntity
  8
0
100
AcDbLine
 10
185.1999999999999
 20
0.0000000000000079
 30
0.0
 11
184.75
 21
0.000000000000008
 31
0.0
  0
LINE
  5
B93
330
1E
100
AcDbEntity
  8
0
100
AcDbLine
 10
185.1999999999999
 20
0.0000000000000072
 30
0.0
 11
184.75
 21
0.0000000000000071
 31
0.0
  0
LINE
  5
B94
330
1E
100
AcDbEntity
  8
0
100
AcDbLine
 10
185.1999999999999
 20
0.000000000000007
 30
0.0
 11
184.75
 21
0.0000000000000071
 31
0.0
  0
LINE
  5
B95
330
1E
100
AcDbEntity
  8
0
100
AcDbLine
 10
185.1999999999999
 20
0.0000000000000063
 30
0.0
 11
184.75
 21
0.0000000000000062
 31
0.0
  0
LINE
  5
B96
330
1E
100
AcDbEntity
  8
0
100
AcDbLine
 10
185.1999999999999
 20
0.0000000000000061
 30
0.0
 11
184.75
 21
0.0000000000000062
 31
0.0
  0
LINE
  5
B97
330
1E
100
AcDbEntity
  8
0
100
AcDbLine
 10
185.1999999999999
 20
0.0000000000000017
 30
0.0
 11
184.75
 21
0.0000000000000018
 31
0.0
  0
LINE
  5
B98
330
1E
100
AcDbEntity
  8
0
100
AcDbLine
 10
185.1999999999999
 20
0.0000000000000018
 30
0.0
 11
184.75
 21
0.0000000000000018
 31
0.0
  0
LINE
  5
B99
330
1E
100
AcDbEntity
  8
0
100
AcDbLine
 10
185.1999999999999
 20
0.0000000000000035
 30
0.0
 11
184.75
 21
0.0000000000000035
 31
0.0
  0
LINE
  5
B9A
330
1E
100
AcDbEntity
  8
0
100
AcDbLine
 10
185.1999999999999
 20
0.0000000000000036
 30
0.0
 11
184.75
 21
0.0000000000000035
 31
0.0
  0
LINE
  5
B9B
330
1E
100
AcDbEntity
  8
0
100
AcDbLine
 10
185.1999999999999
 20
0.0000000000000044
 30
0.0
 11
184.75
 21
0.0000000000000044
 31
0.0
  0
LINE
  5
B9C
330
1E
100
AcDbEntity
  8
0
100
AcDbLine
 10
185.1999999999999
 20
0.0000000000000045
 30
0.0
 11
184.75
 21
0.0000000000000044
 31
0.0
  0
LINE
  5
B9D
330
1E
100
AcDbEntity
  8
0
100
AcDbLine
 10
185.1999999999999
 20
0.0000000000000052
 30
0.0
 11
184.75
 21
0.0000000000000053
 31
0.0
  0
LINE
  5
B9E
330
1E
100
AcDbEntity
  8
0
100
AcDbLine
 10
185.1999999999999
 20
0.0000000000000054
 30
0.0
 11
184.75
 21
0.0000000000000053
 31
0.0
  0
LINE
  5
B9F
330
1E
100
AcDbEntity
  8
0
100
AcDbLine
 10
185.1999999999999
 20
0.0000000000000027
 30
0.0
 11
184.75
 21
0.0000000000000027
 31
0.0
  0
LINE
  5
BA0
330
1E
100
AcDbEntity
  8
0
100
AcDbLine
 10
185.1999999999999
 20
0.0000000000000026
 30
0.0
 11
184.75
 21
0.0000000000000027
 31
0.0
  0
LINE
  5
BA1
330
1E
100
AcDbEntity
  8
0
100
AcDbLine
 10
186.25
 20
0.0000000000000081
 30
0.0
 11
185.1999999999999
 21
0.000000000000008
 31
0.0
  0
LINE
  5
BA2
330
1E
100
AcDbEntity
  8
0
100
AcDbLine
 10
186.25
 20
0.0000000000000079
 30
0.0
 11
185.1999999999999
 21
0.0000000000000079
 31
0.0
  0
LINE
  5
BA3
330
1E
100
AcDbEntity
  8
0
100
AcDbLine
 10
186.25
 20
0.0000000000000072
 30
0.0
 11
185.1999999999999
 21
0.0000000000000072
 31
0.0
  0
LINE
  5
BA4
330
1E
100
AcDbEntity
  8
0
100
AcDbLine
 10
186.25
 20
0.000000000000007
 30
0.0
 11
185.1999999999999
 21
0.000000000000007
 31
0.0
  0
LINE
  5
BA5
330
1E
100
AcDbEntity
  8
0
100
AcDbLine
 10
186.25
 20
0.0000000000000063
 30
0.0
 11
185.1999999999999
 21
0.0000000000000063
 31
0.0
  0
LINE
  5
BA6
330
1E
100
AcDbEntity
  8
0
100
AcDbLine
 10
186.25
 20
0.0000000000000061
 30
0.0
 11
185.1999999999999
 21
0.0000000000000061
 31
0.0
  0
LINE
  5
BA7
330
1E
100
AcDbEntity
  8
0
100
AcDbLine
 10
186.25
 20
0.0000000000000017
 30
0.0
 11
185.1999999999999
 21
0.0000000000000017
 31
0.0
  0
LINE
  5
BA8
330
1E
100
AcDbEntity
  8
0
100
AcDbLine
 10
186.25
 20
0.0000000000000019
 30
0.0
 11
185.1999999999999
 21
0.0000000000000018
 31
0.0
  0
LINE
  5
BA9
330
1E
100
AcDbEntity
  8
0
100
AcDbLine
 10
186.25
 20
0.0000000000000034
 30
0.0
 11
185.1999999999999
 21
0.0000000000000035
 31
0.0
  0
LINE
  5
BAA
330
1E
100
AcDbEntity
  8
0
100
AcDbLine
 10
186.25
 20
0.0000000000000036
 30
0.0
 11
185.1999999999999
 21
0.0000000000000036
 31
0.0
  0
LINE
  5
BAB
330
1E
100
AcDbEntity
  8
0
100
AcDbLine
 10
186.25
 20
0.0000000000000043
 30
0.0
 11
185.1999999999999
 21
0.0000000000000044
 31
0.0
  0
LINE
  5
BAC
330
1E
100
AcDbEntity
  8
0
100
AcDbLine
 10
186.25
 20
0.0000000000000045
 30
0.0
 11
185.1999999999999
 21
0.0000000000000045
 31
0.0
  0
LINE
  5
BAD
330
1E
100
AcDbEntity
  8
0
100
AcDbLine
 10
186.25
 20
0.0000000000000052
 30
0.0
 11
185.1999999999999
 21
0.0000000000000052
 31
0.0
  0
LINE
  5
BAE
330
1E
100
AcDbEntity
  8
0
100
AcDbLine
 10
186.25
 20
0.0000000000000054
 30
0.0
 11
185.1999999999999
 21
0.0000000000000054
 31
0.0
  0
LINE
  5
BAF
330
1E
100
AcDbEntity
  8
0
100
AcDbLine
 10
186.25
 20
0.0000000000000027
 30
0.0
 11
185.1999999999999
 21
0.0000000000000027
 31
0.0
  0
LINE
  5
BB0
330
1E
100
AcDbEntity
  8
0
100
AcDbLine
 10
186.25
 20
0.0000000000000026
 30
0.0
 11
185.1999999999999
 21
0.0000000000000026
 31
0.0
  0
LINE
  5
BB1
330
1E
100
AcDbEntity
  8
0
100
AcDbLine
 10
172.75
 20
0.0000000000000098
 30
0.0
 11
171.6999999999999
 21
0.0000000000000098
 31
0.0
  0
LINE
  5
BB2
330
1E
100
AcDbEntity
  8
0
100
AcDbLine
 10
172.75
 20
0.0000000000000097
 30
0.0
 11
171.6999999999999
 21
0.0000000000000097
 31
0.0
  0
LINE
  5
BB3
330
1E
100
AcDbEntity
  8
0
100
AcDbLine
 10
172.75
 20
0.000000000000009
 30
0.0
 11
171.6999999999999
 21
0.0000000000000089
 31
0.0
  0
LINE
  5
BB4
330
1E
100
AcDbEntity
  8
0
100
AcDbLine
 10
172.75
 20
0.0000000000000088
 30
0.0
 11
171.6999999999999
 21
0.0000000000000088
 31
0.0
  0
LINE
  5
BB5
330
1E
100
AcDbEntity
  8
0
100
AcDbLine
 10
172.75
 20
0.0000000000000081
 30
0.0
 11
171.6999999999999
 21
0.000000000000008
 31
0.0
  0
LINE
  5
BB6
330
1E
100
AcDbEntity
  8
0
100
AcDbLine
 10
172.75
 20
0.0000000000000079
 30
0.0
 11
171.6999999999999
 21
0.0000000000000079
 31
0.0
  0
LINE
  5
BB7
330
1E
100
AcDbEntity
  8
0
100
AcDbLine
 10
172.75
 20
0.0000000000000072
 30
0.0
 11
171.6999999999999
 21
0.0000000000000072
 31
0.0
  0
LINE
  5
BB8
330
1E
100
AcDbEntity
  8
0
100
AcDbLine
 10
172.75
 20
0.000000000000007
 30
0.0
 11
171.6999999999999
 21
0.000000000000007
 31
0.0
  0
LINE
  5
BB9
330
1E
100
AcDbEntity
  8
0
100
AcDbLine
 10
172.75
 20
0.0000000000000063
 30
0.0
 11
171.6999999999999
 21
0.0000000000000063
 31
0.0
  0
LINE
  5
BBA
330
1E
100
AcDbEntity
  8
0
100
AcDbLine
 10
172.75
 20
0.0000000000000061
 30
0.0
 11
171.6999999999999
 21
0.0000000000000061
 31
0.0
  0
LINE
  5
BBB
330
1E
100
AcDbEntity
  8
0
100
AcDbLine
 10
172.75
 20
0.0000000000000043
 30
0.0
 11
171.6999999999999
 21
0.0000000000000044
 31
0.0
  0
LINE
  5
BBC
330
1E
100
AcDbEntity
  8
0
100
AcDbLine
 10
172.75
 20
0.0000000000000045
 30
0.0
 11
171.6999999999999
 21
0.0000000000000045
 31
0.0
  0
LINE
  5
BBD
330
1E
100
AcDbEntity
  8
0
100
AcDbLine
 10
172.75
 20
0.0000000000000052
 30
0.0
 11
171.6999999999999
 21
0.0000000000000052
 31
0.0
  0
LINE
  5
BBE
330
1E
100
AcDbEntity
  8
0
100
AcDbLine
 10
172.75
 20
0.0000000000000054
 30
0.0
 11
171.6999999999999
 21
0.0000000000000054
 31
0.0
  0
LINE
  5
BBF
330
1E
100
AcDbEntity
  8
0
100
AcDbLine
 10
172.75
 20
0.0000000000000034
 30
0.0
 11
171.6999999999999
 21
0.0000000000000035
 31
0.0
  0
LINE
  5
BC0
330
1E
100
AcDbEntity
  8
0
100
AcDbLine
 10
172.75
 20
0.0000000000000036
 30
0.0
 11
171.6999999999999
 21
0.0000000000000036
 31
0.0
  0
LINE
  5
BC1
330
1E
100
AcDbEntity
  8
0
100
AcDbLine
 10
172.75
 20
0.0000000000000026
 30
0.0
 11
171.6999999999999
 21
0.0000000000000026
 31
0.0
  0
LINE
  5
BC2
330
1E
100
AcDbEntity
  8
0
100
AcDbLine
 10
172.75
 20
0.0000000000000027
 30
0.0
 11
171.6999999999999
 21
0.0000000000000027
 31
0.0
  0
LINE
  5
BC3
330
1E
100
AcDbEntity
  8
0
100
AcDbLine
 10
172.75
 20
0.0000000000000017
 30
0.0
 11
171.6999999999999
 21
0.0000000000000017
 31
0.0
  0
LINE
  5
BC4
330
1E
100
AcDbEntity
  8
0
100
AcDbLine
 10
172.75
 20
0.0000000000000019
 30
0.0
 11
171.6999999999999
 21
0.0000000000000018
 31
0.0
  0
LINE
  5
BC5
330
1E
100
AcDbEntity
  8
0
100
AcDbLine
 10
173.8
 20
1.50000000000001
 30
0.0
 11
173.8
 21
0.0000000000000097
 31
0.0
  0
LINE
  5
BC6
330
1E
100
AcDbEntity
  8
0
100
AcDbLine
 10
172.75
 20
1.50000000000001
 30
0.0
 11
172.75
 21
0.0000000000000097
 31
0.0
  0
LINE
  5
BC7
330
1E
100
AcDbEntity
  8
0
100
AcDbLine
 10
174.2499999999999
 20
1.50000000000001
 30
0.0
 11
174.2499999999999
 21
0.0000000000000052
 31
0.0
  0
LINE
  5
BC8
330
1E
100
AcDbEntity
  8
0
100
AcDbLine
 10
174.2499999999999
 20
1.50000000000001
 30
0.0
 11
174.2499999999999
 21
0.0000000000000016
 31
0.0
  0
LINE
  5
BC9
330
1E
100
AcDbEntity
  8
0
100
AcDbLine
 10
174.2499999999999
 20
1.50000000000001
 30
0.0
 11
174.2499999999999
 21
0.0000000000000026
 31
0.0
  0
LINE
  5
BCA
330
1E
100
AcDbEntity
  8
0
100
AcDbLine
 10
174.2499999999999
 20
1.50000000000001
 30
0.0
 11
174.2499999999999
 21
0.0000000000000036
 31
0.0
  0
LINE
  5
BCB
330
1E
100
AcDbEntity
  8
0
100
AcDbLine
 10
174.2499999999999
 20
1.50000000000001
 30
0.0
 11
174.2499999999999
 21
0.0000000000000045
 31
0.0
  0
LINE
  5
BCC
330
1E
100
AcDbEntity
  8
0
100
AcDbLine
 10
174.2499999999999
 20
1.50000000000001
 30
0.0
 11
174.2499999999999
 21
0.0000000000000062
 31
0.0
  0
LINE
  5
BCD
330
1E
100
AcDbEntity
  8
0
100
AcDbLine
 10
174.2499999999999
 20
1.50000000000001
 30
0.0
 11
174.2499999999999
 21
0.0000000000000071
 31
0.0
  0
LINE
  5
BCE
330
1E
100
AcDbEntity
  8
0
100
AcDbLine
 10
174.2499999999999
 20
1.50000000000001
 30
0.0
 11
174.2499999999999
 21
0.0000000000000081
 31
0.0
  0
LINE
  5
BCF
330
1E
100
AcDbEntity
  8
0
100
AcDbLine
 10
174.2499999999999
 20
1.50000000000001
 30
0.0
 11
174.2499999999999
 21
0.0000000000000088
 31
0.0
  0
LINE
  5
BD0
330
1E
100
AcDbEntity
  8
0
100
AcDbLine
 10
174.2499999999999
 20
1.50000000000001
 30
0.0
 11
174.2499999999999
 21
0.0000000000000097
 31
0.0
  0
LINE
  5
BD1
330
1E
100
AcDbEntity
  8
0
100
AcDbLine
 10
174.2499999999999
 20
0.0000000000000098
 30
0.0
 11
174.2499999999999
 21
1.50000000000001
 31
0.0
  0
LINE
  5
BD2
330
1E
100
AcDbEntity
  8
0
100
AcDbLine
 10
174.2499999999999
 20
0.0000000000000098
 30
0.0
 11
173.8
 21
0.0000000000000097
 31
0.0
  0
LINE
  5
BD3
330
1E
100
AcDbEntity
  8
0
100
AcDbLine
 10
174.2499999999999
 20
0.0000000000000098
 30
0.0
 11
173.8
 21
0.0000000000000098
 31
0.0
  0
LINE
  5
BD4
330
1E
100
AcDbEntity
  8
0
100
AcDbLine
 10
173.8
 20
0.0000000000000098
 30
0.0
 11
173.8
 21
1.50000000000001
 31
0.0
  0
LINE
  5
BD5
330
1E
100
AcDbEntity
  8
0
100
AcDbLine
 10
173.8
 20
0.0000000000000098
 30
0.0
 11
172.75
 21
0.0000000000000098
 31
0.0
  0
LINE
  5
BD6
330
1E
100
AcDbEntity
  8
0
100
AcDbLine
 10
172.75
 20
0.0000000000000098
 30
0.0
 11
172.75
 21
1.50000000000001
 31
0.0
  0
LINE
  5
BD7
330
1E
100
AcDbEntity
  8
0
100
AcDbLine
 10
173.8
 20
0.0000000000000097
 30
0.0
 11
172.75
 21
0.0000000000000097
 31
0.0
  0
LINE
  5
BD8
330
1E
100
AcDbEntity
  8
0
100
AcDbLine
 10
173.8
 20
0.0000000000000089
 30
0.0
 11
172.75
 21
0.000000000000009
 31
0.0
  0
LINE
  5
BD9
330
1E
100
AcDbEntity
  8
0
100
AcDbLine
 10
173.8
 20
0.0000000000000088
 30
0.0
 11
172.75
 21
0.0000000000000088
 31
0.0
  0
LINE
  5
BDA
330
1E
100
AcDbEntity
  8
0
100
AcDbLine
 10
173.8
 20
0.000000000000008
 30
0.0
 11
172.75
 21
0.0000000000000081
 31
0.0
  0
LINE
  5
BDB
330
1E
100
AcDbEntity
  8
0
100
AcDbLine
 10
173.8
 20
0.0000000000000079
 30
0.0
 11
172.75
 21
0.0000000000000079
 31
0.0
  0
LINE
  5
BDC
330
1E
100
AcDbEntity
  8
0
100
AcDbLine
 10
173.8
 20
0.0000000000000072
 30
0.0
 11
172.75
 21
0.0000000000000072
 31
0.0
  0
LINE
  5
BDD
330
1E
100
AcDbEntity
  8
0
100
AcDbLine
 10
173.8
 20
0.000000000000007
 30
0.0
 11
172.75
 21
0.000000000000007
 31
0.0
  0
LINE
  5
BDE
330
1E
100
AcDbEntity
  8
0
100
AcDbLine
 10
173.8
 20
0.0000000000000063
 30
0.0
 11
172.75
 21
0.0000000000000063
 31
0.0
  0
LINE
  5
BDF
330
1E
100
AcDbEntity
  8
0
100
AcDbLine
 10
173.8
 20
0.0000000000000061
 30
0.0
 11
172.75
 21
0.0000000000000061
 31
0.0
  0
LINE
  5
BE0
330
1E
100
AcDbEntity
  8
0
100
AcDbLine
 10
173.8
 20
0.0000000000000044
 30
0.0
 11
172.75
 21
0.0000000000000043
 31
0.0
  0
LINE
  5
BE1
330
1E
100
AcDbEntity
  8
0
100
AcDbLine
 10
173.8
 20
0.0000000000000045
 30
0.0
 11
172.75
 21
0.0000000000000045
 31
0.0
  0
LINE
  5
BE2
330
1E
100
AcDbEntity
  8
0
100
AcDbLine
 10
173.8
 20
0.0000000000000052
 30
0.0
 11
172.75
 21
0.0000000000000052
 31
0.0
  0
LINE
  5
BE3
330
1E
100
AcDbEntity
  8
0
100
AcDbLine
 10
173.8
 20
0.0000000000000054
 30
0.0
 11
172.75
 21
0.0000000000000054
 31
0.0
  0
LINE
  5
BE4
330
1E
100
AcDbEntity
  8
0
100
AcDbLine
 10
173.8
 20
0.0000000000000035
 30
0.0
 11
172.75
 21
0.0000000000000034
 31
0.0
  0
LINE
  5
BE5
330
1E
100
AcDbEntity
  8
0
100
AcDbLine
 10
173.8
 20
0.0000000000000036
 30
0.0
 11
172.75
 21
0.0000000000000036
 31
0.0
  0
LINE
  5
BE6
330
1E
100
AcDbEntity
  8
0
100
AcDbLine
 10
173.8
 20
0.0000000000000026
 30
0.0
 11
172.75
 21
0.0000000000000026
 31
0.0
  0
LINE
  5
BE7
330
1E
100
AcDbEntity
  8
0
100
AcDbLine
 10
173.8
 20
0.0000000000000027
 30
0.0
 11
172.75
 21
0.0000000000000027
 31
0.0
  0
LINE
  5
BE8
330
1E
100
AcDbEntity
  8
0
100
AcDbLine
 10
173.8
 20
0.0000000000000017
 30
0.0
 11
172.75
 21
0.0000000000000017
 31
0.0
  0
LINE
  5
BE9
330
1E
100
AcDbEntity
  8
0
100
AcDbLine
 10
173.8
 20
0.0000000000000018
 30
0.0
 11
172.75
 21
0.0000000000000019
 31
0.0
  0
LINE
  5
BEA
330
1E
100
AcDbEntity
  8
0
100
AcDbLine
 10
174.2499999999999
 20
0.0000000000000089
 30
0.0
 11
174.2499999999999
 21
1.50000000000001
 31
0.0
  0
LINE
  5
BEB
330
1E
100
AcDbEntity
  8
0
100
AcDbLine
 10
174.2499999999999
 20
0.0000000000000089
 30
0.0
 11
173.8
 21
0.0000000000000088
 31
0.0
  0
LINE
  5
BEC
330
1E
100
AcDbEntity
  8
0
100
AcDbLine
 10
174.2499999999999
 20
0.0000000000000089
 30
0.0
 11
173.8
 21
0.0000000000000089
 31
0.0
  0
LINE
  5
BED
330
1E
100
AcDbEntity
  8
0
100
AcDbLine
 10
174.2499999999999
 20
0.000000000000008
 30
0.0
 11
174.2499999999999
 21
1.50000000000001
 31
0.0
  0
LINE
  5
BEE
330
1E
100
AcDbEntity
  8
0
100
AcDbLine
 10
174.2499999999999
 20
0.000000000000008
 30
0.0
 11
173.8
 21
0.0000000000000079
 31
0.0
  0
LINE
  5
BEF
330
1E
100
AcDbEntity
  8
0
100
AcDbLine
 10
174.2499999999999
 20
0.000000000000008
 30
0.0
 11
173.8
 21
0.000000000000008
 31
0.0
  0
LINE
  5
BF0
330
1E
100
AcDbEntity
  8
0
100
AcDbLine
 10
174.2499999999999
 20
0.0000000000000071
 30
0.0
 11
174.2499999999999
 21
1.50000000000001
 31
0.0
  0
LINE
  5
BF1
330
1E
100
AcDbEntity
  8
0
100
AcDbLine
 10
174.2499999999999
 20
0.0000000000000071
 30
0.0
 11
173.8
 21
0.000000000000007
 31
0.0
  0
LINE
  5
BF2
330
1E
100
AcDbEntity
  8
0
100
AcDbLine
 10
174.2499999999999
 20
0.0000000000000071
 30
0.0
 11
173.8
 21
0.0000000000000072
 31
0.0
  0
LINE
  5
BF3
330
1E
100
AcDbEntity
  8
0
100
AcDbLine
 10
174.2499999999999
 20
0.0000000000000062
 30
0.0
 11
174.2499999999999
 21
1.50000000000001
 31
0.0
  0
LINE
  5
BF4
330
1E
100
AcDbEntity
  8
0
100
AcDbLine
 10
174.2499999999999
 20
0.0000000000000062
 30
0.0
 11
173.8
 21
0.0000000000000061
 31
0.0
  0
LINE
  5
BF5
330
1E
100
AcDbEntity
  8
0
100
AcDbLine
 10
174.2499999999999
 20
0.0000000000000062
 30
0.0
 11
173.8
 21
0.0000000000000063
 31
0.0
  0
LINE
  5
BF6
330
1E
100
AcDbEntity
  8
0
100
AcDbLine
 10
174.2499999999999
 20
0.0000000000000044
 30
0.0
 11
174.2499999999999
 21
1.50000000000001
 31
0.0
  0
LINE
  5
BF7
330
1E
100
AcDbEntity
  8
0
100
AcDbLine
 10
174.2499999999999
 20
0.0000000000000044
 30
0.0
 11
173.8
 21
0.0000000000000045
 31
0.0
  0
LINE
  5
BF8
330
1E
100
AcDbEntity
  8
0
100
AcDbLine
 10
174.2499999999999
 20
0.0000000000000044
 30
0.0
 11
173.8
 21
0.0000000000000044
 31
0.0
  0
LINE
  5
BF9
330
1E
100
AcDbEntity
  8
0
100
AcDbLine
 10
174.2499999999999
 20
0.0000000000000053
 30
0.0
 11
174.2499999999999
 21
1.50000000000001
 31
0.0
  0
LINE
  5
BFA
330
1E
100
AcDbEntity
  8
0
100
AcDbLine
 10
174.2499999999999
 20
0.0000000000000053
 30
0.0
 11
173.8
 21
0.0000000000000054
 31
0.0
  0
LINE
  5
BFB
330
1E
100
AcDbEntity
  8
0
100
AcDbLine
 10
174.2499999999999
 20
0.0000000000000053
 30
0.0
 11
173.8
 21
0.0000000000000052
 31
0.0
  0
LINE
  5
BFC
330
1E
100
AcDbEntity
  8
0
100
AcDbLine
 10
174.2499999999999
 20
0.0000000000000035
 30
0.0
 11
174.2499999999999
 21
1.50000000000001
 31
0.0
  0
LINE
  5
BFD
330
1E
100
AcDbEntity
  8
0
100
AcDbLine
 10
174.2499999999999
 20
0.0000000000000035
 30
0.0
 11
173.8
 21
0.0000000000000036
 31
0.0
  0
LINE
  5
BFE
330
1E
100
AcDbEntity
  8
0
100
AcDbLine
 10
174.2499999999999
 20
0.0000000000000035
 30
0.0
 11
173.8
 21
0.0000000000000035
 31
0.0
  0
LINE
  5
BFF
330
1E
100
AcDbEntity
  8
0
100
AcDbLine
 10
174.2499999999999
 20
0.0000000000000027
 30
0.0
 11
174.2499999999999
 21
1.50000000000001
 31
0.0
  0
LINE
  5
C00
330
1E
100
AcDbEntity
  8
0
100
AcDbLine
 10
174.2499999999999
 20
0.0000000000000027
 30
0.0
 11
173.8
 21
0.0000000000000027
 31
0.0
  0
LINE
  5
C01
330
1E
100
AcDbEntity
  8
0
100
AcDbLine
 10
174.2499999999999
 20
0.0000000000000027
 30
0.0
 11
173.8
 21
0.0000000000000026
 31
0.0
  0
LINE
  5
C02
330
1E
100
AcDbEntity
  8
0
100
AcDbLine
 10
174.2499999999999
 20
0.0000000000000018
 30
0.0
 11
174.2499999999999
 21
1.50000000000001
 31
0.0
  0
LINE
  5
C03
330
1E
100
AcDbEntity
  8
0
100
AcDbLine
 10
174.2499999999999
 20
0.0000000000000018
 30
0.0
 11
173.8
 21
0.0000000000000018
 31
0.0
  0
LINE
  5
C04
330
1E
100
AcDbEntity
  8
0
100
AcDbLine
 10
174.2499999999999
 20
0.0000000000000018
 30
0.0
 11
173.8
 21
0.0000000000000017
 31
0.0
  0
LINE
  5
C05
330
1E
100
AcDbEntity
  8
0
100
AcDbLine
 10
171.6999999999999
 20
1.50000000000001
 30
0.0
 11
171.6999999999999
 21
0.0000000000000097
 31
0.0
  0
LINE
  5
C06
330
1E
100
AcDbEntity
  8
0
100
AcDbLine
 10
171.25
 20
1.50000000000001
 30
0.0
 11
171.25
 21
0.0000000000000097
 31
0.0
  0
LINE
  5
C07
330
1E
100
AcDbEntity
  8
0
100
AcDbLine
 10
171.6999999999999
 20
0.0000000000000098
 30
0.0
 11
171.6999999999999
 21
1.50000000000001
 31
0.0
  0
LINE
  5
C08
330
1E
100
AcDbEntity
  8
0
100
AcDbLine
 10
171.6999999999999
 20
0.0000000000000098
 30
0.0
 11
171.25
 21
0.0000000000000098
 31
0.0
  0
LINE
  5
C09
330
1E
100
AcDbEntity
  8
0
100
AcDbLine
 10
171.25
 20
0.0000000000000098
 30
0.0
 11
171.25
 21
1.50000000000001
 31
0.0
  0
LINE
  5
C0A
330
1E
100
AcDbEntity
  8
0
100
AcDbLine
 10
171.6999999999999
 20
0.0000000000000097
 30
0.0
 11
171.25
 21
0.0000000000000098
 31
0.0
  0
LINE
  5
C0B
330
1E
100
AcDbEntity
  8
0
100
AcDbLine
 10
171.6999999999999
 20
0.0000000000000089
 30
0.0
 11
171.25
 21
0.0000000000000089
 31
0.0
  0
LINE
  5
C0C
330
1E
100
AcDbEntity
  8
0
100
AcDbLine
 10
171.6999999999999
 20
0.0000000000000088
 30
0.0
 11
171.25
 21
0.0000000000000089
 31
0.0
  0
LINE
  5
C0D
330
1E
100
AcDbEntity
  8
0
100
AcDbLine
 10
171.6999999999999
 20
0.000000000000008
 30
0.0
 11
171.25
 21
0.000000000000008
 31
0.0
  0
LINE
  5
C0E
330
1E
100
AcDbEntity
  8
0
100
AcDbLine
 10
171.6999999999999
 20
0.0000000000000079
 30
0.0
 11
171.25
 21
0.000000000000008
 31
0.0
  0
LINE
  5
C0F
330
1E
100
AcDbEntity
  8
0
100
AcDbLine
 10
171.6999999999999
 20
0.0000000000000072
 30
0.0
 11
171.25
 21
0.0000000000000071
 31
0.0
  0
LINE
  5
C10
330
1E
100
AcDbEntity
  8
0
100
AcDbLine
 10
171.6999999999999
 20
0.000000000000007
 30
0.0
 11
171.25
 21
0.0000000000000071
 31
0.0
  0
LINE
  5
C11
330
1E
100
AcDbEntity
  8
0
100
AcDbLine
 10
171.6999999999999
 20
0.0000000000000063
 30
0.0
 11
171.25
 21
0.0000000000000062
 31
0.0
  0
LINE
  5
C12
330
1E
100
AcDbEntity
  8
0
100
AcDbLine
 10
171.6999999999999
 20
0.0000000000000061
 30
0.0
 11
171.25
 21
0.0000000000000062
 31
0.0
  0
LINE
  5
C13
330
1E
100
AcDbEntity
  8
0
100
AcDbLine
 10
171.6999999999999
 20
0.0000000000000044
 30
0.0
 11
171.25
 21
0.0000000000000044
 31
0.0
  0
LINE
  5
C14
330
1E
100
AcDbEntity
  8
0
100
AcDbLine
 10
171.6999999999999
 20
0.0000000000000045
 30
0.0
 11
171.25
 21
0.0000000000000044
 31
0.0
  0
LINE
  5
C15
330
1E
100
AcDbEntity
  8
0
100
AcDbLine
 10
171.6999999999999
 20
0.0000000000000052
 30
0.0
 11
171.25
 21
0.0000000000000053
 31
0.0
  0
LINE
  5
C16
330
1E
100
AcDbEntity
  8
0
100
AcDbLine
 10
171.6999999999999
 20
0.0000000000000054
 30
0.0
 11
171.25
 21
0.0000000000000053
 31
0.0
  0
LINE
  5
C17
330
1E
100
AcDbEntity
  8
0
100
AcDbLine
 10
171.6999999999999
 20
0.0000000000000035
 30
0.0
 11
171.25
 21
0.0000000000000035
 31
0.0
  0
LINE
  5
C18
330
1E
100
AcDbEntity
  8
0
100
AcDbLine
 10
171.6999999999999
 20
0.0000000000000036
 30
0.0
 11
171.25
 21
0.0000000000000035
 31
0.0
  0
LINE
  5
C19
330
1E
100
AcDbEntity
  8
0
100
AcDbLine
 10
171.6999999999999
 20
0.0000000000000026
 30
0.0
 11
171.25
 21
0.0000000000000027
 31
0.0
  0
LINE
  5
C1A
330
1E
100
AcDbEntity
  8
0
100
AcDbLine
 10
171.6999999999999
 20
0.0000000000000027
 30
0.0
 11
171.25
 21
0.0000000000000027
 31
0.0
  0
LINE
  5
C1B
330
1E
100
AcDbEntity
  8
0
100
AcDbLine
 10
171.6999999999999
 20
0.0000000000000017
 30
0.0
 11
171.25
 21
0.0000000000000018
 31
0.0
  0
LINE
  5
C1C
330
1E
100
AcDbEntity
  8
0
100
AcDbLine
 10
171.6999999999999
 20
0.0000000000000018
 30
0.0
 11
171.25
 21
0.0000000000000018
 31
0.0
  0
LINE
  5
C1D
330
1E
100
AcDbEntity
  8
0
100
AcDbLine
 10
190.9639999999999
 20
21.49999999999999
 30
0.0
 11
190.86
 21
21.49999999999999
 31
0.0
  0
LINE
  5
C1E
330
1E
100
AcDbEntity
  8
0
100
AcDbLine
 10
189.908
 20
21.49999999999999
 30
0.0
 11
189.5999999999999
 21
21.49999999999999
 31
0.0
  0
LINE
  5
C1F
330
1E
100
AcDbEntity
  8
0
100
AcDbLine
 10
190.1999999999999
 20
21.49999999999999
 30
0.0
 11
189.908
 21
21.49999999999999
 31
0.0
  0
LINE
  5
C20
330
1E
100
AcDbEntity
  8
0
100
AcDbLine
 10
190.4799999999999
 20
21.49999999999999
 30
0.0
 11
190.1999999999999
 21
21.49999999999999
 31
0.0
  0
LINE
  5
C21
330
1E
100
AcDbEntity
  8
0
100
AcDbLine
 10
145.75
 20
0.0000000000000098
 30
0.0
 11
144.6999999999999
 21
0.0000000000000098
 31
0.0
  0
LINE
  5
C22
330
1E
100
AcDbEntity
  8
0
100
AcDbLine
 10
145.75
 20
0.0000000000000097
 30
0.0
 11
144.6999999999999
 21
0.0000000000000097
 31
0.0
  0
LINE
  5
C23
330
1E
100
AcDbEntity
  8
0
100
AcDbLine
 10
145.75
 20
0.000000000000009
 30
0.0
 11
144.6999999999999
 21
0.0000000000000089
 31
0.0
  0
LINE
  5
C24
330
1E
100
AcDbEntity
  8
0
100
AcDbLine
 10
145.75
 20
0.0000000000000088
 30
0.0
 11
144.6999999999999
 21
0.0000000000000088
 31
0.0
  0
LINE
  5
C25
330
1E
100
AcDbEntity
  8
0
100
AcDbLine
 10
145.75
 20
0.0000000000000081
 30
0.0
 11
144.6999999999999
 21
0.000000000000008
 31
0.0
  0
LINE
  5
C26
330
1E
100
AcDbEntity
  8
0
100
AcDbLine
 10
145.75
 20
0.0000000000000079
 30
0.0
 11
144.6999999999999
 21
0.0000000000000079
 31
0.0
  0
LINE
  5
C27
330
1E
100
AcDbEntity
  8
0
100
AcDbLine
 10
145.75
 20
0.0000000000000072
 30
0.0
 11
144.6999999999999
 21
0.0000000000000072
 31
0.0
  0
LINE
  5
C28
330
1E
100
AcDbEntity
  8
0
100
AcDbLine
 10
145.75
 20
0.000000000000007
 30
0.0
 11
144.6999999999999
 21
0.000000000000007
 31
0.0
  0
LINE
  5
C29
330
1E
100
AcDbEntity
  8
0
100
AcDbLine
 10
145.75
 20
0.0000000000000063
 30
0.0
 11
144.6999999999999
 21
0.0000000000000063
 31
0.0
  0
LINE
  5
C2A
330
1E
100
AcDbEntity
  8
0
100
AcDbLine
 10
145.75
 20
0.0000000000000061
 30
0.0
 11
144.6999999999999
 21
0.0000000000000061
 31
0.0
  0
LINE
  5
C2B
330
1E
100
AcDbEntity
  8
0
100
AcDbLine
 10
145.75
 20
0.0000000000000034
 30
0.0
 11
144.6999999999999
 21
0.0000000000000035
 31
0.0
  0
LINE
  5
C2C
330
1E
100
AcDbEntity
  8
0
100
AcDbLine
 10
145.75
 20
0.0000000000000036
 30
0.0
 11
144.6999999999999
 21
0.0000000000000036
 31
0.0
  0
LINE
  5
C2D
330
1E
100
AcDbEntity
  8
0
100
AcDbLine
 10
145.75
 20
0.0000000000000043
 30
0.0
 11
144.6999999999999
 21
0.0000000000000044
 31
0.0
  0
LINE
  5
C2E
330
1E
100
AcDbEntity
  8
0
100
AcDbLine
 10
145.75
 20
0.0000000000000045
 30
0.0
 11
144.6999999999999
 21
0.0000000000000045
 31
0.0
  0
LINE
  5
C2F
330
1E
100
AcDbEntity
  8
0
100
AcDbLine
 10
145.75
 20
0.0000000000000052
 30
0.0
 11
144.6999999999999
 21
0.0000000000000052
 31
0.0
  0
LINE
  5
C30
330
1E
100
AcDbEntity
  8
0
100
AcDbLine
 10
145.75
 20
0.0000000000000054
 30
0.0
 11
144.6999999999999
 21
0.0000000000000054
 31
0.0
  0
LINE
  5
C31
330
1E
100
AcDbEntity
  8
0
100
AcDbLine
 10
145.75
 20
0.0000000000000026
 30
0.0
 11
144.6999999999999
 21
0.0000000000000026
 31
0.0
  0
LINE
  5
C32
330
1E
100
AcDbEntity
  8
0
100
AcDbLine
 10
145.75
 20
0.0000000000000027
 30
0.0
 11
144.6999999999999
 21
0.0000000000000027
 31
0.0
  0
LINE
  5
C33
330
1E
100
AcDbEntity
  8
0
100
AcDbLine
 10
157.75
 20
1.5
 30
0.0
 11
147.2499999999999
 21
1.5
 31
0.0
  0
LINE
  5
C34
330
1E
100
AcDbEntity
  8
0
100
AcDbLine
 10
160.3
 20
0.0000000000000098
 30
0.0
 11
159.25
 21
0.0000000000000098
 31
0.0
  0
LINE
  5
C35
330
1E
100
AcDbEntity
  8
0
100
AcDbLine
 10
160.3
 20
0.0000000000000097
 30
0.0
 11
159.25
 21
0.0000000000000097
 31
0.0
  0
LINE
  5
C36
330
1E
100
AcDbEntity
  8
0
100
AcDbLine
 10
160.3
 20
0.0000000000000089
 30
0.0
 11
159.25
 21
0.000000000000009
 31
0.0
  0
LINE
  5
C37
330
1E
100
AcDbEntity
  8
0
100
AcDbLine
 10
160.3
 20
0.0000000000000088
 30
0.0
 11
159.25
 21
0.0000000000000088
 31
0.0
  0
LINE
  5
C38
330
1E
100
AcDbEntity
  8
0
100
AcDbLine
 10
160.3
 20
0.000000000000008
 30
0.0
 11
159.25
 21
0.0000000000000081
 31
0.0
  0
LINE
  5
C39
330
1E
100
AcDbEntity
  8
0
100
AcDbLine
 10
160.3
 20
0.0000000000000079
 30
0.0
 11
159.25
 21
0.0000000000000079
 31
0.0
  0
LINE
  5
C3A
330
1E
100
AcDbEntity
  8
0
100
AcDbLine
 10
160.3
 20
0.0000000000000072
 30
0.0
 11
159.25
 21
0.0000000000000072
 31
0.0
  0
LINE
  5
C3B
330
1E
100
AcDbEntity
  8
0
100
AcDbLine
 10
160.3
 20
0.000000000000007
 30
0.0
 11
159.25
 21
0.000000000000007
 31
0.0
  0
LINE
  5
C3C
330
1E
100
AcDbEntity
  8
0
100
AcDbLine
 10
160.3
 20
0.0000000000000063
 30
0.0
 11
159.25
 21
0.0000000000000063
 31
0.0
  0
LINE
  5
C3D
330
1E
100
AcDbEntity
  8
0
100
AcDbLine
 10
160.3
 20
0.0000000000000061
 30
0.0
 11
159.25
 21
0.0000000000000061
 31
0.0
  0
LINE
  5
C3E
330
1E
100
AcDbEntity
  8
0
100
AcDbLine
 10
160.3
 20
0.0000000000000017
 30
0.0
 11
159.25
 21
0.0000000000000017
 31
0.0
  0
LINE
  5
C3F
330
1E
100
AcDbEntity
  8
0
100
AcDbLine
 10
160.3
 20
0.0000000000000018
 30
0.0
 11
159.25
 21
0.0000000000000019
 31
0.0
  0
LINE
  5
C40
330
1E
100
AcDbEntity
  8
0
100
AcDbLine
 10
160.3
 20
0.0000000000000035
 30
0.0
 11
159.25
 21
0.0000000000000034
 31
0.0
  0
LINE
  5
C41
330
1E
100
AcDbEntity
  8
0
100
AcDbLine
 10
160.3
 20
0.0000000000000036
 30
0.0
 11
159.25
 21
0.0000000000000036
 31
0.0
  0
LINE
  5
C42
330
1E
100
AcDbEntity
  8
0
100
AcDbLine
 10
160.3
 20
0.0000000000000044
 30
0.0
 11
159.25
 21
0.0000000000000043
 31
0.0
  0
LINE
  5
C43
330
1E
100
AcDbEntity
  8
0
100
AcDbLine
 10
160.3
 20
0.0000000000000045
 30
0.0
 11
159.25
 21
0.0000000000000045
 31
0.0
  0
LINE
  5
C44
330
1E
100
AcDbEntity
  8
0
100
AcDbLine
 10
160.3
 20
0.0000000000000052
 30
0.0
 11
159.25
 21
0.0000000000000052
 31
0.0
  0
LINE
  5
C45
330
1E
100
AcDbEntity
  8
0
100
AcDbLine
 10
160.3
 20
0.0000000000000054
 30
0.0
 11
159.25
 21
0.0000000000000054
 31
0.0
  0
LINE
  5
C46
330
1E
100
AcDbEntity
  8
0
100
AcDbLine
 10
160.3
 20
0.0000000000000026
 30
0.0
 11
159.25
 21
0.0000000000000026
 31
0.0
  0
LINE
  5
C47
330
1E
100
AcDbEntity
  8
0
100
AcDbLine
 10
160.3
 20
0.0000000000000027
 30
0.0
 11
159.25
 21
0.0000000000000027
 31
0.0
  0
LINE
  5
C48
330
1E
100
AcDbEntity
  8
0
100
AcDbLine
 10
160.3
 20
1.50000000000001
 30
0.0
 11
160.3
 21
0.0000000000000097
 31
0.0
  0
LINE
  5
C49
330
1E
100
AcDbEntity
  8
0
100
AcDbLine
 10
160.7499999999999
 20
1.50000000000001
 30
0.0
 11
160.7499999999999
 21
0.0000000000000052
 31
0.0
  0
LINE
  5
C4A
330
1E
100
AcDbEntity
  8
0
100
AcDbLine
 10
160.7499999999999
 20
1.50000000000001
 30
0.0
 11
160.7499999999999
 21
0.0000000000000045
 31
0.0
  0
LINE
  5
C4B
330
1E
100
AcDbEntity
  8
0
100
AcDbLine
 10
160.7499999999999
 20
1.50000000000001
 30
0.0
 11
160.7499999999999
 21
0.0000000000000026
 31
0.0
  0
LINE
  5
C4C
330
1E
100
AcDbEntity
  8
0
100
AcDbLine
 10
160.7499999999999
 20
1.50000000000001
 30
0.0
 11
160.7499999999999
 21
0.0000000000000036
 31
0.0
  0
LINE
  5
C4D
330
1E
100
AcDbEntity
  8
0
100
AcDbLine
 10
160.7499999999999
 20
1.50000000000001
 30
0.0
 11
160.7499999999999
 21
0.0000000000000016
 31
0.0
  0
LINE
  5
C4E
330
1E
100
AcDbEntity
  8
0
100
AcDbLine
 10
160.7499999999999
 20
1.50000000000001
 30
0.0
 11
160.7499999999999
 21
0.0000000000000062
 31
0.0
  0
LINE
  5
C4F
330
1E
100
AcDbEntity
  8
0
100
AcDbLine
 10
160.7499999999999
 20
1.50000000000001
 30
0.0
 11
160.7499999999999
 21
0.0000000000000071
 31
0.0
  0
LINE
  5
C50
330
1E
100
AcDbEntity
  8
0
100
AcDbLine
 10
160.7499999999999
 20
1.50000000000001
 30
0.0
 11
160.7499999999999
 21
0.0000000000000081
 31
0.0
  0
LINE
  5
C51
330
1E
100
AcDbEntity
  8
0
100
AcDbLine
 10
160.7499999999999
 20
1.50000000000001
 30
0.0
 11
160.7499999999999
 21
0.0000000000000088
 31
0.0
  0
LINE
  5
C52
330
1E
100
AcDbEntity
  8
0
100
AcDbLine
 10
160.7499999999999
 20
1.50000000000001
 30
0.0
 11
160.7499999999999
 21
0.0000000000000097
 31
0.0
  0
LINE
  5
C53
330
1E
100
AcDbEntity
  8
0
100
AcDbLine
 10
160.3
 20
0.0000000000000098
 30
0.0
 11
160.3
 21
1.50000000000001
 31
0.0
  0
LINE
  5
C54
330
1E
100
AcDbEntity
  8
0
100
AcDbLine
 10
160.7499999999999
 20
0.0000000000000098
 30
0.0
 11
160.7499999999999
 21
1.50000000000001
 31
0.0
  0
LINE
  5
C55
330
1E
100
AcDbEntity
  8
0
100
AcDbLine
 10
160.7499999999999
 20
0.0000000000000098
 30
0.0
 11
160.3
 21
0.0000000000000097
 31
0.0
  0
LINE
  5
C56
330
1E
100
AcDbEntity
  8
0
100
AcDbLine
 10
160.7499999999999
 20
0.0000000000000098
 30
0.0
 11
160.3
 21
0.0000000000000098
 31
0.0
  0
LINE
  5
C57
330
1E
100
AcDbEntity
  8
0
100
AcDbLine
 10
160.7499999999999
 20
0.0000000000000089
 30
0.0
 11
160.7499999999999
 21
1.50000000000001
 31
0.0
  0
LINE
  5
C58
330
1E
100
AcDbEntity
  8
0
100
AcDbLine
 10
160.7499999999999
 20
0.0000000000000089
 30
0.0
 11
160.3
 21
0.0000000000000088
 31
0.0
  0
LINE
  5
C59
330
1E
100
AcDbEntity
  8
0
100
AcDbLine
 10
160.7499999999999
 20
0.0000000000000089
 30
0.0
 11
160.3
 21
0.0000000000000089
 31
0.0
  0
LINE
  5
C5A
330
1E
100
AcDbEntity
  8
0
100
AcDbLine
 10
160.7499999999999
 20
0.000000000000008
 30
0.0
 11
160.7499999999999
 21
1.50000000000001
 31
0.0
  0
LINE
  5
C5B
330
1E
100
AcDbEntity
  8
0
100
AcDbLine
 10
160.7499999999999
 20
0.000000000000008
 30
0.0
 11
160.3
 21
0.0000000000000079
 31
0.0
  0
LINE
  5
C5C
330
1E
100
AcDbEntity
  8
0
100
AcDbLine
 10
160.7499999999999
 20
0.000000000000008
 30
0.0
 11
160.3
 21
0.000000000000008
 31
0.0
  0
LINE
  5
C5D
330
1E
100
AcDbEntity
  8
0
100
AcDbLine
 10
160.7499999999999
 20
0.0000000000000071
 30
0.0
 11
160.7499999999999
 21
1.50000000000001
 31
0.0
  0
LINE
  5
C5E
330
1E
100
AcDbEntity
  8
0
100
AcDbLine
 10
160.7499999999999
 20
0.0000000000000071
 30
0.0
 11
160.3
 21
0.000000000000007
 31
0.0
  0
LINE
  5
C5F
330
1E
100
AcDbEntity
  8
0
100
AcDbLine
 10
160.7499999999999
 20
0.0000000000000071
 30
0.0
 11
160.3
 21
0.0000000000000072
 31
0.0
  0
LINE
  5
C60
330
1E
100
AcDbEntity
  8
0
100
AcDbLine
 10
160.7499999999999
 20
0.0000000000000062
 30
0.0
 11
160.7499999999999
 21
1.50000000000001
 31
0.0
  0
LINE
  5
C61
330
1E
100
AcDbEntity
  8
0
100
AcDbLine
 10
160.7499999999999
 20
0.0000000000000062
 30
0.0
 11
160.3
 21
0.0000000000000061
 31
0.0
  0
LINE
  5
C62
330
1E
100
AcDbEntity
  8
0
100
AcDbLine
 10
160.7499999999999
 20
0.0000000000000062
 30
0.0
 11
160.3
 21
0.0000000000000063
 31
0.0
  0
LINE
  5
C63
330
1E
100
AcDbEntity
  8
0
100
AcDbLine
 10
160.7499999999999
 20
0.0000000000000018
 30
0.0
 11
160.7499999999999
 21
1.50000000000001
 31
0.0
  0
LINE
  5
C64
330
1E
100
AcDbEntity
  8
0
100
AcDbLine
 10
160.7499999999999
 20
0.0000000000000018
 30
0.0
 11
160.3
 21
0.0000000000000018
 31
0.0
  0
LINE
  5
C65
330
1E
100
AcDbEntity
  8
0
100
AcDbLine
 10
160.7499999999999
 20
0.0000000000000018
 30
0.0
 11
160.3
 21
0.0000000000000017
 31
0.0
  0
LINE
  5
C66
330
1E
100
AcDbEntity
  8
0
100
AcDbLine
 10
160.7499999999999
 20
0.0000000000000035
 30
0.0
 11
160.7499999999999
 21
1.50000000000001
 31
0.0
  0
LINE
  5
C67
330
1E
100
AcDbEntity
  8
0
100
AcDbLine
 10
160.7499999999999
 20
0.0000000000000035
 30
0.0
 11
160.3
 21
0.0000000000000036
 31
0.0
  0
LINE
  5
C68
330
1E
100
AcDbEntity
  8
0
100
AcDbLine
 10
160.7499999999999
 20
0.0000000000000035
 30
0.0
 11
160.3
 21
0.0000000000000035
 31
0.0
  0
LINE
  5
C69
330
1E
100
AcDbEntity
  8
0
100
AcDbLine
 10
160.7499999999999
 20
0.0000000000000027
 30
0.0
 11
160.7499999999999
 21
1.50000000000001
 31
0.0
  0
LINE
  5
C6A
330
1E
100
AcDbEntity
  8
0
100
AcDbLine
 10
160.7499999999999
 20
0.0000000000000027
 30
0.0
 11
160.3
 21
0.0000000000000027
 31
0.0
  0
LINE
  5
C6B
330
1E
100
AcDbEntity
  8
0
100
AcDbLine
 10
160.7499999999999
 20
0.0000000000000027
 30
0.0
 11
160.3
 21
0.0000000000000026
 31
0.0
  0
LINE
  5
C6C
330
1E
100
AcDbEntity
  8
0
100
AcDbLine
 10
160.7499999999999
 20
0.0000000000000044
 30
0.0
 11
160.7499999999999
 21
1.50000000000001
 31
0.0
  0
LINE
  5
C6D
330
1E
100
AcDbEntity
  8
0
100
AcDbLine
 10
160.7499999999999
 20
0.0000000000000044
 30
0.0
 11
160.3
 21
0.0000000000000045
 31
0.0
  0
LINE
  5
C6E
330
1E
100
AcDbEntity
  8
0
100
AcDbLine
 10
160.7499999999999
 20
0.0000000000000044
 30
0.0
 11
160.3
 21
0.0000000000000044
 31
0.0
  0
LINE
  5
C6F
330
1E
100
AcDbEntity
  8
0
100
AcDbLine
 10
160.7499999999999
 20
0.0000000000000053
 30
0.0
 11
160.7499999999999
 21
1.50000000000001
 31
0.0
  0
LINE
  5
C70
330
1E
100
AcDbEntity
  8
0
100
AcDbLine
 10
160.7499999999999
 20
0.0000000000000053
 30
0.0
 11
160.3
 21
0.0000000000000054
 31
0.0
  0
LINE
  5
C71
330
1E
100
AcDbEntity
  8
0
100
AcDbLine
 10
160.7499999999999
 20
0.0000000000000053
 30
0.0
 11
160.3
 21
0.0000000000000052
 31
0.0
  0
LINE
  5
C72
330
1E
100
AcDbEntity
  8
0
100
AcDbLine
 10
159.25
 20
1.50000000000001
 30
0.0
 11
159.25
 21
0.0000000000000097
 31
0.0
  0
LINE
  5
C73
330
1E
100
AcDbEntity
  8
0
100
AcDbLine
 10
158.1999999999999
 20
1.50000000000001
 30
0.0
 11
158.1999999999999
 21
0.0000000000000097
 31
0.0
  0
LINE
  5
C74
330
1E
100
AcDbEntity
  8
0
100
AcDbLine
 10
157.75
 20
1.50000000000001
 30
0.0
 11
157.75
 21
0.0000000000000097
 31
0.0
  0
LINE
  5
C75
330
1E
100
AcDbEntity
  8
0
100
AcDbLine
 10
159.25
 20
0.0000000000000098
 30
0.0
 11
159.25
 21
1.50000000000001
 31
0.0
  0
LINE
  5
C76
330
1E
100
AcDbEntity
  8
0
100
AcDbLine
 10
159.25
 20
0.0000000000000098
 30
0.0
 11
158.1999999999999
 21
0.0000000000000098
 31
0.0
  0
LINE
  5
C77
330
1E
100
AcDbEntity
  8
0
100
AcDbLine
 10
158.1999999999999
 20
0.0000000000000098
 30
0.0
 11
158.1999999999999
 21
1.50000000000001
 31
0.0
  0
LINE
  5
C78
330
1E
100
AcDbEntity
  8
0
100
AcDbLine
 10
158.1999999999999
 20
0.0000000000000098
 30
0.0
 11
157.75
 21
0.0000000000000098
 31
0.0
  0
LINE
  5
C79
330
1E
100
AcDbEntity
  8
0
100
AcDbLine
 10
158.1999999999999
 20
0.0000000000000097
 30
0.0
 11
157.75
 21
0.0000000000000098
 31
0.0
  0
LINE
  5
C7A
330
1E
100
AcDbEntity
  8
0
100
AcDbLine
 10
157.75
 20
0.0000000000000098
 30
0.0
 11
157.75
 21
1.50000000000001
 31
0.0
  0
LINE
  5
C7B
330
1E
100
AcDbEntity
  8
0
100
AcDbLine
 10
159.25
 20
0.0000000000000097
 30
0.0
 11
158.1999999999999
 21
0.0000000000000097
 31
0.0
  0
LINE
  5
C7C
330
1E
100
AcDbEntity
  8
0
100
AcDbLine
 10
158.1999999999999
 20
0.0000000000000089
 30
0.0
 11
157.75
 21
0.0000000000000089
 31
0.0
  0
LINE
  5
C7D
330
1E
100
AcDbEntity
  8
0
100
AcDbLine
 10
158.1999999999999
 20
0.0000000000000088
 30
0.0
 11
157.75
 21
0.0000000000000089
 31
0.0
  0
LINE
  5
C7E
330
1E
100
AcDbEntity
  8
0
100
AcDbLine
 10
158.1999999999999
 20
0.000000000000008
 30
0.0
 11
157.75
 21
0.000000000000008
 31
0.0
  0
LINE
  5
C7F
330
1E
100
AcDbEntity
  8
0
100
AcDbLine
 10
158.1999999999999
 20
0.0000000000000079
 30
0.0
 11
157.75
 21
0.000000000000008
 31
0.0
  0
LINE
  5
C80
330
1E
100
AcDbEntity
  8
0
100
AcDbLine
 10
158.1999999999999
 20
0.0000000000000072
 30
0.0
 11
157.75
 21
0.0000000000000071
 31
0.0
  0
LINE
  5
C81
330
1E
100
AcDbEntity
  8
0
100
AcDbLine
 10
158.1999999999999
 20
0.000000000000007
 30
0.0
 11
157.75
 21
0.0000000000000071
 31
0.0
  0
LINE
  5
C82
330
1E
100
AcDbEntity
  8
0
100
AcDbLine
 10
158.1999999999999
 20
0.0000000000000063
 30
0.0
 11
157.75
 21
0.0000000000000062
 31
0.0
  0
LINE
  5
C83
330
1E
100
AcDbEntity
  8
0
100
AcDbLine
 10
158.1999999999999
 20
0.0000000000000061
 30
0.0
 11
157.75
 21
0.0000000000000062
 31
0.0
  0
LINE
  5
C84
330
1E
100
AcDbEntity
  8
0
100
AcDbLine
 10
158.1999999999999
 20
0.0000000000000017
 30
0.0
 11
157.75
 21
0.0000000000000018
 31
0.0
  0
LINE
  5
C85
330
1E
100
AcDbEntity
  8
0
100
AcDbLine
 10
158.1999999999999
 20
0.0000000000000018
 30
0.0
 11
157.75
 21
0.0000000000000018
 31
0.0
  0
LINE
  5
C86
330
1E
100
AcDbEntity
  8
0
100
AcDbLine
 10
158.1999999999999
 20
0.0000000000000035
 30
0.0
 11
157.75
 21
0.0000000000000035
 31
0.0
  0
LINE
  5
C87
330
1E
100
AcDbEntity
  8
0
100
AcDbLine
 10
158.1999999999999
 20
0.0000000000000036
 30
0.0
 11
157.75
 21
0.0000000000000035
 31
0.0
  0
LINE
  5
C88
330
1E
100
AcDbEntity
  8
0
100
AcDbLine
 10
158.1999999999999
 20
0.0000000000000044
 30
0.0
 11
157.75
 21
0.0000000000000044
 31
0.0
  0
LINE
  5
C89
330
1E
100
AcDbEntity
  8
0
100
AcDbLine
 10
158.1999999999999
 20
0.0000000000000045
 30
0.0
 11
157.75
 21
0.0000000000000044
 31
0.0
  0
LINE
  5
C8A
330
1E
100
AcDbEntity
  8
0
100
AcDbLine
 10
158.1999999999999
 20
0.0000000000000052
 30
0.0
 11
157.75
 21
0.0000000000000053
 31
0.0
  0
LINE
  5
C8B
330
1E
100
AcDbEntity
  8
0
100
AcDbLine
 10
158.1999999999999
 20
0.0000000000000054
 30
0.0
 11
157.75
 21
0.0000000000000053
 31
0.0
  0
LINE
  5
C8C
330
1E
100
AcDbEntity
  8
0
100
AcDbLine
 10
158.1999999999999
 20
0.0000000000000027
 30
0.0
 11
157.75
 21
0.0000000000000027
 31
0.0
  0
LINE
  5
C8D
330
1E
100
AcDbEntity
  8
0
100
AcDbLine
 10
158.1999999999999
 20
0.0000000000000026
 30
0.0
 11
157.75
 21
0.0000000000000027
 31
0.0
  0
LINE
  5
C8E
330
1E
100
AcDbEntity
  8
0
100
AcDbLine
 10
159.25
 20
0.000000000000009
 30
0.0
 11
158.1999999999999
 21
0.0000000000000089
 31
0.0
  0
LINE
  5
C8F
330
1E
100
AcDbEntity
  8
0
100
AcDbLine
 10
159.25
 20
0.0000000000000088
 30
0.0
 11
158.1999999999999
 21
0.0000000000000088
 31
0.0
  0
LINE
  5
C90
330
1E
100
AcDbEntity
  8
0
100
AcDbLine
 10
159.25
 20
0.0000000000000081
 30
0.0
 11
158.1999999999999
 21
0.000000000000008
 31
0.0
  0
LINE
  5
C91
330
1E
100
AcDbEntity
  8
0
100
AcDbLine
 10
159.25
 20
0.0000000000000079
 30
0.0
 11
158.1999999999999
 21
0.0000000000000079
 31
0.0
  0
LINE
  5
C92
330
1E
100
AcDbEntity
  8
0
100
AcDbLine
 10
159.25
 20
0.0000000000000072
 30
0.0
 11
158.1999999999999
 21
0.0000000000000072
 31
0.0
  0
LINE
  5
C93
330
1E
100
AcDbEntity
  8
0
100
AcDbLine
 10
159.25
 20
0.000000000000007
 30
0.0
 11
158.1999999999999
 21
0.000000000000007
 31
0.0
  0
LINE
  5
C94
330
1E
100
AcDbEntity
  8
0
100
AcDbLine
 10
159.25
 20
0.0000000000000063
 30
0.0
 11
158.1999999999999
 21
0.0000000000000063
 31
0.0
  0
LINE
  5
C95
330
1E
100
AcDbEntity
  8
0
100
AcDbLine
 10
159.25
 20
0.0000000000000061
 30
0.0
 11
158.1999999999999
 21
0.0000000000000061
 31
0.0
  0
LINE
  5
C96
330
1E
100
AcDbEntity
  8
0
100
AcDbLine
 10
159.25
 20
0.0000000000000017
 30
0.0
 11
158.1999999999999
 21
0.0000000000000017
 31
0.0
  0
LINE
  5
C97
330
1E
100
AcDbEntity
  8
0
100
AcDbLine
 10
159.25
 20
0.0000000000000019
 30
0.0
 11
158.1999999999999
 21
0.0000000000000018
 31
0.0
  0
LINE
  5
C98
330
1E
100
AcDbEntity
  8
0
100
AcDbLine
 10
159.25
 20
0.0000000000000034
 30
0.0
 11
158.1999999999999
 21
0.0000000000000035
 31
0.0
  0
LINE
  5
C99
330
1E
100
AcDbEntity
  8
0
100
AcDbLine
 10
159.25
 20
0.0000000000000036
 30
0.0
 11
158.1999999999999
 21
0.0000000000000036
 31
0.0
  0
LINE
  5
C9A
330
1E
100
AcDbEntity
  8
0
100
AcDbLine
 10
159.25
 20
0.0000000000000043
 30
0.0
 11
158.1999999999999
 21
0.0000000000000044
 31
0.0
  0
LINE
  5
C9B
330
1E
100
AcDbEntity
  8
0
100
AcDbLine
 10
159.25
 20
0.0000000000000045
 30
0.0
 11
158.1999999999999
 21
0.0000000000000045
 31
0.0
  0
LINE
  5
C9C
330
1E
100
AcDbEntity
  8
0
100
AcDbLine
 10
159.25
 20
0.0000000000000052
 30
0.0
 11
158.1999999999999
 21
0.0000000000000052
 31
0.0
  0
LINE
  5
C9D
330
1E
100
AcDbEntity
  8
0
100
AcDbLine
 10
159.25
 20
0.0000000000000054
 30
0.0
 11
158.1999999999999
 21
0.0000000000000054
 31
0.0
  0
LINE
  5
C9E
330
1E
100
AcDbEntity
  8
0
100
AcDbLine
 10
159.25
 20
0.0000000000000027
 30
0.0
 11
158.1999999999999
 21
0.0000000000000027
 31
0.0
  0
LINE
  5
C9F
330
1E
100
AcDbEntity
  8
0
100
AcDbLine
 10
159.25
 20
0.0000000000000026
 30
0.0
 11
158.1999999999999
 21
0.0000000000000026
 31
0.0
  0
LINE
  5
CA0
330
1E
100
AcDbEntity
  8
0
100
AcDbLine
 10
146.8
 20
1.50000000000001
 30
0.0
 11
146.8
 21
0.0000000000000097
 31
0.0
  0
LINE
  5
CA1
330
1E
100
AcDbEntity
  8
0
100
AcDbLine
 10
145.75
 20
1.50000000000001
 30
0.0
 11
145.75
 21
0.0000000000000097
 31
0.0
  0
LINE
  5
CA2
330
1E
100
AcDbEntity
  8
0
100
AcDbLine
 10
147.2499999999999
 20
1.50000000000001
 30
0.0
 11
147.2499999999999
 21
0.0000000000000052
 31
0.0
  0
LINE
  5
CA3
330
1E
100
AcDbEntity
  8
0
100
AcDbLine
 10
147.2499999999999
 20
1.50000000000001
 30
0.0
 11
147.2499999999999
 21
0.0000000000000045
 31
0.0
  0
LINE
  5
CA4
330
1E
100
AcDbEntity
  8
0
100
AcDbLine
 10
147.2499999999999
 20
1.50000000000001
 30
0.0
 11
147.2499999999999
 21
0.0000000000000026
 31
0.0
  0
LINE
  5
CA5
330
1E
100
AcDbEntity
  8
0
100
AcDbLine
 10
147.2499999999999
 20
1.50000000000001
 30
0.0
 11
147.2499999999999
 21
0.0000000000000036
 31
0.0
  0
LINE
  5
CA6
330
1E
100
AcDbEntity
  8
0
100
AcDbLine
 10
147.2499999999999
 20
1.50000000000001
 30
0.0
 11
147.2499999999999
 21
0.0000000000000062
 31
0.0
  0
LINE
  5
CA7
330
1E
100
AcDbEntity
  8
0
100
AcDbLine
 10
147.2499999999999
 20
1.50000000000001
 30
0.0
 11
147.2499999999999
 21
0.0000000000000071
 31
0.0
  0
LINE
  5
CA8
330
1E
100
AcDbEntity
  8
0
100
AcDbLine
 10
147.2499999999999
 20
1.50000000000001
 30
0.0
 11
147.2499999999999
 21
0.0000000000000081
 31
0.0
  0
LINE
  5
CA9
330
1E
100
AcDbEntity
  8
0
100
AcDbLine
 10
147.2499999999999
 20
1.50000000000001
 30
0.0
 11
147.2499999999999
 21
0.0000000000000088
 31
0.0
  0
LINE
  5
CAA
330
1E
100
AcDbEntity
  8
0
100
AcDbLine
 10
147.2499999999999
 20
1.50000000000001
 30
0.0
 11
147.2499999999999
 21
0.0000000000000097
 31
0.0
  0
LINE
  5
CAB
330
1E
100
AcDbEntity
  8
0
100
AcDbLine
 10
147.2499999999999
 20
0.0000000000000098
 30
0.0
 11
147.2499999999999
 21
1.50000000000001
 31
0.0
  0
LINE
  5
CAC
330
1E
100
AcDbEntity
  8
0
100
AcDbLine
 10
147.2499999999999
 20
0.0000000000000098
 30
0.0
 11
146.8
 21
0.0000000000000097
 31
0.0
  0
LINE
  5
CAD
330
1E
100
AcDbEntity
  8
0
100
AcDbLine
 10
147.2499999999999
 20
0.0000000000000098
 30
0.0
 11
146.8
 21
0.0000000000000098
 31
0.0
  0
LINE
  5
CAE
330
1E
100
AcDbEntity
  8
0
100
AcDbLine
 10
146.8
 20
0.0000000000000098
 30
0.0
 11
146.8
 21
1.50000000000001
 31
0.0
  0
LINE
  5
CAF
330
1E
100
AcDbEntity
  8
0
100
AcDbLine
 10
146.8
 20
0.0000000000000098
 30
0.0
 11
145.75
 21
0.0000000000000098
 31
0.0
  0
LINE
  5
CB0
330
1E
100
AcDbEntity
  8
0
100
AcDbLine
 10
145.75
 20
0.0000000000000098
 30
0.0
 11
145.75
 21
1.50000000000001
 31
0.0
  0
LINE
  5
CB1
330
1E
100
AcDbEntity
  8
0
100
AcDbLine
 10
146.8
 20
0.0000000000000097
 30
0.0
 11
145.75
 21
0.0000000000000097
 31
0.0
  0
LINE
  5
CB2
330
1E
100
AcDbEntity
  8
0
100
AcDbLine
 10
147.2499999999999
 20
0.0000000000000089
 30
0.0
 11
147.2499999999999
 21
1.50000000000001
 31
0.0
  0
LINE
  5
CB3
330
1E
100
AcDbEntity
  8
0
100
AcDbLine
 10
147.2499999999999
 20
0.0000000000000089
 30
0.0
 11
146.8
 21
0.0000000000000088
 31
0.0
  0
LINE
  5
CB4
330
1E
100
AcDbEntity
  8
0
100
AcDbLine
 10
147.2499999999999
 20
0.0000000000000089
 30
0.0
 11
146.8
 21
0.0000000000000089
 31
0.0
  0
LINE
  5
CB5
330
1E
100
AcDbEntity
  8
0
100
AcDbLine
 10
146.8
 20
0.0000000000000089
 30
0.0
 11
145.75
 21
0.000000000000009
 31
0.0
  0
LINE
  5
CB6
330
1E
100
AcDbEntity
  8
0
100
AcDbLine
 10
146.8
 20
0.0000000000000088
 30
0.0
 11
145.75
 21
0.0000000000000088
 31
0.0
  0
LINE
  5
CB7
330
1E
100
AcDbEntity
  8
0
100
AcDbLine
 10
146.8
 20
0.000000000000008
 30
0.0
 11
145.75
 21
0.0000000000000081
 31
0.0
  0
LINE
  5
CB8
330
1E
100
AcDbEntity
  8
0
100
AcDbLine
 10
146.8
 20
0.0000000000000079
 30
0.0
 11
145.75
 21
0.0000000000000079
 31
0.0
  0
LINE
  5
CB9
330
1E
100
AcDbEntity
  8
0
100
AcDbLine
 10
146.8
 20
0.0000000000000072
 30
0.0
 11
145.75
 21
0.0000000000000072
 31
0.0
  0
LINE
  5
CBA
330
1E
100
AcDbEntity
  8
0
100
AcDbLine
 10
146.8
 20
0.000000000000007
 30
0.0
 11
145.75
 21
0.000000000000007
 31
0.0
  0
LINE
  5
CBB
330
1E
100
AcDbEntity
  8
0
100
AcDbLine
 10
146.8
 20
0.0000000000000063
 30
0.0
 11
145.75
 21
0.0000000000000063
 31
0.0
  0
LINE
  5
CBC
330
1E
100
AcDbEntity
  8
0
100
AcDbLine
 10
146.8
 20
0.0000000000000061
 30
0.0
 11
145.75
 21
0.0000000000000061
 31
0.0
  0
LINE
  5
CBD
330
1E
100
AcDbEntity
  8
0
100
AcDbLine
 10
146.8
 20
0.0000000000000035
 30
0.0
 11
145.75
 21
0.0000000000000034
 31
0.0
  0
LINE
  5
CBE
330
1E
100
AcDbEntity
  8
0
100
AcDbLine
 10
146.8
 20
0.0000000000000036
 30
0.0
 11
145.75
 21
0.0000000000000036
 31
0.0
  0
LINE
  5
CBF
330
1E
100
AcDbEntity
  8
0
100
AcDbLine
 10
146.8
 20
0.0000000000000044
 30
0.0
 11
145.75
 21
0.0000000000000043
 31
0.0
  0
LINE
  5
CC0
330
1E
100
AcDbEntity
  8
0
100
AcDbLine
 10
146.8
 20
0.0000000000000045
 30
0.0
 11
145.75
 21
0.0000000000000045
 31
0.0
  0
LINE
  5
CC1
330
1E
100
AcDbEntity
  8
0
100
AcDbLine
 10
146.8
 20
0.0000000000000052
 30
0.0
 11
145.75
 21
0.0000000000000052
 31
0.0
  0
LINE
  5
CC2
330
1E
100
AcDbEntity
  8
0
100
AcDbLine
 10
146.8
 20
0.0000000000000054
 30
0.0
 11
145.75
 21
0.0000000000000054
 31
0.0
  0
LINE
  5
CC3
330
1E
100
AcDbEntity
  8
0
100
AcDbLine
 10
146.8
 20
0.0000000000000026
 30
0.0
 11
145.75
 21
0.0000000000000026
 31
0.0
  0
LINE
  5
CC4
330
1E
100
AcDbEntity
  8
0
100
AcDbLine
 10
146.8
 20
0.0000000000000027
 30
0.0
 11
145.75
 21
0.0000000000000027
 31
0.0
  0
LINE
  5
CC5
330
1E
100
AcDbEntity
  8
0
100
AcDbLine
 10
147.2499999999999
 20
0.000000000000008
 30
0.0
 11
147.2499999999999
 21
1.50000000000001
 31
0.0
  0
LINE
  5
CC6
330
1E
100
AcDbEntity
  8
0
100
AcDbLine
 10
147.2499999999999
 20
0.000000000000008
 30
0.0
 11
146.8
 21
0.0000000000000079
 31
0.0
  0
LINE
  5
CC7
330
1E
100
AcDbEntity
  8
0
100
AcDbLine
 10
147.2499999999999
 20
0.000000000000008
 30
0.0
 11
146.8
 21
0.000000000000008
 31
0.0
  0
LINE
  5
CC8
330
1E
100
AcDbEntity
  8
0
100
AcDbLine
 10
147.2499999999999
 20
0.0000000000000071
 30
0.0
 11
147.2499999999999
 21
1.50000000000001
 31
0.0
  0
LINE
  5
CC9
330
1E
100
AcDbEntity
  8
0
100
AcDbLine
 10
147.2499999999999
 20
0.0000000000000071
 30
0.0
 11
146.8
 21
0.000000000000007
 31
0.0
  0
LINE
  5
CCA
330
1E
100
AcDbEntity
  8
0
100
AcDbLine
 10
147.2499999999999
 20
0.0000000000000071
 30
0.0
 11
146.8
 21
0.0000000000000072
 31
0.0
  0
LINE
  5
CCB
330
1E
100
AcDbEntity
  8
0
100
AcDbLine
 10
147.2499999999999
 20
0.0000000000000062
 30
0.0
 11
147.2499999999999
 21
1.50000000000001
 31
0.0
  0
LINE
  5
CCC
330
1E
100
AcDbEntity
  8
0
100
AcDbLine
 10
147.2499999999999
 20
0.0000000000000062
 30
0.0
 11
146.8
 21
0.0000000000000061
 31
0.0
  0
LINE
  5
CCD
330
1E
100
AcDbEntity
  8
0
100
AcDbLine
 10
147.2499999999999
 20
0.0000000000000062
 30
0.0
 11
146.8
 21
0.0000000000000063
 31
0.0
  0
LINE
  5
CCE
330
1E
100
AcDbEntity
  8
0
100
AcDbLine
 10
147.2499999999999
 20
0.0000000000000035
 30
0.0
 11
147.2499999999999
 21
1.50000000000001
 31
0.0
  0
LINE
  5
CCF
330
1E
100
AcDbEntity
  8
0
100
AcDbLine
 10
147.2499999999999
 20
0.0000000000000035
 30
0.0
 11
146.8
 21
0.0000000000000036
 31
0.0
  0
LINE
  5
CD0
330
1E
100
AcDbEntity
  8
0
100
AcDbLine
 10
147.2499999999999
 20
0.0000000000000035
 30
0.0
 11
146.8
 21
0.0000000000000035
 31
0.0
  0
LINE
  5
CD1
330
1E
100
AcDbEntity
  8
0
100
AcDbLine
 10
147.2499999999999
 20
0.0000000000000027
 30
0.0
 11
147.2499999999999
 21
1.50000000000001
 31
0.0
  0
LINE
  5
CD2
330
1E
100
AcDbEntity
  8
0
100
AcDbLine
 10
147.2499999999999
 20
0.0000000000000027
 30
0.0
 11
146.8
 21
0.0000000000000027
 31
0.0
  0
LINE
  5
CD3
330
1E
100
AcDbEntity
  8
0
100
AcDbLine
 10
147.2499999999999
 20
0.0000000000000027
 30
0.0
 11
146.8
 21
0.0000000000000026
 31
0.0
  0
LINE
  5
CD4
330
1E
100
AcDbEntity
  8
0
100
AcDbLine
 10
147.2499999999999
 20
0.0000000000000044
 30
0.0
 11
147.2499999999999
 21
1.50000000000001
 31
0.0
  0
LINE
  5
CD5
330
1E
100
AcDbEntity
  8
0
100
AcDbLine
 10
147.2499999999999
 20
0.0000000000000044
 30
0.0
 11
146.8
 21
0.0000000000000045
 31
0.0
  0
LINE
  5
CD6
330
1E
100
AcDbEntity
  8
0
100
AcDbLine
 10
147.2499999999999
 20
0.0000000000000044
 30
0.0
 11
146.8
 21
0.0000000000000044
 31
0.0
  0
LINE
  5
CD7
330
1E
100
AcDbEntity
  8
0
100
AcDbLine
 10
147.2499999999999
 20
0.0000000000000053
 30
0.0
 11
147.2499999999999
 21
1.50000000000001
 31
0.0
  0
LINE
  5
CD8
330
1E
100
AcDbEntity
  8
0
100
AcDbLine
 10
147.2499999999999
 20
0.0000000000000053
 30
0.0
 11
146.8
 21
0.0000000000000054
 31
0.0
  0
LINE
  5
CD9
330
1E
100
AcDbEntity
  8
0
100
AcDbLine
 10
147.2499999999999
 20
0.0000000000000053
 30
0.0
 11
146.8
 21
0.0000000000000052
 31
0.0
  0
LINE
  5
CDA
330
1E
100
AcDbEntity
  8
0
100
AcDbLine
 10
135.4999999999999
 20
0.0000000000000058
 30
0.0
 11
135.1399999999999
 21
0.0000000000000056
 31
0.0
  0
LINE
  5
CDB
330
1E
100
AcDbEntity
  8
0
100
AcDbLine
 10
135.4999999999999
 20
0.0000000000000058
 30
0.0
 11
135.1399999999999
 21
0.0000000000000059
 31
0.0
  0
LINE
  5
CDC
330
1E
100
AcDbEntity
  8
0
100
AcDbLine
 10
144.25
 20
1.5
 30
0.0
 11
135.4999999999999
 21
1.5
 31
0.0
  0
LINE
  5
CDD
330
1E
100
AcDbEntity
  8
0
100
AcDbLine
 10
144.25
 20
1.5
 30
0.0
 11
135.4999999999999
 21
1.5
 31
0.0
  0
LINE
  5
CDE
330
1E
100
AcDbEntity
  8
0
100
AcDbLine
 10
144.6999999999999
 20
1.50000000000001
 30
0.0
 11
144.6999999999999
 21
0.0000000000000097
 31
0.0
  0
LINE
  5
CDF
330
1E
100
AcDbEntity
  8
0
100
AcDbLine
 10
144.25
 20
1.50000000000001
 30
0.0
 11
144.25
 21
0.0000000000000097
 31
0.0
  0
LINE
  5
CE0
330
1E
100
AcDbEntity
  8
0
100
AcDbLine
 10
144.6999999999999
 20
0.0000000000000098
 30
0.0
 11
144.6999999999999
 21
1.50000000000001
 31
0.0
  0
LINE
  5
CE1
330
1E
100
AcDbEntity
  8
0
100
AcDbLine
 10
144.6999999999999
 20
0.0000000000000098
 30
0.0
 11
144.25
 21
0.0000000000000098
 31
0.0
  0
LINE
  5
CE2
330
1E
100
AcDbEntity
  8
0
100
AcDbLine
 10
144.6999999999999
 20
0.0000000000000097
 30
0.0
 11
144.25
 21
0.0000000000000098
 31
0.0
  0
LINE
  5
CE3
330
1E
100
AcDbEntity
  8
0
100
AcDbLine
 10
144.25
 20
0.0000000000000098
 30
0.0
 11
144.25
 21
1.50000000000001
 31
0.0
  0
LINE
  5
CE4
330
1E
100
AcDbEntity
  8
0
100
AcDbLine
 10
144.6999999999999
 20
0.0000000000000089
 30
0.0
 11
144.25
 21
0.0000000000000089
 31
0.0
  0
LINE
  5
CE5
330
1E
100
AcDbEntity
  8
0
100
AcDbLine
 10
144.6999999999999
 20
0.0000000000000088
 30
0.0
 11
144.25
 21
0.0000000000000089
 31
0.0
  0
LINE
  5
CE6
330
1E
100
AcDbEntity
  8
0
100
AcDbLine
 10
144.6999999999999
 20
0.000000000000008
 30
0.0
 11
144.25
 21
0.000000000000008
 31
0.0
  0
LINE
  5
CE7
330
1E
100
AcDbEntity
  8
0
100
AcDbLine
 10
144.6999999999999
 20
0.0000000000000079
 30
0.0
 11
144.25
 21
0.000000000000008
 31
0.0
  0
LINE
  5
CE8
330
1E
100
AcDbEntity
  8
0
100
AcDbLine
 10
144.6999999999999
 20
0.0000000000000072
 30
0.0
 11
144.25
 21
0.0000000000000071
 31
0.0
  0
LINE
  5
CE9
330
1E
100
AcDbEntity
  8
0
100
AcDbLine
 10
144.6999999999999
 20
0.000000000000007
 30
0.0
 11
144.25
 21
0.0000000000000071
 31
0.0
  0
LINE
  5
CEA
330
1E
100
AcDbEntity
  8
0
100
AcDbLine
 10
144.6999999999999
 20
0.0000000000000063
 30
0.0
 11
144.25
 21
0.0000000000000062
 31
0.0
  0
LINE
  5
CEB
330
1E
100
AcDbEntity
  8
0
100
AcDbLine
 10
144.6999999999999
 20
0.0000000000000061
 30
0.0
 11
144.25
 21
0.0000000000000062
 31
0.0
  0
LINE
  5
CEC
330
1E
100
AcDbEntity
  8
0
100
AcDbLine
 10
144.6999999999999
 20
0.0000000000000035
 30
0.0
 11
144.25
 21
0.0000000000000035
 31
0.0
  0
LINE
  5
CED
330
1E
100
AcDbEntity
  8
0
100
AcDbLine
 10
144.6999999999999
 20
0.0000000000000036
 30
0.0
 11
144.25
 21
0.0000000000000035
 31
0.0
  0
LINE
  5
CEE
330
1E
100
AcDbEntity
  8
0
100
AcDbLine
 10
144.6999999999999
 20
0.0000000000000044
 30
0.0
 11
144.25
 21
0.0000000000000044
 31
0.0
  0
LINE
  5
CEF
330
1E
100
AcDbEntity
  8
0
100
AcDbLine
 10
144.6999999999999
 20
0.0000000000000045
 30
0.0
 11
144.25
 21
0.0000000000000044
 31
0.0
  0
LINE
  5
CF0
330
1E
100
AcDbEntity
  8
0
100
AcDbLine
 10
144.6999999999999
 20
0.0000000000000052
 30
0.0
 11
144.25
 21
0.0000000000000053
 31
0.0
  0
LINE
  5
CF1
330
1E
100
AcDbEntity
  8
0
100
AcDbLine
 10
144.6999999999999
 20
0.0000000000000054
 30
0.0
 11
144.25
 21
0.0000000000000053
 31
0.0
  0
LINE
  5
CF2
330
1E
100
AcDbEntity
  8
0
100
AcDbLine
 10
144.6999999999999
 20
0.0000000000000026
 30
0.0
 11
144.25
 21
0.0000000000000027
 31
0.0
  0
LINE
  5
CF3
330
1E
100
AcDbEntity
  8
0
100
AcDbLine
 10
144.6999999999999
 20
0.0000000000000027
 30
0.0
 11
144.25
 21
0.0000000000000027
 31
0.0
  0
LINE
  5
CF4
330
1E
100
AcDbEntity
  8
0
100
AcDbLine
 10
135.4999999999999
 20
1.50000000000001
 30
0.0
 11
135.4999999999999
 21
0.0000000000000058
 31
0.0
  0
LINE
  5
CF5
330
1E
100
AcDbEntity
  8
0
100
AcDbLine
 10
135.4999999999999
 20
0.0000000000000058
 30
0.0
 11
135.4999999999999
 21
1.50000000000001
 31
0.0
  0
LINE
  5
CF6
330
1E
100
AcDbEntity
  8
0
100
AcDbLine
 10
130.4599999999999
 20
0.0000000000000063
 30
0.0
 11
128.0599999999999
 21
0.0000000000000063
 31
0.0
  0
LINE
  5
CF7
330
1E
100
AcDbEntity
  8
0
100
AcDbLine
 10
130.4599999999999
 20
0.0000000000000052
 30
0.0
 11
128.0599999999999
 21
0.0000000000000052
 31
0.0
  0
LINE
  5
CF8
330
1E
100
AcDbEntity
  8
0
100
AcDbLine
 10
134.18
 20
0.0000000000000061
 30
0.0
 11
132.5799999999999
 21
0.0000000000000062
 31
0.0
  0
LINE
  5
CF9
330
1E
100
AcDbEntity
  8
0
100
AcDbLine
 10
133.3
 20
0.0000000000000072
 30
0.0
 11
132.25
 21
0.0000000000000072
 31
0.0
  0
LINE
  5
CFA
330
1E
100
AcDbEntity
  8
0
100
AcDbLine
 10
133.3
 20
0.0000000000000089
 30
0.0
 11
132.25
 21
0.000000000000009
 31
0.0
  0
LINE
  5
CFB
330
1E
100
AcDbEntity
  8
0
100
AcDbLine
 10
133.3
 20
0.0000000000000098
 30
0.0
 11
132.25
 21
0.0000000000000098
 31
0.0
  0
LINE
  5
CFC
330
1E
100
AcDbEntity
  8
0
100
AcDbLine
 10
133.3
 20
0.0000000000000097
 30
0.0
 11
132.25
 21
0.0000000000000097
 31
0.0
  0
LINE
  5
CFD
330
1E
100
AcDbEntity
  8
0
100
AcDbLine
 10
133.3
 20
0.0000000000000088
 30
0.0
 11
132.25
 21
0.0000000000000088
 31
0.0
  0
LINE
  5
CFE
330
1E
100
AcDbEntity
  8
0
100
AcDbLine
 10
133.3
 20
0.000000000000008
 30
0.0
 11
132.25
 21
0.0000000000000081
 31
0.0
  0
LINE
  5
CFF
330
1E
100
AcDbEntity
  8
0
100
AcDbLine
 10
133.3
 20
0.0000000000000079
 30
0.0
 11
132.25
 21
0.0000000000000079
 31
0.0
  0
LINE
  5
D00
330
1E
100
AcDbEntity
  8
0
100
AcDbLine
 10
133.3
 20
0.000000000000007
 30
0.0
 11
132.25
 21
0.000000000000007
 31
0.0
  0
LINE
  5
D01
330
1E
100
AcDbEntity
  8
0
100
AcDbLine
 10
134.18
 20
0.0000000000000055
 30
0.0
 11
132.5799999999999
 21
0.0000000000000053
 31
0.0
  0
LINE
  5
D02
330
1E
100
AcDbEntity
  8
0
100
AcDbLine
 10
133.3
 20
0.0000000000000035
 30
0.0
 11
132.25
 21
0.0000000000000034
 31
0.0
  0
LINE
  5
D03
330
1E
100
AcDbEntity
  8
0
100
AcDbLine
 10
133.3
 20
0.0000000000000044
 30
0.0
 11
132.25
 21
0.0000000000000043
 31
0.0
  0
LINE
  5
D04
330
1E
100
AcDbEntity
  8
0
100
AcDbLine
 10
133.3
 20
0.0000000000000045
 30
0.0
 11
132.25
 21
0.0000000000000045
 31
0.0
  0
LINE
  5
D05
330
1E
100
AcDbEntity
  8
0
100
AcDbLine
 10
133.3
 20
0.0000000000000036
 30
0.0
 11
132.25
 21
0.0000000000000036
 31
0.0
  0
LINE
  5
D06
330
1E
100
AcDbEntity
  8
0
100
AcDbLine
 10
133.3
 20
0.0000000000000026
 30
0.0
 11
132.25
 21
0.0000000000000026
 31
0.0
  0
LINE
  5
D07
330
1E
100
AcDbEntity
  8
0
100
AcDbLine
 10
133.3
 20
0.0000000000000027
 30
0.0
 11
132.25
 21
0.0000000000000027
 31
0.0
  0
LINE
  5
D08
330
1E
100
AcDbEntity
  8
0
100
AcDbLine
 10
133.75
 20
1.50000000000001
 30
0.0
 11
133.75
 21
0.0000000000000097
 31
0.0
  0
LINE
  5
D09
330
1E
100
AcDbEntity
  8
0
100
AcDbLine
 10
133.75
 20
1.50000000000001
 30
0.0
 11
133.75
 21
0.0000000000000081
 31
0.0
  0
LINE
  5
D0A
330
1E
100
AcDbEntity
  8
0
100
AcDbLine
 10
133.75
 20
1.50000000000001
 30
0.0
 11
133.75
 21
0.0000000000000088
 31
0.0
  0
LINE
  5
D0B
330
1E
100
AcDbEntity
  8
0
100
AcDbLine
 10
133.75
 20
1.50000000000001
 30
0.0
 11
133.75
 21
0.0000000000000071
 31
0.0
  0
LINE
  5
D0C
330
1E
100
AcDbEntity
  8
0
100
AcDbLine
 10
133.3
 20
1.50000000000001
 30
0.0
 11
133.3
 21
0.0000000000000097
 31
0.0
  0
LINE
  5
D0D
330
1E
100
AcDbEntity
  8
0
100
AcDbLine
 10
135.1399999999999
 20
0.0000000000000059
 30
0.0
 11
135.1399999999999
 21
1.50000000000001
 31
0.0
  0
LINE
  5
D0E
330
1E
100
AcDbEntity
  8
0
100
AcDbLine
 10
135.1399999999999
 20
0.0000000000000059
 30
0.0
 11
134.18
 21
0.0000000000000061
 31
0.0
  0
LINE
  5
D0F
330
1E
100
AcDbEntity
  8
0
100
AcDbLine
 10
133.75
 20
0.0000000000000071
 30
0.0
 11
133.75
 21
1.50000000000001
 31
0.0
  0
LINE
  5
D10
330
1E
100
AcDbEntity
  8
0
100
AcDbLine
 10
133.75
 20
0.0000000000000071
 30
0.0
 11
133.3
 21
0.000000000000007
 31
0.0
  0
LINE
  5
D11
330
1E
100
AcDbEntity
  8
0
100
AcDbLine
 10
133.75
 20
0.0000000000000071
 30
0.0
 11
133.3
 21
0.0000000000000072
 31
0.0
  0
LINE
  5
D12
330
1E
100
AcDbEntity
  8
0
100
AcDbLine
 10
133.75
 20
0.0000000000000089
 30
0.0
 11
133.75
 21
1.50000000000001
 31
0.0
  0
LINE
  5
D13
330
1E
100
AcDbEntity
  8
0
100
AcDbLine
 10
133.75
 20
0.0000000000000089
 30
0.0
 11
133.3
 21
0.0000000000000088
 31
0.0
  0
LINE
  5
D14
330
1E
100
AcDbEntity
  8
0
100
AcDbLine
 10
133.75
 20
0.0000000000000089
 30
0.0
 11
133.3
 21
0.0000000000000089
 31
0.0
  0
LINE
  5
D15
330
1E
100
AcDbEntity
  8
0
100
AcDbLine
 10
133.3
 20
0.0000000000000098
 30
0.0
 11
133.3
 21
1.50000000000001
 31
0.0
  0
LINE
  5
D16
330
1E
100
AcDbEntity
  8
0
100
AcDbLine
 10
133.75
 20
0.000000000000008
 30
0.0
 11
133.75
 21
1.50000000000001
 31
0.0
  0
LINE
  5
D17
330
1E
100
AcDbEntity
  8
0
100
AcDbLine
 10
133.75
 20
0.000000000000008
 30
0.0
 11
133.3
 21
0.0000000000000079
 31
0.0
  0
LINE
  5
D18
330
1E
100
AcDbEntity
  8
0
100
AcDbLine
 10
133.75
 20
0.000000000000008
 30
0.0
 11
133.3
 21
0.000000000000008
 31
0.0
  0
LINE
  5
D19
330
1E
100
AcDbEntity
  8
0
100
AcDbLine
 10
133.75
 20
0.0000000000000098
 30
0.0
 11
133.75
 21
1.50000000000001
 31
0.0
  0
LINE
  5
D1A
330
1E
100
AcDbEntity
  8
0
100
AcDbLine
 10
133.75
 20
0.0000000000000098
 30
0.0
 11
133.3
 21
0.0000000000000097
 31
0.0
  0
LINE
  5
D1B
330
1E
100
AcDbEntity
  8
0
100
AcDbLine
 10
133.75
 20
0.0000000000000098
 30
0.0
 11
133.3
 21
0.0000000000000098
 31
0.0
  0
LINE
  5
D1C
330
1E
100
AcDbEntity
  8
0
100
AcDbLine
 10
135.1399999999999
 20
0.0000000000000056
 30
0.0
 11
134.18
 21
0.0000000000000055
 31
0.0
  0
LINE
  5
D1D
330
1E
100
AcDbEntity
  8
0
100
AcDbLine
 10
133.75
 20
0.0000000000000035
 30
0.0
 11
133.3
 21
0.0000000000000036
 31
0.0
  0
LINE
  5
D1E
330
1E
100
AcDbEntity
  8
0
100
AcDbLine
 10
133.75
 20
0.0000000000000035
 30
0.0
 11
133.3
 21
0.0000000000000035
 31
0.0
  0
LINE
  5
D1F
330
1E
100
AcDbEntity
  8
0
100
AcDbLine
 10
133.75
 20
0.0000000000000027
 30
0.0
 11
133.3
 21
0.0000000000000027
 31
0.0
  0
LINE
  5
D20
330
1E
100
AcDbEntity
  8
0
100
AcDbLine
 10
133.75
 20
0.0000000000000027
 30
0.0
 11
133.3
 21
0.0000000000000026
 31
0.0
  0
LINE
  5
D21
330
1E
100
AcDbEntity
  8
0
100
AcDbLine
 10
133.75
 20
0.0000000000000044
 30
0.0
 11
133.3
 21
0.0000000000000045
 31
0.0
  0
LINE
  5
D22
330
1E
100
AcDbEntity
  8
0
100
AcDbLine
 10
133.75
 20
0.0000000000000044
 30
0.0
 11
133.3
 21
0.0000000000000044
 31
0.0
  0
LINE
  5
D23
330
1E
100
AcDbEntity
  8
0
100
AcDbLine
 10
132.25
 20
1.50000000000001
 30
0.0
 11
132.25
 21
0.0000000000000097
 31
0.0
  0
LINE
  5
D24
330
1E
100
AcDbEntity
  8
0
100
AcDbLine
 10
131.1999999999999
 20
1.50000000000001
 30
0.0
 11
131.1999999999999
 21
0.0000000000000097
 31
0.0
  0
LINE
  5
D25
330
1E
100
AcDbEntity
  8
0
100
AcDbLine
 10
130.75
 20
1.50000000000001
 30
0.0
 11
130.75
 21
0.0000000000000097
 31
0.0
  0
LINE
  5
D26
330
1E
100
AcDbEntity
  8
0
100
AcDbLine
 10
132.5799999999999
 20
0.0000000000000062
 30
0.0
 11
130.4599999999999
 21
0.0000000000000063
 31
0.0
  0
LINE
  5
D27
330
1E
100
AcDbEntity
  8
0
100
AcDbLine
 10
132.25
 20
0.0000000000000072
 30
0.0
 11
131.1999999999999
 21
0.0000000000000072
 31
0.0
  0
LINE
  5
D28
330
1E
100
AcDbEntity
  8
0
100
AcDbLine
 10
131.1999999999999
 20
0.0000000000000089
 30
0.0
 11
130.75
 21
0.0000000000000089
 31
0.0
  0
LINE
  5
D29
330
1E
100
AcDbEntity
  8
0
100
AcDbLine
 10
130.75
 20
0.0000000000000098
 30
0.0
 11
130.75
 21
1.50000000000001
 31
0.0
  0
LINE
  5
D2A
330
1E
100
AcDbEntity
  8
0
100
AcDbLine
 10
131.1999999999999
 20
0.0000000000000088
 30
0.0
 11
130.75
 21
0.0000000000000089
 31
0.0
  0
LINE
  5
D2B
330
1E
100
AcDbEntity
  8
0
100
AcDbLine
 10
131.1999999999999
 20
0.0000000000000098
 30
0.0
 11
131.1999999999999
 21
1.50000000000001
 31
0.0
  0
LINE
  5
D2C
330
1E
100
AcDbEntity
  8
0
100
AcDbLine
 10
131.1999999999999
 20
0.0000000000000098
 30
0.0
 11
130.75
 21
0.0000000000000098
 31
0.0
  0
LINE
  5
D2D
330
1E
100
AcDbEntity
  8
0
100
AcDbLine
 10
131.1999999999999
 20
0.0000000000000097
 30
0.0
 11
130.75
 21
0.0000000000000098
 31
0.0
  0
LINE
  5
D2E
330
1E
100
AcDbEntity
  8
0
100
AcDbLine
 10
131.1999999999999
 20
0.000000000000008
 30
0.0
 11
130.75
 21
0.000000000000008
 31
0.0
  0
LINE
  5
D2F
330
1E
100
AcDbEntity
  8
0
100
AcDbLine
 10
131.1999999999999
 20
0.0000000000000079
 30
0.0
 11
130.75
 21
0.000000000000008
 31
0.0
  0
LINE
  5
D30
330
1E
100
AcDbEntity
  8
0
100
AcDbLine
 10
132.25
 20
0.000000000000009
 30
0.0
 11
131.1999999999999
 21
0.0000000000000089
 31
0.0
  0
LINE
  5
D31
330
1E
100
AcDbEntity
  8
0
100
AcDbLine
 10
132.25
 20
0.0000000000000098
 30
0.0
 11
132.25
 21
1.50000000000001
 31
0.0
  0
LINE
  5
D32
330
1E
100
AcDbEntity
  8
0
100
AcDbLine
 10
132.25
 20
0.0000000000000098
 30
0.0
 11
131.1999999999999
 21
0.0000000000000098
 31
0.0
  0
LINE
  5
D33
330
1E
100
AcDbEntity
  8
0
100
AcDbLine
 10
132.25
 20
0.0000000000000097
 30
0.0
 11
131.1999999999999
 21
0.0000000000000097
 31
0.0
  0
LINE
  5
D34
330
1E
100
AcDbEntity
  8
0
100
AcDbLine
 10
132.25
 20
0.0000000000000088
 30
0.0
 11
131.1999999999999
 21
0.0000000000000088
 31
0.0
  0
LINE
  5
D35
330
1E
100
AcDbEntity
  8
0
100
AcDbLine
 10
132.25
 20
0.0000000000000081
 30
0.0
 11
131.1999999999999
 21
0.000000000000008
 31
0.0
  0
LINE
  5
D36
330
1E
100
AcDbEntity
  8
0
100
AcDbLine
 10
132.25
 20
0.0000000000000079
 30
0.0
 11
131.1999999999999
 21
0.0000000000000079
 31
0.0
  0
LINE
  5
D37
330
1E
100
AcDbEntity
  8
0
100
AcDbLine
 10
131.1999999999999
 20
0.0000000000000072
 30
0.0
 11
130.75
 21
0.0000000000000071
 31
0.0
  0
LINE
  5
D38
330
1E
100
AcDbEntity
  8
0
100
AcDbLine
 10
131.1999999999999
 20
0.000000000000007
 30
0.0
 11
130.75
 21
0.0000000000000071
 31
0.0
  0
LINE
  5
D39
330
1E
100
AcDbEntity
  8
0
100
AcDbLine
 10
132.25
 20
0.000000000000007
 30
0.0
 11
131.1999999999999
 21
0.000000000000007
 31
0.0
  0
LINE
  5
D3A
330
1E
100
AcDbEntity
  8
0
100
AcDbLine
 10
132.5799999999999
 20
0.0000000000000053
 30
0.0
 11
130.4599999999999
 21
0.0000000000000052
 31
0.0
  0
LINE
  5
D3B
330
1E
100
AcDbEntity
  8
0
100
AcDbLine
 10
131.1999999999999
 20
0.0000000000000036
 30
0.0
 11
130.75
 21
0.0000000000000035
 31
0.0
  0
LINE
  5
D3C
330
1E
100
AcDbEntity
  8
0
100
AcDbLine
 10
132.25
 20
0.0000000000000036
 30
0.0
 11
131.1999999999999
 21
0.0000000000000036
 31
0.0
  0
LINE
  5
D3D
330
1E
100
AcDbEntity
  8
0
100
AcDbLine
 10
132.25
 20
0.0000000000000043
 30
0.0
 11
131.1999999999999
 21
0.0000000000000044
 31
0.0
  0
LINE
  5
D3E
330
1E
100
AcDbEntity
  8
0
100
AcDbLine
 10
131.1999999999999
 20
0.0000000000000044
 30
0.0
 11
130.75
 21
0.0000000000000044
 31
0.0
  0
LINE
  5
D3F
330
1E
100
AcDbEntity
  8
0
100
AcDbLine
 10
131.1999999999999
 20
0.0000000000000045
 30
0.0
 11
130.75
 21
0.0000000000000044
 31
0.0
  0
LINE
  5
D40
330
1E
100
AcDbEntity
  8
0
100
AcDbLine
 10
132.25
 20
0.0000000000000045
 30
0.0
 11
131.1999999999999
 21
0.0000000000000045
 31
0.0
  0
LINE
  5
D41
330
1E
100
AcDbEntity
  8
0
100
AcDbLine
 10
132.25
 20
0.0000000000000034
 30
0.0
 11
131.1999999999999
 21
0.0000000000000035
 31
0.0
  0
LINE
  5
D42
330
1E
100
AcDbEntity
  8
0
100
AcDbLine
 10
131.1999999999999
 20
0.0000000000000035
 30
0.0
 11
130.75
 21
0.0000000000000035
 31
0.0
  0
LINE
  5
D43
330
1E
100
AcDbEntity
  8
0
100
AcDbLine
 10
131.1999999999999
 20
0.0000000000000026
 30
0.0
 11
130.75
 21
0.0000000000000027
 31
0.0
  0
LINE
  5
D44
330
1E
100
AcDbEntity
  8
0
100
AcDbLine
 10
131.1999999999999
 20
0.0000000000000027
 30
0.0
 11
130.75
 21
0.0000000000000027
 31
0.0
  0
LINE
  5
D45
330
1E
100
AcDbEntity
  8
0
100
AcDbLine
 10
132.25
 20
0.0000000000000027
 30
0.0
 11
131.1999999999999
 21
0.0000000000000027
 31
0.0
  0
LINE
  5
D46
330
1E
100
AcDbEntity
  8
0
100
AcDbLine
 10
132.25
 20
0.0000000000000026
 30
0.0
 11
131.1999999999999
 21
0.0000000000000026
 31
0.0
  0
LINE
  5
D47
330
1E
100
AcDbEntity
  8
0
100
AcDbLine
 10
128.0599999999999
 20
0.0000000000000063
 30
0.0
 11
125.5
 21
0.0000000000000064
 31
0.0
  0
LINE
  5
D48
330
1E
100
AcDbEntity
  8
0
100
AcDbLine
 10
128.0599999999999
 20
0.0000000000000052
 30
0.0
 11
125.5
 21
0.0000000000000051
 31
0.0
  0
LINE
  5
D49
330
1E
100
AcDbEntity
  8
0
100
AcDbLine
 10
125.5
 20
1.50000000000001
 30
0.0
 11
125.5
 21
0.0000000000000065
 31
0.0
  0
LINE
  5
D4A
330
1E
100
AcDbEntity
  8
0
100
AcDbLine
 10
135.8199999999999
 20
31.5
 30
0.0
 11
132.7599999999999
 21
31.5
 31
0.0
  0
LINE
  5
D4B
330
1E
100
AcDbEntity
  8
0
100
AcDbLine
 10
136.1199999999999
 20
31.0727
 30
0.0
 11
132.9399999999999
 21
31.0727
 31
0.0
  0
LINE
  5
D4C
330
1E
100
AcDbEntity
  8
0
100
AcDbLine
 10
140.5
 20
31.0727
 30
0.0
 11
140.5
 21
21.49999999999999
 31
0.0
  0
LINE
  5
D4D
330
1E
100
AcDbEntity
  8
0
100
AcDbLine
 10
140.5
 20
21.49999999999999
 30
0.0
 11
140.5
 21
31.0727
 31
0.0
  0
LINE
  5
D4E
330
1E
100
AcDbEntity
  8
0
100
AcDbLine
 10
140.5
 20
31.0727
 30
0.0
 11
139.9599999999999
 21
31.0727
 31
0.0
  0
LINE
  5
D4F
330
1E
100
AcDbEntity
  8
0
100
AcDbLine
 10
140.5
 20
31.0727
 30
0.0
 11
140.1399999999999
 21
31.5
 31
0.0
  0
LINE
  5
D50
330
1E
100
AcDbEntity
  8
0
100
AcDbLine
 10
138.5199999999999
 20
31.0727
 30
0.0
 11
136.1199999999999
 21
31.0727
 31
0.0
  0
LINE
  5
D51
330
1E
100
AcDbEntity
  8
0
100
AcDbLine
 10
139.9599999999999
 20
31.0727
 30
0.0
 11
138.5199999999999
 21
31.0727
 31
0.0
  0
LINE
  5
D52
330
1E
100
AcDbEntity
  8
0
100
AcDbLine
 10
138.1599999999999
 20
31.5
 30
0.0
 11
135.8199999999999
 21
31.5
 31
0.0
  0
LINE
  5
D53
330
1E
100
AcDbEntity
  8
0
100
AcDbLine
 10
139.5999999999999
 20
31.5
 30
0.0
 11
138.1599999999999
 21
31.5
 31
0.0
  0
LINE
  5
D54
330
1E
100
AcDbEntity
  8
0
100
AcDbLine
 10
140.1399999999999
 20
31.5
 30
0.0
 11
139.5999999999999
 21
31.5
 31
0.0
  0
LINE
  5
D55
330
1E
100
AcDbEntity
  8
0
100
AcDbLine
 10
132.7599999999999
 20
31.5
 30
0.0
 11
129.2799999999999
 21
31.5
 31
0.0
  0
LINE
  5
D56
330
1E
100
AcDbEntity
  8
0
100
AcDbLine
 10
132.9399999999999
 20
31.0727
 30
0.0
 11
129.34
 21
31.0727
 31
0.0
  0
LINE
  5
D57
330
1E
100
AcDbEntity
  8
0
100
AcDbLine
 10
129.34
 20
31.0727
 30
0.0
 11
125.5
 21
31.0727
 31
0.0
  0
LINE
  5
D58
330
1E
100
AcDbEntity
  8
0
100
AcDbLine
 10
129.2799999999999
 20
31.5
 30
0.0
 11
125.5
 21
31.5
 31
0.0
  0
LINE
  5
D59
330
1E
100
AcDbEntity
  8
0
100
AcDbLine
 10
138.0
 20
59.1154
 30
0.0
 11
138.0
 21
71.0
 31
0.0
  0
LINE
  5
D5A
330
1E
100
AcDbEntity
  8
0
100
AcDbLine
 10
138.0
 20
71.0
 30
0.0
 11
138.0
 21
59.1154
 31
0.0
  0
LINE
  5
D5B
330
1E
100
AcDbEntity
  8
0
100
AcDbLine
 10
135.6329999999999
 20
57.5784
 30
0.0
 11
134.3339999999999
 21
58.5
 31
0.0
  0
LINE
  5
D5C
330
1E
100
AcDbEntity
  8
0
100
AcDbLine
 10
136.05
 20
58.5
 30
0.0
 11
134.0999999999999
 21
58.5
 31
0.0
  0
LINE
  5
D5D
330
1E
100
AcDbEntity
  8
0
100
AcDbLine
 10
136.05
 20
58.5
 30
0.0
 11
134.3339999999999
 21
58.5
 31
0.0
  0
LINE
  5
D5E
330
1E
100
AcDbEntity
  8
0
100
AcDbLine
 10
135.4759999999999
 20
53.5
 30
0.0
 11
132.5179999999999
 21
53.5
 31
0.0
  0
LINE
  5
D5F
330
1E
100
AcDbEntity
  8
0
100
AcDbLine
 10
135.766
 20
53.07269999999999
 30
0.0
 11
132.692
 21
53.07269999999999
 31
0.0
  0
LINE
  5
D60
330
1E
100
AcDbEntity
  8
0
100
AcDbLine
 10
137.93
 20
54.78629999999999
 30
0.0
 11
135.6329999999999
 21
57.5784
 31
0.0
  0
LINE
  5
D61
330
1E
100
AcDbEntity
  8
0
100
AcDbLine
 10
140.0
 20
53.07269999999999
 30
0.0
 11
139.6519999999999
 21
53.5
 31
0.0
  0
LINE
  5
D62
330
1E
100
AcDbEntity
  8
0
100
AcDbLine
 10
138.086
 20
53.07269999999999
 30
0.0
 11
135.766
 21
53.07269999999999
 31
0.0
  0
LINE
  5
D63
330
1E
100
AcDbEntity
  8
0
100
AcDbLine
 10
140.0
 20
53.07269999999999
 30
0.0
 11
139.478
 21
53.07269999999999
 31
0.0
  0
LINE
  5
D64
330
1E
100
AcDbEntity
  8
0
100
AcDbLine
 10
139.478
 20
53.07269999999999
 30
0.0
 11
138.086
 21
53.07269999999999
 31
0.0
  0
LINE
  5
D65
330
1E
100
AcDbEntity
  8
0
100
AcDbLine
 10
139.1299999999999
 20
53.5
 30
0.0
 11
137.738
 21
53.5
 31
0.0
  0
LINE
  5
D66
330
1E
100
AcDbEntity
  8
0
100
AcDbLine
 10
139.6519999999999
 20
53.5
 30
0.0
 11
139.1299999999999
 21
53.5
 31
0.0
  0
LINE
  5
D67
330
1E
100
AcDbEntity
  8
0
100
AcDbLine
 10
138.5
 20
53.5
 30
0.0
 11
137.93
 21
54.78629999999999
 31
0.0
  0
LINE
  5
D68
330
1E
100
AcDbEntity
  8
0
100
AcDbLine
 10
137.738
 20
53.5
 30
0.0
 11
135.4759999999999
 21
53.5
 31
0.0
  0
LINE
  5
D69
330
1E
100
AcDbEntity
  8
0
100
AcDbLine
 10
138.0
 20
59.1154
 30
0.0
 11
137.7
 21
58.5
 31
0.0
  0
LINE
  5
D6A
330
1E
100
AcDbEntity
  8
0
100
AcDbLine
 10
137.25
 20
58.5
 30
0.0
 11
136.05
 21
58.5
 31
0.0
  0
LINE
  5
D6B
330
1E
100
AcDbEntity
  8
0
100
AcDbLine
 10
137.7
 20
58.5
 30
0.0
 11
137.25
 21
58.5
 31
0.0
  0
LINE
  5
D6C
330
1E
100
AcDbEntity
  8
0
100
AcDbLine
 10
132.5179999999999
 20
53.5
 30
0.0
 11
129.1539999999999
 21
53.5
 31
0.0
  0
LINE
  5
D6D
330
1E
100
AcDbEntity
  8
0
100
AcDbLine
 10
132.692
 20
53.07269999999999
 30
0.0
 11
129.2119999999999
 21
53.07269999999999
 31
0.0
  0
LINE
  5
D6E
330
1E
100
AcDbEntity
  8
0
100
AcDbLine
 10
129.2119999999999
 20
53.07269999999999
 30
0.0
 11
125.5
 21
53.07269999999999
 31
0.0
  0
LINE
  5
D6F
330
1E
100
AcDbEntity
  8
0
100
AcDbLine
 10
129.1539999999999
 20
53.5
 30
0.0
 11
125.5
 21
53.5
 31
0.0
  0
LINE
  5
D70
330
1E
100
AcDbEntity
  8
0
100
AcDbLine
 10
131.8869999999999
 20
58.5
 30
0.0
 11
128.451
 21
58.5
 31
0.0
  0
LINE
  5
D71
330
1E
100
AcDbEntity
  8
0
100
AcDbLine
 10
131.55
 20
58.5
 30
0.0
 11
128.6499999999999
 21
58.5
 31
0.0
  0
LINE
  5
D72
330
1E
100
AcDbEntity
  8
0
100
AcDbLine
 10
134.095
 20
58.5
 30
0.0
 11
132.427
 21
58.5
 31
0.0
  0
LINE
  5
D73
330
1E
100
AcDbEntity
  8
0
100
AcDbLine
 10
134.0999999999999
 20
58.5
 30
0.0
 11
131.55
 21
58.5
 31
0.0
  0
LINE
  5
D74
330
1E
100
AcDbEntity
  8
0
100
AcDbLine
 10
134.3339999999999
 20
58.5
 30
0.0
 11
134.095
 21
58.5
 31
0.0
  0
LINE
  5
D75
330
1E
100
AcDbEntity
  8
0
100
AcDbLine
 10
132.427
 20
58.5
 30
0.0
 11
131.8869999999999
 21
58.5
 31
0.0
  0
LINE
  5
D76
330
1E
100
AcDbEntity
  8
0
100
AcDbLine
 10
128.102
 20
58.5
 30
0.0
 11
125.5
 21
58.5
 31
0.0
  0
LINE
  5
D77
330
1E
100
AcDbEntity
  8
0
100
AcDbLine
 10
128.6499999999999
 20
58.5
 30
0.0
 11
125.5
 21
58.5
 31
0.0
  0
LINE
  5
D78
330
1E
100
AcDbEntity
  8
0
100
AcDbLine
 10
128.451
 20
58.5
 30
0.0
 11
128.102
 21
58.5
 31
0.0
  0
LINE
  5
D79
330
1E
100
AcDbEntity
  8
0
100
AcDbLine
 10
135.3439999999999
 20
71.5
 30
0.0
 11
133.6969999999999
 21
71.5
 31
0.0
  0
LINE
  5
D7A
330
1E
100
AcDbEntity
  8
0
100
AcDbLine
 10
136.3079999999999
 20
71.0
 30
0.0
 11
134.98
 21
71.0
 31
0.0
  0
LINE
  5
D7B
330
1E
100
AcDbEntity
  8
0
100
AcDbLine
 10
137.797
 20
71.5
 30
0.0
 11
136.724
 21
71.5
 31
0.0
  0
LINE
  5
D7C
330
1E
100
AcDbEntity
  8
0
100
AcDbLine
 10
138.053
 20
71.0
 30
0.0
 11
137.60043109245
 21
71.0
 31
0.0
  0
LINE
  5
D7D
330
1E
100
AcDbEntity
  8
0
100
AcDbLine
 10
138.053
 20
71.0
 30
0.0
 11
137.342
 21
71.0
 31
0.0
  0
LINE
  5
D7E
330
1E
100
AcDbEntity
  8
0
100
AcDbLine
 10
138.9259999999999
 20
71.5
 30
0.0
 11
138.429
 21
71.0
 31
0.0
  0
LINE
  5
D7F
330
1E
100
AcDbEntity
  8
0
100
AcDbLine
 10
138.917
 20
71.5
 30
0.0
 11
138.535
 21
71.5
 31
0.0
  0
LINE
  5
D80
330
1E
100
AcDbEntity
  8
0
100
AcDbLine
 10
138.535
 20
71.5
 30
0.0
 11
137.797
 21
71.5
 31
0.0
  0
LINE
  5
D81
330
1E
100
AcDbEntity
  8
0
100
AcDbLine
 10
138.42
 20
71.0
 30
0.0
 11
138.0
 21
71.0
 31
0.0
  0
LINE
  5
D82
330
1E
100
AcDbEntity
  8
0
100
AcDbLine
 10
138.42
 20
71.0
 30
0.0
 11
138.053
 21
71.0
 31
0.0
  0
LINE
  5
D83
330
1E
100
AcDbEntity
  8
0
100
AcDbLine
 10
138.053
 20
71.0
 30
0.0
 11
138.0
 21
71.0
 31
0.0
  0
LINE
  5
D84
330
1E
100
AcDbEntity
  8
0
100
AcDbLine
 10
136.724
 20
71.5
 30
0.0
 11
135.3439999999999
 21
71.5
 31
0.0
  0
LINE
  5
D85
330
1E
100
AcDbEntity
  8
0
100
AcDbLine
 10
137.342
 20
71.0
 30
0.0
 11
136.3079999999999
 21
71.0
 31
0.0
  0
LINE
  5
D86
330
1E
100
AcDbEntity
  8
0
100
AcDbLine
 10
131.826
 20
71.5
 30
0.0
 11
129.781
 21
71.5
 31
0.0
  0
LINE
  5
D87
330
1E
100
AcDbEntity
  8
0
100
AcDbLine
 10
131.591
 20
71.0
 30
0.0
 11
129.622
 21
71.0
 31
0.0
  0
LINE
  5
D88
330
1E
100
AcDbEntity
  8
0
100
AcDbLine
 10
133.6969999999999
 20
71.5
 30
0.0
 11
131.826
 21
71.5
 31
0.0
  0
LINE
  5
D89
330
1E
100
AcDbEntity
  8
0
100
AcDbLine
 10
133.3929999999999
 20
71.0
 30
0.0
 11
131.591
 21
71.0
 31
0.0
  0
LINE
  5
D8A
330
1E
100
AcDbEntity
  8
0
100
AcDbLine
 10
134.98
 20
71.0
 30
0.0
 11
133.3929999999999
 21
71.0
 31
0.0
  0
LINE
  5
D8B
330
1E
100
AcDbEntity
  8
0
100
AcDbLine
 10
129.781
 20
71.5
 30
0.0
 11
127.62
 21
71.5
 31
0.0
  0
LINE
  5
D8C
330
1E
100
AcDbEntity
  8
0
100
AcDbLine
 10
129.622
 20
71.0
 30
0.0
 11
127.5419999999999
 21
71.0
 31
0.0
  0
LINE
  5
D8D
330
1E
100
AcDbEntity
  8
0
100
AcDbLine
 10
127.62
 20
71.5
 30
0.0
 11
125.5
 21
71.5
 31
0.0
  0
LINE
  5
D8E
330
1E
100
AcDbEntity
  8
0
100
AcDbLine
 10
127.5419999999999
 20
71.0
 30
0.0
 11
125.5
 21
71.0
 31
0.0
  0
LINE
  5
D8F
330
1E
100
AcDbEntity
  8
0
100
AcDbLine
 10
164.7635
 20
187.0
 30
0.0
 11
164.6059
 21
187.0
 31
0.0
  0
LINE
  5
D90
330
1E
100
AcDbEntity
  8
0
100
AcDbLine
 10
164.7626
 20
173.05
 30
0.0
 11
164.6906999999999
 21
172.601
 31
0.0
  0
LINE
  5
D91
330
1E
100
AcDbEntity
  8
0
100
AcDbLine
 10
165.5
 20
187.0
 30
0.0
 11
164.7626
 21
173.05
 31
0.0
  0
LINE
  5
D92
330
1E
100
AcDbEntity
  8
0
100
AcDbLine
 10
165.5
 20
187.0
 30
0.0
 11
164.7975
 21
173.564
 31
0.0
  0
LINE
  5
D93
330
1E
100
AcDbEntity
  8
0
100
AcDbLine
 10
164.7975
 20
173.564
 30
0.0
 11
164.7692999999999
 21
173.1489999999999
 31
0.0
  0
LINE
  5
D94
330
1E
100
AcDbEntity
  8
0
100
AcDbLine
 10
164.7975
 20
173.564
 30
0.0
 11
164.7626
 21
173.05
 31
0.0
  0
LINE
  5
D95
330
1E
100
AcDbEntity
  8
0
100
AcDbLine
 10
164.7692999999999
 20
173.1489999999999
 30
0.0
 11
164.7626
 21
173.05
 31
0.0
  0
LINE
  5
D96
330
1E
100
AcDbEntity
  8
0
100
AcDbLine
 10
165.3523
 20
187.0
 30
0.0
 11
165.1397999999999
 21
187.0
 31
0.0
  0
LINE
  5
D97
330
1E
100
AcDbEntity
  8
0
100
AcDbLine
 10
164.8782999999999
 20
187.0
 30
0.0
 11
164.7635
 21
187.0
 31
0.0
  0
LINE
  5
D98
330
1E
100
AcDbEntity
  8
0
100
AcDbLine
 10
165.0649
 20
187.0
 30
0.0
 11
164.8782999999999
 21
187.0
 31
0.0
  0
LINE
  5
D99
330
1E
100
AcDbEntity
  8
0
100
AcDbLine
 10
165.1397999999999
 20
187.0
 30
0.0
 11
165.0649
 21
187.0
 31
0.0
  0
LINE
  5
D9A
330
1E
100
AcDbEntity
  8
0
100
AcDbLine
 10
165.4581
 20
187.0
 30
0.0
 11
165.3523
 21
187.0
 31
0.0
  0
LINE
  5
D9B
330
1E
100
AcDbEntity
  8
0
100
AcDbLine
 10
162.5321999999999
 20
171.299
 30
0.0
 11
139.1709999999999
 21
170.518
 31
0.0
  0
LINE
  5
D9C
330
1E
100
AcDbEntity
  8
0
100
AcDbLine
 10
164.6906999999999
 20
172.601
 30
0.0
 11
164.535
 21
172.169
 31
0.0
  0
LINE
  5
D9D
330
1E
100
AcDbEntity
  8
0
100
AcDbLine
 10
164.535
 20
172.169
 30
0.0
 11
164.4975
 21
172.117
 31
0.0
  0
LINE
  5
D9E
330
1E
100
AcDbEntity
  8
0
100
AcDbLine
 10
164.4975
 20
172.117
 30
0.0
 11
164.2866
 21
171.8229999999999
 31
0.0
  0
LINE
  5
D9F
330
1E
100
AcDbEntity
  8
0
100
AcDbLine
 10
164.2866
 20
171.8229999999999
 30
0.0
 11
163.9968
 21
171.607
 31
0.0
  0
LINE
  5
DA0
330
1E
100
AcDbEntity
  8
0
100
AcDbLine
 10
163.9968
 20
171.607
 30
0.0
 11
163.9453
 21
171.569
 31
0.0
  0
LINE
  5
DA1
330
1E
100
AcDbEntity
  8
0
100
AcDbLine
 10
163.9453
 20
171.569
 30
0.0
 11
163.5192
 21
171.409
 31
0.0
  0
LINE
  5
DA2
330
1E
100
AcDbEntity
  8
0
100
AcDbLine
 10
163.0601
 20
171.333
 30
0.0
 11
162.9842
 21
171.328
 31
0.0
  0
LINE
  5
DA3
330
1E
100
AcDbEntity
  8
0
100
AcDbLine
 10
162.9842
 20
171.328
 30
0.0
 11
162.5321999999999
 21
171.299
 31
0.0
  0
LINE
  5
DA4
330
1E
100
AcDbEntity
  8
0
100
AcDbLine
 10
163.5192
 20
171.409
 30
0.0
 11
163.0601
 21
171.333
 31
0.0
  0
LINE
  5
DA5
330
1E
100
AcDbEntity
  8
0
100
AcDbLine
 10
135.857
 20
170.5109999999999
 30
0.0
 11
134.3339999999999
 21
170.5109999999999
 31
0.0
  0
LINE
  5
DA6
330
1E
100
AcDbEntity
  8
0
100
AcDbLine
 10
138.0079999999999
 20
170.514
 30
0.0
 11
137.126
 21
170.513
 31
0.0
  0
LINE
  5
DA7
330
1E
100
AcDbEntity
  8
0
100
AcDbLine
 10
138.65
 20
170.516
 30
0.0
 11
138.0079999999999
 21
170.514
 31
0.0
  0
LINE
  5
DA8
330
1E
100
AcDbEntity
  8
0
100
AcDbLine
 10
139.1709999999999
 20
170.518
 30
0.0
 11
139.0409999999999
 21
170.517
 31
0.0
  0
LINE
  5
DA9
330
1E
100
AcDbEntity
  8
0
100
AcDbLine
 10
139.0409999999999
 20
170.517
 30
0.0
 11
138.65
 21
170.516
 31
0.0
  0
LINE
  5
DAA
330
1E
100
AcDbEntity
  8
0
100
AcDbLine
 10
139.0409999999999
 20
170.517
 30
0.0
 11
138.917348056759
 21
170.516683754621
 31
0.0
  0
LINE
  5
DAB
330
1E
100
AcDbEntity
  8
0
100
AcDbLine
 10
137.126
 20
170.513
 30
0.0
 11
135.857
 21
170.5109999999999
 31
0.0
  0
LINE
  5
DAC
330
1E
100
AcDbEntity
  8
0
100
AcDbLine
 10
130.807
 20
170.514
 30
0.0
 11
128.8379999999999
 21
170.516
 31
0.0
  0
LINE
  5
DAD
330
1E
100
AcDbEntity
  8
0
100
AcDbLine
 10
134.3339999999999
 20
170.5109999999999
 30
0.0
 11
132.6529999999999
 21
170.513
 31
0.0
  0
LINE
  5
DAE
330
1E
100
AcDbEntity
  8
0
100
AcDbLine
 10
132.6529999999999
 20
170.513
 30
0.0
 11
130.807
 21
170.514
 31
0.0
  0
LINE
  5
DAF
330
1E
100
AcDbEntity
  8
0
100
AcDbLine
 10
128.8379999999999
 20
170.516
 30
0.0
 11
126.7919999999999
 21
170.517
 31
0.0
  0
LINE
  5
DB0
330
1E
100
AcDbEntity
  8
0
100
AcDbLine
 10
126.7919999999999
 20
170.517
 30
0.0
 11
125.5
 21
170.518
 31
0.0
  0
LINE
  5
DB1
330
1E
100
AcDbEntity
  8
0
100
AcDbLine
 10
146.618
 20
187.0
 30
0.0
 11
139.5489999999999
 21
187.0
 31
0.0
  0
LINE
  5
DB2
330
1E
100
AcDbEntity
  8
0
100
AcDbLine
 10
156.467
 20
187.0
 30
0.0
 11
154.5738999999999
 21
187.0
 31
0.0
  0
LINE
  5
DB3
330
1E
100
AcDbEntity
  8
0
100
AcDbLine
 10
160.2151
 20
187.0
 30
0.0
 11
159.298
 21
187.0
 31
0.0
  0
LINE
  5
DB4
330
1E
100
AcDbEntity
  8
0
100
AcDbLine
 10
162.4554
 20
187.0
 30
0.0
 11
162.0832
 21
187.0
 31
0.0
  0
LINE
  5
DB5
330
1E
100
AcDbEntity
  8
0
100
AcDbLine
 10
164.1537999999999
 20
187.0
 30
0.0
 11
163.9352999999999
 21
187.0
 31
0.0
  0
LINE
  5
DB6
330
1E
100
AcDbEntity
  8
0
100
AcDbLine
 10
164.6059
 20
187.0
 30
0.0
 11
164.3344
 21
187.0
 31
0.0
  0
LINE
  5
DB7
330
1E
100
AcDbEntity
  8
0
100
AcDbLine
 10
164.3344
 20
187.0
 30
0.0
 11
164.1537999999999
 21
187.0
 31
0.0
  0
LINE
  5
DB8
330
1E
100
AcDbEntity
  8
0
100
AcDbLine
 10
163.9352999999999
 20
187.0
 30
0.0
 11
163.6838
 21
187.0
 31
0.0
  0
LINE
  5
DB9
330
1E
100
AcDbEntity
  8
0
100
AcDbLine
 10
162.7997
 20
187.0
 30
0.0
 11
162.4554
 21
187.0
 31
0.0
  0
LINE
  5
DBA
330
1E
100
AcDbEntity
  8
0
100
AcDbLine
 10
163.6838
 20
187.0
 30
0.0
 11
163.3893999999999
 21
187.0
 31
0.0
  0
LINE
  5
DBB
330
1E
100
AcDbEntity
  8
0
100
AcDbLine
 10
163.3893999999999
 20
187.0
 30
0.0
 11
162.7997
 21
187.0
 31
0.0
  0
LINE
  5
DBC
330
1E
100
AcDbEntity
  8
0
100
AcDbLine
 10
162.0832
 20
187.0
 30
0.0
 11
161.6491
 21
187.0
 31
0.0
  0
LINE
  5
DBD
330
1E
100
AcDbEntity
  8
0
100
AcDbLine
 10
161.6491
 20
187.0
 30
0.0
 11
161.19
 21
187.0
 31
0.0
  0
LINE
  5
DBE
330
1E
100
AcDbEntity
  8
0
100
AcDbLine
 10
161.19
 20
187.0
 30
0.0
 11
160.2151
 21
187.0
 31
0.0
  0
LINE
  5
DBF
330
1E
100
AcDbEntity
  8
0
100
AcDbLine
 10
157.407
 20
187.0
 30
0.0
 11
156.467
 21
187.0
 31
0.0
  0
LINE
  5
DC0
330
1E
100
AcDbEntity
  8
0
100
AcDbLine
 10
158.3579999999999
 20
187.0
 30
0.0
 11
157.407
 21
187.0
 31
0.0
  0
LINE
  5
DC1
330
1E
100
AcDbEntity
  8
0
100
AcDbLine
 10
159.298
 20
187.0
 30
0.0
 11
158.3579999999999
 21
187.0
 31
0.0
  0
LINE
  5
DC2
330
1E
100
AcDbEntity
  8
0
100
AcDbLine
 10
151.5901999999999
 20
187.0
 30
0.0
 11
146.618
 21
187.0
 31
0.0
  0
LINE
  5
DC3
330
1E
100
AcDbEntity
  8
0
100
AcDbLine
 10
154.5738999999999
 20
187.0
 30
0.0
 11
151.5901999999999
 21
187.0
 31
0.0
  0
LINE
  5
DC4
330
1E
100
AcDbEntity
  8
0
100
AcDbLine
 10
139.5489999999999
 20
187.0
 30
0.0
 11
134.833
 21
187.0
 31
0.0
  0
LINE
  5
DC5
330
1E
100
AcDbEntity
  8
0
100
AcDbLine
 10
134.833
 20
187.0
 30
0.0
 11
125.5
 21
187.0
 31
0.0
  0
ENDSEC
  0
SECTION
  2
OBJECTS
  0
DICTIONARY
  5
C
330
0
100
AcDbDictionary
281
     1
  3
ACAD_GROUP
350
D
  3
ACAD_LAYOUT
350
19
  3
ACAD_MLINESTYLE
350
16
  3
ACAD_PLOTSETTINGS
350
18
  3
ACAD_PLOTSTYLENAME
350
E
  3
AcDbVariableDictionary
350
DC7
  0
DICTIONARY
  5
D
102
{ACAD_REACTORS
330
C
102
}
330
C
100
AcDbDictionary
281
     1
  0
DICTIONARY
  5
19
102
{ACAD_REACTORS
330
C
102
}
330
C
100
AcDbDictionary
281
     1
  3
Layout1
350
1D
  3
Model
350
21
  0
DICTIONARY
  5
16
102
{ACAD_REACTORS
330
C
102
}
330
C
100
AcDbDictionary
281
     1
  3
Standard
350
17
  0
DICTIONARY
  5
18
102
{ACAD_REACTORS
330
C
102
}
330
C
100
AcDbDictionary
281
     1
  0
ACDBDICTIONARYWDFLT
  5
E
102
{ACAD_REACTORS
330
C
102
}
330
C
100
AcDbDictionary
281
     1
  3
Normal
350
F
100
AcDbDictionaryWithDefault
340
F
  0
DICTIONARY
  5
DC7
102
{ACAD_REACTORS
330
C
102
}
330
C
100
AcDbDictionary
281
     1
  3
DIMASSOC
350
DC8
  0
LAYOUT
  5
1D
102
{ACAD_REACTORS
330
19
102
}
330
19
100
AcDbPlotSettings
  1

  2
C:\Programme\AutoCAD LT 2002 Deu\plotters\DWF ePlot (optimized for plotting).pc3
  4

  6

 40
0.0
 41
0.0
 42
0.0
 43
0.0
 44
0.0
 45
0.0
 46
0.0
 47
0.0
 48
0.0
 49
0.0
140
0.0
141
0.0
142
1.0
143
1.0
 70
   688
 72
     0
 73
     0
 74
     5
  7

 75
    16
147
1.0
148
0.0
149
0.0
100
AcDbLayout
  1
Layout1
 70
     1
 71
     1
 10
0.0
 20
0.0
 11
12.0
 21
9.0
 12
0.0
 22
0.0
 32
0.0
 14
1.000000000000000E+20
 24
1.000000000000000E+20
 34
1.000000000000000E+20
 15
-1.000000000000000E+20
 25
-1.000000000000000E+20
 35
-1.000000000000000E+20
146
0.0
 13
0.0
 23
0.0
 33
0.0
 16
1.0
 26
0.0
 36
0.0
 17
0.0
 27
1.0
 37
0.0
 76
     0
330
1A
  0
LAYOUT
  5
21
102
{ACAD_REACTORS
330
19
102
}
330
19
100
AcDbPlotSettings
  1

  2
C:\Programme\AutoCAD LT 2002 Deu\plotters\DWF ePlot (optimized for plotting).pc3
  4

  6

 40
0.0
 41
0.0
 42
0.0
 43
0.0
 44
0.0
 45
0.0
 46
0.0
 47
0.0
 48
0.0
 49
0.0
140
0.0
141
0.0
142
1.0
143
1.0
 70
  1712
 72
     0
 73
     0
 74
     0
  7

 75
     0
147
1.0
148
0.0
149
0.0
100
AcDbLayout
  1
Model
 70
     1
 71
     0
 10
0.0
 20
0.0
 11
12.0
 21
9.0
 12
0.0
 22
0.0
 32
0.0
 14
0.0
 24
0.0
 34
0.0
 15
0.0
 25
0.0
 35
0.0
146
0.0
 13
0.0
 23
0.0
 33
0.0
 16
1.0
 26
0.0
 36
0.0
 17
0.0
 27
1.0
 37
0.0
 76
     0
330
1E
  0
MLINESTYLE
  5
17
102
{ACAD_REACTORS
330
16
102
}
330
16
100
AcDbMlineStyle
  2
STANDARD
 70
     0
  3

 62
   256
 51
90.0
 52
90.0
 71
     2
 49
0.5
 62
   256
  6
BYLAYER
 49
-0.5
 62
   256
  6
BYLAYER
  0
ACDBPLACEHOLDER
  5
F
102
{ACAD_REACTORS
330
E
102
}
330
E
  0
DICTIONARYVAR
  5
DC8
102
{ACAD_REACTORS
330
DC7
102
}
330
DC7
100
DictionaryVariables
280
     0
  1
1
  0
ENDSEC
  0
EOF
