  0
SECTION
  2
HEADER
  9
$ACADVER
  1
AC1015
  9
$ACADMAINTVER
 70
    13
  9
$DWGCODEPAGE
  3
ANSI_1252
  9
$INSBASE
 10
0.0
 20
0.0
 30
0.0
  9
$EXTMIN
 10
-0.0041639999999881
 20
-0.183072999999978
 30
0.0
  9
$EXTMAX
 10
321.004164
 20
161.183073
 30
0.0
  9
$LIMMIN
 10
0.0
 20
0.0
  9
$LIMMAX
 10
12.0
 20
9.0
  9
$ORTHOMODE
 70
     0
  9
$REGENMODE
 70
     1
  9
$FILLMODE
 70
     1
  9
$QTEXTMODE
 70
     0
  9
$MIRRTEXT
 70
     1
  9
$LTSCALE
 40
1.0
  9
$ATTMODE
 70
     1
  9
$TEXTSIZE
 40
0.2
  9
$TRACEWID
 40
0.05
  9
$TEXTSTYLE
  7
Standard
  9
$CLAYER
  8
0
  9
$CELTYPE
  6
Continuous
  9
$CECOLOR
 62
   256
  9
$CELTSCALE
 40
1.0
  9
$DISPSILH
 70
     0
  9
$DIMSCALE
 40
1.0
  9
$DIMASZ
 40
0.18
  9
$DIMEXO
 40
0.0625
  9
$DIMDLI
 40
0.38
  9
$DIMRND
 40
0.0
  9
$DIMDLE
 40
0.0
  9
$DIMEXE
 40
0.18
  9
$DIMTP
 40
0.0
  9
$DIMTM
 40
0.0
  9
$DIMTXT
 40
0.18
  9
$DIMCEN
 40
0.09
  9
$DIMTSZ
 40
0.0
  9
$DIMTOL
 70
     0
  9
$DIMLIM
 70
     0
  9
$DIMTIH
 70
     1
  9
$DIMTOH
 70
     1
  9
$DIMSE1
 70
     0
  9
$DIMSE2
 70
     0
  9
$DIMTAD
 70
     0
  9
$DIMZIN
 70
     0
  9
$DIMBLK
  1

  9
$DIMASO
 70
     1
  9
$DIMSHO
 70
     1
  9
$DIMPOST
  1

  9
$DIMAPOST
  1

  9
$DIMALT
 70
     0
  9
$DIMALTD
 70
     2
  9
$DIMALTF
 40
25.4
  9
$DIMLFAC
 40
1.0
  9
$DIMTOFL
 70
     0
  9
$DIMTVP
 40
0.0
  9
$DIMTIX
 70
     0
  9
$DIMSOXD
 70
     0
  9
$DIMSAH
 70
     0
  9
$DIMBLK1
  1

  9
$DIMBLK2
  1

  9
$DIMSTYLE
  2
Standard
  9
$DIMCLRD
 70
     0
  9
$DIMCLRE
 70
     0
  9
$DIMCLRT
 70
     0
  9
$DIMTFAC
 40
1.0
  9
$DIMGAP
 40
0.09
  9
$DIMJUST
 70
     0
  9
$DIMSD1
 70
     0
  9
$DIMSD2
 70
     0
  9
$DIMTOLJ
 70
     1
  9
$DIMTZIN
 70
     0
  9
$DIMALTZ
 70
     0
  9
$DIMALTTZ
 70
     0
  9
$DIMUPT
 70
     0
  9
$DIMDEC
 70
     4
  9
$DIMTDEC
 70
     4
  9
$DIMALTU
 70
     2
  9
$DIMALTTD
 70
     2
  9
$DIMTXSTY
  7
Standard
  9
$DIMAUNIT
 70
     0
  9
$DIMADEC
 70
     0
  9
$DIMALTRND
 40
0.0
  9
$DIMAZIN
 70
     0
  9
$DIMDSEP
 70
    46
  9
$DIMATFIT
 70
     3
  9
$DIMFRAC
 70
     0
  9
$DIMLDRBLK
  1

  9
$DIMLUNIT
 70
     2
  9
$DIMLWD
 70
    -2
  9
$DIMLWE
 70
    -2
  9
$DIMTMOVE
 70
     0
  9
$LUNITS
 70
     2
  9
$LUPREC
 70
     4
  9
$SKETCHINC
 40
0.1
  9
$FILLETRAD
 40
0.0
  9
$AUNITS
 70
     0
  9
$AUPREC
 70
     0
  9
$MENU
  1
.
  9
$ELEVATION
 40
0.0
  9
$PELEVATION
 40
0.0
  9
$THICKNESS
 40
0.0
  9
$LIMCHECK
 70
     0
  9
$CHAMFERA
 40
0.0
  9
$CHAMFERB
 40
0.0
  9
$CHAMFERC
 40
0.0
  9
$CHAMFERD
 40
0.0
  9
$SKPOLY
 70
     0
  9
$TDCREATE
 40
2455001.731972291
  9
$TDUCREATE
 40
2455001.648638958
  9
$TDUPDATE
 40
2455001.735173241
  9
$TDUUPDATE
 40
2455001.651839907
  9
$TDINDWG
 40
0.0032009491
  9
$TDUSRTIMER
 40
0.0032009491
  9
$USRTIMER
 70
     1
  9
$ANGBASE
 50
0.0
  9
$ANGDIR
 70
     0
  9
$PDMODE
 70
     0
  9
$PDSIZE
 40
0.0
  9
$PLINEWID
 40
0.0
  9
$SPLFRAME
 70
     0
  9
$SPLINETYPE
 70
     6
  9
$SPLINESEGS
 70
     8
  9
$HANDSEED
  5
2E3
  9
$SURFTAB1
 70
     6
  9
$SURFTAB2
 70
     6
  9
$SURFTYPE
 70
     6
  9
$SURFU
 70
     6
  9
$SURFV
 70
     6
  9
$UCSBASE
  2

  9
$UCSNAME
  2

  9
$UCSORG
 10
0.0
 20
0.0
 30
0.0
  9
$UCSXDIR
 10
1.0
 20
0.0
 30
0.0
  9
$UCSYDIR
 10
0.0
 20
1.0
 30
0.0
  9
$UCSORTHOREF
  2

  9
$UCSORTHOVIEW
 70
     1
  9
$UCSORGTOP
 10
0.0
 20
0.0
 30
0.0
  9
$UCSORGBOTTOM
 10
0.0
 20
0.0
 30
0.0
  9
$UCSORGLEFT
 10
0.0
 20
0.0
 30
0.0
  9
$UCSORGRIGHT
 10
0.0
 20
0.0
 30
0.0
  9
$UCSORGFRONT
 10
0.0
 20
0.0
 30
0.0
  9
$UCSORGBACK
 10
0.0
 20
0.0
 30
0.0
  9
$PUCSBASE
  2

  9
$PUCSNAME
  2

  9
$PUCSORG
 10
0.0
 20
0.0
 30
0.0
  9
$PUCSXDIR
 10
1.0
 20
0.0
 30
0.0
  9
$PUCSYDIR
 10
0.0
 20
1.0
 30
0.0
  9
$PUCSORTHOREF
  2

  9
$PUCSORTHOVIEW
 70
     0
  9
$PUCSORGTOP
 10
0.0
 20
0.0
 30
0.0
  9
$PUCSORGBOTTOM
 10
0.0
 20
0.0
 30
0.0
  9
$PUCSORGLEFT
 10
0.0
 20
0.0
 30
0.0
  9
$PUCSORGRIGHT
 10
0.0
 20
0.0
 30
0.0
  9
$PUCSORGFRONT
 10
0.0
 20
0.0
 30
0.0
  9
$PUCSORGBACK
 10
0.0
 20
0.0
 30
0.0
  9
$USERI1
 70
     0
  9
$USERI2
 70
     0
  9
$USERI3
 70
     0
  9
$USERI4
 70
     0
  9
$USERI5
 70
     0
  9
$USERR1
 40
0.0
  9
$USERR2
 40
0.0
  9
$USERR3
 40
0.0
  9
$USERR4
 40
0.0
  9
$USERR5
 40
0.0
  9
$WORLDVIEW
 70
     1
  9
$SHADEDGE
 70
     3
  9
$SHADEDIF
 70
    70
  9
$TILEMODE
 70
     1
  9
$MAXACTVP
 70
    64
  9
$PINSBASE
 10
0.0
 20
0.0
 30
0.0
  9
$PLIMCHECK
 70
     0
  9
$PEXTMIN
 10
1.000000000000000E+20
 20
1.000000000000000E+20
 30
1.000000000000000E+20
  9
$PEXTMAX
 10
-1.000000000000000E+20
 20
-1.000000000000000E+20
 30
-1.000000000000000E+20
  9
$PLIMMIN
 10
0.0
 20
0.0
  9
$PLIMMAX
 10
12.0
 20
9.0
  9
$UNITMODE
 70
     0
  9
$VISRETAIN
 70
     1
  9
$PLINEGEN
 70
     0
  9
$PSLTSCALE
 70
     1
  9
$TREEDEPTH
 70
  3020
  9
$CMLSTYLE
  2
Standard
  9
$CMLJUST
 70
     0
  9
$CMLSCALE
 40
1.0
  9
$PROXYGRAPHICS
 70
     1
  9
$MEASUREMENT
 70
     0
  9
$CELWEIGHT
370
    -1
  9
$ENDCAPS
280
     0
  9
$JOINSTYLE
280
     0
  9
$LWDISPLAY
290
     0
  9
$INSUNITS
 70
     0
  9
$HYPERLINKBASE
  1

  9
$STYLESHEET
  1

  9
$XEDIT
290
     1
  9
$CEPSNTYPE
380
     0
  9
$PSTYLEMODE
290
     1
  9
$FINGERPRINTGUID
  2
{B1751E35-1D31-4E15-BFB7-2B7801AB6690}
  9
$VERSIONGUID
  2
{0E46CD0F-A71D-4B5F-A8D1-7EC907F18432}
  9
$EXTNAMES
290
     1
  9
$PSVPSCALE
 40
0.0
  9
$OLESTARTUP
290
     0
  0
ENDSEC
  0
SECTION
  2
CLASSES
  0
CLASS
  1
ACDBDICTIONARYWDFLT
  2
AcDbDictionaryWithDefault
  3
AutoCAD 2000
 90
        0
280
     0
281
     0
  0
CLASS
  1
ACDBPLACEHOLDER
  2
AcDbPlaceHolder
  3
AutoCAD 2000
 90
        0
280
     0
281
     0
  0
CLASS
  1
LAYOUT
  2
AcDbLayout
  3
AutoCAD 2000
 90
        0
280
     0
281
     0
  0
CLASS
  1
DICTIONARYVAR
  2
AcDbDictionaryVar
  3
AutoCAD 2000
 90
        0
280
     0
281
     0
  0
ENDSEC
  0
SECTION
  2
TABLES
  0
TABLE
  2
VPORT
  5
8
330
0
100
AcDbSymbolTable
 70
     3
  0
VPORT
  5
2E2
330
8
100
AcDbSymbolTableRecord
100
AcDbViewportTableRecord
  2
*Active
 70
     0
 10
0.0
 20
0.0
 11
1.0
 21
1.0
 12
160.5
 22
80.50000000000002
 13
0.0
 23
0.0
 14
1.0
 24
1.0
 15
0.0
 25
0.0
 16
0.0
 26
0.0
 36
1.0
 17
0.0
 27
0.0
 37
0.0
 40
163.6053912520064
 41
1.968387776606954
 42
50.0
 43
0.0
 44
0.0
 50
0.0
 51
0.0
 71
     0
 72
   100
 73
     1
 74
     3
 75
     0
 76
     0
 77
     0
 78
     0
281
     0
 65
     1
110
0.0
120
0.0
130
0.0
111
1.0
121
0.0
131
0.0
112
0.0
122
1.0
132
0.0
 79
     1
146
0.0
  0
ENDTAB
  0
TABLE
  2
LTYPE
  5
5
330
0
100
AcDbSymbolTable
 70
     1
  0
LTYPE
  5
13
330
5
100
AcDbSymbolTableRecord
100
AcDbLinetypeTableRecord
  2
ByBlock
 70
     0
  3

 72
    65
 73
     0
 40
0.0
  0
LTYPE
  5
14
330
5
100
AcDbSymbolTableRecord
100
AcDbLinetypeTableRecord
  2
ByLayer
 70
     0
  3

 72
    65
 73
     0
 40
0.0
  0
LTYPE
  5
15
330
5
100
AcDbSymbolTableRecord
100
AcDbLinetypeTableRecord
  2
Continuous
 70
     0
  3
Solid line
 72
    65
 73
     0
 40
0.0
  0
ENDTAB
  0
TABLE
  2
LAYER
  5
2
330
0
100
AcDbSymbolTable
 70
     1
  0
LAYER
  5
10
330
2
100
AcDbSymbolTableRecord
100
AcDbLayerTableRecord
  2
0
 70
     0
 62
     7
  6
Continuous
370
    -3
390
F
  0
ENDTAB
  0
TABLE
  2
STYLE
  5
3
330
0
100
AcDbSymbolTable
 70
     1
  0
STYLE
  5
11
330
3
100
AcDbSymbolTableRecord
100
AcDbTextStyleTableRecord
  2
Standard
 70
     0
 40
0.0
 41
1.0
 50
0.0
 71
     0
 42
0.2
  3
txt
  4

  0
ENDTAB
  0
TABLE
  2
VIEW
  5
6
330
0
100
AcDbSymbolTable
 70
     0
  0
ENDTAB
  0
TABLE
  2
UCS
  5
7
330
0
100
AcDbSymbolTable
 70
     0
  0
ENDTAB
  0
TABLE
  2
APPID
  5
9
330
0
100
AcDbSymbolTable
 70
     1
  0
APPID
  5
12
330
9
100
AcDbSymbolTableRecord
100
AcDbRegAppTableRecord
  2
ACAD
 70
     0
  0
ENDTAB
  0
TABLE
  2
DIMSTYLE
  5
A
330
0
100
AcDbSymbolTable
 70
     1
100
AcDbDimStyleTable
 71
     0
  0
DIMSTYLE
105
2D8
330
A
100
AcDbSymbolTableRecord
100
AcDbDimStyleTableRecord
  2
Standard
 70
     0
340
11
  0
ENDTAB
  0
TABLE
  2
BLOCK_RECORD
  5
1
330
0
100
AcDbSymbolTable
 70
     0
  0
BLOCK_RECORD
  5
1E
330
1
100
AcDbSymbolTableRecord
100
AcDbBlockTableRecord
  2
*Model_Space
340
21
  0
BLOCK_RECORD
  5
1A
330
1
100
AcDbSymbolTableRecord
100
AcDbBlockTableRecord
  2
*Paper_Space
340
1D
  0
ENDTAB
  0
ENDSEC
  0
SECTION
  2
BLOCKS
  0
BLOCK
  5
1F
330
1E
100
AcDbEntity
  8
0
100
AcDbBlockBegin
  2
*Model_Space
 70
     0
 10
0.0
 20
0.0
 30
0.0
  3
*Model_Space
  1

  0
ENDBLK
  5
20
330
1E
100
AcDbEntity
  8
0
100
AcDbBlockEnd
  0
BLOCK
  5
1B
330
1A
100
AcDbEntity
 67
     1
  8
0
100
AcDbBlockBegin
  2
*Paper_Space
 70
     0
 10
0.0
 20
0.0
 30
0.0
  3
*Paper_Space
  1

  0
ENDBLK
  5
1C
330
1A
100
AcDbEntity
 67
     1
  8
0
100
AcDbBlockEnd
  0
ENDSEC
  0
SECTION
  2
ENTITIES
  0
LINE
  5
22
330
1E
100
AcDbEntity
  8
0
100
AcDbLine
 10
3.621064000000009
 20
62.123373
 30
0.0
 11
4.944274000000009
 21
61.50637299999999
 31
0.0
  0
LINE
  5
23
330
1E
100
AcDbEntity
  8
0
100
AcDbLine
 10
2.945374000000009
 20
61.702873
 30
0.0
 11
4.197294000000009
 21
61.119073
 31
0.0
  0
LINE
  5
24
330
1E
100
AcDbEntity
  8
0
100
AcDbLine
 10
-0.0041639999999881
 20
63.813873
 30
0.0
 11
4.785514000000009
 21
74.085373
 31
0.0
  0
LINE
  5
25
330
1E
100
AcDbEntity
  8
0
100
AcDbLine
 10
-0.004163999999988
 20
63.813873
 30
0.0
 11
0.620399000000012
 21
62.787073
 31
0.0
  0
LINE
  5
26
330
1E
100
AcDbEntity
  8
0
100
AcDbLine
 10
2.352234000000009
 20
62.71507299999999
 30
0.0
 11
3.621064000000009
 21
62.123373
 31
0.0
  0
LINE
  5
27
330
1E
100
AcDbEntity
  8
0
100
AcDbLine
 10
0.7813590000000121
 20
62.711973
 30
0.0
 11
1.96173400000001
 21
62.16157299999999
 31
0.0
  0
LINE
  5
28
330
1E
100
AcDbEntity
  8
0
100
AcDbLine
 10
0.6302520000000121
 20
63.518073
 30
0.0
 11
1.35529400000001
 21
63.179973
 31
0.0
  0
LINE
  5
29
330
1E
100
AcDbEntity
  8
0
100
AcDbLine
 10
0.158972000000012
 20
63.737773
 30
0.0
 11
0.6302520000000121
 21
63.518073
 31
0.0
  0
LINE
  5
2A
330
1E
100
AcDbEntity
  8
0
100
AcDbLine
 10
-0.0041639999999879
 20
63.813873
 30
0.0
 11
0.158972000000012
 21
63.737773
 31
0.0
  0
LINE
  5
2B
330
1E
100
AcDbEntity
  8
0
100
AcDbLine
 10
1.35529400000001
 20
63.179973
 30
0.0
 11
2.352234000000009
 21
62.71507299999999
 31
0.0
  0
LINE
  5
2C
330
1E
100
AcDbEntity
  8
0
100
AcDbLine
 10
0.620399000000012
 20
62.787073
 30
0.0
 11
0.7813590000000121
 21
62.711973
 31
0.0
  0
LINE
  5
2D
330
1E
100
AcDbEntity
  8
0
100
AcDbLine
 10
-0.0041639999999879
 20
63.813873
 30
0.0
 11
0.620399000000012
 21
62.787073
 31
0.0
  0
LINE
  5
2E
330
1E
100
AcDbEntity
  8
0
100
AcDbLine
 10
-0.0041639999999879
 20
63.813873
 30
0.0
 11
4.785514000000009
 21
74.085373
 31
0.0
  0
LINE
  5
2F
330
1E
100
AcDbEntity
  8
0
100
AcDbLine
 10
-0.0041639999999879
 20
63.813873
 30
0.0
 11
0.158972000000012
 21
63.737773
 31
0.0
  0
LINE
  5
30
330
1E
100
AcDbEntity
  8
0
100
AcDbLine
 10
1.96173400000001
 20
62.16157299999999
 30
0.0
 11
2.945374000000009
 21
61.702873
 31
0.0
  0
LINE
  5
31
330
1E
100
AcDbEntity
  8
0
100
AcDbLine
 10
67.50636400000001
 20
29.942573
 30
0.0
 11
69.826564
 21
28.860573
 31
0.0
  0
LINE
  5
32
330
1E
100
AcDbEntity
  8
0
100
AcDbLine
 10
65.18626400000001
 20
31.02447299999999
 30
0.0
 11
67.50636400000001
 21
29.942573
 31
0.0
  0
LINE
  5
33
330
1E
100
AcDbEntity
  8
0
100
AcDbLine
 10
72.717664
 20
27.51247299999999
 30
0.0
 11
73.12546400000001
 21
27.32227299999999
 31
0.0
  0
LINE
  5
34
330
1E
100
AcDbEntity
  8
0
100
AcDbLine
 10
72.717664
 20
27.51247299999999
 30
0.0
 11
73.35157108732859
 21
28.8719381993515
 31
0.0
  0
LINE
  5
35
330
1E
100
AcDbEntity
  8
0
100
AcDbLine
 10
73.12546400000001
 20
27.32227299999999
 30
0.0
 11
73.51446813093859
 21
27.1409121374409
 31
0.0
  0
LINE
  5
36
330
1E
100
AcDbEntity
  8
0
100
AcDbLine
 10
73.12546400000001
 20
27.32227299999999
 30
0.0
 11
73.5144681309385
 21
27.140912137441
 31
0.0
  0
LINE
  5
37
330
1E
100
AcDbEntity
  8
0
100
AcDbLine
 10
73.12546400000001
 20
27.32227299999999
 30
0.0
 11
74.07716399999999
 21
26.878573
 31
0.0
  0
LINE
  5
39
330
1E
100
AcDbEntity
  8
0
100
AcDbLine
 10
72.001664
 20
27.84637299999999
 30
0.0
 11
72.7176678791227
 21
27.5124813190934
 31
0.0
  0
LINE
  5
3A
330
1E
100
AcDbEntity
  8
0
100
AcDbLine
 10
69.826564
 20
28.860573
 30
0.0
 11
72.001664
 21
27.84637299999999
 31
0.0
  0
LINE
  5
3B
330
1E
100
AcDbEntity
  8
0
100
AcDbLine
 10
68.140364
 20
31.30197299999999
 30
0.0
 11
129.4001639999999
 21
2.73595300000002
 31
0.0
  0
LINE
  5
3C
330
1E
100
AcDbEntity
  8
0
100
AcDbLine
 10
68.140364
 20
31.30197299999999
 30
0.0
 11
129.4001639999999
 21
2.73595300000002
 31
0.0
  0
LINE
  5
3D
330
1E
100
AcDbEntity
  8
0
100
AcDbLine
 10
61.887264
 20
32.562773
 30
0.0
 11
62.0128832745
 21
32.504197893332
 31
0.0
  0
LINE
  5
3E
330
1E
100
AcDbEntity
  8
0
100
AcDbLine
 10
61.887264
 20
32.562773
 30
0.0
 11
62.0128832744988
 21
32.5041978933325
 31
0.0
  0
LINE
  5
3F
330
1E
100
AcDbEntity
  8
0
100
AcDbLine
 10
61.887264
 20
32.562773
 30
0.0
 11
62.295164
 21
32.37257299999999
 31
0.0
  0
LINE
  5
42
330
1E
100
AcDbEntity
  8
0
100
AcDbLine
 10
60.935664
 20
33.006473
 30
0.0
 11
61.887264
 21
32.562773
 31
0.0
  0
LINE
  5
45
330
1E
100
AcDbEntity
  8
0
100
AcDbLine
 10
59.576164
 20
33.640473
 30
0.0
 11
59.984064
 21
33.45027299999999
 31
0.0
  0
LINE
  5
47
330
1E
100
AcDbEntity
  8
0
100
AcDbLine
 10
59.984064
 20
33.45027299999999
 30
0.0
 11
60.935664
 21
33.006473
 31
0.0
  0
LINE
  5
49
330
1E
100
AcDbEntity
  8
0
100
AcDbLine
 10
62.0128832745015
 20
32.5041978933313
 30
0.0
 11
63.011164
 21
32.03867299999999
 31
0.0
  0
LINE
  5
4A
330
1E
100
AcDbEntity
  8
0
100
AcDbLine
 10
58.769564
 20
34.016573
 30
0.0
 11
59.5761670772897
 21
33.6404795987169
 31
0.0
  0
LINE
  5
4B
330
1E
100
AcDbEntity
  8
0
100
AcDbLine
 10
62.295164
 20
32.37257299999999
 30
0.0
 11
62.9290715216279
 21
33.73203913074149
 31
0.0
  0
LINE
  5
4C
330
1E
100
AcDbEntity
  8
0
100
AcDbLine
 10
62.295164
 20
32.37257299999999
 30
0.0
 11
62.9290715216279
 21
33.73203913074149
 31
0.0
  0
LINE
  5
4D
330
1E
100
AcDbEntity
  8
0
100
AcDbLine
 10
62.0128832745015
 20
32.5041978933313
 30
0.0
 11
63.011164
 21
32.03867299999999
 31
0.0
  0
LINE
  5
4E
330
1E
100
AcDbEntity
  8
0
100
AcDbLine
 10
46.43476399999999
 20
39.76837299999999
 30
0.0
 11
46.842564
 21
39.578173
 31
0.0
  0
LINE
  5
4F
330
1E
100
AcDbEntity
  8
0
100
AcDbLine
 10
46.43476399999999
 20
39.76837299999999
 30
0.0
 11
47.0686821013242
 21
41.1278618197589
 31
0.0
  0
LINE
  5
50
330
1E
100
AcDbEntity
  8
0
100
AcDbLine
 10
49.15366399999999
 20
38.50057299999999
 30
0.0
 11
49.7875651825382
 21
39.8600255360491
 31
0.0
  0
LINE
  5
51
330
1E
100
AcDbEntity
  8
0
100
AcDbLine
 10
49.15366399999999
 20
38.50057299999999
 30
0.0
 11
49.7875651825382
 21
39.8600255360491
 31
0.0
  0
LINE
  5
52
330
1E
100
AcDbEntity
  8
0
100
AcDbLine
 10
48.745864
 20
38.690773
 30
0.0
 11
49.15366399999999
 21
38.50057299999999
 31
0.0
  0
LINE
  5
55
330
1E
100
AcDbEntity
  8
0
100
AcDbLine
 10
47.794164
 20
39.13447299999999
 30
0.0
 11
48.745864
 21
38.690773
 31
0.0
  0
LINE
  5
57
330
1E
100
AcDbEntity
  8
0
100
AcDbLine
 10
46.842564
 20
39.578173
 30
0.0
 11
47.794164
 21
39.13447299999999
 31
0.0
  0
LINE
  5
59
330
1E
100
AcDbEntity
  8
0
100
AcDbLine
 10
58.443364
 20
34.16867299999999
 30
0.0
 11
58.769564
 21
34.016573
 31
0.0
  0
LINE
  5
5A
330
1E
100
AcDbEntity
  8
0
100
AcDbLine
 10
58.443364
 20
34.16867299999999
 30
0.0
 11
59.0772520790626
 21
35.52817243317189
 31
0.0
  0
LINE
  5
5B
330
1E
100
AcDbEntity
  8
0
100
AcDbLine
 10
63.011164
 20
32.03867299999999
 30
0.0
 11
65.18626400000001
 21
31.02447299999999
 31
0.0
  0
LINE
  5
5C
330
1E
100
AcDbEntity
  8
0
100
AcDbLine
 10
68.42206400000001
 20
31.90617299999999
 30
0.0
 11
130.504164
 21
2.95684300000002
 31
0.0
  0
LINE
  5
5D
330
1E
100
AcDbEntity
  8
0
100
AcDbLine
 10
128.0021639999999
 20
1.73275300000002
 30
0.0
 11
128.6365728575219
 21
3.092022720238249
 31
0.0
  0
LINE
  5
5E
330
1E
100
AcDbEntity
  8
0
100
AcDbLine
 10
128.0021639999999
 20
1.73275300000002
 30
0.0
 11
128.6365728575219
 21
3.092022720238249
 31
0.0
  0
LINE
  5
5F
330
1E
100
AcDbEntity
  8
0
100
AcDbLine
 10
127.5941639999999
 20
1.922933000000019
 30
0.0
 11
128.0021639999999
 21
1.73275300000002
 31
0.0
  0
LINE
  5
61
330
1E
100
AcDbEntity
  8
0
100
AcDbLine
 10
126.6431639999999
 20
2.36668300000002
 30
0.0
 11
127.5941639999999
 21
1.922933000000019
 31
0.0
  0
LINE
  5
64
330
1E
100
AcDbEntity
  8
0
100
AcDbLine
 10
125.6911639999999
 20
2.81043300000002
 30
0.0
 11
126.6431639999999
 21
2.36668300000002
 31
0.0
  0
LINE
  5
67
330
1E
100
AcDbEntity
  8
0
100
AcDbLine
 10
129.4001639999999
 20
2.73595300000002
 30
0.0
 11
135.6601639999999
 21
-0.183072999999978
 31
0.0
  0
LINE
  5
68
330
1E
100
AcDbEntity
  8
0
100
AcDbLine
 10
133.223164
 20
1.688983000000019
 30
0.0
 11
134.492164
 21
1.097322000000019
 31
0.0
  0
LINE
  5
69
330
1E
100
AcDbEntity
  8
0
100
AcDbLine
 10
131.9001639999999
 20
2.30601300000002
 30
0.0
 11
133.223164
 21
1.688983000000019
 31
0.0
  0
LINE
  5
6B
330
1E
100
AcDbEntity
  8
0
100
AcDbLine
 10
75.02876399999999
 20
26.434773
 30
0.0
 11
75.436564
 21
26.24457299999999
 31
0.0
  0
LINE
  5
6D
330
1E
100
AcDbEntity
  8
0
100
AcDbLine
 10
74.07716399999999
 20
26.878573
 30
0.0
 11
75.02876399999999
 21
26.434773
 31
0.0
  0
LINE
  5
6F
330
1E
100
AcDbEntity
  8
0
100
AcDbLine
 10
75.0495046513122
 20
26.4250994544395
 30
0.0
 11
75.436564
 21
26.24457299999999
 31
0.0
  0
LINE
  5
70
330
1E
100
AcDbEntity
  8
0
100
AcDbLine
 10
75.0495046513128
 20
26.4250994544392
 30
0.0
 11
75.436564
 21
26.24457299999999
 31
0.0
  0
LINE
  5
71
330
1E
100
AcDbEntity
  8
0
100
AcDbLine
 10
101.719164
 20
13.988673
 30
0.0
 11
102.353612993132
 21
15.34801371507259
 31
0.0
  0
LINE
  5
72
330
1E
100
AcDbEntity
  8
0
100
AcDbLine
 10
101.719164
 20
13.988673
 30
0.0
 11
102.353612993132
 21
15.34801371507259
 31
0.0
  0
LINE
  5
73
330
1E
100
AcDbEntity
  8
0
100
AcDbLine
 10
101.312164
 20
14.178873
 30
0.0
 11
101.719164
 21
13.988673
 31
0.0
  0
LINE
  5
75
330
1E
100
AcDbEntity
  8
0
100
AcDbLine
 10
100.360164
 20
14.622573
 30
0.0
 11
101.312164
 21
14.178873
 31
0.0
  0
LINE
  5
78
330
1E
100
AcDbEntity
  8
0
100
AcDbLine
 10
88.57806399999999
 20
20.116673
 30
0.0
 11
89.21195061268759
 21
21.476094289822
 31
0.0
  0
LINE
  5
79
330
1E
100
AcDbEntity
  8
0
100
AcDbLine
 10
99.000564
 20
15.256573
 30
0.0
 11
99.40846399999999
 21
15.066373
 31
0.0
  0
LINE
  5
7A
330
1E
100
AcDbEntity
  8
0
100
AcDbLine
 10
99.000564
 20
15.256573
 30
0.0
 11
99.63450852909311
 21
16.6159576603978
 31
0.0
  0
LINE
  5
7B
330
1E
100
AcDbEntity
  8
0
100
AcDbLine
 10
99.000564
 20
15.256573
 30
0.0
 11
99.63450852909311
 21
16.6159576603978
 31
0.0
  0
LINE
  5
7C
330
1E
100
AcDbEntity
  8
0
100
AcDbLine
 10
99.40846399999999
 20
15.066373
 30
0.0
 11
100.360164
 21
14.622573
 31
0.0
  0
LINE
  5
7F
330
1E
100
AcDbEntity
  8
0
100
AcDbLine
 10
88.17026400000001
 20
20.30687299999999
 30
0.0
 11
88.57806399999999
 21
20.116673
 31
0.0
  0
LINE
  5
81
330
1E
100
AcDbEntity
  8
0
100
AcDbLine
 10
86.266964
 20
21.194373
 30
0.0
 11
87.218564
 21
20.750573
 31
0.0
  0
LINE
  5
83
330
1E
100
AcDbEntity
  8
0
100
AcDbLine
 10
85.859164
 20
21.384473
 30
0.0
 11
86.266964
 21
21.194373
 31
0.0
  0
LINE
  5
84
330
1E
100
AcDbEntity
  8
0
100
AcDbLine
 10
85.859164
 20
21.384473
 30
0.0
 11
86.4930692277244
 21
22.74393421127919
 31
0.0
  0
LINE
  5
85
330
1E
100
AcDbEntity
  8
0
100
AcDbLine
 10
85.859164
 20
21.384473
 30
0.0
 11
86.4930692277244
 21
22.74393421127919
 31
0.0
  0
LINE
  5
86
330
1E
100
AcDbEntity
  8
0
100
AcDbLine
 10
87.218564
 20
20.750573
 30
0.0
 11
88.17026400000001
 21
20.30687299999999
 31
0.0
  0
LINE
  5
88
330
1E
100
AcDbEntity
  8
0
100
AcDbLine
 10
76.56946399999999
 20
25.716373
 30
0.0
 11
77.2034210046655
 21
27.07578441211019
 31
0.0
  0
LINE
  5
89
330
1E
100
AcDbEntity
  8
0
100
AcDbLine
 10
76.24316400000001
 20
25.868473
 30
0.0
 11
76.56946399999999
 21
25.716373
 31
0.0
  0
LINE
  5
8A
330
1E
100
AcDbEntity
  8
0
100
AcDbLine
 10
75.4365774808638
 20
26.2446019089811
 30
0.0
 11
76.24316400000001
 21
25.868473
 31
0.0
  0
LINE
  5
8B
330
1E
100
AcDbEntity
  8
0
100
AcDbLine
 10
73.5144681309395
 20
27.1409121374405
 30
0.0
 11
73.92306399999999
 21
26.950373
 31
0.0
  0
LINE
  5
8C
330
1E
100
AcDbEntity
  8
0
100
AcDbLine
 10
73.92306399999999
 20
26.950373
 30
0.0
 11
75.0495046513122
 21
26.4250994544395
 31
0.0
  0
LINE
  5
8D
330
1E
100
AcDbEntity
  8
0
100
AcDbLine
 10
73.92306399999999
 20
26.950373
 30
0.0
 11
75.04950465131341
 21
26.42509945443889
 31
0.0
  0
LINE
  5
8E
330
1E
100
AcDbEntity
  8
0
100
AcDbLine
 10
73.51446813093869
 20
27.1409121374409
 30
0.0
 11
73.92306399999999
 21
26.950373
 31
0.0
  0
LINE
  5
8F
330
1E
100
AcDbEntity
  8
0
100
AcDbLine
 10
90.640464
 20
42.87757299999999
 30
0.0
 11
103.953164
 21
35.93407299999999
 31
0.0
  0
LINE
  5
90
330
1E
100
AcDbEntity
  8
0
100
AcDbLine
 10
114.8611639999999
 20
7.860723000000018
 30
0.0
 11
115.494883806432
 21
9.220115731759868
 31
0.0
  0
LINE
  5
91
330
1E
100
AcDbEntity
  8
0
100
AcDbLine
 10
114.8611639999999
 20
7.860723000000018
 30
0.0
 11
115.494883806432
 21
9.220115731759868
 31
0.0
  0
LINE
  5
92
330
1E
100
AcDbEntity
  8
0
100
AcDbLine
 10
114.4531639999999
 20
8.050903000000019
 30
0.0
 11
114.8611639999999
 21
7.860723000000018
 31
0.0
  0
LINE
  5
94
330
1E
100
AcDbEntity
  8
0
100
AcDbLine
 10
112.5501639999999
 20
8.938403000000018
 30
0.0
 11
113.5011639999999
 21
8.494653000000019
 31
0.0
  0
LINE
  5
97
330
1E
100
AcDbEntity
  8
0
100
AcDbLine
 10
112.1421639999999
 20
9.128573000000018
 30
0.0
 11
112.775903999602
 21
10.48800154825809
 31
0.0
  0
LINE
  5
98
330
1E
100
AcDbEntity
  8
0
100
AcDbLine
 10
112.1421639999999
 20
9.128573000000018
 30
0.0
 11
112.5501639999999
 21
8.938403000000018
 31
0.0
  0
LINE
  5
99
330
1E
100
AcDbEntity
  8
0
100
AcDbLine
 10
112.1421639999999
 20
9.128573000000018
 30
0.0
 11
112.775903999602
 21
10.48800154825809
 31
0.0
  0
LINE
  5
9A
330
1E
100
AcDbEntity
  8
0
100
AcDbLine
 10
113.5011639999999
 20
8.494653000000019
 30
0.0
 11
114.4531639999999
 21
8.050903000000019
 31
0.0
  0
LINE
  5
9D
330
1E
100
AcDbEntity
  8
0
100
AcDbLine
 10
125.2831639999999
 20
3.00061300000002
 30
0.0
 11
125.6911639999999
 21
2.81043300000002
 31
0.0
  0
LINE
  5
9E
330
1E
100
AcDbEntity
  8
0
100
AcDbLine
 10
125.2831639999999
 20
3.00061300000002
 30
0.0
 11
125.917589236879
 21
4.359910315152999
 31
0.0
  0
LINE
  5
9F
330
1E
100
AcDbEntity
  8
0
100
AcDbLine
 10
125.2831639999999
 20
3.00061300000002
 30
0.0
 11
125.917589236879
 21
4.359910315152999
 31
0.0
  0
LINE
  5
A0
330
1E
100
AcDbEntity
  8
0
100
AcDbLine
 10
125.2831639999999
 20
3.00061300000002
 30
0.0
 11
125.917561195526
 21
4.35985023473176
 31
0.0
  0
LINE
  5
A1
330
1E
100
AcDbEntity
  8
0
100
AcDbLine
 10
125.2831639999999
 20
3.00061300000002
 30
0.0
 11
125.917561195526
 21
4.35985023473176
 31
0.0
  0
LINE
  5
A2
330
1E
100
AcDbEntity
  8
0
100
AcDbLine
 10
127.2971639999999
 20
22.106573
 30
0.0
 11
133.9831639999999
 21
17.517173
 31
0.0
  0
LINE
  5
A3
330
1E
100
AcDbEntity
  8
0
100
AcDbLine
 10
117.8911639999999
 20
27.963773
 30
0.0
 11
127.2971639999999
 21
22.106573
 31
0.0
  0
LINE
  5
A4
330
1E
100
AcDbEntity
  8
0
100
AcDbLine
 10
111.8281639999999
 20
31.526373
 30
0.0
 11
117.8911639999999
 21
27.963773
 31
0.0
  0
LINE
  5
A5
330
1E
100
AcDbEntity
  8
0
100
AcDbLine
 10
103.953164
 20
35.93407299999999
 30
0.0
 11
111.8281639999999
 21
31.526373
 31
0.0
  0
LINE
  5
A6
330
1E
100
AcDbEntity
  8
0
100
AcDbLine
 10
130.504164
 20
2.95684300000002
 30
0.0
 11
131.9001639999999
 21
2.30601300000002
 31
0.0
  0
LINE
  5
A7
330
1E
100
AcDbEntity
  8
0
100
AcDbLine
 10
73.211764
 20
42.177673
 30
0.0
 11
135.294164
 21
13.228373
 31
0.0
  0
LINE
  5
A8
330
1E
100
AcDbEntity
  8
0
100
AcDbLine
 10
73.211764
 20
42.177673
 30
0.0
 11
135.294164
 21
13.228373
 31
0.0
  0
LINE
  5
A9
330
1E
100
AcDbEntity
  8
0
100
AcDbLine
 10
6.339994000000009
 20
60.855573
 30
0.0
 11
68.42206400000001
 21
31.90617299999999
 31
0.0
  0
LINE
  5
AA
330
1E
100
AcDbEntity
  8
0
100
AcDbLine
 10
5.419924000000009
 20
73.789573
 30
0.0
 11
6.144974000000009
 21
73.45147299999999
 31
0.0
  0
LINE
  5
AB
330
1E
100
AcDbEntity
  8
0
100
AcDbLine
 10
4.948644000000009
 20
74.00927299999999
 30
0.0
 11
5.419924000000009
 21
73.789573
 31
0.0
  0
LINE
  5
AC
330
1E
100
AcDbEntity
  8
0
100
AcDbLine
 10
6.144974000000009
 20
73.45147299999999
 30
0.0
 11
7.141914000000009
 21
72.98657299999999
 31
0.0
  0
LINE
  5
AD
330
1E
100
AcDbEntity
  8
0
100
AcDbLine
 10
4.944274000000009
 20
61.50637299999999
 30
0.0
 11
6.339994000000009
 21
60.855573
 31
0.0
  0
LINE
  5
AE
330
1E
100
AcDbEntity
  8
0
100
AcDbLine
 10
6.339994000000009
 20
60.855573
 30
0.0
 11
68.42206400000001
 21
31.90617299999999
 31
0.0
  0
LINE
  5
AF
330
1E
100
AcDbEntity
  8
0
100
AcDbLine
 10
21.511264
 20
51.390373
 30
0.0
 11
22.462864
 21
50.946673
 31
0.0
  0
LINE
  5
B2
330
1E
100
AcDbEntity
  8
0
100
AcDbLine
 10
22.870764
 20
50.75647299999999
 30
0.0
 11
23.5046729453753
 21
52.1159421840834
 31
0.0
  0
LINE
  5
B3
330
1E
100
AcDbEntity
  8
0
100
AcDbLine
 10
22.462864
 20
50.946673
 30
0.0
 11
22.870764
 21
50.75647299999999
 31
0.0
  0
LINE
  5
B5
330
1E
100
AcDbEntity
  8
0
100
AcDbLine
 10
33.293264
 20
45.89637299999999
 30
0.0
 11
33.701164
 21
45.706173
 31
0.0
  0
LINE
  5
B6
330
1E
100
AcDbEntity
  8
0
100
AcDbLine
 10
33.293264
 20
45.89637299999999
 30
0.0
 11
33.9272373669896
 21
47.25581949829099
 31
0.0
  0
LINE
  5
B7
330
1E
100
AcDbEntity
  8
0
100
AcDbLine
 10
36.012164
 20
44.62847299999999
 30
0.0
 11
36.6461300231796
 21
45.98797874969561
 31
0.0
  0
LINE
  5
B8
330
1E
100
AcDbEntity
  8
0
100
AcDbLine
 10
35.604364
 20
44.818673
 30
0.0
 11
36.012164
 21
44.62847299999999
 31
0.0
  0
LINE
  5
BA
330
1E
100
AcDbEntity
  8
0
100
AcDbLine
 10
34.652764
 20
45.262473
 30
0.0
 11
35.604364
 21
44.818673
 31
0.0
  0
LINE
  5
BC
330
1E
100
AcDbEntity
  8
0
100
AcDbLine
 10
33.701164
 20
45.706173
 30
0.0
 11
34.652764
 21
45.262473
 31
0.0
  0
LINE
  5
BE
330
1E
100
AcDbEntity
  8
0
100
AcDbLine
 10
20.151864
 20
52.02437299999999
 30
0.0
 11
20.559664
 21
51.834173
 31
0.0
  0
LINE
  5
BF
330
1E
100
AcDbEntity
  8
0
100
AcDbLine
 10
20.151864
 20
52.02437299999999
 30
0.0
 11
20.7857515630298
 21
53.38379632790811
 31
0.0
  0
LINE
  5
C0
330
1E
100
AcDbEntity
  8
0
100
AcDbLine
 10
20.559664
 20
51.834173
 30
0.0
 11
21.511264
 21
51.390373
 31
0.0
  0
LINE
  5
C8
330
1E
100
AcDbEntity
  8
0
100
AcDbLine
 10
62.99808164029769
 20
55.76741082966539
 30
0.0
 11
67.04366400000001
 21
64.443173
 31
0.0
  0
LINE
  5
C9
330
1E
100
AcDbEntity
  8
0
100
AcDbLine
 10
62.671764
 20
55.919573
 30
0.0
 11
62.816864
 21
55.851973
 31
0.0
  0
LINE
  5
CA
330
1E
100
AcDbEntity
  8
0
100
AcDbLine
 10
7.010354000000009
 20
58.152273
 30
0.0
 11
7.418194000000009
 21
57.96207299999999
 31
0.0
  0
LINE
  5
CB
330
1E
100
AcDbEntity
  8
0
100
AcDbLine
 10
7.010354000000009
 20
58.152273
 30
0.0
 11
7.64429995366876
 21
59.5117572123184
 31
0.0
  0
LINE
  5
CC
330
1E
100
AcDbEntity
  8
0
100
AcDbLine
 10
9.729284000000008
 20
56.88447299999999
 30
0.0
 11
10.3632323172855
 21
58.2438979478417
 31
0.0
  0
LINE
  5
CD
330
1E
100
AcDbEntity
  8
0
100
AcDbLine
 10
8.369814000000008
 20
57.518373
 30
0.0
 11
9.32144400000001
 21
57.074573
 31
0.0
  0
LINE
  5
CF
330
1E
100
AcDbEntity
  8
0
100
AcDbLine
 10
9.32144400000001
 20
57.074573
 30
0.0
 11
9.729284000000008
 21
56.88447299999999
 31
0.0
  0
LINE
  5
D1
330
1E
100
AcDbEntity
  8
0
100
AcDbLine
 10
7.418194000000009
 20
57.96207299999999
 30
0.0
 11
8.369814000000008
 21
57.518373
 31
0.0
  0
LINE
  5
D3
330
1E
100
AcDbEntity
  8
0
100
AcDbLine
 10
62.577564
 20
55.963473
 30
0.0
 11
62.671764
 21
55.919573
 31
0.0
  0
LINE
  5
D8
330
1E
100
AcDbEntity
  8
0
100
AcDbLine
 10
90.187264
 20
43.088873
 30
0.0
 11
94.232864
 21
51.76467299999999
 31
0.0
  0
LINE
  5
E0
330
1E
100
AcDbEntity
  8
0
100
AcDbLine
 10
77.15806399999999
 20
59.726773
 30
0.0
 11
80.63826400000001
 21
58.103873
 31
0.0
  0
LINE
  5
E2
330
1E
100
AcDbEntity
  8
0
100
AcDbLine
 10
80.63826400000001
 20
58.103873
 30
0.0
 11
84.11846399999999
 21
56.48107299999999
 31
0.0
  0
LINE
  5
E4
330
1E
100
AcDbEntity
  8
0
100
AcDbLine
 10
84.11846399999999
 20
56.48107299999999
 30
0.0
 11
87.381164
 21
54.959673
 31
0.0
  0
LINE
  5
E6
330
1E
100
AcDbEntity
  8
0
100
AcDbLine
 10
87.381164
 20
54.959673
 30
0.0
 11
90.263264
 21
53.615673
 31
0.0
  0
LINE
  5
EA
330
1E
100
AcDbEntity
  8
0
100
AcDbLine
 10
90.263264
 20
53.615673
 30
0.0
 11
92.43836400000001
 21
52.601373
 31
0.0
  0
LINE
  5
EC
330
1E
100
AcDbEntity
  8
0
100
AcDbLine
 10
92.43836400000001
 20
52.601373
 30
0.0
 11
93.743464
 21
51.99287299999999
 31
0.0
  0
LINE
  5
ED
330
1E
100
AcDbEntity
  8
0
100
AcDbLine
 10
93.96036399999999
 20
52.363273
 30
0.0
 11
103.0771639999999
 21
71.91477299999999
 31
0.0
  0
LINE
  5
EE
330
1E
100
AcDbEntity
  8
0
100
AcDbLine
 10
68.03996399999999
 20
64.45017299999999
 30
0.0
 11
94.087264
 21
52.30407299999999
 31
0.0
  0
LINE
  5
EF
330
1E
100
AcDbEntity
  8
0
100
AcDbLine
 10
93.743464
 20
51.99287299999999
 30
0.0
 11
94.232864
 21
51.76467299999999
 31
0.0
  0
LINE
  5
F0
330
1E
100
AcDbEntity
  8
0
100
AcDbLine
 10
94.087264
 20
52.30407299999999
 30
0.0
 11
94.232864
 21
51.76467299999999
 31
0.0
  0
LINE
  5
F3
330
1E
100
AcDbEntity
  8
0
100
AcDbLine
 10
11.129664
 20
71.127073
 30
0.0
 11
73.211764
 21
42.177673
 31
0.0
  0
LINE
  5
F4
330
1E
100
AcDbEntity
  8
0
100
AcDbLine
 10
7.141914000000009
 20
72.98657299999999
 30
0.0
 11
8.410744000000009
 21
72.394873
 31
0.0
  0
LINE
  5
F5
330
1E
100
AcDbEntity
  8
0
100
AcDbLine
 10
8.410744000000009
 20
72.394873
 30
0.0
 11
9.733954000000009
 21
71.777873
 31
0.0
  0
LINE
  5
F6
330
1E
100
AcDbEntity
  8
0
100
AcDbLine
 10
9.733954000000009
 20
71.777873
 30
0.0
 11
11.129664
 21
71.127073
 31
0.0
  0
LINE
  5
FD
330
1E
100
AcDbEntity
  8
0
100
AcDbLine
 10
73.895364
 20
61.248173
 30
0.0
 11
77.15806399999999
 21
59.726773
 31
0.0
  0
LINE
  5
FE
330
1E
100
AcDbEntity
  8
0
100
AcDbLine
 10
71.01326400000001
 20
62.59207299999999
 30
0.0
 11
73.895364
 21
61.248173
 31
0.0
  0
LINE
  5
100
330
1E
100
AcDbEntity
  8
0
100
AcDbLine
 10
68.838164
 20
63.606373
 30
0.0
 11
71.01326400000001
 21
62.59207299999999
 31
0.0
  0
LINE
  5
101
330
1E
100
AcDbEntity
  8
0
100
AcDbLine
 10
67.53306399999999
 20
64.214973
 30
0.0
 11
68.838164
 21
63.606373
 31
0.0
  0
LINE
  5
102
330
1E
100
AcDbEntity
  8
0
100
AcDbLine
 10
67.6773927388751
 20
64.6192346301363
 30
0.0
 11
76.794464
 21
84.1706730000001
 31
0.0
  0
LINE
  5
104
330
1E
100
AcDbEntity
  8
0
100
AcDbLine
 10
67.550564
 20
64.67837299999999
 30
0.0
 11
68.03996399999999
 21
64.45017299999999
 31
0.0
  0
LINE
  5
105
330
1E
100
AcDbEntity
  8
0
100
AcDbLine
 10
67.550564
 20
64.67837299999999
 30
0.0
 11
67.6773927388751
 21
64.6192346301363
 31
0.0
  0
LINE
  5
106
330
1E
100
AcDbEntity
  8
0
100
AcDbLine
 10
67.04366400000001
 20
64.443173
 30
0.0
 11
67.53306399999999
 21
64.214973
 31
0.0
  0
LINE
  5
107
330
1E
100
AcDbEntity
  8
0
100
AcDbLine
 10
67.04366400000001
 20
64.443173
 30
0.0
 11
67.550564
 21
64.67837299999999
 31
0.0
  0
LINE
  5
108
330
1E
100
AcDbEntity
  8
0
100
AcDbLine
 10
48.668564
 20
61.71377299999999
 30
0.0
 11
62.544964
 21
55.978773
 31
0.0
  0
LINE
  5
109
330
1E
100
AcDbEntity
  8
0
100
AcDbLine
 10
33.604164
 20
67.267273
 30
0.0
 11
40.23006399999999
 21
64.913173
 31
0.0
  0
LINE
  5
10A
330
1E
100
AcDbEntity
  8
0
100
AcDbLine
 10
100.539164118421
 20
73.56989452106391
 30
0.0
 11
101.2081639999999
 21
73.25797299999999
 31
0.0
  0
LINE
  5
10B
330
1E
100
AcDbEntity
  8
0
100
AcDbLine
 10
100.539164118421
 20
73.56989452106391
 30
0.0
 11
100.542164
 21
74.115073
 31
0.0
  0
LINE
  5
10C
330
1E
100
AcDbEntity
  8
0
100
AcDbLine
 10
99.24006400000001
 20
73.70417299999999
 30
0.0
 11
101.343164
 21
72.723673
 31
0.0
  0
LINE
  5
10D
330
1E
100
AcDbEntity
  8
0
100
AcDbLine
 10
101.2081639999999
 20
73.25797299999999
 30
0.0
 11
102.469164
 21
72.66967300000001
 31
0.0
  0
LINE
  5
10E
330
1E
100
AcDbEntity
  8
0
100
AcDbLine
 10
101.343164
 20
72.723673
 30
0.0
 11
102.604164
 21
72.135373
 31
0.0
  0
LINE
  5
10F
330
1E
100
AcDbEntity
  8
0
100
AcDbLine
 10
102.469164
 20
72.66967300000001
 30
0.0
 11
102.942164
 21
72.449073
 31
0.0
  0
LINE
  5
110
330
1E
100
AcDbEntity
  8
0
100
AcDbLine
 10
102.604164
 20
72.135373
 30
0.0
 11
103.0771639999999
 21
71.91477299999999
 31
0.0
  0
LINE
  5
111
330
1E
100
AcDbEntity
  8
0
100
AcDbLine
 10
102.942164
 20
72.449073
 30
0.0
 11
103.0771639999999
 21
71.91477299999999
 31
0.0
  0
LINE
  5
112
330
1E
100
AcDbEntity
  8
0
100
AcDbLine
 10
23.071264
 20
70.70767299999999
 30
0.0
 11
33.604164
 21
67.267273
 31
0.0
  0
LINE
  5
113
330
1E
100
AcDbEntity
  8
0
100
AcDbLine
 10
15.257264
 20
72.88017299999999
 30
0.0
 11
23.071264
 21
70.70767299999999
 31
0.0
  0
LINE
  5
114
330
1E
100
AcDbEntity
  8
0
100
AcDbLine
 10
40.23006399999999
 20
64.913173
 30
0.0
 11
48.668564
 21
61.71377299999999
 31
0.0
  0
LINE
  5
115
330
1E
100
AcDbEntity
  8
0
100
AcDbLine
 10
11.129664
 20
71.127073
 30
0.0
 11
73.211764
 21
42.177673
 31
0.0
  0
LINE
  5
116
330
1E
100
AcDbEntity
  8
0
100
AcDbLine
 10
6.879964000000009
 20
59.868173
 30
0.0
 11
68.140364
 21
31.30197299999999
 31
0.0
  0
LINE
  5
117
330
1E
100
AcDbEntity
  8
0
100
AcDbLine
 10
6.879964000000009
 20
59.868173
 30
0.0
 11
68.140364
 21
31.30197299999999
 31
0.0
  0
LINE
  5
119
330
1E
100
AcDbEntity
  8
0
100
AcDbLine
 10
135.6601639999999
 20
-0.183072999999978
 30
0.0
 11
136.8481639999999
 21
-0.0014859999999777
 31
0.0
  0
LINE
  5
11A
330
1E
100
AcDbEntity
  8
0
100
AcDbLine
 10
136.6851639999999
 20
0.0745850000000223
 30
0.0
 11
136.8481639999999
 21
-0.0014859999999777
 31
0.0
  0
LINE
  5
11B
330
1E
100
AcDbEntity
  8
0
100
AcDbLine
 10
136.8481639999999
 20
-0.0014859999999777
 30
0.0
 11
141.6381639999999
 21
10.269973
 31
0.0
  0
LINE
  5
11C
330
1E
100
AcDbEntity
  8
0
100
AcDbLine
 10
136.8481639999999
 20
-0.0014859999999772
 30
0.0
 11
141.6381639999999
 21
10.269973
 31
0.0
  0
LINE
  5
11D
330
1E
100
AcDbEntity
  8
0
100
AcDbLine
 10
133.9831639999999
 20
17.517173
 30
0.0
 11
138.8581639999999
 21
13.773073
 31
0.0
  0
LINE
  5
11E
330
1E
100
AcDbEntity
  8
0
100
AcDbLine
 10
134.492164
 20
1.097322000000019
 30
0.0
 11
135.4891639999999
 21
0.632442000000022
 31
0.0
  0
LINE
  5
11F
330
1E
100
AcDbEntity
  8
0
100
AcDbLine
 10
135.4891639999999
 20
0.632442000000022
 30
0.0
 11
136.2141639999999
 21
0.2943470000000219
 31
0.0
  0
LINE
  5
120
330
1E
100
AcDbEntity
  8
0
100
AcDbLine
 10
136.2141639999999
 20
0.2943470000000219
 30
0.0
 11
136.6851639999999
 21
0.0745850000000223
 31
0.0
  0
LINE
  5
121
330
1E
100
AcDbEntity
  8
0
100
AcDbLine
 10
136.2141639999999
 20
0.2943470000000219
 30
0.0
 11
136.6851639999999
 21
0.0745850000000223
 31
0.0
  0
LINE
  5
122
330
1E
100
AcDbEntity
  8
0
100
AcDbLine
 10
140.278164
 20
10.903973
 30
0.0
 11
141.0031639999999
 21
10.565873
 31
0.0
  0
LINE
  5
123
330
1E
100
AcDbEntity
  8
0
100
AcDbLine
 10
141.0031639999999
 20
10.565873
 30
0.0
 11
141.4751639999999
 21
10.346073
 31
0.0
  0
LINE
  5
124
330
1E
100
AcDbEntity
  8
0
100
AcDbLine
 10
141.4751639999999
 20
10.346073
 30
0.0
 11
141.6381639999999
 21
10.269973
 31
0.0
  0
LINE
  5
125
330
1E
100
AcDbEntity
  8
0
100
AcDbLine
 10
141.466164
 20
11.08557299999999
 30
0.0
 11
141.6381639999999
 21
10.269973
 31
0.0
  0
LINE
  5
126
330
1E
100
AcDbEntity
  8
0
100
AcDbLine
 10
139.2811639999999
 20
11.36877299999999
 30
0.0
 11
140.278164
 21
10.903973
 31
0.0
  0
LINE
  5
127
330
1E
100
AcDbEntity
  8
0
100
AcDbLine
 10
138.0131639999999
 20
11.960473
 30
0.0
 11
139.2811639999999
 21
11.36877299999999
 31
0.0
  0
LINE
  5
128
330
1E
100
AcDbEntity
  8
0
100
AcDbLine
 10
138.8581639999999
 20
13.773073
 30
0.0
 11
141.466164
 21
11.08557299999999
 31
0.0
  0
LINE
  5
129
330
1E
100
AcDbEntity
  8
0
100
AcDbLine
 10
136.6891639999999
 20
12.577473
 30
0.0
 11
138.0131639999999
 21
11.960473
 31
0.0
  0
LINE
  5
12A
330
1E
100
AcDbEntity
  8
0
100
AcDbLine
 10
135.294164
 20
13.228373
 30
0.0
 11
136.6891639999999
 21
12.577473
 31
0.0
  0
LINE
  5
12E
330
1E
100
AcDbEntity
  8
0
100
AcDbLine
 10
98.74046400000001
 20
74.40857300000001
 30
0.0
 11
99.18838391145079
 21
74.19969645135241
 31
0.0
  0
LINE
  5
12F
330
1E
100
AcDbEntity
  8
0
100
AcDbLine
 10
98.74046400000001
 20
74.40857300000001
 30
0.0
 11
99.188383911452
 21
74.19969645135191
 31
0.0
  0
LINE
  5
130
330
1E
100
AcDbEntity
  8
0
100
AcDbLine
 10
80.5907123516603
 20
82.87195824006051
 30
0.0
 11
80.905964
 21
82.72497299999999
 31
0.0
  0
LINE
  5
133
330
1E
100
AcDbEntity
  8
0
100
AcDbLine
 10
80.5907123516612
 20
82.8719582400601
 30
0.0
 11
80.905964
 21
82.72497299999999
 31
0.0
  0
LINE
  5
134
330
1E
100
AcDbEntity
  8
0
100
AcDbLine
 10
79.69397315499121
 20
83.29008076974
 30
0.0
 11
80.10966399999999
 21
83.64287299999999
 31
0.0
  0
LINE
  5
138
330
1E
100
AcDbEntity
  8
0
100
AcDbLine
 10
88.85371484240749
 20
79.01883141408091
 30
0.0
 11
88.92246400000001
 21
78.986773
 31
0.0
  0
LINE
  5
139
330
1E
100
AcDbEntity
  8
0
100
AcDbLine
 10
88.92246400000001
 20
78.986773
 30
0.0
 11
90.11646400000001
 21
78.429973
 31
0.0
  0
LINE
  5
13A
330
1E
100
AcDbEntity
  8
0
100
AcDbLine
 10
88.85371484240231
 20
79.0188314140833
 30
0.0
 11
88.92246400000001
 21
78.986773
 31
0.0
  0
LINE
  5
13B
330
1E
100
AcDbEntity
  8
0
100
AcDbLine
 10
86.80486399999999
 20
79.974273
 30
0.0
 11
90.11646400000001
 21
78.429973
 31
0.0
  0
LINE
  5
13C
330
1E
100
AcDbEntity
  8
0
100
AcDbLine
 10
86.57166399999999
 20
79.611473
 30
0.0
 11
89.93586399999999
 21
78.04277299999999
 31
0.0
  0
LINE
  5
13D
330
1E
100
AcDbEntity
  8
0
100
AcDbLine
 10
80.905964
 20
82.72497299999999
 30
0.0
 11
81.0338560149235
 21
82.66533367164269
 31
0.0
  0
LINE
  5
13E
330
1E
100
AcDbEntity
  8
0
100
AcDbLine
 10
80.905964
 20
82.72497299999999
 30
0.0
 11
81.03385601492309
 21
82.6653336716429
 31
0.0
  0
LINE
  5
144
330
1E
100
AcDbEntity
  8
0
100
AcDbLine
 10
83.6650224071184
 20
81.4383805221059
 30
0.0
 11
83.721464
 21
81.41207299999999
 31
0.0
  0
LINE
  5
146
330
1E
100
AcDbEntity
  8
0
100
AcDbLine
 10
83.721464
 20
81.41207299999999
 30
0.0
 11
84.37885754838559
 21
81.10551816129108
 31
0.0
  0
LINE
  5
148
330
1E
100
AcDbEntity
  8
0
100
AcDbLine
 10
83.721464
 20
81.41207299999999
 30
0.0
 11
84.3788575483826
 21
81.1055181612925
 31
0.0
  0
LINE
  5
14A
330
1E
100
AcDbEntity
  8
0
100
AcDbLine
 10
83.755964
 20
81.395973
 30
0.0
 11
86.80486399999999
 21
79.974273
 31
0.0
  0
LINE
  5
14B
330
1E
100
AcDbEntity
  8
0
100
AcDbLine
 10
81.07516399999999
 20
82.64607299999999
 30
0.0
 11
83.755964
 21
81.395973
 31
0.0
  0
LINE
  5
14C
330
1E
100
AcDbEntity
  8
0
100
AcDbLine
 10
83.417764
 20
81.08217299999999
 30
0.0
 11
86.57166399999999
 21
79.611473
 31
0.0
  0
LINE
  5
14D
330
1E
100
AcDbEntity
  8
0
100
AcDbLine
 10
80.63176400000001
 20
82.381273
 30
0.0
 11
83.417764
 21
81.08217299999999
 31
0.0
  0
LINE
  5
14E
330
1E
100
AcDbEntity
  8
0
100
AcDbLine
 10
80.10966399999999
 20
83.64287299999999
 30
0.0
 11
82.539264
 21
84.69617300000001
 31
0.0
  0
LINE
  5
154
330
1E
100
AcDbEntity
  8
0
100
AcDbLine
 10
79.025064
 20
83.60197300000001
 30
0.0
 11
81.07516399999999
 21
82.64607299999999
 31
0.0
  0
LINE
  5
155
330
1E
100
AcDbEntity
  8
0
100
AcDbLine
 10
78.52906400000001
 20
83.36177300000001
 30
0.0
 11
80.63176400000001
 21
82.381273
 31
0.0
  0
LINE
  5
156
330
1E
100
AcDbEntity
  8
0
100
AcDbLine
 10
77.26756400000001
 20
83.95007300000001
 30
0.0
 11
78.52906400000001
 21
83.36177300000001
 31
0.0
  0
LINE
  5
157
330
1E
100
AcDbEntity
  8
0
100
AcDbLine
 10
82.364364
 20
86.40027299999999
 30
0.0
 11
83.32646399999999
 21
85.95167299999999
 31
0.0
  0
LINE
  5
158
330
1E
100
AcDbEntity
  8
0
100
AcDbLine
 10
82.003564
 20
86.568573
 30
0.0
 11
82.364364
 21
86.40027299999999
 31
0.0
  0
LINE
  5
159
330
1E
100
AcDbEntity
  8
0
100
AcDbLine
 10
81.968364
 20
87.12107299999999
 30
0.0
 11
86.43406400000001
 21
96.69777299999999
 31
0.0
  0
LINE
  5
15A
330
1E
100
AcDbEntity
  8
0
100
AcDbLine
 10
81.968364
 20
87.12107299999999
 30
0.0
 11
82.003564
 21
86.568573
 31
0.0
  0
LINE
  5
160
330
1E
100
AcDbEntity
  8
0
100
AcDbLine
 10
84.889764
 20
85.22267300000001
 30
0.0
 11
84.96120624710901
 21
85.1893612395847
 31
0.0
  0
LINE
  5
161
330
1E
100
AcDbEntity
  8
0
100
AcDbLine
 10
83.32646399999999
 20
85.95167299999999
 30
0.0
 11
84.889764
 21
85.22267300000001
 31
0.0
  0
LINE
  5
162
330
1E
100
AcDbEntity
  8
0
100
AcDbLine
 10
89.360364
 20
95.33327299999999
 30
0.0
 11
91.484964
 21
94.342473
 31
0.0
  0
LINE
  5
163
330
1E
100
AcDbEntity
  8
0
100
AcDbLine
 10
87.75696399999999
 20
96.080973
 30
0.0
 11
89.360364
 21
95.33327299999999
 31
0.0
  0
LINE
  5
164
330
1E
100
AcDbEntity
  8
0
100
AcDbLine
 10
89.13586399999999
 20
102.3970729999999
 30
0.0
 11
93.436964
 21
108.9070729999999
 31
0.0
  0
LINE
  5
165
330
1E
100
AcDbEntity
  8
0
100
AcDbLine
 10
86.5681950207119
 20
96.63524296207391
 30
0.0
 11
89.13586399999999
 21
102.3970729999999
 31
0.0
  0
LINE
  5
166
330
1E
100
AcDbEntity
  8
0
100
AcDbLine
 10
86.794864
 20
96.529573
 30
0.0
 11
87.75696399999999
 21
96.080973
 31
0.0
  0
LINE
  5
167
330
1E
100
AcDbEntity
  8
0
100
AcDbLine
 10
86.43406400000001
 20
96.69777299999999
 30
0.0
 11
86.794864
 21
96.529573
 31
0.0
  0
LINE
  5
169
330
1E
100
AcDbEntity
  8
0
100
AcDbLine
 10
82.539264
 20
84.69617300000001
 30
0.0
 11
84.96120624710901
 21
85.1893612395847
 31
0.0
  0
LINE
  5
16E
330
1E
100
AcDbEntity
  8
0
100
AcDbLine
 10
77.763464
 20
84.19027300000001
 30
0.0
 11
79.025064
 21
83.60197300000001
 31
0.0
  0
LINE
  5
16F
330
1E
100
AcDbEntity
  8
0
100
AcDbLine
 10
77.290364
 20
84.41087299999999
 30
0.0
 11
77.763464
 21
84.19027300000001
 31
0.0
  0
LINE
  5
170
330
1E
100
AcDbEntity
  8
0
100
AcDbLine
 10
76.794464
 20
84.1706730000001
 30
0.0
 11
77.26756400000001
 21
83.95007300000001
 31
0.0
  0
LINE
  5
171
330
1E
100
AcDbEntity
  8
0
100
AcDbLine
 10
76.794464
 20
84.1706730000001
 30
0.0
 11
77.290364
 21
84.41087299999999
 31
0.0
  0
LINE
  5
175
330
1E
100
AcDbEntity
  8
0
100
AcDbLine
 10
91.484964
 20
94.342473
 30
0.0
 11
93.890164
 21
93.22097300000001
 31
0.0
  0
LINE
  5
177
330
1E
100
AcDbEntity
  8
0
100
AcDbLine
 10
90.11646400000001
 20
78.429973
 30
0.0
 11
98.74046400000001
 21
74.40857300000001
 31
0.0
  0
LINE
  5
178
330
1E
100
AcDbEntity
  8
0
100
AcDbLine
 10
89.93586399999999
 20
78.04277299999999
 30
0.0
 11
93.300064
 21
76.473973
 31
0.0
  0
LINE
  5
181
330
1E
100
AcDbEntity
  8
0
100
AcDbLine
 10
93.436964
 20
108.9070729999999
 30
0.0
 11
98.58876399999999
 21
114.8250729999999
 31
0.0
  0
LINE
  5
182
330
1E
100
AcDbEntity
  8
0
100
AcDbLine
 10
93.890164
 20
93.22097300000001
 30
0.0
 11
96.45576400000001
 21
92.024573
 31
0.0
  0
LINE
  5
183
330
1E
100
AcDbEntity
  8
0
100
AcDbLine
 10
96.45576400000001
 20
92.024573
 30
0.0
 11
99.02136400000001
 21
90.82827299999999
 31
0.0
  0
LINE
  5
185
330
1E
100
AcDbEntity
  8
0
100
AcDbLine
 10
93.300064
 20
76.473973
 30
0.0
 11
96.454064
 21
75.00327299999999
 31
0.0
  0
LINE
  5
18C
330
1E
100
AcDbEntity
  8
0
100
AcDbLine
 10
98.608164
 20
78.82567299999999
 30
0.0
 11
99.78716400000001
 21
76.653373
 31
0.0
  0
LINE
  5
192
330
1E
100
AcDbEntity
  8
0
100
AcDbLine
 10
98.679664
 20
78.79237299999999
 30
0.0
 11
100.243164
 21
78.063373
 31
0.0
  0
LINE
  5
193
330
1E
100
AcDbEntity
  8
0
100
AcDbLine
 10
98.58876399999999
 20
114.8250729999999
 30
0.0
 11
104.389164
 21
119.9240729999999
 31
0.0
  0
LINE
  5
194
330
1E
100
AcDbEntity
  8
0
100
AcDbLine
 10
99.02136400000001
 20
90.82827299999999
 30
0.0
 11
101.4261639999999
 21
89.706673
 31
0.0
  0
LINE
  5
196
330
1E
100
AcDbEntity
  8
0
100
AcDbLine
 10
96.454064
 20
75.00327299999999
 30
0.0
 11
99.24006400000001
 21
73.70417299999999
 31
0.0
  0
LINE
  5
197
330
1E
100
AcDbEntity
  8
0
100
AcDbLine
 10
99.78716400000001
 20
76.653373
 30
0.0
 11
100.542164
 21
74.115073
 31
0.0
  0
LINE
  5
19D
330
1E
100
AcDbEntity
  8
0
100
AcDbLine
 10
101.2051639999999
 20
77.614773
 30
0.0
 11
101.566164
 21
77.446473
 31
0.0
  0
LINE
  5
19E
330
1E
100
AcDbEntity
  8
0
100
AcDbLine
 10
101.566164
 20
77.446473
 30
0.0
 11
102.0121639999999
 21
77.77467299999999
 31
0.0
  0
LINE
  5
1A0
330
1E
100
AcDbEntity
  8
0
100
AcDbLine
 10
100.243164
 20
78.063373
 30
0.0
 11
101.2051639999999
 21
77.614773
 31
0.0
  0
LINE
  5
1A1
330
1E
100
AcDbEntity
  8
0
100
AcDbLine
 10
101.4261639999999
 20
89.706673
 30
0.0
 11
103.5511639999999
 21
88.71597299999999
 31
0.0
  0
LINE
  5
1A2
330
1E
100
AcDbEntity
  8
0
100
AcDbLine
 10
104.389164
 20
119.9240729999999
 30
0.0
 11
110.8041639999999
 21
124.2200729999999
 31
0.0
  0
LINE
  5
1A3
330
1E
100
AcDbEntity
  8
0
100
AcDbLine
 10
103.5511639999999
 20
88.71597299999999
 30
0.0
 11
105.1541639999999
 21
87.968273
 31
0.0
  0
LINE
  5
1A4
330
1E
100
AcDbEntity
  8
0
100
AcDbLine
 10
105.1541639999999
 20
87.968273
 30
0.0
 11
106.1161639999999
 21
87.519673
 31
0.0
  0
LINE
  5
1A5
330
1E
100
AcDbEntity
  8
0
100
AcDbLine
 10
304.004164
 20
81.69917299999999
 30
0.0
 11
304.247164
 21
81.33787299999999
 31
0.0
  0
LINE
  5
1B8
330
1E
100
AcDbEntity
  8
0
100
AcDbLine
 10
304.004164
 20
81.914773
 30
0.0
 11
304.004164
 21
81.74147299999999
 31
0.0
  0
LINE
  5
1BA
330
1E
100
AcDbEntity
  8
0
100
AcDbLine
 10
304.004164
 20
81.74147299999999
 30
0.0
 11
304.004164
 21
81.914773
 31
0.0
  0
LINE
  5
1BD
330
1E
100
AcDbEntity
  8
0
100
AcDbLine
 10
106.337743970497
 20
87.41643269241649
 30
0.0
 11
108.2621639999999
 21
91.50787300000001
 31
0.0
  0
LINE
  5
1C2
330
1E
100
AcDbEntity
  8
0
100
AcDbLine
 10
108.2621639999999
 20
91.50787300000001
 30
0.0
 11
110.9631639999999
 21
95.58427299999999
 31
0.0
  0
LINE
  5
1C7
330
1E
100
AcDbEntity
  8
0
100
AcDbLine
 10
110.9631639999999
 20
95.58427299999999
 30
0.0
 11
114.1401639999999
 21
99.23627299999999
 31
0.0
  0
LINE
  5
1CF
330
1E
100
AcDbEntity
  8
0
100
AcDbLine
 10
117.7781639999999
 20
102.434073
 30
0.0
 11
121.8011639999999
 21
105.1280729999999
 31
0.0
  0
LINE
  5
1D0
330
1E
100
AcDbEntity
  8
0
100
AcDbLine
 10
121.8011639999999
 20
105.1280729999999
 30
0.0
 11
126.1401639999999
 21
107.2730729999999
 31
0.0
  0
LINE
  5
1D1
330
1E
100
AcDbEntity
  8
0
100
AcDbLine
 10
114.1401639999999
 20
99.23627299999999
 30
0.0
 11
117.7781639999999
 21
102.434073
 31
0.0
  0
LINE
  5
1D5
330
1E
100
AcDbEntity
  8
0
100
AcDbLine
 10
321.004164
 20
81.23617299999999
 30
0.0
 11
321.004164
 21
81.409373
 31
0.0
  0
LINE
  5
1D6
330
1E
100
AcDbEntity
  8
0
100
AcDbLine
 10
321.004164
 20
81.23617299999999
 30
0.0
 11
321.004164
 21
81.18307299999999
 31
0.0
  0
LINE
  5
1D7
330
1E
100
AcDbEntity
  8
0
100
AcDbLine
 10
321.004164
 20
81.18307299999999
 30
0.0
 11
321.004164
 21
81.23617299999999
 31
0.0
  0
LINE
  5
1D8
330
1E
100
AcDbEntity
  8
0
100
AcDbLine
 10
304.814164
 20
81.18307299999999
 30
0.0
 11
321.004164
 21
81.18307299999999
 31
0.0
  0
LINE
  5
1F9
330
1E
100
AcDbEntity
  8
0
100
AcDbLine
 10
321.004164
 20
86.935873
 30
0.0
 11
321.004164
 21
86.112073
 31
0.0
  0
LINE
  5
1FA
330
1E
100
AcDbEntity
  8
0
100
AcDbLine
 10
321.004164
 20
86.935873
 30
0.0
 11
321.004164
 21
87.886573
 31
0.0
  0
LINE
  5
1FB
330
1E
100
AcDbEntity
  8
0
100
AcDbLine
 10
321.004164
 20
87.886573
 30
0.0
 11
321.004164
 21
86.935873
 31
0.0
  0
LINE
  5
1FC
330
1E
100
AcDbEntity
  8
0
100
AcDbLine
 10
321.004164
 20
87.886573
 30
0.0
 11
321.004164
 21
88.776773
 31
0.0
  0
LINE
  5
1FD
330
1E
100
AcDbEntity
  8
0
100
AcDbLine
 10
321.004164
 20
88.776773
 30
0.0
 11
321.004164
 21
87.886573
 31
0.0
  0
LINE
  5
1FE
330
1E
100
AcDbEntity
  8
0
100
AcDbLine
 10
321.004164
 20
88.776773
 30
0.0
 11
321.004164
 21
90.02127299999999
 31
0.0
  0
LINE
  5
1FF
330
1E
100
AcDbEntity
  8
0
100
AcDbLine
 10
321.004164
 20
90.02127299999999
 30
0.0
 11
321.004164
 21
88.776773
 31
0.0
  0
LINE
  5
200
330
1E
100
AcDbEntity
  8
0
100
AcDbLine
 10
321.004164
 20
90.02127299999999
 30
0.0
 11
321.004164
 21
91.46467300000001
 31
0.0
  0
LINE
  5
201
330
1E
100
AcDbEntity
  8
0
100
AcDbLine
 10
321.004164
 20
91.46467300000001
 30
0.0
 11
321.004164
 21
90.02127299999999
 31
0.0
  0
LINE
  5
202
330
1E
100
AcDbEntity
  8
0
100
AcDbLine
 10
321.004164
 20
91.46467300000001
 30
0.0
 11
321.004164
 21
93.21767300000001
 31
0.0
  0
LINE
  5
203
330
1E
100
AcDbEntity
  8
0
100
AcDbLine
 10
321.004164
 20
93.21767300000001
 30
0.0
 11
321.004164
 21
91.46467300000001
 31
0.0
  0
LINE
  5
204
330
1E
100
AcDbEntity
  8
0
100
AcDbLine
 10
321.004164
 20
93.21767300000001
 30
0.0
 11
321.004164
 21
96.458773
 31
0.0
  0
LINE
  5
205
330
1E
100
AcDbEntity
  8
0
100
AcDbLine
 10
321.004164
 20
96.458773
 30
0.0
 11
321.004164
 21
93.21767300000001
 31
0.0
  0
LINE
  5
206
330
1E
100
AcDbEntity
  8
0
100
AcDbLine
 10
321.004164
 20
96.458773
 30
0.0
 11
321.004164
 21
100.421073
 31
0.0
  0
LINE
  5
207
330
1E
100
AcDbEntity
  8
0
100
AcDbLine
 10
321.004164
 20
100.421073
 30
0.0
 11
321.004164
 21
96.458773
 31
0.0
  0
LINE
  5
208
330
1E
100
AcDbEntity
  8
0
100
AcDbLine
 10
321.004164
 20
100.421073
 30
0.0
 11
321.004164
 21
106.163073
 31
0.0
  0
LINE
  5
209
330
1E
100
AcDbEntity
  8
0
100
AcDbLine
 10
321.004164
 20
106.163073
 30
0.0
 11
321.004164
 21
100.421073
 31
0.0
  0
LINE
  5
20A
330
1E
100
AcDbEntity
  8
0
100
AcDbLine
 10
321.004164
 20
106.163073
 30
0.0
 11
321.004164
 21
112.714073
 31
0.0
  0
LINE
  5
20B
330
1E
100
AcDbEntity
  8
0
100
AcDbLine
 10
321.004164
 20
86.112073
 30
0.0
 11
321.004164
 21
85.384273
 31
0.0
  0
LINE
  5
20C
330
1E
100
AcDbEntity
  8
0
100
AcDbLine
 10
321.004164
 20
86.112073
 30
0.0
 11
321.004164
 21
86.935873
 31
0.0
  0
LINE
  5
20D
330
1E
100
AcDbEntity
  8
0
100
AcDbLine
 10
321.004164
 20
85.384273
 30
0.0
 11
321.004164
 21
86.112073
 31
0.0
  0
LINE
  5
20E
330
1E
100
AcDbEntity
  8
0
100
AcDbLine
 10
321.004164
 20
85.384273
 30
0.0
 11
321.004164
 21
84.75297299999999
 31
0.0
  0
LINE
  5
20F
330
1E
100
AcDbEntity
  8
0
100
AcDbLine
 10
321.004164
 20
84.75297299999999
 30
0.0
 11
321.004164
 21
85.384273
 31
0.0
  0
LINE
  5
210
330
1E
100
AcDbEntity
  8
0
100
AcDbLine
 10
321.004164
 20
84.75297299999999
 30
0.0
 11
321.004164
 21
84.24277299999999
 31
0.0
  0
LINE
  5
211
330
1E
100
AcDbEntity
  8
0
100
AcDbLine
 10
321.004164
 20
84.24277299999999
 30
0.0
 11
321.004164
 21
84.75297299999999
 31
0.0
  0
LINE
  5
212
330
1E
100
AcDbEntity
  8
0
100
AcDbLine
 10
321.004164
 20
84.24277299999999
 30
0.0
 11
321.004164
 21
83.74127299999999
 31
0.0
  0
LINE
  5
213
330
1E
100
AcDbEntity
  8
0
100
AcDbLine
 10
321.004164
 20
83.74127299999999
 30
0.0
 11
321.004164
 21
84.24277299999999
 31
0.0
  0
LINE
  5
214
330
1E
100
AcDbEntity
  8
0
100
AcDbLine
 10
321.004164
 20
83.74127299999999
 30
0.0
 11
321.004164
 21
83.386673
 31
0.0
  0
LINE
  5
215
330
1E
100
AcDbEntity
  8
0
100
AcDbLine
 10
321.004164
 20
83.386673
 30
0.0
 11
321.004164
 21
83.74127299999999
 31
0.0
  0
LINE
  5
216
330
1E
100
AcDbEntity
  8
0
100
AcDbLine
 10
321.004164
 20
83.386673
 30
0.0
 11
321.004164
 21
83.063073
 31
0.0
  0
LINE
  5
217
330
1E
100
AcDbEntity
  8
0
100
AcDbLine
 10
321.004164
 20
83.063073
 30
0.0
 11
321.004164
 21
83.386673
 31
0.0
  0
LINE
  5
218
330
1E
100
AcDbEntity
  8
0
100
AcDbLine
 10
321.004164
 20
83.063073
 30
0.0
 11
321.004164
 21
82.676973
 31
0.0
  0
LINE
  5
219
330
1E
100
AcDbEntity
  8
0
100
AcDbLine
 10
321.004164
 20
82.676973
 30
0.0
 11
321.004164
 21
83.063073
 31
0.0
  0
LINE
  5
21A
330
1E
100
AcDbEntity
  8
0
100
AcDbLine
 10
321.004164
 20
82.676973
 30
0.0
 11
321.004164
 21
82.20457299999999
 31
0.0
  0
LINE
  5
21B
330
1E
100
AcDbEntity
  8
0
100
AcDbLine
 10
321.004164
 20
82.20457299999999
 30
0.0
 11
321.004164
 21
82.676973
 31
0.0
  0
LINE
  5
21C
330
1E
100
AcDbEntity
  8
0
100
AcDbLine
 10
321.004164
 20
82.20457299999999
 30
0.0
 11
321.004164
 21
81.770373
 31
0.0
  0
LINE
  5
21D
330
1E
100
AcDbEntity
  8
0
100
AcDbLine
 10
321.004164
 20
81.770373
 30
0.0
 11
321.004164
 21
82.20457299999999
 31
0.0
  0
LINE
  5
21E
330
1E
100
AcDbEntity
  8
0
100
AcDbLine
 10
321.004164
 20
81.770373
 30
0.0
 11
321.004164
 21
81.409373
 31
0.0
  0
LINE
  5
21F
330
1E
100
AcDbEntity
  8
0
100
AcDbLine
 10
321.004164
 20
81.409373
 30
0.0
 11
321.004164
 21
81.770373
 31
0.0
  0
LINE
  5
220
330
1E
100
AcDbEntity
  8
0
100
AcDbLine
 10
321.004164
 20
81.409373
 30
0.0
 11
321.004164
 21
81.23617299999999
 31
0.0
  0
LINE
  5
221
330
1E
100
AcDbEntity
  8
0
100
AcDbLine
 10
304.247164
 20
81.409373
 30
0.0
 11
304.247164
 21
81.33787299999999
 31
0.0
  0
LINE
  5
223
330
1E
100
AcDbEntity
  8
0
100
AcDbLine
 10
304.247164
 20
81.33787299999999
 30
0.0
 11
304.814164
 21
81.18307299999999
 31
0.0
  0
LINE
  5
224
330
1E
100
AcDbEntity
  8
0
100
AcDbLine
 10
304.247164
 20
81.33787299999999
 30
0.0
 11
304.247164
 21
81.409373
 31
0.0
  0
LINE
  5
227
330
1E
100
AcDbEntity
  8
0
100
AcDbLine
 10
140.2951639999999
 20
110.096073
 30
0.0
 11
304.004164
 21
110.096073
 31
0.0
  0
LINE
  5
228
330
1E
100
AcDbEntity
  8
0
100
AcDbLine
 10
135.467164
 20
109.7780729999999
 30
0.0
 11
140.2951639999999
 21
110.096073
 31
0.0
  0
LINE
  5
229
330
1E
100
AcDbEntity
  8
0
100
AcDbLine
 10
130.7221639999999
 20
108.8320729999999
 30
0.0
 11
135.467164
 21
109.7780729999999
 31
0.0
  0
LINE
  5
22A
330
1E
100
AcDbEntity
  8
0
100
AcDbLine
 10
126.1401639999999
 20
107.2730729999999
 30
0.0
 11
130.7221639999999
 21
108.8320729999999
 31
0.0
  0
LINE
  5
22B
330
1E
100
AcDbEntity
  8
0
100
AcDbLine
 10
140.2951639999999
 20
110.096073
 30
0.0
 11
304.004164
 21
110.096073
 31
0.0
  0
LINE
  5
22E
330
1E
100
AcDbEntity
  8
0
100
AcDbLine
 10
110.8041639999999
 20
124.2200729999999
 30
0.0
 11
117.7241639999999
 21
127.641073
 31
0.0
  0
LINE
  5
22F
330
1E
100
AcDbEntity
  8
0
100
AcDbLine
 10
140.2951639999999
 20
132.1410729999999
 30
0.0
 11
304.004164
 21
132.1410729999999
 31
0.0
  0
LINE
  5
230
330
1E
100
AcDbEntity
  8
0
100
AcDbLine
 10
132.5971639999999
 20
131.636073
 30
0.0
 11
140.2951639999999
 21
132.1410729999999
 31
0.0
  0
LINE
  5
231
330
1E
100
AcDbEntity
  8
0
100
AcDbLine
 10
125.0301639999999
 20
130.1270729999999
 30
0.0
 11
132.5971639999999
 21
131.636073
 31
0.0
  0
LINE
  5
232
330
1E
100
AcDbEntity
  8
0
100
AcDbLine
 10
117.7241639999999
 20
127.641073
 30
0.0
 11
125.0301639999999
 21
130.1270729999999
 31
0.0
  0
LINE
  5
233
330
1E
100
AcDbEntity
  8
0
100
AcDbLine
 10
140.2951639999999
 20
132.1410729999999
 30
0.0
 11
304.004164
 21
132.1410729999999
 31
0.0
  0
LINE
  5
262
330
1E
100
AcDbEntity
  8
0
100
AcDbLine
 10
304.004164
 20
160.6670729999999
 30
0.0
 11
304.247164
 21
161.028073
 31
0.0
  0
LINE
  5
268
330
1E
100
AcDbEntity
  8
0
100
AcDbLine
 10
321.004164
 20
112.714073
 30
0.0
 11
321.004164
 21
106.163073
 31
0.0
  0
LINE
  5
269
330
1E
100
AcDbEntity
  8
0
100
AcDbLine
 10
321.004164
 20
112.714073
 30
0.0
 11
321.004164
 21
117.7720729999999
 31
0.0
  0
LINE
  5
26A
330
1E
100
AcDbEntity
  8
0
100
AcDbLine
 10
321.004164
 20
117.7720729999999
 30
0.0
 11
321.004164
 21
112.714073
 31
0.0
  0
LINE
  5
26B
330
1E
100
AcDbEntity
  8
0
100
AcDbLine
 10
321.004164
 20
117.7720729999999
 30
0.0
 11
321.004164
 21
121.1830729999999
 31
0.0
  0
LINE
  5
294
330
1E
100
AcDbEntity
  8
0
100
AcDbLine
 10
304.247164
 20
161.028073
 30
0.0
 11
304.814164
 21
161.183073
 31
0.0
  0
LINE
  5
296
330
1E
100
AcDbEntity
  8
0
100
AcDbLine
 10
321.004164
 20
156.9820729999999
 30
0.0
 11
321.004164
 21
156.254073
 31
0.0
  0
LINE
  5
297
330
1E
100
AcDbEntity
  8
0
100
AcDbLine
 10
321.004164
 20
156.9820729999999
 30
0.0
 11
321.004164
 21
157.6130729999999
 31
0.0
  0
LINE
  5
298
330
1E
100
AcDbEntity
  8
0
100
AcDbLine
 10
321.004164
 20
157.6130729999999
 30
0.0
 11
321.004164
 21
156.9820729999999
 31
0.0
  0
LINE
  5
299
330
1E
100
AcDbEntity
  8
0
100
AcDbLine
 10
321.004164
 20
157.6130729999999
 30
0.0
 11
321.004164
 21
158.123073
 31
0.0
  0
LINE
  5
29A
330
1E
100
AcDbEntity
  8
0
100
AcDbLine
 10
321.004164
 20
158.123073
 30
0.0
 11
321.004164
 21
157.6130729999999
 31
0.0
  0
LINE
  5
29B
330
1E
100
AcDbEntity
  8
0
100
AcDbLine
 10
321.004164
 20
158.123073
 30
0.0
 11
321.004164
 21
158.6250729999999
 31
0.0
  0
LINE
  5
29C
330
1E
100
AcDbEntity
  8
0
100
AcDbLine
 10
321.004164
 20
158.6250729999999
 30
0.0
 11
321.004164
 21
158.123073
 31
0.0
  0
LINE
  5
29D
330
1E
100
AcDbEntity
  8
0
100
AcDbLine
 10
321.004164
 20
158.6250729999999
 30
0.0
 11
321.004164
 21
158.9790729999999
 31
0.0
  0
LINE
  5
29E
330
1E
100
AcDbEntity
  8
0
100
AcDbLine
 10
321.004164
 20
158.9790729999999
 30
0.0
 11
321.004164
 21
158.6250729999999
 31
0.0
  0
LINE
  5
29F
330
1E
100
AcDbEntity
  8
0
100
AcDbLine
 10
321.004164
 20
158.9790729999999
 30
0.0
 11
321.004164
 21
159.303073
 31
0.0
  0
LINE
  5
2A0
330
1E
100
AcDbEntity
  8
0
100
AcDbLine
 10
321.004164
 20
159.303073
 30
0.0
 11
321.004164
 21
158.9790729999999
 31
0.0
  0
LINE
  5
2A1
330
1E
100
AcDbEntity
  8
0
100
AcDbLine
 10
321.004164
 20
159.303073
 30
0.0
 11
321.004164
 21
159.689073
 31
0.0
  0
LINE
  5
2A2
330
1E
100
AcDbEntity
  8
0
100
AcDbLine
 10
321.004164
 20
159.689073
 30
0.0
 11
321.004164
 21
159.303073
 31
0.0
  0
LINE
  5
2A3
330
1E
100
AcDbEntity
  8
0
100
AcDbLine
 10
321.004164
 20
159.689073
 30
0.0
 11
321.004164
 21
160.162073
 31
0.0
  0
LINE
  5
2A4
330
1E
100
AcDbEntity
  8
0
100
AcDbLine
 10
321.004164
 20
160.162073
 30
0.0
 11
321.004164
 21
159.689073
 31
0.0
  0
LINE
  5
2A5
330
1E
100
AcDbEntity
  8
0
100
AcDbLine
 10
321.004164
 20
160.162073
 30
0.0
 11
321.004164
 21
160.5960729999999
 31
0.0
  0
LINE
  5
2A6
330
1E
100
AcDbEntity
  8
0
100
AcDbLine
 10
321.004164
 20
160.5960729999999
 30
0.0
 11
321.004164
 21
160.162073
 31
0.0
  0
LINE
  5
2A7
330
1E
100
AcDbEntity
  8
0
100
AcDbLine
 10
321.004164
 20
160.5960729999999
 30
0.0
 11
321.004164
 21
160.957073
 31
0.0
  0
LINE
  5
2A8
330
1E
100
AcDbEntity
  8
0
100
AcDbLine
 10
321.004164
 20
160.957073
 30
0.0
 11
321.004164
 21
160.5960729999999
 31
0.0
  0
LINE
  5
2A9
330
1E
100
AcDbEntity
  8
0
100
AcDbLine
 10
321.004164
 20
160.957073
 30
0.0
 11
321.004164
 21
161.130073
 31
0.0
  0
LINE
  5
2AA
330
1E
100
AcDbEntity
  8
0
100
AcDbLine
 10
321.004164
 20
161.130073
 30
0.0
 11
321.004164
 21
160.957073
 31
0.0
  0
LINE
  5
2AB
330
1E
100
AcDbEntity
  8
0
100
AcDbLine
 10
321.004164
 20
161.130073
 30
0.0
 11
321.004164
 21
161.183073
 31
0.0
  0
LINE
  5
2AC
330
1E
100
AcDbEntity
  8
0
100
AcDbLine
 10
321.004164
 20
161.183073
 30
0.0
 11
321.004164
 21
161.130073
 31
0.0
  0
LINE
  5
2AD
330
1E
100
AcDbEntity
  8
0
100
AcDbLine
 10
321.004164
 20
156.254073
 30
0.0
 11
321.004164
 21
155.430073
 31
0.0
  0
LINE
  5
2AE
330
1E
100
AcDbEntity
  8
0
100
AcDbLine
 10
321.004164
 20
156.254073
 30
0.0
 11
321.004164
 21
156.9820729999999
 31
0.0
  0
LINE
  5
2AF
330
1E
100
AcDbEntity
  8
0
100
AcDbLine
 10
321.004164
 20
155.430073
 30
0.0
 11
321.004164
 21
156.254073
 31
0.0
  0
LINE
  5
2B0
330
1E
100
AcDbEntity
  8
0
100
AcDbLine
 10
321.004164
 20
155.430073
 30
0.0
 11
321.004164
 21
154.479073
 31
0.0
  0
LINE
  5
2B1
330
1E
100
AcDbEntity
  8
0
100
AcDbLine
 10
321.004164
 20
154.479073
 30
0.0
 11
321.004164
 21
155.430073
 31
0.0
  0
LINE
  5
2B2
330
1E
100
AcDbEntity
  8
0
100
AcDbLine
 10
321.004164
 20
154.479073
 30
0.0
 11
321.004164
 21
153.589073
 31
0.0
  0
LINE
  5
2B3
330
1E
100
AcDbEntity
  8
0
100
AcDbLine
 10
321.004164
 20
153.589073
 30
0.0
 11
321.004164
 21
154.479073
 31
0.0
  0
LINE
  5
2B4
330
1E
100
AcDbEntity
  8
0
100
AcDbLine
 10
321.004164
 20
153.589073
 30
0.0
 11
321.004164
 21
152.3450729999999
 31
0.0
  0
LINE
  5
2B5
330
1E
100
AcDbEntity
  8
0
100
AcDbLine
 10
321.004164
 20
152.3450729999999
 30
0.0
 11
321.004164
 21
153.589073
 31
0.0
  0
LINE
  5
2B6
330
1E
100
AcDbEntity
  8
0
100
AcDbLine
 10
321.004164
 20
152.3450729999999
 30
0.0
 11
321.004164
 21
150.9010729999999
 31
0.0
  0
LINE
  5
2B7
330
1E
100
AcDbEntity
  8
0
100
AcDbLine
 10
321.004164
 20
150.9010729999999
 30
0.0
 11
321.004164
 21
152.3450729999999
 31
0.0
  0
LINE
  5
2B8
330
1E
100
AcDbEntity
  8
0
100
AcDbLine
 10
321.004164
 20
150.9010729999999
 30
0.0
 11
321.004164
 21
149.148073
 31
0.0
  0
LINE
  5
2B9
330
1E
100
AcDbEntity
  8
0
100
AcDbLine
 10
321.004164
 20
149.148073
 30
0.0
 11
321.004164
 21
150.9010729999999
 31
0.0
  0
LINE
  5
2BA
330
1E
100
AcDbEntity
  8
0
100
AcDbLine
 10
321.004164
 20
149.148073
 30
0.0
 11
321.004164
 21
145.907073
 31
0.0
  0
LINE
  5
2BB
330
1E
100
AcDbEntity
  8
0
100
AcDbLine
 10
321.004164
 20
145.907073
 30
0.0
 11
321.004164
 21
149.148073
 31
0.0
  0
LINE
  5
2BC
330
1E
100
AcDbEntity
  8
0
100
AcDbLine
 10
321.004164
 20
145.907073
 30
0.0
 11
321.004164
 21
141.945073
 31
0.0
  0
LINE
  5
2BD
330
1E
100
AcDbEntity
  8
0
100
AcDbLine
 10
321.004164
 20
141.945073
 30
0.0
 11
321.004164
 21
145.907073
 31
0.0
  0
LINE
  5
2BE
330
1E
100
AcDbEntity
  8
0
100
AcDbLine
 10
321.004164
 20
141.945073
 30
0.0
 11
321.004164
 21
136.2030729999999
 31
0.0
  0
LINE
  5
2BF
330
1E
100
AcDbEntity
  8
0
100
AcDbLine
 10
321.004164
 20
136.2030729999999
 30
0.0
 11
321.004164
 21
141.945073
 31
0.0
  0
LINE
  5
2C0
330
1E
100
AcDbEntity
  8
0
100
AcDbLine
 10
321.004164
 20
136.2030729999999
 30
0.0
 11
321.004164
 21
129.652073
 31
0.0
  0
LINE
  5
2C1
330
1E
100
AcDbEntity
  8
0
100
AcDbLine
 10
321.004164
 20
129.652073
 30
0.0
 11
321.004164
 21
136.2030729999999
 31
0.0
  0
LINE
  5
2C2
330
1E
100
AcDbEntity
  8
0
100
AcDbLine
 10
321.004164
 20
129.652073
 30
0.0
 11
321.004164
 21
124.594073
 31
0.0
  0
LINE
  5
2C3
330
1E
100
AcDbEntity
  8
0
100
AcDbLine
 10
321.004164
 20
124.594073
 30
0.0
 11
321.004164
 21
129.652073
 31
0.0
  0
LINE
  5
2C4
330
1E
100
AcDbEntity
  8
0
100
AcDbLine
 10
321.004164
 20
124.594073
 30
0.0
 11
321.004164
 21
121.1830729999999
 31
0.0
  0
LINE
  5
2C5
330
1E
100
AcDbEntity
  8
0
100
AcDbLine
 10
304.814164
 20
161.183073
 30
0.0
 11
321.004164
 21
161.183073
 31
0.0
  0
LINE
  5
2C6
330
1E
100
AcDbEntity
  8
0
100
AcDbLine
 10
321.004164
 20
121.1830729999999
 30
0.0
 11
321.004164
 21
117.7720729999999
 31
0.0
  0
LINE
  5
2C7
330
1E
100
AcDbEntity
  8
0
100
AcDbLine
 10
321.004164
 20
121.1830729999999
 30
0.0
 11
321.004164
 21
124.594073
 31
0.0
  0
LINE
  5
2D0
330
1E
100
AcDbEntity
  8
0
100
AcDbLine
 10
106.1161639999999
 20
87.519673
 30
0.0
 11
106.4771639999999
 21
87.35147299999999
 31
0.0
  0
LINE
  5
2D1
330
1E
100
AcDbEntity
  8
0
100
AcDbLine
 10
102.0121639999999
 20
77.77467299999999
 30
0.0
 11
106.4771639999999
 21
87.35147299999999
 31
0.0
  0
LINE
  5
2D2
330
1E
100
AcDbEntity
  8
0
100
AcDbLine
 10
99.157764
 20
74.21397299999999
 30
0.0
 11
101.2081639999999
 21
73.25797299999999
 31
0.0
  0
LINE
  5
2D3
330
1E
100
AcDbEntity
  8
0
100
AcDbLine
 10
9.255974000000009
 20
74.20747299999999
 30
0.0
 11
15.257264
 21
72.88017299999999
 31
0.0
  0
LINE
  5
2D4
330
1E
100
AcDbEntity
  8
0
100
AcDbLine
 10
5.520424000000009
 20
74.478273
 30
0.0
 11
9.255974000000009
 21
74.20747299999999
 31
0.0
  0
LINE
  5
2D5
330
1E
100
AcDbEntity
  8
0
100
AcDbLine
 10
4.785514000000009
 20
74.085373
 30
0.0
 11
4.948644000000009
 21
74.00927299999999
 31
0.0
  0
LINE
  5
2D6
330
1E
100
AcDbEntity
  8
0
100
AcDbLine
 10
4.785514000000009
 20
74.085373
 30
0.0
 11
5.520424000000009
 21
74.478273
 31
0.0
  0
LINE
  5
2D7
330
1E
100
AcDbEntity
  8
0
100
AcDbLine
 10
4.197294000000009
 20
61.119073
 30
0.0
 11
6.879964000000009
 21
59.868173
 31
0.0
  0
LINE
  5
2DC
330
1E
100
AcDbEntity
  8
0
100
AcDbLine
 10
304.004164
 20
160.6670729999999
 30
0.0
 11
304.004164
 21
81.914773
 31
0.0
  0
LINE
  5
2DD
330
1E
100
AcDbEntity
  8
0
100
AcDbLine
 10
84.889764
 20
85.22267300000001
 30
0.0
 11
98.679664
 21
78.79237299999999
 31
0.0
  0
LINE
  5
2DE
330
1E
100
AcDbEntity
  8
0
100
AcDbLine
 10
62.671764
 20
55.919573
 30
0.0
 11
90.640464
 21
42.87757299999999
 31
0.0
  0
ENDSEC
  0
SECTION
  2
OBJECTS
  0
DICTIONARY
  5
C
330
0
100
AcDbDictionary
281
     1
  3
ACAD_GROUP
350
D
  3
ACAD_LAYOUT
350
19
  3
ACAD_MLINESTYLE
350
16
  3
ACAD_PLOTSETTINGS
350
18
  3
ACAD_PLOTSTYLENAME
350
E
  3
AcDbVariableDictionary
350
2E0
  0
DICTIONARY
  5
D
102
{ACAD_REACTORS
330
C
102
}
330
C
100
AcDbDictionary
281
     1
  0
DICTIONARY
  5
19
102
{ACAD_REACTORS
330
C
102
}
330
C
100
AcDbDictionary
281
     1
  3
Layout1
350
1D
  3
Model
350
21
  0
DICTIONARY
  5
16
102
{ACAD_REACTORS
330
C
102
}
330
C
100
AcDbDictionary
281
     1
  3
Standard
350
17
  0
DICTIONARY
  5
18
102
{ACAD_REACTORS
330
C
102
}
330
C
100
AcDbDictionary
281
     1
  0
ACDBDICTIONARYWDFLT
  5
E
102
{ACAD_REACTORS
330
C
102
}
330
C
100
AcDbDictionary
281
     1
  3
Normal
350
F
100
AcDbDictionaryWithDefault
340
F
  0
DICTIONARY
  5
2E0
102
{ACAD_REACTORS
330
C
102
}
330
C
100
AcDbDictionary
281
     1
  3
DIMASSOC
350
2E1
  0
LAYOUT
  5
1D
102
{ACAD_REACTORS
330
19
102
}
330
19
100
AcDbPlotSettings
  1

  2
hp deskjet 980c series
  4

  6

 40
0.0
 41
0.0
 42
0.0
 43
0.0
 44
0.0
 45
0.0
 46
0.0
 47
0.0
 48
0.0
 49
0.0
140
0.0
141
0.0
142
1.0
143
1.0
 70
   688
 72
     0
 73
     0
 74
     5
  7

 75
    16
147
1.0
148
0.0
149
0.0
100
AcDbLayout
  1
Layout1
 70
     1
 71
     1
 10
0.0
 20
0.0
 11
12.0
 21
9.0
 12
0.0
 22
0.0
 32
0.0
 14
1.000000000000000E+20
 24
1.000000000000000E+20
 34
1.000000000000000E+20
 15
-1.000000000000000E+20
 25
-1.000000000000000E+20
 35
-1.000000000000000E+20
146
0.0
 13
0.0
 23
0.0
 33
0.0
 16
1.0
 26
0.0
 36
0.0
 17
0.0
 27
1.0
 37
0.0
 76
     0
330
1A
  0
LAYOUT
  5
21
102
{ACAD_REACTORS
330
19
102
}
330
19
100
AcDbPlotSettings
  1

  2
hp deskjet 980c series
  4

  6

 40
0.0
 41
0.0
 42
0.0
 43
0.0
 44
0.0
 45
0.0
 46
0.0
 47
0.0
 48
0.0
 49
0.0
140
0.0
141
0.0
142
1.0
143
1.0
 70
  1712
 72
     0
 73
     0
 74
     0
  7

 75
     0
147
1.0
148
0.0
149
0.0
100
AcDbLayout
  1
Model
 70
     1
 71
     0
 10
0.0
 20
0.0
 11
12.0
 21
9.0
 12
0.0
 22
0.0
 32
0.0
 14
0.0
 24
0.0
 34
0.0
 15
0.0
 25
0.0
 35
0.0
146
0.0
 13
0.0
 23
0.0
 33
0.0
 16
1.0
 26
0.0
 36
0.0
 17
0.0
 27
1.0
 37
0.0
 76
     0
330
1E
  0
MLINESTYLE
  5
17
102
{ACAD_REACTORS
330
16
102
}
330
16
100
AcDbMlineStyle
  2
STANDARD
 70
     0
  3

 62
   256
 51
90.0
 52
90.0
 71
     2
 49
0.5
 62
   256
  6
BYLAYER
 49
-0.5
 62
   256
  6
BYLAYER
  0
ACDBPLACEHOLDER
  5
F
102
{ACAD_REACTORS
330
E
102
}
330
E
  0
DICTIONARYVAR
  5
2E1
102
{ACAD_REACTORS
330
2E0
102
}
330
2E0
100
DictionaryVariables
280
     0
  1
1
  0
ENDSEC
  0
EOF
