  0
SECTION
  2
HEADER
  9
$ACADVER
  1
AC1014
  9
$ACADMAINTVER
 70
     9
  9
$DWGCODEPAGE
  3
ANSI_1252
  9
$INSBASE
 10
0.0
 20
0.0
 30
0.0
  9
$EXTMIN
 10
0.0
 20
-0.0000000000000024
 30
0.0
  9
$EXTMAX
 10
108.0
 20
151.0
 30
0.0
  9
$LIMMIN
 10
0.0
 20
0.0
  9
$LIMMAX
 10
12.0
 20
9.0
  9
$ORTHOMODE
 70
     0
  9
$REGENMODE
 70
     1
  9
$FILLMODE
 70
     1
  9
$QTEXTMODE
 70
     0
  9
$MIRRTEXT
 70
     1
  9
$DRAGMODE
 70
     2
  9
$LTSCALE
 40
1.0
  9
$OSMODE
 70
    37
  9
$ATTMODE
 70
     1
  9
$TEXTSIZE
 40
0.2
  9
$TRACEWID
 40
0.05
  9
$TEXTSTYLE
  7
STANDARD
  9
$CLAYER
  8
0
  9
$CELTYPE
  6
CONTINUOUS
  9
$CECOLOR
 62
   256
  9
$CELTSCALE
 40
1.0
  9
$DELOBJ
 70
     1
  9
$DISPSILH
 70
     0
  9
$DIMSCALE
 40
1.0
  9
$DIMASZ
 40
0.18
  9
$DIMEXO
 40
0.0625
  9
$DIMDLI
 40
0.38
  9
$DIMRND
 40
0.0
  9
$DIMDLE
 40
0.0
  9
$DIMEXE
 40
0.18
  9
$DIMTP
 40
0.0
  9
$DIMTM
 40
0.0
  9
$DIMTXT
 40
0.18
  9
$DIMCEN
 40
0.09
  9
$DIMTSZ
 40
0.0
  9
$DIMTOL
 70
     0
  9
$DIMLIM
 70
     0
  9
$DIMTIH
 70
     1
  9
$DIMTOH
 70
     1
  9
$DIMSE1
 70
     0
  9
$DIMSE2
 70
     0
  9
$DIMTAD
 70
     0
  9
$DIMZIN
 70
     0
  9
$DIMBLK
  1

  9
$DIMASO
 70
     1
  9
$DIMSHO
 70
     1
  9
$DIMPOST
  1

  9
$DIMAPOST
  1

  9
$DIMALT
 70
     0
  9
$DIMALTD
 70
     2
  9
$DIMALTF
 40
25.4
  9
$DIMLFAC
 40
1.0
  9
$DIMTOFL
 70
     0
  9
$DIMTVP
 40
0.0
  9
$DIMTIX
 70
     0
  9
$DIMSOXD
 70
     0
  9
$DIMSAH
 70
     0
  9
$DIMBLK1
  1

  9
$DIMBLK2
  1

  9
$DIMSTYLE
  2
STANDARD
  9
$DIMCLRD
 70
     0
  9
$DIMCLRE
 70
     0
  9
$DIMCLRT
 70
     0
  9
$DIMTFAC
 40
1.0
  9
$DIMGAP
 40
0.09
  9
$DIMJUST
 70
     0
  9
$DIMSD1
 70
     0
  9
$DIMSD2
 70
     0
  9
$DIMTOLJ
 70
     1
  9
$DIMTZIN
 70
     0
  9
$DIMALTZ
 70
     0
  9
$DIMALTTZ
 70
     0
  9
$DIMFIT
 70
     3
  9
$DIMUPT
 70
     0
  9
$DIMUNIT
 70
     2
  9
$DIMDEC
 70
     4
  9
$DIMTDEC
 70
     4
  9
$DIMALTU
 70
     2
  9
$DIMALTTD
 70
     2
  9
$DIMTXSTY
  7
STANDARD
  9
$DIMAUNIT
 70
     0
  9
$LUNITS
 70
     2
  9
$LUPREC
 70
     4
  9
$SKETCHINC
 40
0.1
  9
$FILLETRAD
 40
0.0
  9
$AUNITS
 70
     0
  9
$AUPREC
 70
     0
  9
$MENU
  1
.
  9
$ELEVATION
 40
0.0
  9
$PELEVATION
 40
0.0
  9
$THICKNESS
 40
0.0
  9
$LIMCHECK
 70
     0
  9
$BLIPMODE
 70
     0
  9
$CHAMFERA
 40
0.0
  9
$CHAMFERB
 40
0.0
  9
$CHAMFERC
 40
0.0
  9
$CHAMFERD
 40
0.0
  9
$SKPOLY
 70
     0
  9
$TDCREATE
 40
2455236.852812315
  9
$TDUPDATE
 40
2455236.864145868
  9
$TDINDWG
 40
0.0113337269
  9
$TDUSRTIMER
 40
0.0113337269
  9
$USRTIMER
 70
     1
  9
$ANGBASE
 50
0.0
  9
$ANGDIR
 70
     0
  9
$PDMODE
 70
     0
  9
$PDSIZE
 40
0.0
  9
$PLINEWID
 40
0.0
  9
$COORDS
 70
     1
  9
$SPLFRAME
 70
     0
  9
$SPLINETYPE
 70
     6
  9
$SPLINESEGS
 70
     8
  9
$ATTDIA
 70
     0
  9
$ATTREQ
 70
     1
  9
$HANDLING
 70
 22529
  9
$HANDSEED
  5
3E2
  9
$SURFTAB1
 70
     6
  9
$SURFTAB2
 70
     6
  9
$SURFTYPE
 70
     6
  9
$SURFU
 70
     6
  9
$SURFV
 70
     6
  9
$UCSNAME
  2

  9
$UCSORG
 10
0.0
 20
0.0
 30
0.0
  9
$UCSXDIR
 10
1.0
 20
0.0
 30
0.0
  9
$UCSYDIR
 10
0.0
 20
1.0
 30
0.0
  9
$PUCSNAME
  2

  9
$PUCSORG
 10
0.0
 20
0.0
 30
0.0
  9
$PUCSXDIR
 10
1.0
 20
0.0
 30
0.0
  9
$PUCSYDIR
 10
0.0
 20
1.0
 30
0.0
  9
$USERI1
 70
     0
  9
$USERI2
 70
     0
  9
$USERI3
 70
     0
  9
$USERI4
 70
     0
  9
$USERI5
 70
     0
  9
$USERR1
 40
0.0
  9
$USERR2
 40
0.0
  9
$USERR3
 40
0.0
  9
$USERR4
 40
0.0
  9
$USERR5
 40
0.0
  9
$WORLDVIEW
 70
     1
  9
$SHADEDGE
 70
     3
  9
$SHADEDIF
 70
    70
  9
$TILEMODE
 70
     1
  9
$MAXACTVP
 70
    64
  9
$PINSBASE
 10
0.0
 20
0.0
 30
0.0
  9
$PLIMCHECK
 70
     0
  9
$PEXTMIN
 10
1.000000000000000E+20
 20
1.000000000000000E+20
 30
1.000000000000000E+20
  9
$PEXTMAX
 10
-1.000000000000000E+20
 20
-1.000000000000000E+20
 30
-1.000000000000000E+20
  9
$PLIMMIN
 10
0.0
 20
0.0
  9
$PLIMMAX
 10
12.0
 20
9.0
  9
$UNITMODE
 70
     0
  9
$VISRETAIN
 70
     1
  9
$PLINEGEN
 70
     0
  9
$PSLTSCALE
 70
     1
  9
$TREEDEPTH
 70
  3020
  9
$PICKSTYLE
 70
     1
  9
$CMLSTYLE
  2
STANDARD
  9
$CMLJUST
 70
     0
  9
$CMLSCALE
 40
1.0
  9
$PROXYGRAPHICS
 70
     1
  9
$MEASUREMENT
 70
     0
  0
ENDSEC
  0
SECTION
  2
CLASSES
  0
CLASS
  1
ACDBDICTIONARYWDFLT
  2
AcDbDictionaryWithDefault
  3
AutoCAD 2000
 90
        0
280
     0
281
     0
  0
CLASS
  1
ACDBPLACEHOLDER
  2
AcDbPlaceHolder
  3
AutoCAD 2000
 90
        0
280
     0
281
     0
  0
CLASS
  1
LAYOUT
  2
AcDbLayout
  3
AutoCAD 2000
 90
        0
280
     0
281
     0
  0
CLASS
  1
DICTIONARYVAR
  2
AcDbDictionaryVar
  3
AutoCAD 2000
 90
        0
280
     0
281
     0
  0
CLASS
  1
LONG_TRANSACTION
  2
AcDbLongTransaction
  3
AutoCAD 2000
 90
        0
280
     0
281
     0
  0
CLASS
  1
LWPOLYLINE
  2
AcDbPolyline
  3
AutoCAD 2000
 90
        0
280
     0
281
     1
  0
CLASS
  1
HATCH
  2
AcDbHatch
  3
AutoCAD 2000
 90
        0
280
     0
281
     1
  0
CLASS
  1
XRECORD
  2
AcDbXrecord
  3
AutoCAD 2000
 90
        0
280
     0
281
     0
  0
ENDSEC
  0
SECTION
  2
TABLES
  0
TABLE
  2
VPORT
  5
8
330
0
100
AcDbSymbolTable
 70
     3
  0
VPORT
  5
3BD
330
8
100
AcDbSymbolTableRecord
100
AcDbViewportTableRecord
  2
*ACTIVE
 70
     0
 10
0.0
 20
0.0
 11
1.0
 21
1.0
 12
54.0
 22
75.5
 13
0.0
 23
0.0
 14
1.0
 24
1.0
 15
0.0
 25
0.0
 16
0.0
 26
0.0
 36
1.0
 17
0.0
 27
0.0
 37
0.0
 40
151.9912472647702
 41
2.041621029572836
 42
50.0
 43
0.0
 44
0.0
 50
0.0
 51
0.0
 71
     0
 72
   100
 73
     1
 74
     3
 75
     0
 76
     0
 77
     0
 78
     0
  0
ENDTAB
  0
TABLE
  2
LTYPE
  5
5
330
0
100
AcDbSymbolTable
 70
     1
  0
LTYPE
  5
13
330
5
100
AcDbSymbolTableRecord
100
AcDbLinetypeTableRecord
  2
BYBLOCK
 70
     0
  3

 72
    65
 73
     0
 40
0.0
  0
LTYPE
  5
14
330
5
100
AcDbSymbolTableRecord
100
AcDbLinetypeTableRecord
  2
BYLAYER
 70
     0
  3

 72
    65
 73
     0
 40
0.0
  0
LTYPE
  5
15
330
5
100
AcDbSymbolTableRecord
100
AcDbLinetypeTableRecord
  2
CONTINUOUS
 70
     0
  3
Solid line
 72
    65
 73
     0
 40
0.0
  0
ENDTAB
  0
TABLE
  2
LAYER
  5
2
330
0
100
AcDbSymbolTable
 70
     1
  0
LAYER
  5
10
330
2
100
AcDbSymbolTableRecord
100
AcDbLayerTableRecord
  2
0
 70
     0
 62
     7
  6
CONTINUOUS
  0
ENDTAB
  0
TABLE
  2
STYLE
  5
3
330
0
100
AcDbSymbolTable
 70
     1
  0
STYLE
  5
11
330
3
100
AcDbSymbolTableRecord
100
AcDbTextStyleTableRecord
  2
STANDARD
 70
     0
 40
0.0
 41
1.0
 50
0.0
 71
     0
 42
0.2
  3
txt
  4

  0
ENDTAB
  0
TABLE
  2
VIEW
  5
6
330
0
100
AcDbSymbolTable
 70
     0
  0
ENDTAB
  0
TABLE
  2
UCS
  5
7
330
0
100
AcDbSymbolTable
 70
     0
  0
ENDTAB
  0
TABLE
  2
APPID
  5
9
330
0
100
AcDbSymbolTable
 70
     1
  0
APPID
  5
12
330
9
100
AcDbSymbolTableRecord
100
AcDbRegAppTableRecord
  2
ACAD
 70
     0
  0
ENDTAB
  0
TABLE
  2
DIMSTYLE
  5
A
330
0
100
AcDbSymbolTable
 70
     1
  0
DIMSTYLE
105
3B5
330
A
100
AcDbSymbolTableRecord
100
AcDbDimStyleTableRecord
  2
STANDARD
 70
     0
  3

  4

  5

  6

  7

 40
1.0
 41
0.18
 42
0.0625
 43
0.38
 44
0.18
 45
0.0
 46
0.0
 47
0.0
 48
0.0
140
0.18
141
0.09
142
0.0
143
25.4
144
1.0
145
0.0
146
1.0
147
0.09
 71
     0
 72
     0
 73
     1
 74
     1
 75
     0
 76
     0
 77
     0
 78
     0
170
     0
171
     2
172
     0
173
     0
174
     0
175
     0
176
     0
177
     0
178
     0
270
     2
271
     4
272
     4
273
     2
274
     2
340
11
275
     0
280
     0
281
     0
282
     0
283
     1
284
     0
285
     0
286
     0
287
     3
288
     0
  0
ENDTAB
  0
TABLE
  2
BLOCK_RECORD
  5
1
330
0
100
AcDbSymbolTable
 70
     0
  0
BLOCK_RECORD
  5
1E
102
{ACAD_XDICTIONARY
360
3E0
102
}
330
1
100
AcDbSymbolTableRecord
100
AcDbBlockTableRecord
  2
*MODEL_SPACE
  0
BLOCK_RECORD
  5
1A
102
{ACAD_XDICTIONARY
360
3DE
102
}
330
1
100
AcDbSymbolTableRecord
100
AcDbBlockTableRecord
  2
*PAPER_SPACE
  0
ENDTAB
  0
ENDSEC
  0
SECTION
  2
BLOCKS
  0
BLOCK
  5
1F
330
1E
100
AcDbEntity
  8
0
100
AcDbBlockBegin
  2
*MODEL_SPACE
 70
     0
 10
0.0
 20
0.0
 30
0.0
  3
*MODEL_SPACE
  1

  0
ENDBLK
  5
20
330
1E
100
AcDbEntity
  8
0
100
AcDbBlockEnd
  0
BLOCK
  5
1B
330
1A
100
AcDbEntity
 67
     1
  8
0
100
AcDbBlockBegin
  2
*PAPER_SPACE
 70
     0
 10
0.0
 20
0.0
 30
0.0
  3
*PAPER_SPACE
  1

  0
ENDBLK
  5
1C
330
1A
100
AcDbEntity
 67
     1
  8
0
100
AcDbBlockEnd
  0
ENDSEC
  0
SECTION
  2
ENTITIES
  0
LINE
  5
22
330
1E
100
AcDbEntity
  8
0
100
AcDbLine
 10
0.0
 20
14.5
 30
0.0
 11
35.0
 21
14.5
 31
0.0
  0
LINE
  5
23
330
1E
100
AcDbEntity
  8
0
100
AcDbLine
 10
0.0000000000000009
 20
15.1421
 30
0.0
 11
0.000000000000001
 21
16.6832
 31
0.0
  0
LINE
  5
24
330
1E
100
AcDbEntity
  8
0
100
AcDbLine
 10
0.0000000000000009
 20
14.5
 30
0.0
 11
0.0000000000000009
 21
15.1421
 31
0.0
  0
LINE
  5
25
330
1E
100
AcDbEntity
  8
0
100
AcDbLine
 10
0.0000000000000009
 20
14.5
 30
0.0
 11
35.0
 21
14.5
 31
0.0
  0
LINE
  5
26
330
1E
100
AcDbEntity
  8
0
100
AcDbLine
 10
0.000000000000001
 20
16.6832
 30
0.0
 11
0.0000000000000012
 21
19.25159999999999
 31
0.0
  0
LINE
  5
27
330
1E
100
AcDbEntity
  8
0
100
AcDbLine
 10
0.000000000000001
 20
17.12099999999999
 30
0.0
 11
0.0000000000000012
 21
19.25159999999999
 31
0.0
  0
LINE
  5
28
330
1E
100
AcDbEntity
  8
0
100
AcDbLine
 10
0.0000000000000012
 20
19.25159999999999
 30
0.0
 11
0.0000000000000014
 21
22.6547
 31
0.0
  0
LINE
  5
29
330
1E
100
AcDbEntity
  8
0
100
AcDbLine
 10
0.0000000000000013
 20
21.0958
 30
0.0
 11
0.0000000000000015
 21
24.3874
 31
0.0
  0
LINE
  5
2A
330
1E
100
AcDbEntity
  8
0
100
AcDbLine
 10
0.0000000000000013
 20
21.0958
 30
0.0
 11
0.0000000000000014
 21
22.6547
 31
0.0
  0
LINE
  5
2B
330
1E
100
AcDbEntity
  8
0
100
AcDbLine
 10
0.000000000000001
 20
17.12099999999999
 30
0.0
 11
0.0000000000000011
 21
18.61159999999999
 31
0.0
  0
LINE
  5
2C
330
1E
100
AcDbEntity
  8
0
100
AcDbLine
 10
0.000000000000001
 20
16.5
 30
0.0
 11
0.000000000000001
 21
17.12099999999999
 31
0.0
  0
LINE
  5
2D
330
1E
100
AcDbEntity
  8
0
100
AcDbLine
 10
0.0000000000000015
 20
24.3874
 30
0.0
 11
0.0000000000000018
 21
28.7968
 31
0.0
  0
LINE
  5
2E
330
1E
100
AcDbEntity
  8
0
100
AcDbLine
 10
0.000000000000002
 20
32.4147
 30
0.0
 11
0.0000000000000024
 21
38.3863
 31
0.0
  0
LINE
  5
2F
330
1E
100
AcDbEntity
  8
0
100
AcDbLine
 10
0.0000000000000018
 20
28.7968
 30
0.0
 11
0.0000000000000021
 21
33.8274
 31
0.0
  0
LINE
  5
30
330
1E
100
AcDbEntity
  8
0
100
AcDbLine
 10
0.0000000000000017
 20
27.2137
 30
0.0
 11
0.000000000000002
 21
32.4147
 31
0.0
  0
LINE
  5
31
330
1E
100
AcDbEntity
  8
0
100
AcDbLine
 10
0.0000000000000014
 20
22.6547
 30
0.0
 11
0.0000000000000017
 21
27.2137
 31
0.0
  0
LINE
  5
32
330
1E
100
AcDbEntity
  8
0
100
AcDbLine
 10
0.0000000000000013
 20
21.0958
 30
0.0
 11
0.0000000000000014
 21
22.6547
 31
0.0
  0
LINE
  5
33
330
1E
100
AcDbEntity
  8
0
100
AcDbLine
 10
0.0000000000000021
 20
33.8274
 30
0.0
 11
0.0000000000000024
 21
38.3863
 31
0.0
  0
LINE
  5
34
330
1E
100
AcDbEntity
  8
0
100
AcDbLine
 10
0.0000000000000024
 20
38.3863
 30
0.0
 11
0.0000000000000028
 21
45.12839999999999
 31
0.0
  0
LINE
  5
35
330
1E
100
AcDbEntity
  8
0
100
AcDbLine
 10
0.0000000000000028
 20
45.12839999999999
 30
0.0
 11
0.0000000000000032
 21
52.1916
 31
0.0
  0
LINE
  5
36
330
1E
100
AcDbEntity
  8
0
100
AcDbLine
 10
0.0000000000000024
 20
39.6032
 30
0.0
 11
0.0000000000000028
 21
46.1242
 31
0.0
  0
LINE
  5
37
330
1E
100
AcDbEntity
  8
0
100
AcDbLine
 10
0.0000000000000032
 20
52.95580000000001
 30
0.0
 11
0.0000000000000037
 21
60.2842
 31
0.0
  0
LINE
  5
38
330
1E
100
AcDbEntity
  8
0
100
AcDbLine
 10
0.0000000000000032
 20
52.1916
 30
0.0
 11
0.0000000000000037
 21
59.7684
 31
0.0
  0
LINE
  5
39
330
1E
100
AcDbEntity
  8
0
100
AcDbLine
 10
0.0000000000000037
 20
59.7684
 30
0.0
 11
0.0000000000000041
 21
67.53789999999999
 31
0.0
  0
LINE
  5
3A
330
1E
100
AcDbEntity
  8
0
100
AcDbLine
 10
0.0000000000000028
 20
46.1242
 30
0.0
 11
0.0000000000000032
 21
52.95580000000001
 31
0.0
  0
LINE
  5
3B
330
1E
100
AcDbEntity
  8
0
100
AcDbLine
 10
0.0000000000000028
 20
46.1242
 30
0.0
 11
0.0000000000000032
 21
52.1916
 31
0.0
  0
LINE
  5
3C
330
1E
100
AcDbEntity
  8
0
100
AcDbLine
 10
35.0
 20
0.0
 30
0.0
 11
35.0
 21
50.0
 31
0.0
  0
LINE
  5
3D
330
1E
100
AcDbEntity
  8
0
100
AcDbLine
 10
35.0
 20
0.9999999999999978
 30
0.0
 11
35.0
 21
6.0
 31
0.0
  0
LINE
  5
3E
330
1E
100
AcDbEntity
  8
0
100
AcDbLine
 10
35.0
 20
0.143999999999998
 30
0.0
 11
35.0
 21
0.527999999999998
 31
0.0
  0
LINE
  5
3F
330
1E
100
AcDbEntity
  8
0
100
AcDbLine
 10
35.0
 20
0.143999999999998
 30
0.0
 11
35.0
 21
-0.0000000000000021
 31
0.0
  0
LINE
  5
40
330
1E
100
AcDbEntity
  8
0
100
AcDbLine
 10
35.0
 20
0.527999999999998
 30
0.0
 11
35.0
 21
1.167999999999999
 31
0.0
  0
LINE
  5
41
330
1E
100
AcDbEntity
  8
0
100
AcDbLine
 10
35.0
 20
0.527999999999998
 30
0.0
 11
35.0
 21
0.143999999999998
 31
0.0
  0
LINE
  5
42
330
1E
100
AcDbEntity
  8
0
100
AcDbLine
 10
35.0
 20
1.167999999999999
 30
0.0
 11
35.0
 21
2.016
 31
0.0
  0
LINE
  5
43
330
1E
100
AcDbEntity
  8
0
100
AcDbLine
 10
35.0
 20
1.167999999999999
 30
0.0
 11
35.0
 21
0.527999999999998
 31
0.0
  0
LINE
  5
44
330
1E
100
AcDbEntity
  8
0
100
AcDbLine
 10
35.0
 20
1.999999999999989
 30
0.0
 11
35.0
 21
0.0
 31
0.0
  0
LINE
  5
45
330
1E
100
AcDbEntity
  8
0
100
AcDbLine
 10
35.0
 20
2.937399999999999
 30
0.0
 11
35.0
 21
14.5
 31
0.0
  0
LINE
  5
46
330
1E
100
AcDbEntity
  8
0
100
AcDbLine
 10
35.0
 20
2.937399999999999
 30
0.0
 11
35.0
 21
4.195509999999999
 31
0.0
  0
LINE
  5
47
330
1E
100
AcDbEntity
  8
0
100
AcDbLine
 10
35.0
 20
2.937399999999999
 30
0.0
 11
35.0
 21
26.6618
 31
0.0
  0
LINE
  5
48
330
1E
100
AcDbEntity
  8
0
100
AcDbLine
 10
35.0
 20
4.195509999999999
 30
0.0
 11
35.0
 21
2.937399999999999
 31
0.0
  0
LINE
  5
49
330
1E
100
AcDbEntity
  8
0
100
AcDbLine
 10
35.0
 20
4.195509999999999
 30
0.0
 11
35.0
 21
14.5
 31
0.0
  0
LINE
  5
4A
330
1E
100
AcDbEntity
  8
0
100
AcDbLine
 10
35.0
 20
4.195509999999999
 30
0.0
 11
35.0
 21
25.3138
 31
0.0
  0
LINE
  5
4B
330
1E
100
AcDbEntity
  8
0
100
AcDbLine
 10
35.0
 20
6.0
 30
0.0
 11
35.0
 21
0.9999999999999978
 31
0.0
  0
LINE
  5
4C
330
1E
100
AcDbEntity
  8
0
100
AcDbLine
 10
35.0
 20
5.610319999999999
 30
0.0
 11
35.0
 21
5.754319999999999
 31
0.0
  0
LINE
  5
4D
330
1E
100
AcDbEntity
  8
0
100
AcDbLine
 10
35.0
 20
5.754319999999999
 30
0.0
 11
35.0
 21
6.138319999999999
 31
0.0
  0
LINE
  5
4E
330
1E
100
AcDbEntity
  8
0
100
AcDbLine
 10
35.0
 20
5.754319999999999
 30
0.0
 11
35.0
 21
5.610319999999999
 31
0.0
  0
LINE
  5
4F
330
1E
100
AcDbEntity
  8
0
100
AcDbLine
 10
35.0
 20
6.684919999999999
 30
0.0
 11
35.0
 21
14.5
 31
0.0
  0
LINE
  5
50
330
1E
100
AcDbEntity
  8
0
100
AcDbLine
 10
35.0
 20
6.684919999999999
 30
0.0
 11
35.0
 21
6.34241
 31
0.0
  0
LINE
  5
51
330
1E
100
AcDbEntity
  8
0
100
AcDbLine
 10
35.0
 20
6.684919999999999
 30
0.0
 11
35.0
 21
17.855
 31
0.0
  0
LINE
  5
52
330
1E
100
AcDbEntity
  8
0
100
AcDbLine
 10
35.0
 20
6.34241
 30
0.0
 11
35.0
 21
6.684919999999999
 31
0.0
  0
LINE
  5
53
330
1E
100
AcDbEntity
  8
0
100
AcDbLine
 10
35.0
 20
6.34241
 30
0.0
 11
35.0
 21
14.5
 31
0.0
  0
LINE
  5
54
330
1E
100
AcDbEntity
  8
0
100
AcDbLine
 10
35.0
 20
6.34241
 30
0.0
 11
35.0
 21
17.0462
 31
0.0
  0
LINE
  5
55
330
1E
100
AcDbEntity
  8
0
100
AcDbLine
 10
35.0
 20
6.138319999999999
 30
0.0
 11
35.0
 21
6.778319999999999
 31
0.0
  0
LINE
  5
56
330
1E
100
AcDbEntity
  8
0
100
AcDbLine
 10
35.0
 20
6.138319999999999
 30
0.0
 11
35.0
 21
5.754319999999999
 31
0.0
  0
LINE
  5
57
330
1E
100
AcDbEntity
  8
0
100
AcDbLine
 10
35.0
 20
6.778319999999999
 30
0.0
 11
35.0
 21
7.626319999999999
 31
0.0
  0
LINE
  5
58
330
1E
100
AcDbEntity
  8
0
100
AcDbLine
 10
35.0
 20
6.778319999999999
 30
0.0
 11
35.0
 21
6.138319999999999
 31
0.0
  0
LINE
  5
59
330
1E
100
AcDbEntity
  8
0
100
AcDbLine
 10
35.0
 20
7.626319999999999
 30
0.0
 11
35.0
 21
8.586319999999998
 31
0.0
  0
LINE
  5
5A
330
1E
100
AcDbEntity
  8
0
100
AcDbLine
 10
35.0
 20
7.626319999999999
 30
0.0
 11
35.0
 21
6.778319999999999
 31
0.0
  0
LINE
  5
5B
330
1E
100
AcDbEntity
  8
0
100
AcDbLine
 10
35.0
 20
13.0823
 30
0.0
 11
35.0
 21
12.44229999999999
 31
0.0
  0
LINE
  5
5C
330
1E
100
AcDbEntity
  8
0
100
AcDbLine
 10
35.0
 20
13.0823
 30
0.0
 11
35.0
 21
13.4663
 31
0.0
  0
LINE
  5
5D
330
1E
100
AcDbEntity
  8
0
100
AcDbLine
 10
35.0
 20
12.44229999999999
 30
0.0
 11
35.0
 21
11.5943
 31
0.0
  0
LINE
  5
5E
330
1E
100
AcDbEntity
  8
0
100
AcDbLine
 10
35.0
 20
12.44229999999999
 30
0.0
 11
35.0
 21
13.0823
 31
0.0
  0
LINE
  5
5F
330
1E
100
AcDbEntity
  8
0
100
AcDbLine
 10
35.0
 20
11.5943
 30
0.0
 11
35.0
 21
10.6343
 31
0.0
  0
LINE
  5
60
330
1E
100
AcDbEntity
  8
0
100
AcDbLine
 10
35.0
 20
11.5943
 30
0.0
 11
35.0
 21
12.44229999999999
 31
0.0
  0
LINE
  5
61
330
1E
100
AcDbEntity
  8
0
100
AcDbLine
 10
35.0
 20
10.6343
 30
0.0
 11
35.0
 21
9.61031999999999
 31
0.0
  0
LINE
  5
62
330
1E
100
AcDbEntity
  8
0
100
AcDbLine
 10
35.0
 20
10.6343
 30
0.0
 11
35.0
 21
11.5943
 31
0.0
  0
LINE
  5
63
330
1E
100
AcDbEntity
  8
0
100
AcDbLine
 10
35.0
 20
9.61031999999999
 30
0.0
 11
35.0
 21
8.586319999999998
 31
0.0
  0
LINE
  5
64
330
1E
100
AcDbEntity
  8
0
100
AcDbLine
 10
35.0
 20
9.61031999999999
 30
0.0
 11
35.0
 21
10.6343
 31
0.0
  0
LINE
  5
65
330
1E
100
AcDbEntity
  8
0
100
AcDbLine
 10
35.0
 20
8.586319999999998
 30
0.0
 11
35.0
 21
9.61031999999999
 31
0.0
  0
LINE
  5
66
330
1E
100
AcDbEntity
  8
0
100
AcDbLine
 10
35.0
 20
8.586319999999998
 30
0.0
 11
35.0
 21
7.626319999999999
 31
0.0
  0
LINE
  5
67
330
1E
100
AcDbEntity
  8
0
100
AcDbLine
 10
35.0
 20
8.0
 30
0.0
 11
35.0
 21
7.855999999999999
 31
0.0
  0
LINE
  5
68
330
1E
100
AcDbEntity
  8
0
100
AcDbLine
 10
35.0
 20
7.855999999999999
 30
0.0
 11
35.0
 21
7.472
 31
0.0
  0
LINE
  5
69
330
1E
100
AcDbEntity
  8
0
100
AcDbLine
 10
35.0
 20
7.855999999999999
 30
0.0
 11
35.0
 21
8.0
 31
0.0
  0
LINE
  5
6A
330
1E
100
AcDbEntity
  8
0
100
AcDbLine
 10
35.0
 20
7.472
 30
0.0
 11
35.0
 21
6.832
 31
0.0
  0
LINE
  5
6B
330
1E
100
AcDbEntity
  8
0
100
AcDbLine
 10
35.0
 20
7.472
 30
0.0
 11
35.0
 21
7.855999999999999
 31
0.0
  0
LINE
  5
6C
330
1E
100
AcDbEntity
  8
0
100
AcDbLine
 10
35.0
 20
6.832
 30
0.0
 11
35.0
 21
5.983999999999999
 31
0.0
  0
LINE
  5
6D
330
1E
100
AcDbEntity
  8
0
100
AcDbLine
 10
35.0
 20
6.832
 30
0.0
 11
35.0
 21
7.472
 31
0.0
  0
LINE
  5
6E
330
1E
100
AcDbEntity
  8
0
100
AcDbLine
 10
35.0
 20
5.983999999999999
 30
0.0
 11
35.0
 21
5.024
 31
0.0
  0
LINE
  5
6F
330
1E
100
AcDbEntity
  8
0
100
AcDbLine
 10
35.0
 20
5.983999999999999
 30
0.0
 11
35.0
 21
6.832
 31
0.0
  0
LINE
  5
70
330
1E
100
AcDbEntity
  8
0
100
AcDbLine
 10
35.0
 20
5.024
 30
0.0
 11
35.0
 21
4.0
 31
0.0
  0
LINE
  5
71
330
1E
100
AcDbEntity
  8
0
100
AcDbLine
 10
35.0
 20
5.024
 30
0.0
 11
35.0
 21
5.983999999999999
 31
0.0
  0
LINE
  5
72
330
1E
100
AcDbEntity
  8
0
100
AcDbLine
 10
35.0
 20
4.0
 30
0.0
 11
35.0
 21
2.976
 31
0.0
  0
LINE
  5
73
330
1E
100
AcDbEntity
  8
0
100
AcDbLine
 10
35.0
 20
4.0
 30
0.0
 11
35.0
 21
5.024
 31
0.0
  0
LINE
  5
74
330
1E
100
AcDbEntity
  8
0
100
AcDbLine
 10
35.0
 20
2.016
 30
0.0
 11
35.0
 21
2.976
 31
0.0
  0
LINE
  5
75
330
1E
100
AcDbEntity
  8
0
100
AcDbLine
 10
35.0
 20
2.016
 30
0.0
 11
35.0
 21
1.167999999999999
 31
0.0
  0
LINE
  5
76
330
1E
100
AcDbEntity
  8
0
100
AcDbLine
 10
35.0
 20
2.976
 30
0.0
 11
35.0
 21
4.0
 31
0.0
  0
LINE
  5
77
330
1E
100
AcDbEntity
  8
0
100
AcDbLine
 10
35.0
 20
2.976
 30
0.0
 11
35.0
 21
2.016
 31
0.0
  0
LINE
  5
78
330
1E
100
AcDbEntity
  8
0
100
AcDbLine
 10
35.0
 20
2.0
 30
0.0
 11
35.0
 21
-0.0000000000000021
 31
0.0
  0
LINE
  5
79
330
1E
100
AcDbEntity
  8
0
100
AcDbLine
 10
35.0
 20
2.0
 30
0.0
 11
35.0
 21
14.5
 31
0.0
  0
LINE
  5
7A
330
1E
100
AcDbEntity
  8
0
100
AcDbLine
 10
35.0
 20
-0.0000000000000021
 30
0.0
 11
39.0
 21
-0.0000000000000024
 31
0.0
  0
LINE
  5
7B
330
1E
100
AcDbEntity
  8
0
100
AcDbLine
 10
35.0
 20
-0.0000000000000021
 30
0.0
 11
35.0
 21
2.0
 31
0.0
  0
LINE
  5
7C
330
1E
100
AcDbEntity
  8
0
100
AcDbLine
 10
35.0
 20
-0.0000000000000021
 30
0.0
 11
35.0
 21
2.0
 31
0.0
  0
LINE
  5
7D
330
1E
100
AcDbEntity
  8
0
100
AcDbLine
 10
35.0
 20
-0.0000000000000021
 30
0.0
 11
35.0
 21
0.143999999999998
 31
0.0
  0
LINE
  5
7E
330
1E
100
AcDbEntity
  8
0
100
AcDbLine
 10
35.0
 20
-0.0000000000000021
 30
0.0
 11
35.0
 21
50.0
 31
0.0
  0
LINE
  5
7F
330
1E
100
AcDbEntity
  8
0
100
AcDbLine
 10
35.0
 20
13.6103
 30
0.0
 11
35.0
 21
13.4663
 31
0.0
  0
LINE
  5
80
330
1E
100
AcDbEntity
  8
0
100
AcDbLine
 10
35.0
 20
13.4663
 30
0.0
 11
35.0
 21
13.0823
 31
0.0
  0
LINE
  5
81
330
1E
100
AcDbEntity
  8
0
100
AcDbLine
 10
35.0
 20
13.4663
 30
0.0
 11
35.0
 21
13.6103
 31
0.0
  0
LINE
  5
82
330
1E
100
AcDbEntity
  8
0
100
AcDbLine
 10
35.0
 20
17.0462
 30
0.0
 11
35.0
 21
6.34241
 31
0.0
  0
LINE
  5
83
330
1E
100
AcDbEntity
  8
0
100
AcDbLine
 10
35.0
 20
17.0462
 30
0.0
 11
35.0
 21
17.855
 31
0.0
  0
LINE
  5
84
330
1E
100
AcDbEntity
  8
0
100
AcDbLine
 10
35.0
 20
17.855
 30
0.0
 11
35.0
 21
17.0462
 31
0.0
  0
LINE
  5
85
330
1E
100
AcDbEntity
  8
0
100
AcDbLine
 10
35.0
 20
17.855
 30
0.0
 11
35.0
 21
6.684919999999999
 31
0.0
  0
LINE
  5
86
330
1E
100
AcDbEntity
  8
0
100
AcDbLine
 10
35.0
 20
25.0212
 30
0.0
 11
35.0
 21
25.16519999999999
 31
0.0
  0
LINE
  5
87
330
1E
100
AcDbEntity
  8
0
100
AcDbLine
 10
35.0
 20
25.16519999999999
 30
0.0
 11
35.0
 21
25.5492
 31
0.0
  0
LINE
  5
88
330
1E
100
AcDbEntity
  8
0
100
AcDbLine
 10
35.0
 20
25.16519999999999
 30
0.0
 11
35.0
 21
25.0212
 31
0.0
  0
LINE
  5
89
330
1E
100
AcDbEntity
  8
0
100
AcDbLine
 10
35.0
 20
25.5492
 30
0.0
 11
35.0
 21
26.1892
 31
0.0
  0
LINE
  5
8A
330
1E
100
AcDbEntity
  8
0
100
AcDbLine
 10
35.0
 20
25.5492
 30
0.0
 11
35.0
 21
25.16519999999999
 31
0.0
  0
LINE
  5
8B
330
1E
100
AcDbEntity
  8
0
100
AcDbLine
 10
35.0
 20
26.1892
 30
0.0
 11
35.0
 21
27.0372
 31
0.0
  0
LINE
  5
8C
330
1E
100
AcDbEntity
  8
0
100
AcDbLine
 10
35.0
 20
26.1892
 30
0.0
 11
35.0
 21
25.5492
 31
0.0
  0
LINE
  5
8D
330
1E
100
AcDbEntity
  8
0
100
AcDbLine
 10
35.0
 20
25.3138
 30
0.0
 11
35.0
 21
4.195509999999999
 31
0.0
  0
LINE
  5
8E
330
1E
100
AcDbEntity
  8
0
100
AcDbLine
 10
35.0
 20
25.3138
 30
0.0
 11
35.0
 21
26.6618
 31
0.0
  0
LINE
  5
8F
330
1E
100
AcDbEntity
  8
0
100
AcDbLine
 10
35.0
 20
31.00519999999999
 30
0.0
 11
35.0
 21
30.0452
 31
0.0
  0
LINE
  5
90
330
1E
100
AcDbEntity
  8
0
100
AcDbLine
 10
35.0
 20
31.00519999999999
 30
0.0
 11
35.0
 21
31.8532
 31
0.0
  0
LINE
  5
91
330
1E
100
AcDbEntity
  8
0
100
AcDbLine
 10
35.0
 20
30.0452
 30
0.0
 11
35.0
 21
29.0212
 31
0.0
  0
LINE
  5
92
330
1E
100
AcDbEntity
  8
0
100
AcDbLine
 10
35.0
 20
30.0452
 30
0.0
 11
35.0
 21
31.00519999999999
 31
0.0
  0
LINE
  5
93
330
1E
100
AcDbEntity
  8
0
100
AcDbLine
 10
35.0
 20
29.0212
 30
0.0
 11
35.0
 21
27.9972
 31
0.0
  0
LINE
  5
94
330
1E
100
AcDbEntity
  8
0
100
AcDbLine
 10
35.0
 20
29.0212
 30
0.0
 11
35.0
 21
30.0452
 31
0.0
  0
LINE
  5
95
330
1E
100
AcDbEntity
  8
0
100
AcDbLine
 10
35.0
 20
27.0372
 30
0.0
 11
35.0
 21
27.9972
 31
0.0
  0
LINE
  5
96
330
1E
100
AcDbEntity
  8
0
100
AcDbLine
 10
35.0
 20
27.0372
 30
0.0
 11
35.0
 21
26.1892
 31
0.0
  0
LINE
  5
97
330
1E
100
AcDbEntity
  8
0
100
AcDbLine
 10
35.0
 20
27.9972
 30
0.0
 11
35.0
 21
29.0212
 31
0.0
  0
LINE
  5
98
330
1E
100
AcDbEntity
  8
0
100
AcDbLine
 10
35.0
 20
27.9972
 30
0.0
 11
35.0
 21
27.0372
 31
0.0
  0
LINE
  5
99
330
1E
100
AcDbEntity
  8
0
100
AcDbLine
 10
35.0
 20
26.6618
 30
0.0
 11
35.0
 21
25.3138
 31
0.0
  0
LINE
  5
9A
330
1E
100
AcDbEntity
  8
0
100
AcDbLine
 10
35.0
 20
26.6618
 30
0.0
 11
35.0
 21
2.937399999999999
 31
0.0
  0
LINE
  5
9B
330
1E
100
AcDbEntity
  8
0
100
AcDbLine
 10
35.0
 20
26.1892
 30
0.0
 11
35.0
 21
2.0
 31
0.0
  0
LINE
  5
9C
330
1E
100
AcDbEntity
  8
0
100
AcDbLine
 10
35.0
 20
40.3391
 30
0.0
 11
35.0
 21
47.64999999999999
 31
0.0
  0
LINE
  5
9D
330
1E
100
AcDbEntity
  8
0
100
AcDbLine
 10
35.0
 20
40.3391
 30
0.0
 11
35.0
 21
37.6417
 31
0.0
  0
LINE
  5
9E
330
1E
100
AcDbEntity
  8
0
100
AcDbLine
 10
35.0
 20
37.6417
 30
0.0
 11
35.0
 21
40.3391
 31
0.0
  0
LINE
  5
9F
330
1E
100
AcDbEntity
  8
0
100
AcDbLine
 10
35.0
 20
37.6417
 30
0.0
 11
35.0
 21
48.07159999999999
 31
0.0
  0
LINE
  5
A0
330
1E
100
AcDbEntity
  8
0
100
AcDbLine
 10
35.0
 20
33.0212
 30
0.0
 11
35.0
 21
32.8772
 31
0.0
  0
LINE
  5
A1
330
1E
100
AcDbEntity
  8
0
100
AcDbLine
 10
35.0
 20
32.8772
 30
0.0
 11
35.0
 21
32.4932
 31
0.0
  0
LINE
  5
A2
330
1E
100
AcDbEntity
  8
0
100
AcDbLine
 10
35.0
 20
32.8772
 30
0.0
 11
35.0
 21
33.0212
 31
0.0
  0
LINE
  5
A3
330
1E
100
AcDbEntity
  8
0
100
AcDbLine
 10
35.0
 20
32.4932
 30
0.0
 11
35.0
 21
31.8532
 31
0.0
  0
LINE
  5
A4
330
1E
100
AcDbEntity
  8
0
100
AcDbLine
 10
35.0
 20
32.4932
 30
0.0
 11
35.0
 21
32.8772
 31
0.0
  0
LINE
  5
A5
330
1E
100
AcDbEntity
  8
0
100
AcDbLine
 10
35.0
 20
31.8532
 30
0.0
 11
35.0
 21
31.00519999999999
 31
0.0
  0
LINE
  5
A6
330
1E
100
AcDbEntity
  8
0
100
AcDbLine
 10
35.0
 20
31.8532
 30
0.0
 11
35.0
 21
32.4932
 31
0.0
  0
LINE
  5
A7
330
1E
100
AcDbEntity
  8
0
100
AcDbLine
 10
35.0
 20
37.19599999999999
 30
0.0
 11
35.0
 21
31.148
 31
0.0
  0
LINE
  5
A8
330
1E
100
AcDbEntity
  8
0
100
AcDbLine
 10
35.0
 20
37.19599999999999
 30
0.0
 11
35.0
 21
44.25199999999999
 31
0.0
  0
LINE
  5
A9
330
1E
100
AcDbEntity
  8
0
100
AcDbLine
 10
35.0
 20
48.07159999999999
 30
0.0
 11
35.0
 21
48.81800000000001
 31
0.0
  0
LINE
  5
AA
330
1E
100
AcDbEntity
  8
0
100
AcDbLine
 10
35.0
 20
48.07159999999999
 30
0.0
 11
35.0
 21
37.6417
 31
0.0
  0
LINE
  5
AB
330
1E
100
AcDbEntity
  8
0
100
AcDbLine
 10
35.0
 20
48.81800000000001
 30
0.0
 11
35.0
 21
48.178
 31
0.0
  0
LINE
  5
AC
330
1E
100
AcDbEntity
  8
0
100
AcDbLine
 10
35.0
 20
48.81800000000001
 30
0.0
 11
35.0
 21
49.666
 31
0.0
  0
LINE
  5
AD
330
1E
100
AcDbEntity
  8
0
100
AcDbLine
 10
35.0
 20
48.178
 30
0.0
 11
35.0
 21
47.79399999999999
 31
0.0
  0
LINE
  5
AE
330
1E
100
AcDbEntity
  8
0
100
AcDbLine
 10
35.0
 20
48.178
 30
0.0
 11
35.0
 21
48.81800000000001
 31
0.0
  0
LINE
  5
AF
330
1E
100
AcDbEntity
  8
0
100
AcDbLine
 10
35.0
 20
47.64999999999999
 30
0.0
 11
35.0
 21
47.79399999999999
 31
0.0
  0
LINE
  5
B0
330
1E
100
AcDbEntity
  8
0
100
AcDbLine
 10
35.0
 20
44.25199999999999
 30
0.0
 11
35.0
 21
37.19599999999999
 31
0.0
  0
LINE
  5
B1
330
1E
100
AcDbEntity
  8
0
100
AcDbLine
 10
35.0
 20
44.25199999999999
 30
0.0
 11
35.0
 21
47.79399999999999
 31
0.0
  0
LINE
  5
B2
330
1E
100
AcDbEntity
  8
0
100
AcDbLine
 10
35.0
 20
47.79399999999999
 30
0.0
 11
35.0
 21
44.25199999999999
 31
0.0
  0
LINE
  5
B3
330
1E
100
AcDbEntity
  8
0
100
AcDbLine
 10
35.0
 20
47.79399999999999
 30
0.0
 11
35.0
 21
47.64999999999999
 31
0.0
  0
LINE
  5
B4
330
1E
100
AcDbEntity
  8
0
100
AcDbLine
 10
35.0
 20
47.79399999999999
 30
0.0
 11
35.0
 21
48.178
 31
0.0
  0
LINE
  5
B5
330
1E
100
AcDbEntity
  8
0
100
AcDbLine
 10
35.0
 20
31.148
 30
0.0
 11
35.0
 21
25.604
 31
0.0
  0
LINE
  5
B6
330
1E
100
AcDbEntity
  8
0
100
AcDbLine
 10
35.0
 20
31.148
 30
0.0
 11
35.0
 21
37.19599999999999
 31
0.0
  0
LINE
  5
B7
330
1E
100
AcDbEntity
  8
0
100
AcDbLine
 10
35.0
 20
25.604
 30
0.0
 11
35.0
 21
20.81599999999999
 31
0.0
  0
LINE
  5
B8
330
1E
100
AcDbEntity
  8
0
100
AcDbLine
 10
35.0
 20
25.604
 30
0.0
 11
35.0
 21
31.148
 31
0.0
  0
LINE
  5
B9
330
1E
100
AcDbEntity
  8
0
100
AcDbLine
 10
35.0
 20
20.81599999999999
 30
0.0
 11
35.0
 21
17.54
 31
0.0
  0
LINE
  5
BA
330
1E
100
AcDbEntity
  8
0
100
AcDbLine
 10
35.0
 20
20.81599999999999
 30
0.0
 11
35.0
 21
25.604
 31
0.0
  0
LINE
  5
BB
330
1E
100
AcDbEntity
  8
0
100
AcDbLine
 10
35.0
 20
17.54
 30
0.0
 11
35.0
 21
14.76799999999999
 31
0.0
  0
LINE
  5
BC
330
1E
100
AcDbEntity
  8
0
100
AcDbLine
 10
35.0
 20
17.54
 30
0.0
 11
35.0
 21
20.81599999999999
 31
0.0
  0
LINE
  5
BD
330
1E
100
AcDbEntity
  8
0
100
AcDbLine
 10
35.0
 20
14.76799999999999
 30
0.0
 11
35.0
 21
13.25599999999999
 31
0.0
  0
LINE
  5
BE
330
1E
100
AcDbEntity
  8
0
100
AcDbLine
 10
35.0
 20
14.76799999999999
 30
0.0
 11
35.0
 21
17.54
 31
0.0
  0
LINE
  5
BF
330
1E
100
AcDbEntity
  8
0
100
AcDbLine
 10
35.0
 20
14.5
 30
0.0
 11
35.0
 21
13.25599999999999
 31
0.0
  0
LINE
  5
C0
330
1E
100
AcDbEntity
  8
0
100
AcDbLine
 10
35.0
 20
14.5
 30
0.0
 11
35.0
 21
4.195509999999999
 31
0.0
  0
LINE
  5
C1
330
1E
100
AcDbEntity
  8
0
100
AcDbLine
 10
35.0
 20
14.5
 30
0.0
 11
35.0
 21
2.937399999999999
 31
0.0
  0
LINE
  5
C2
330
1E
100
AcDbEntity
  8
0
100
AcDbLine
 10
35.0
 20
14.5
 30
0.0
 11
35.0
 21
6.34241
 31
0.0
  0
LINE
  5
C3
330
1E
100
AcDbEntity
  8
0
100
AcDbLine
 10
35.0
 20
14.5
 30
0.0
 11
35.0
 21
6.684919999999999
 31
0.0
  0
LINE
  5
C4
330
1E
100
AcDbEntity
  8
0
100
AcDbLine
 10
35.0
 20
13.25599999999999
 30
0.0
 11
35.0
 21
14.5
 31
0.0
  0
LINE
  5
C5
330
1E
100
AcDbEntity
  8
0
100
AcDbLine
 10
35.0
 20
13.25599999999999
 30
0.0
 11
35.0
 21
12.5
 31
0.0
  0
LINE
  5
C6
330
1E
100
AcDbEntity
  8
0
100
AcDbLine
 10
35.0
 20
13.25599999999999
 30
0.0
 11
35.0
 21
14.76799999999999
 31
0.0
  0
LINE
  5
C7
330
1E
100
AcDbEntity
  8
0
100
AcDbLine
 10
39.0
 20
0.0
 30
0.0
 11
39.0
 21
50.0
 31
0.0
  0
LINE
  5
C8
330
1E
100
AcDbEntity
  8
0
100
AcDbLine
 10
35.0
 20
47.64999999999999
 30
0.0
 11
35.0
 21
27.9972
 31
0.0
  0
LINE
  5
C9
330
1E
100
AcDbEntity
  8
0
100
AcDbLine
 10
39.0
 20
-0.0000000000000024
 30
0.0
 11
39.0
 21
50.0
 31
0.0
  0
LINE
  5
CA
330
1E
100
AcDbEntity
  8
0
100
AcDbLine
 10
35.0
 20
49.666
 30
0.0
 11
35.0
 21
50.626
 31
0.0
  0
LINE
  5
CB
330
1E
100
AcDbEntity
  8
0
100
AcDbLine
 10
35.0
 20
50.0
 30
0.0
 11
39.0
 21
50.0
 31
0.0
  0
LINE
  5
CC
330
1E
100
AcDbEntity
  8
0
100
AcDbLine
 10
35.0
 20
50.0
 30
0.0
 11
35.0
 21
50.8
 31
0.0
  0
LINE
  5
CD
330
1E
100
AcDbEntity
  8
0
100
AcDbLine
 10
35.0
 20
50.0
 30
0.0
 11
35.0
 21
101.0
 31
0.0
  0
LINE
  5
CE
330
1E
100
AcDbEntity
  8
0
100
AcDbLine
 10
35.0
 20
48.81800000000001
 30
0.0
 11
35.0
 21
51.56
 31
0.0
  0
LINE
  5
CF
330
1E
100
AcDbEntity
  8
0
100
AcDbLine
 10
35.0
 20
12.5
 30
0.0
 11
35.0
 21
13.25599999999999
 31
0.0
  0
LINE
  5
D0
330
1E
100
AcDbEntity
  8
0
100
AcDbLine
 10
35.0
 20
50.626
 30
0.0
 11
35.0
 21
49.666
 31
0.0
  0
LINE
  5
D1
330
1E
100
AcDbEntity
  8
0
100
AcDbLine
 10
35.0
 20
50.626
 30
0.0
 11
35.0
 21
51.65
 31
0.0
  0
LINE
  5
D2
330
1E
100
AcDbEntity
  8
0
100
AcDbLine
 10
35.0
 20
50.8
 30
0.0
 11
35.0
 21
50.0
 31
0.0
  0
LINE
  5
D3
330
1E
100
AcDbEntity
  8
0
100
AcDbLine
 10
35.0
 20
50.8
 30
0.0
 11
35.0
 21
48.81800000000001
 31
0.0
  0
LINE
  5
D4
330
1E
100
AcDbEntity
  8
0
100
AcDbLine
 10
35.0
 20
52.0539
 30
0.0
 11
35.0
 21
53.916
 31
0.0
  0
LINE
  5
D5
330
1E
100
AcDbEntity
  8
0
100
AcDbLine
 10
35.0
 20
52.0539
 30
0.0
 11
35.0
 21
54.02429999999999
 31
0.0
  0
LINE
  5
D6
330
1E
100
AcDbEntity
  8
0
100
AcDbLine
 10
35.0
 20
52.674
 30
0.0
 11
35.0
 21
51.65
 31
0.0
  0
LINE
  5
D7
330
1E
100
AcDbEntity
  8
0
100
AcDbLine
 10
35.0
 20
52.674
 30
0.0
 11
35.0
 21
53.63399999999999
 31
0.0
  0
LINE
  5
D8
330
1E
100
AcDbEntity
  8
0
100
AcDbLine
 10
35.0
 20
53.916
 30
0.0
 11
35.0
 21
55.98399999999999
 31
0.0
  0
LINE
  5
D9
330
1E
100
AcDbEntity
  8
0
100
AcDbLine
 10
35.0
 20
53.916
 30
0.0
 11
35.0
 21
52.0539
 31
0.0
  0
LINE
  5
DA
330
1E
100
AcDbEntity
  8
0
100
AcDbLine
 10
35.0
 20
54.02429999999999
 30
0.0
 11
35.0
 21
52.0539
 31
0.0
  0
LINE
  5
DB
330
1E
100
AcDbEntity
  8
0
100
AcDbLine
 10
35.0
 20
54.02429999999999
 30
0.0
 11
35.0
 21
55.98399999999999
 31
0.0
  0
LINE
  5
DC
330
1E
100
AcDbEntity
  8
0
100
AcDbLine
 10
35.0
 20
53.63399999999999
 30
0.0
 11
35.0
 21
52.674
 31
0.0
  0
LINE
  5
DD
330
1E
100
AcDbEntity
  8
0
100
AcDbLine
 10
35.0
 20
53.63399999999999
 30
0.0
 11
35.0
 21
54.48199999999999
 31
0.0
  0
LINE
  5
DE
330
1E
100
AcDbEntity
  8
0
100
AcDbLine
 10
35.0
 20
54.48199999999999
 30
0.0
 11
35.0
 21
53.63399999999999
 31
0.0
  0
LINE
  5
DF
330
1E
100
AcDbEntity
  8
0
100
AcDbLine
 10
35.0
 20
54.48199999999999
 30
0.0
 11
35.0
 21
55.12199999999999
 31
0.0
  0
LINE
  5
E0
330
1E
100
AcDbEntity
  8
0
100
AcDbLine
 10
35.0
 20
55.12199999999999
 30
0.0
 11
35.0
 21
54.48199999999999
 31
0.0
  0
LINE
  5
E1
330
1E
100
AcDbEntity
  8
0
100
AcDbLine
 10
35.0
 20
55.12199999999999
 30
0.0
 11
35.0
 21
55.506
 31
0.0
  0
LINE
  5
E2
330
1E
100
AcDbEntity
  8
0
100
AcDbLine
 10
35.0
 20
55.506
 30
0.0
 11
35.0
 21
55.12199999999999
 31
0.0
  0
LINE
  5
E3
330
1E
100
AcDbEntity
  8
0
100
AcDbLine
 10
35.0
 20
55.506
 30
0.0
 11
35.0
 21
55.65
 31
0.0
  0
LINE
  5
E4
330
1E
100
AcDbEntity
  8
0
100
AcDbLine
 10
35.0
 20
55.98399999999999
 30
0.0
 11
35.0
 21
54.02429999999999
 31
0.0
  0
LINE
  5
E5
330
1E
100
AcDbEntity
  8
0
100
AcDbLine
 10
35.0
 20
55.98399999999999
 30
0.0
 11
35.0
 21
53.916
 31
0.0
  0
LINE
  5
E6
330
1E
100
AcDbEntity
  8
0
100
AcDbLine
 10
35.0
 20
55.65
 30
0.0
 11
35.0
 21
55.506
 31
0.0
  0
LINE
  5
E7
330
1E
100
AcDbEntity
  8
0
100
AcDbLine
 10
35.0
 20
51.65
 30
0.0
 11
35.0
 21
50.626
 31
0.0
  0
LINE
  5
E8
330
1E
100
AcDbEntity
  8
0
100
AcDbLine
 10
35.0
 20
51.65
 30
0.0
 11
35.0
 21
52.674
 31
0.0
  0
LINE
  5
E9
330
1E
100
AcDbEntity
  8
0
100
AcDbLine
 10
35.0
 20
51.56
 30
0.0
 11
35.0
 21
48.81800000000001
 31
0.0
  0
LINE
  5
EA
330
1E
100
AcDbEntity
  8
0
100
AcDbLine
 10
35.0
 20
51.56
 30
0.0
 11
35.0
 21
59.372
 31
0.0
  0
LINE
  5
EB
330
1E
100
AcDbEntity
  8
0
100
AcDbLine
 10
35.0
 20
59.372
 30
0.0
 11
35.0
 21
51.56
 31
0.0
  0
LINE
  5
EC
330
1E
100
AcDbEntity
  8
0
100
AcDbLine
 10
35.0
 20
59.372
 30
0.0
 11
35.0
 21
67.18399999999999
 31
0.0
  0
LINE
  5
ED
330
1E
100
AcDbEntity
  8
0
100
AcDbLine
 10
90.35200000000001
 20
12.5
 30
0.0
 11
94.432
 21
12.5
 31
0.0
  0
LINE
  5
EE
330
1E
100
AcDbEntity
  8
0
100
AcDbLine
 10
68.64
 20
12.5
 30
0.0
 11
71.84000000000001
 21
12.5
 31
0.0
  0
LINE
  5
EF
330
1E
100
AcDbEntity
  8
0
100
AcDbLine
 10
66.72
 20
12.5
 30
0.0
 11
68.64
 21
12.5
 31
0.0
  0
LINE
  5
F0
330
1E
100
AcDbEntity
  8
0
100
AcDbLine
 10
71.84000000000001
 20
12.5
 30
0.0
 11
76.08
 21
12.5
 31
0.0
  0
LINE
  5
F1
330
1E
100
AcDbEntity
  8
0
100
AcDbLine
 10
80.87999999999999
 20
12.5
 30
0.0
 11
86.0
 21
12.5
 31
0.0
  0
LINE
  5
F2
330
1E
100
AcDbEntity
  8
0
100
AcDbLine
 10
76.08
 20
12.5
 30
0.0
 11
80.87999999999999
 21
12.5
 31
0.0
  0
LINE
  5
F3
330
1E
100
AcDbEntity
  8
0
100
AcDbLine
 10
77.568
 20
12.5
 30
0.0
 11
80.87999999999999
 21
12.5
 31
0.0
  0
LINE
  5
F4
330
1E
100
AcDbEntity
  8
0
100
AcDbLine
 10
73.96399999999999
 20
12.5
 30
0.0
 11
77.568
 21
12.5
 31
0.0
  0
LINE
  5
F5
330
1E
100
AcDbEntity
  8
0
100
AcDbLine
 10
71.244
 20
12.5
 30
0.0
 11
73.96399999999999
 21
12.5
 31
0.0
  0
LINE
  5
F6
330
1E
100
AcDbEntity
  8
0
100
AcDbLine
 10
69.61199999999999
 20
12.5
 30
0.0
 11
71.244
 21
12.5
 31
0.0
  0
LINE
  5
F7
330
1E
100
AcDbEntity
  8
0
100
AcDbLine
 10
69.0
 20
12.5
 30
0.0
 11
69.61199999999999
 21
12.5
 31
0.0
  0
LINE
  5
F8
330
1E
100
AcDbEntity
  8
0
100
AcDbLine
 10
66.0
 20
12.5
 30
0.0
 11
66.72
 21
12.5
 31
0.0
  0
LINE
  5
F9
330
1E
100
AcDbEntity
  8
0
100
AcDbLine
 10
66.0
 20
12.5
 30
0.0
 11
66.0
 21
14.5
 31
0.0
  0
LINE
  5
FA
330
1E
100
AcDbEntity
  8
0
100
AcDbLine
 10
86.0
 20
12.5
 30
0.0
 11
91.12
 21
12.5
 31
0.0
  0
LINE
  5
FB
330
1E
100
AcDbEntity
  8
0
100
AcDbLine
 10
86.0
 20
12.5
 30
0.0
 11
90.35200000000001
 21
12.5
 31
0.0
  0
LINE
  5
FC
330
1E
100
AcDbEntity
  8
0
100
AcDbLine
 10
91.12
 20
12.5
 30
0.0
 11
95.92
 21
12.5
 31
0.0
  0
LINE
  5
FD
330
1E
100
AcDbEntity
  8
0
100
AcDbLine
 10
86.0
 20
14.5
 30
0.0
 11
91.12
 21
14.5
 31
0.0
  0
LINE
  5
FE
330
1E
100
AcDbEntity
  8
0
100
AcDbLine
 10
94.432
 20
12.5
 30
0.0
 11
98.03600000000001
 21
12.5
 31
0.0
  0
LINE
  5
FF
330
1E
100
AcDbEntity
  8
0
100
AcDbLine
 10
98.03600000000001
 20
12.5
 30
0.0
 11
100.756
 21
12.5
 31
0.0
  0
LINE
  5
100
330
1E
100
AcDbEntity
  8
0
100
AcDbLine
 10
95.92
 20
12.5
 30
0.0
 11
100.16
 21
12.5
 31
0.0
  0
LINE
  5
101
330
1E
100
AcDbEntity
  8
0
100
AcDbLine
 10
100.16
 20
12.5
 30
0.0
 11
103.36
 21
12.5
 31
0.0
  0
LINE
  5
102
330
1E
100
AcDbEntity
  8
0
100
AcDbLine
 10
91.12
 20
14.5
 30
0.0
 11
95.92
 21
14.5
 31
0.0
  0
LINE
  5
103
330
1E
100
AcDbEntity
  8
0
100
AcDbLine
 10
95.92
 20
14.5
 30
0.0
 11
100.16
 21
14.5
 31
0.0
  0
LINE
  5
104
330
1E
100
AcDbEntity
  8
0
100
AcDbLine
 10
100.756
 20
12.5
 30
0.0
 11
102.3879999999999
 21
12.5
 31
0.0
  0
LINE
  5
105
330
1E
100
AcDbEntity
  8
0
100
AcDbLine
 10
102.3879999999999
 20
12.5
 30
0.0
 11
103.0
 21
12.5
 31
0.0
  0
LINE
  5
106
330
1E
100
AcDbEntity
  8
0
100
AcDbLine
 10
103.36
 20
12.5
 30
0.0
 11
105.2799999999999
 21
12.5
 31
0.0
  0
LINE
  5
107
330
1E
100
AcDbEntity
  8
0
100
AcDbLine
 10
105.2799999999999
 20
12.5
 30
0.0
 11
106.0
 21
12.5
 31
0.0
  0
LINE
  5
108
330
1E
100
AcDbEntity
  8
0
100
AcDbLine
 10
100.16
 20
14.5
 30
0.0
 11
103.36
 21
14.5
 31
0.0
  0
LINE
  5
109
330
1E
100
AcDbEntity
  8
0
100
AcDbLine
 10
103.36
 20
14.5
 30
0.0
 11
105.2799999999999
 21
14.5
 31
0.0
  0
LINE
  5
10A
330
1E
100
AcDbEntity
  8
0
100
AcDbLine
 10
106.0
 20
12.5
 30
0.0
 11
106.0
 21
14.5
 31
0.0
  0
LINE
  5
10B
330
1E
100
AcDbEntity
  8
0
100
AcDbLine
 10
108.0
 20
14.5
 30
0.0
 11
108.0
 21
15.1421
 31
0.0
  0
LINE
  5
10C
330
1E
100
AcDbEntity
  8
0
100
AcDbLine
 10
105.2799999999999
 20
14.5
 30
0.0
 11
106.0
 21
14.5
 31
0.0
  0
LINE
  5
10D
330
1E
100
AcDbEntity
  8
0
100
AcDbLine
 10
80.87999999999999
 20
14.5
 30
0.0
 11
86.0
 21
14.5
 31
0.0
  0
LINE
  5
10E
330
1E
100
AcDbEntity
  8
0
100
AcDbLine
 10
76.08
 20
14.5
 30
0.0
 11
80.87999999999999
 21
14.5
 31
0.0
  0
LINE
  5
10F
330
1E
100
AcDbEntity
  8
0
100
AcDbLine
 10
71.84000000000001
 20
14.5
 30
0.0
 11
76.08
 21
14.5
 31
0.0
  0
LINE
  5
110
330
1E
100
AcDbEntity
  8
0
100
AcDbLine
 10
68.64
 20
14.5
 30
0.0
 11
71.84000000000001
 21
14.5
 31
0.0
  0
LINE
  5
111
330
1E
100
AcDbEntity
  8
0
100
AcDbLine
 10
66.72
 20
14.5
 30
0.0
 11
68.64
 21
14.5
 31
0.0
  0
LINE
  5
112
330
1E
100
AcDbEntity
  8
0
100
AcDbLine
 10
66.0
 20
14.5
 30
0.0
 11
66.72
 21
14.9072
 31
0.0
  0
LINE
  5
113
330
1E
100
AcDbEntity
  8
0
100
AcDbLine
 10
66.0
 20
14.5
 30
0.0
 11
66.72
 21
14.5
 31
0.0
  0
LINE
  5
114
330
1E
100
AcDbEntity
  8
0
100
AcDbLine
 10
66.0
 20
14.5
 30
0.0
 11
66.0
 21
12.5
 31
0.0
  0
LINE
  5
115
330
1E
100
AcDbEntity
  8
0
100
AcDbLine
 10
103.36
 20
15.5876
 30
0.0
 11
105.2799999999999
 21
14.9072
 31
0.0
  0
LINE
  5
116
330
1E
100
AcDbEntity
  8
0
100
AcDbLine
 10
108.0
 20
15.1421
 30
0.0
 11
108.0
 21
15.8993
 31
0.0
  0
LINE
  5
117
330
1E
100
AcDbEntity
  8
0
100
AcDbLine
 10
108.0
 20
15.1421
 30
0.0
 11
108.0
 21
14.5
 31
0.0
  0
LINE
  5
118
330
1E
100
AcDbEntity
  8
0
100
AcDbLine
 10
105.2799999999999
 20
14.9072
 30
0.0
 11
106.0
 21
14.5
 31
0.0
  0
LINE
  5
11C
330
1E
100
AcDbEntity
  8
0
100
AcDbLine
 10
69.508
 20
44.0
 30
0.0
 11
72.548
 21
44.0
 31
0.0
  0
LINE
  5
11F
330
1E
100
AcDbEntity
  8
0
100
AcDbLine
 10
67.68399999999999
 20
44.0
 30
0.0
 11
69.508
 21
44.0
 31
0.0
  0
LINE
  5
121
330
1E
100
AcDbEntity
  8
0
100
AcDbLine
 10
67.0
 20
40.0
 30
0.0
 11
67.0
 21
44.0
 31
0.0
  0
LINE
  5
122
330
1E
100
AcDbEntity
  8
0
100
AcDbLine
 10
67.0
 20
44.0
 30
0.0
 11
67.0
 21
40.0
 31
0.0
  0
LINE
  5
123
330
1E
100
AcDbEntity
  8
0
100
AcDbLine
 10
67.0
 20
44.0
 30
0.0
 11
67.68399999999999
 21
44.0
 31
0.0
  0
LINE
  5
124
330
1E
100
AcDbEntity
  8
0
100
AcDbLine
 10
67.0
 20
44.0
 30
0.0
 11
71.0
 21
48.0
 31
0.0
  0
LINE
  5
12B
330
1E
100
AcDbEntity
  8
0
100
AcDbLine
 10
95.92
 20
17.2401
 30
0.0
 11
100.16
 21
16.3896
 31
0.0
  0
LINE
  5
12C
330
1E
100
AcDbEntity
  8
0
100
AcDbLine
 10
100.16
 20
16.3896
 30
0.0
 11
102.1163092269329
 21
15.8993
 31
0.0
  0
LINE
  5
12D
330
1E
100
AcDbEntity
  8
0
100
AcDbLine
 10
108.0
 20
15.8993
 30
0.0
 11
108.0
 21
16.15129999999999
 31
0.0
  0
LINE
  5
12E
330
1E
100
AcDbEntity
  8
0
100
AcDbLine
 10
108.0
 20
15.8993
 30
0.0
 11
108.0
 21
15.1421
 31
0.0
  0
LINE
  5
12F
330
1E
100
AcDbEntity
  8
0
100
AcDbLine
 10
108.0
 20
16.15129999999999
 30
0.0
 11
108.0
 21
16.8233
 31
0.0
  0
LINE
  5
130
330
1E
100
AcDbEntity
  8
0
100
AcDbLine
 10
108.0
 20
16.15129999999999
 30
0.0
 11
108.0
 21
15.8993
 31
0.0
  0
LINE
  5
131
330
1E
100
AcDbEntity
  8
0
100
AcDbLine
 10
108.0
 20
16.8233
 30
0.0
 11
108.0
 21
17.9433
 31
0.0
  0
LINE
  5
132
330
1E
100
AcDbEntity
  8
0
100
AcDbLine
 10
108.0
 20
16.8233
 30
0.0
 11
108.0
 21
16.15129999999999
 31
0.0
  0
LINE
  5
133
330
1E
100
AcDbEntity
  8
0
100
AcDbLine
 10
102.1163092269329
 20
15.8993
 30
0.0
 11
103.36
 21
15.5876
 31
0.0
  0
LINE
  5
136
330
1E
100
AcDbEntity
  8
0
100
AcDbLine
 10
76.57600000000001
 20
44.0
 30
0.0
 11
81.13600000000001
 21
44.0
 31
0.0
  0
LINE
  5
13A
330
1E
100
AcDbEntity
  8
0
100
AcDbLine
 10
72.548
 20
44.0
 30
0.0
 11
76.57600000000001
 21
44.0
 31
0.0
  0
LINE
  5
13F
330
1E
100
AcDbEntity
  8
0
100
AcDbLine
 10
86.0
 20
44.0
 30
0.0
 11
90.86399999999999
 21
44.0
 31
0.0
  0
LINE
  5
145
330
1E
100
AcDbEntity
  8
0
100
AcDbLine
 10
81.13600000000001
 20
44.0
 30
0.0
 11
86.0
 21
44.0
 31
0.0
  0
LINE
  5
160
330
1E
100
AcDbEntity
  8
0
100
AcDbLine
 10
108.0
 20
17.9433
 30
0.0
 11
108.0
 21
19.4273
 31
0.0
  0
LINE
  5
161
330
1E
100
AcDbEntity
  8
0
100
AcDbLine
 10
108.0
 20
17.9433
 30
0.0
 11
108.0
 21
16.8233
 31
0.0
  0
LINE
  5
162
330
1E
100
AcDbEntity
  8
0
100
AcDbLine
 10
108.0
 20
19.4273
 30
0.0
 11
108.0
 21
21.10729999999999
 31
0.0
  0
LINE
  5
163
330
1E
100
AcDbEntity
  8
0
100
AcDbLine
 10
108.0
 20
19.4273
 30
0.0
 11
108.0
 21
17.9433
 31
0.0
  0
LINE
  5
164
330
1E
100
AcDbEntity
  8
0
100
AcDbLine
 10
108.0
 20
22.8993
 30
0.0
 11
108.0
 21
21.10729999999999
 31
0.0
  0
LINE
  5
165
330
1E
100
AcDbEntity
  8
0
100
AcDbLine
 10
108.0
 20
22.8993
 30
0.0
 11
108.0
 21
24.69129999999999
 31
0.0
  0
LINE
  5
166
330
1E
100
AcDbEntity
  8
0
100
AcDbLine
 10
108.0
 20
21.10729999999999
 30
0.0
 11
108.0
 21
22.8993
 31
0.0
  0
LINE
  5
167
330
1E
100
AcDbEntity
  8
0
100
AcDbLine
 10
108.0
 20
21.10729999999999
 30
0.0
 11
108.0
 21
19.4273
 31
0.0
  0
LINE
  5
18A
330
1E
100
AcDbEntity
  8
0
100
AcDbLine
 10
90.86399999999999
 20
44.0
 30
0.0
 11
95.42399999999998
 21
44.0
 31
0.0
  0
LINE
  5
18C
330
1E
100
AcDbEntity
  8
0
100
AcDbLine
 10
95.42399999999998
 20
44.0
 30
0.0
 11
99.45200000000001
 21
44.0
 31
0.0
  0
LINE
  5
18E
330
1E
100
AcDbEntity
  8
0
100
AcDbLine
 10
99.45200000000001
 20
44.0
 30
0.0
 11
102.492
 21
44.0
 31
0.0
  0
LINE
  5
195
330
1E
100
AcDbEntity
  8
0
100
AcDbLine
 10
105.0
 20
44.0
 30
0.0
 11
105.0
 21
40.0
 31
0.0
  0
LINE
  5
196
330
1E
100
AcDbEntity
  8
0
100
AcDbLine
 10
105.0
 20
40.0
 30
0.0
 11
105.0
 21
44.0
 31
0.0
  0
LINE
  5
197
330
1E
100
AcDbEntity
  8
0
100
AcDbLine
 10
102.492
 20
44.0
 30
0.0
 11
104.316
 21
44.0
 31
0.0
  0
LINE
  5
199
330
1E
100
AcDbEntity
  8
0
100
AcDbLine
 10
104.316
 20
44.0
 30
0.0
 11
105.0
 21
44.0
 31
0.0
  0
LINE
  5
19B
330
1E
100
AcDbEntity
  8
0
100
AcDbLine
 10
108.0
 20
28.9753
 30
0.0
 11
108.0
 21
27.8553
 31
0.0
  0
LINE
  5
19C
330
1E
100
AcDbEntity
  8
0
100
AcDbLine
 10
108.0
 20
28.9753
 30
0.0
 11
108.0
 21
44.9105
 31
0.0
  0
LINE
  5
19D
330
1E
100
AcDbEntity
  8
0
100
AcDbLine
 10
108.0
 20
27.8553
 30
0.0
 11
108.0
 21
26.3713
 31
0.0
  0
LINE
  5
19E
330
1E
100
AcDbEntity
  8
0
100
AcDbLine
 10
108.0
 20
27.8553
 30
0.0
 11
108.0
 21
28.9753
 31
0.0
  0
LINE
  5
19F
330
1E
100
AcDbEntity
  8
0
100
AcDbLine
 10
108.0
 20
26.3713
 30
0.0
 11
108.0
 21
24.69129999999999
 31
0.0
  0
LINE
  5
1A0
330
1E
100
AcDbEntity
  8
0
100
AcDbLine
 10
108.0
 20
26.3713
 30
0.0
 11
108.0
 21
27.8553
 31
0.0
  0
LINE
  5
1A1
330
1E
100
AcDbEntity
  8
0
100
AcDbLine
 10
108.0
 20
24.69129999999999
 30
0.0
 11
108.0
 21
22.8993
 31
0.0
  0
LINE
  5
1A2
330
1E
100
AcDbEntity
  8
0
100
AcDbLine
 10
108.0
 20
24.69129999999999
 30
0.0
 11
108.0
 21
26.3713
 31
0.0
  0
LINE
  5
1A5
330
1E
100
AcDbEntity
  8
0
100
AcDbLine
 10
86.0
 20
18.14999999999999
 30
0.0
 11
91.12
 21
17.8963
 31
0.0
  0
LINE
  5
1A6
330
1E
100
AcDbEntity
  8
0
100
AcDbLine
 10
91.12
 20
17.8963
 30
0.0
 11
95.92
 21
17.2401
 31
0.0
  0
LINE
  5
1A7
330
1E
100
AcDbEntity
  8
0
100
AcDbLine
 10
80.87999999999999
 20
17.8963
 30
0.0
 11
86.0
 21
18.14999999999999
 31
0.0
  0
LINE
  5
1A8
330
1E
100
AcDbEntity
  8
0
100
AcDbLine
 10
76.08
 20
17.2401
 30
0.0
 11
80.87999999999999
 21
17.8963
 31
0.0
  0
LINE
  5
1A9
330
1E
100
AcDbEntity
  8
0
100
AcDbLine
 10
71.84000000000001
 20
16.3896
 30
0.0
 11
76.08
 21
17.2401
 31
0.0
  0
LINE
  5
1AA
330
1E
100
AcDbEntity
  8
0
100
AcDbLine
 10
68.64
 20
15.5876
 30
0.0
 11
71.84000000000001
 21
16.3896
 31
0.0
  0
LINE
  5
1AB
330
1E
100
AcDbEntity
  8
0
100
AcDbLine
 10
66.72
 20
14.9072
 30
0.0
 11
68.64
 21
15.5876
 31
0.0
  0
LINE
  5
1AC
330
1E
100
AcDbEntity
  8
0
100
AcDbLine
 10
39.0
 20
14.5
 30
0.0
 11
66.0
 21
14.5
 31
0.0
  0
LINE
  5
1AD
330
1E
100
AcDbEntity
  8
0
100
AcDbLine
 10
108.0
 20
44.9105
 30
0.0
 11
108.0
 21
45.12839999999999
 31
0.0
  0
LINE
  5
1AE
330
1E
100
AcDbEntity
  8
0
100
AcDbLine
 10
108.0
 20
44.9105
 30
0.0
 11
108.0
 21
28.9753
 31
0.0
  0
LINE
  5
1AF
330
1E
100
AcDbEntity
  8
0
100
AcDbLine
 10
89.83999999999999
 20
48.0
 30
0.0
 11
93.43999999999999
 21
48.0
 31
0.0
  0
LINE
  5
1B1
330
1E
100
AcDbEntity
  8
0
100
AcDbLine
 10
93.43999999999999
 20
48.0
 30
0.0
 11
96.62
 21
48.0
 31
0.0
  0
LINE
  5
1B4
330
1E
100
AcDbEntity
  8
0
100
AcDbLine
 10
96.62
 20
48.0
 30
0.0
 11
99.02000000000001
 21
48.0
 31
0.0
  0
LINE
  5
1B6
330
1E
100
AcDbEntity
  8
0
100
AcDbLine
 10
99.02000000000001
 20
48.0
 30
0.0
 11
100.4599999999999
 21
48.0
 31
0.0
  0
LINE
  5
1B8
330
1E
100
AcDbEntity
  8
0
100
AcDbLine
 10
100.4599999999999
 20
48.0
 30
0.0
 11
101.0
 21
48.0
 31
0.0
  0
LINE
  5
1B9
330
1E
100
AcDbEntity
  8
0
100
AcDbLine
 10
101.0
 20
48.0
 30
0.0
 11
105.0
 21
44.0
 31
0.0
  0
LINE
  5
1BA
330
1E
100
AcDbEntity
  8
0
100
AcDbLine
 10
101.0
 20
48.0
 30
0.0
 11
101.0
 21
60.0
 31
0.0
  0
LINE
  5
1BC
330
1E
100
AcDbEntity
  8
0
100
AcDbLine
 10
86.0
 20
48.0
 30
0.0
 11
89.83999999999999
 21
48.0
 31
0.0
  0
LINE
  5
1BE
330
1E
100
AcDbEntity
  8
0
100
AcDbLine
 10
82.15999999999999
 20
48.0
 30
0.0
 11
86.0
 21
48.0
 31
0.0
  0
LINE
  5
1BF
330
1E
100
AcDbEntity
  8
0
100
AcDbLine
 10
78.56
 20
48.0
 30
0.0
 11
82.15999999999999
 21
48.0
 31
0.0
  0
LINE
  5
1C0
330
1E
100
AcDbEntity
  8
0
100
AcDbLine
 10
75.38
 20
48.0
 30
0.0
 11
78.56
 21
48.0
 31
0.0
  0
LINE
  5
1C1
330
1E
100
AcDbEntity
  8
0
100
AcDbLine
 10
72.98
 20
48.0
 30
0.0
 11
75.38
 21
48.0
 31
0.0
  0
LINE
  5
1C2
330
1E
100
AcDbEntity
  8
0
100
AcDbLine
 10
71.54
 20
48.0
 30
0.0
 11
72.98
 21
48.0
 31
0.0
  0
LINE
  5
1C3
330
1E
100
AcDbEntity
  8
0
100
AcDbLine
 10
71.0
 20
48.0
 30
0.0
 11
71.54
 21
48.0
 31
0.0
  0
LINE
  5
1C4
330
1E
100
AcDbEntity
  8
0
100
AcDbLine
 10
71.0
 20
48.0
 30
0.0
 11
71.0
 21
60.0
 31
0.0
  0
LINE
  5
1C5
330
1E
100
AcDbEntity
  8
0
100
AcDbLine
 10
71.0
 20
60.0
 30
0.0
 11
71.0
 21
48.0
 31
0.0
  0
LINE
  5
1C6
330
1E
100
AcDbEntity
  8
0
100
AcDbLine
 10
70.9
 20
60.0
 30
0.0
 11
70.9
 21
68.5
 31
0.0
  0
LINE
  5
1C7
330
1E
100
AcDbEntity
  8
0
100
AcDbLine
 10
70.9
 20
60.0
 30
0.0
 11
71.0
 21
60.0
 31
0.0
  0
LINE
  5
1C8
330
1E
100
AcDbEntity
  8
0
100
AcDbLine
 10
70.9
 20
60.0
 30
0.0
 11
70.9
 21
75.5
 31
0.0
  0
LINE
  5
1CB
330
1E
100
AcDbEntity
  8
0
100
AcDbLine
 10
101.0999999999999
 20
60.0
 30
0.0
 11
101.0999999999999
 21
75.5
 31
0.0
  0
LINE
  5
1CC
330
1E
100
AcDbEntity
  8
0
100
AcDbLine
 10
101.0
 20
60.0
 30
0.0
 11
101.0
 21
48.0
 31
0.0
  0
LINE
  5
1CD
330
1E
100
AcDbEntity
  8
0
100
AcDbLine
 10
101.0
 20
60.0
 30
0.0
 11
101.0999999999999
 21
60.0
 31
0.0
  0
LINE
  5
1CE
330
1E
100
AcDbEntity
  8
0
100
AcDbLine
 10
39.0
 20
50.0
 30
0.0
 11
39.0
 21
101.0
 31
0.0
  0
LINE
  5
1CF
330
1E
100
AcDbEntity
  8
0
100
AcDbLine
 10
108.0
 20
59.7684
 30
0.0
 11
108.0
 21
67.53789999999999
 31
0.0
  0
LINE
  5
1D0
330
1E
100
AcDbEntity
  8
0
100
AcDbLine
 10
108.0
 20
59.7684
 30
0.0
 11
108.0
 21
52.1916
 31
0.0
  0
LINE
  5
1D1
330
1E
100
AcDbEntity
  8
0
100
AcDbLine
 10
108.0
 20
45.12839999999999
 30
0.0
 11
108.0
 21
44.9105
 31
0.0
  0
LINE
  5
1D2
330
1E
100
AcDbEntity
  8
0
100
AcDbLine
 10
108.0
 20
45.12839999999999
 30
0.0
 11
108.0
 21
52.1916
 31
0.0
  0
LINE
  5
1D3
330
1E
100
AcDbEntity
  8
0
100
AcDbLine
 10
108.0
 20
52.1916
 30
0.0
 11
108.0
 21
45.12839999999999
 31
0.0
  0
LINE
  5
1D4
330
1E
100
AcDbEntity
  8
0
100
AcDbLine
 10
108.0
 20
52.1916
 30
0.0
 11
108.0
 21
59.7684
 31
0.0
  0
LINE
  5
1D5
330
1E
100
AcDbEntity
  8
0
100
AcDbLine
 10
106.0
 20
14.5
 30
0.0
 11
108.0
 21
14.5
 31
0.0
  0
LINE
  5
1D6
330
1E
100
AcDbEntity
  8
0
100
AcDbLine
 10
106.0
 20
14.5
 30
0.0
 11
106.0
 21
12.5
 31
0.0
  0
LINE
  5
1D7
330
1E
100
AcDbEntity
  8
0
100
AcDbLine
 10
39.0
 20
14.5
 30
0.0
 11
66.0
 21
14.5
 31
0.0
  0
LINE
  5
1D8
330
1E
100
AcDbEntity
  8
0
100
AcDbLine
 10
0.0000000000000042
 20
67.7989
 30
0.0
 11
0.0000000000000046
 21
75.5
 31
0.0
  0
LINE
  5
1D9
330
1E
100
AcDbEntity
  8
0
100
AcDbLine
 10
0.0000000000000051
 20
83.46210000000001
 30
0.0
 11
0.0000000000000056
 21
91.2316
 31
0.0
  0
LINE
  5
1DA
330
1E
100
AcDbEntity
  8
0
100
AcDbLine
 10
0.000000000000006
 20
98.0442
 30
0.0
 11
0.0000000000000064
 21
104.876
 31
0.0
  0
LINE
  5
1DB
330
1E
100
AcDbEntity
  8
0
100
AcDbLine
 10
0.000000000000006
 20
98.0442
 30
0.0
 11
0.0000000000000061
 21
98.8084
 31
0.0
  0
LINE
  5
1DC
330
1E
100
AcDbEntity
  8
0
100
AcDbLine
 10
0.0000000000000056
 20
91.2316
 30
0.0
 11
0.000000000000006
 21
98.0442
 31
0.0
  0
LINE
  5
1DD
330
1E
100
AcDbEntity
  8
0
100
AcDbLine
 10
0.0000000000000056
 20
91.2316
 30
0.0
 11
0.0000000000000061
 21
98.8084
 31
0.0
  0
LINE
  5
1DE
330
1E
100
AcDbEntity
  8
0
100
AcDbLine
 10
0.0000000000000051
 20
83.20109999999999
 30
0.0
 11
0.0000000000000056
 21
90.7158
 31
0.0
  0
LINE
  5
1DF
330
1E
100
AcDbEntity
  8
0
100
AcDbLine
 10
0.0000000000000046
 20
75.5
 30
0.0
 11
0.0000000000000051
 21
83.20109999999999
 31
0.0
  0
LINE
  5
1E0
330
1E
100
AcDbEntity
  8
0
100
AcDbLine
 10
0.0000000000000046
 20
75.5
 30
0.0
 11
0.0000000000000051
 21
83.46210000000001
 31
0.0
  0
LINE
  5
1E1
330
1E
100
AcDbEntity
  8
0
100
AcDbLine
 10
0.0000000000000064
 20
104.876
 30
0.0
 11
0.0000000000000068
 21
111.397
 31
0.0
  0
LINE
  5
1E2
330
1E
100
AcDbEntity
  8
0
100
AcDbLine
 10
0.0000000000000065
 20
105.872
 30
0.0
 11
0.0000000000000069
 21
112.6139999999999
 31
0.0
  0
LINE
  5
1E3
330
1E
100
AcDbEntity
  8
0
100
AcDbLine
 10
0.0000000000000068
 20
111.397
 30
0.0
 11
0.0000000000000072
 21
117.1729999999999
 31
0.0
  0
LINE
  5
1E4
330
1E
100
AcDbEntity
  8
0
100
AcDbLine
 10
0.0000000000000069
 20
112.6139999999999
 30
0.0
 11
0.0000000000000072
 21
117.1729999999999
 31
0.0
  0
LINE
  5
1E5
330
1E
100
AcDbEntity
  8
0
100
AcDbLine
 10
0.0000000000000069
 20
112.6139999999999
 30
0.0
 11
0.0000000000000073
 21
118.585
 31
0.0
  0
LINE
  5
1E6
330
1E
100
AcDbEntity
  8
0
100
AcDbLine
 10
0.0000000000000064
 20
104.876
 30
0.0
 11
0.0000000000000065
 21
105.872
 31
0.0
  0
LINE
  5
1E7
330
1E
100
AcDbEntity
  8
0
100
AcDbLine
 10
0.0000000000000061
 20
98.8084
 30
0.0
 11
0.0000000000000064
 21
104.876
 31
0.0
  0
LINE
  5
1E8
330
1E
100
AcDbEntity
  8
0
100
AcDbLine
 10
0.0000000000000061
 20
98.8084
 30
0.0
 11
0.0000000000000065
 21
105.872
 31
0.0
  0
LINE
  5
1E9
330
1E
100
AcDbEntity
  8
0
100
AcDbLine
 10
0.0000000000000073
 20
118.585
 30
0.0
 11
0.0000000000000076
 21
123.7859999999999
 31
0.0
  0
LINE
  5
1EA
330
1E
100
AcDbEntity
  8
0
100
AcDbLine
 10
0.0000000000000075
 20
122.2029999999999
 30
0.0
 11
0.0000000000000076
 21
123.7859999999999
 31
0.0
  0
LINE
  5
1EB
330
1E
100
AcDbEntity
  8
0
100
AcDbLine
 10
0.0000000000000072
 20
117.1729999999999
 30
0.0
 11
0.0000000000000075
 21
122.2029999999999
 31
0.0
  0
LINE
  5
1EC
330
1E
100
AcDbEntity
  8
0
100
AcDbLine
 10
0.0000000000000076
 20
123.7859999999999
 30
0.0
 11
0.0000000000000079
 21
128.3449999999999
 31
0.0
  0
LINE
  5
1ED
330
1E
100
AcDbEntity
  8
0
100
AcDbLine
 10
0.0000000000000075
 20
122.2029999999999
 30
0.0
 11
0.0000000000000078
 21
126.6129999999999
 31
0.0
  0
LINE
  5
1EE
330
1E
100
AcDbEntity
  8
0
100
AcDbLine
 10
0.0000000000000079
 20
128.3449999999999
 30
0.0
 11
0.0000000000000081
 21
131.7479999999999
 31
0.0
  0
LINE
  5
1EF
330
1E
100
AcDbEntity
  8
0
100
AcDbLine
 10
0.0000000000000078
 20
126.6129999999999
 30
0.0
 11
0.000000000000008
 21
129.9039999999999
 31
0.0
  0
LINE
  5
1F0
330
1E
100
AcDbEntity
  8
0
100
AcDbLine
 10
0.0000000000000081
 20
131.7479999999999
 30
0.0
 11
0.0000000000000082
 21
134.317
 31
0.0
  0
LINE
  5
1F1
330
1E
100
AcDbEntity
  8
0
100
AcDbLine
 10
0.000000000000008
 20
129.9039999999999
 30
0.0
 11
0.0000000000000081
 21
132.388
 31
0.0
  0
LINE
  5
1F2
330
1E
100
AcDbEntity
  8
0
100
AcDbLine
 10
35.0
 20
71.59539999999999
 30
0.0
 11
35.0
 21
71.7394
 31
0.0
  0
LINE
  5
1F3
330
1E
100
AcDbEntity
  8
0
100
AcDbLine
 10
35.0
 20
74.5
 30
0.0
 11
35.0
 21
76.5
 31
0.0
  0
LINE
  5
1F4
330
1E
100
AcDbEntity
  8
0
100
AcDbLine
 10
35.0
 20
76.5
 30
0.0
 11
35.0
 21
74.5
 31
0.0
  0
LINE
  5
1F5
330
1E
100
AcDbEntity
  8
0
100
AcDbLine
 10
35.0
 20
76.6194
 30
0.0
 11
35.0
 21
75.5954
 31
0.0
  0
LINE
  5
1F6
330
1E
100
AcDbEntity
  8
0
100
AcDbLine
 10
35.0
 20
76.6194
 30
0.0
 11
35.0
 21
77.57940000000001
 31
0.0
  0
LINE
  5
1F7
330
1E
100
AcDbEntity
  8
0
100
AcDbLine
 10
35.0
 20
77.57940000000001
 30
0.0
 11
35.0
 21
76.6194
 31
0.0
  0
LINE
  5
1F8
330
1E
100
AcDbEntity
  8
0
100
AcDbLine
 10
35.0
 20
77.57940000000001
 30
0.0
 11
35.0
 21
78.4274
 31
0.0
  0
LINE
  5
1F9
330
1E
100
AcDbEntity
  8
0
100
AcDbLine
 10
35.0
 20
78.4274
 30
0.0
 11
35.0
 21
77.57940000000001
 31
0.0
  0
LINE
  5
1FA
330
1E
100
AcDbEntity
  8
0
100
AcDbLine
 10
35.0
 20
78.4274
 30
0.0
 11
35.0
 21
79.0674
 31
0.0
  0
LINE
  5
1FB
330
1E
100
AcDbEntity
  8
0
100
AcDbLine
 10
35.0
 20
79.0674
 30
0.0
 11
35.0
 21
78.4274
 31
0.0
  0
LINE
  5
1FC
330
1E
100
AcDbEntity
  8
0
100
AcDbLine
 10
35.0
 20
79.0674
 30
0.0
 11
35.0
 21
79.45140000000001
 31
0.0
  0
LINE
  5
1FD
330
1E
100
AcDbEntity
  8
0
100
AcDbLine
 10
35.0
 20
79.45140000000001
 30
0.0
 11
35.0
 21
79.0674
 31
0.0
  0
LINE
  5
1FE
330
1E
100
AcDbEntity
  8
0
100
AcDbLine
 10
35.0
 20
79.45140000000001
 30
0.0
 11
35.0
 21
79.5954
 31
0.0
  0
LINE
  5
1FF
330
1E
100
AcDbEntity
  8
0
100
AcDbLine
 10
35.0
 20
79.5954
 30
0.0
 11
35.0
 21
79.45140000000001
 31
0.0
  0
LINE
  5
200
330
1E
100
AcDbEntity
  8
0
100
AcDbLine
 10
35.0
 20
75.5954
 30
0.0
 11
35.0
 21
74.57139999999999
 31
0.0
  0
LINE
  5
201
330
1E
100
AcDbEntity
  8
0
100
AcDbLine
 10
35.0
 20
75.5954
 30
0.0
 11
35.0
 21
76.6194
 31
0.0
  0
LINE
  5
202
330
1E
100
AcDbEntity
  8
0
100
AcDbLine
 10
35.0
 20
74.57139999999999
 30
0.0
 11
35.0
 21
73.6114
 31
0.0
  0
LINE
  5
203
330
1E
100
AcDbEntity
  8
0
100
AcDbLine
 10
35.0
 20
74.57139999999999
 30
0.0
 11
35.0
 21
75.5954
 31
0.0
  0
LINE
  5
204
330
1E
100
AcDbEntity
  8
0
100
AcDbLine
 10
35.0
 20
73.6114
 30
0.0
 11
35.0
 21
72.76340000000001
 31
0.0
  0
LINE
  5
205
330
1E
100
AcDbEntity
  8
0
100
AcDbLine
 10
35.0
 20
73.6114
 30
0.0
 11
35.0
 21
74.57139999999999
 31
0.0
  0
LINE
  5
206
330
1E
100
AcDbEntity
  8
0
100
AcDbLine
 10
35.0
 20
72.76340000000001
 30
0.0
 11
35.0
 21
72.12340000000001
 31
0.0
  0
LINE
  5
207
330
1E
100
AcDbEntity
  8
0
100
AcDbLine
 10
35.0
 20
72.76340000000001
 30
0.0
 11
35.0
 21
73.6114
 31
0.0
  0
LINE
  5
208
330
1E
100
AcDbEntity
  8
0
100
AcDbLine
 10
35.0
 20
72.12340000000001
 30
0.0
 11
35.0
 21
71.7394
 31
0.0
  0
LINE
  5
209
330
1E
100
AcDbEntity
  8
0
100
AcDbLine
 10
35.0
 20
72.12340000000001
 30
0.0
 11
35.0
 21
72.76340000000001
 31
0.0
  0
LINE
  5
20A
330
1E
100
AcDbEntity
  8
0
100
AcDbLine
 10
35.0
 20
71.7394
 30
0.0
 11
35.0
 21
71.59539999999999
 31
0.0
  0
LINE
  5
20B
330
1E
100
AcDbEntity
  8
0
100
AcDbLine
 10
35.0
 20
71.7394
 30
0.0
 11
35.0
 21
72.12340000000001
 31
0.0
  0
LINE
  5
20C
330
1E
100
AcDbEntity
  8
0
100
AcDbLine
 10
35.0
 20
95.01600000000001
 30
0.0
 11
35.0
 21
96.9757
 31
0.0
  0
LINE
  5
20D
330
1E
100
AcDbEntity
  8
0
100
AcDbLine
 10
35.0
 20
95.01600000000001
 30
0.0
 11
35.0
 21
97.08400000000001
 31
0.0
  0
LINE
  5
20E
330
1E
100
AcDbEntity
  8
0
100
AcDbLine
 10
35.0
 20
97.08400000000001
 30
0.0
 11
35.0
 21
95.01600000000001
 31
0.0
  0
LINE
  5
20F
330
1E
100
AcDbEntity
  8
0
100
AcDbLine
 10
35.0
 20
97.08400000000001
 30
0.0
 11
35.0
 21
98.9461
 31
0.0
  0
LINE
  5
210
330
1E
100
AcDbEntity
  8
0
100
AcDbLine
 10
35.0
 20
96.9757
 30
0.0
 11
35.0
 21
98.9461
 31
0.0
  0
LINE
  5
211
330
1E
100
AcDbEntity
  8
0
100
AcDbLine
 10
35.0
 20
96.9757
 30
0.0
 11
35.0
 21
95.01600000000001
 31
0.0
  0
LINE
  5
212
330
1E
100
AcDbEntity
  8
0
100
AcDbLine
 10
35.0
 20
98.9461
 30
0.0
 11
35.0
 21
97.08400000000001
 31
0.0
  0
LINE
  5
213
330
1E
100
AcDbEntity
  8
0
100
AcDbLine
 10
35.0
 20
98.9461
 30
0.0
 11
35.0
 21
96.9757
 31
0.0
  0
LINE
  5
214
330
1E
100
AcDbEntity
  8
0
100
AcDbLine
 10
35.0
 20
98.32600000000001
 30
0.0
 11
35.0
 21
99.35
 31
0.0
  0
LINE
  5
215
330
1E
100
AcDbEntity
  8
0
100
AcDbLine
 10
35.0
 20
98.32600000000001
 30
0.0
 11
35.0
 21
97.36600000000001
 31
0.0
  0
LINE
  5
216
330
1E
100
AcDbEntity
  8
0
100
AcDbLine
 10
35.0
 20
97.36600000000001
 30
0.0
 11
35.0
 21
98.32600000000001
 31
0.0
  0
LINE
  5
217
330
1E
100
AcDbEntity
  8
0
100
AcDbLine
 10
35.0
 20
97.36600000000001
 30
0.0
 11
35.0
 21
96.51799999999999
 31
0.0
  0
LINE
  5
218
330
1E
100
AcDbEntity
  8
0
100
AcDbLine
 10
35.0
 20
96.51799999999999
 30
0.0
 11
35.0
 21
97.36600000000001
 31
0.0
  0
LINE
  5
219
330
1E
100
AcDbEntity
  8
0
100
AcDbLine
 10
35.0
 20
96.51799999999999
 30
0.0
 11
35.0
 21
95.87799999999999
 31
0.0
  0
LINE
  5
21A
330
1E
100
AcDbEntity
  8
0
100
AcDbLine
 10
35.0
 20
95.87799999999999
 30
0.0
 11
35.0
 21
96.51799999999999
 31
0.0
  0
LINE
  5
21B
330
1E
100
AcDbEntity
  8
0
100
AcDbLine
 10
35.0
 20
95.87799999999999
 30
0.0
 11
35.0
 21
95.494
 31
0.0
  0
LINE
  5
21C
330
1E
100
AcDbEntity
  8
0
100
AcDbLine
 10
35.0
 20
95.494
 30
0.0
 11
35.0
 21
95.87799999999999
 31
0.0
  0
LINE
  5
21D
330
1E
100
AcDbEntity
  8
0
100
AcDbLine
 10
35.0
 20
95.494
 30
0.0
 11
35.0
 21
95.35
 31
0.0
  0
LINE
  5
21E
330
1E
100
AcDbEntity
  8
0
100
AcDbLine
 10
35.0
 20
95.35
 30
0.0
 11
35.0
 21
95.494
 31
0.0
  0
LINE
  5
21F
330
1E
100
AcDbEntity
  8
0
100
AcDbLine
 10
35.0
 20
99.35
 30
0.0
 11
35.0
 21
100.374
 31
0.0
  0
LINE
  5
220
330
1E
100
AcDbEntity
  8
0
100
AcDbLine
 10
35.0
 20
99.35
 30
0.0
 11
35.0
 21
98.32600000000001
 31
0.0
  0
LINE
  5
221
330
1E
100
AcDbEntity
  8
0
100
AcDbLine
 10
35.0
 20
100.374
 30
0.0
 11
35.0
 21
101.334
 31
0.0
  0
LINE
  5
222
330
1E
100
AcDbEntity
  8
0
100
AcDbLine
 10
35.0
 20
100.374
 30
0.0
 11
35.0
 21
99.35
 31
0.0
  0
LINE
  5
223
330
1E
100
AcDbEntity
  8
0
100
AcDbLine
 10
35.0
 20
101.6699999999999
 30
0.0
 11
35.0
 21
102.9279999999999
 31
0.0
  0
LINE
  5
224
330
1E
100
AcDbEntity
  8
0
100
AcDbLine
 10
35.0
 20
101.6699999999999
 30
0.0
 11
35.0
 21
110.661
 31
0.0
  0
LINE
  5
225
330
1E
100
AcDbEntity
  8
0
100
AcDbLine
 10
35.0
 20
101.334
 30
0.0
 11
35.0
 21
102.1819999999999
 31
0.0
  0
LINE
  5
226
330
1E
100
AcDbEntity
  8
0
100
AcDbLine
 10
35.0
 20
101.334
 30
0.0
 11
35.0
 21
100.374
 31
0.0
  0
LINE
  5
227
330
1E
100
AcDbEntity
  8
0
100
AcDbLine
 10
35.0
 20
102.1819999999999
 30
0.0
 11
35.0
 21
102.822
 31
0.0
  0
LINE
  5
228
330
1E
100
AcDbEntity
  8
0
100
AcDbLine
 10
35.0
 20
102.1819999999999
 30
0.0
 11
35.0
 21
101.334
 31
0.0
  0
LINE
  5
229
330
1E
100
AcDbEntity
  8
0
100
AcDbLine
 10
35.0
 20
102.9279999999999
 30
0.0
 11
35.0
 21
113.358
 31
0.0
  0
LINE
  5
22A
330
1E
100
AcDbEntity
  8
0
100
AcDbLine
 10
35.0
 20
102.9279999999999
 30
0.0
 11
35.0
 21
101.6699999999999
 31
0.0
  0
LINE
  5
22B
330
1E
100
AcDbEntity
  8
0
100
AcDbLine
 10
35.0
 20
103.3499999999999
 30
0.0
 11
35.0
 21
103.2059999999999
 31
0.0
  0
LINE
  5
22C
330
1E
100
AcDbEntity
  8
0
100
AcDbLine
 10
35.0
 20
102.822
 30
0.0
 11
35.0
 21
103.2059999999999
 31
0.0
  0
LINE
  5
22D
330
1E
100
AcDbEntity
  8
0
100
AcDbLine
 10
35.0
 20
102.822
 30
0.0
 11
35.0
 21
102.1819999999999
 31
0.0
  0
LINE
  5
22E
330
1E
100
AcDbEntity
  8
0
100
AcDbLine
 10
35.0
 20
103.2059999999999
 30
0.0
 11
35.0
 21
103.3499999999999
 31
0.0
  0
LINE
  5
22F
330
1E
100
AcDbEntity
  8
0
100
AcDbLine
 10
35.0
 20
103.2059999999999
 30
0.0
 11
35.0
 21
102.822
 31
0.0
  0
LINE
  5
230
330
1E
100
AcDbEntity
  8
0
100
AcDbLine
 10
35.0
 20
100.2
 30
0.0
 11
35.0
 21
101.0
 31
0.0
  0
LINE
  5
231
330
1E
100
AcDbEntity
  8
0
100
AcDbLine
 10
35.0
 20
100.2
 30
0.0
 11
35.0
 21
50.8
 31
0.0
  0
LINE
  5
232
330
1E
100
AcDbEntity
  8
0
100
AcDbLine
 10
35.0
 20
101.0
 30
0.0
 11
39.0
 21
101.0
 31
0.0
  0
LINE
  5
233
330
1E
100
AcDbEntity
  8
0
100
AcDbLine
 10
35.0
 20
101.0
 30
0.0
 11
35.0
 21
151.0
 31
0.0
  0
LINE
  5
234
330
1E
100
AcDbEntity
  8
0
100
AcDbLine
 10
35.0
 20
101.0
 30
0.0
 11
35.0
 21
100.2
 31
0.0
  0
LINE
  5
235
330
1E
100
AcDbEntity
  8
0
100
AcDbLine
 10
35.0
 20
101.0
 30
0.0
 11
35.0
 21
50.0
 31
0.0
  0
LINE
  5
236
330
1E
100
AcDbEntity
  8
0
100
AcDbLine
 10
35.0
 20
110.661
 30
0.0
 11
35.0
 21
101.6699999999999
 31
0.0
  0
LINE
  5
237
330
1E
100
AcDbEntity
  8
0
100
AcDbLine
 10
35.0
 20
110.661
 30
0.0
 11
35.0
 21
113.358
 31
0.0
  0
LINE
  5
238
330
1E
100
AcDbEntity
  8
0
100
AcDbLine
 10
35.0
 20
106.7479999999999
 30
0.0
 11
35.0
 21
99.44
 31
0.0
  0
LINE
  5
239
330
1E
100
AcDbEntity
  8
0
100
AcDbLine
 10
35.0
 20
106.7479999999999
 30
0.0
 11
35.0
 21
113.8039999999999
 31
0.0
  0
LINE
  5
23A
330
1E
100
AcDbEntity
  8
0
100
AcDbLine
 10
35.0
 20
99.44
 30
0.0
 11
35.0
 21
91.62799999999998
 31
0.0
  0
LINE
  5
23B
330
1E
100
AcDbEntity
  8
0
100
AcDbLine
 10
35.0
 20
99.44
 30
0.0
 11
35.0
 21
106.7479999999999
 31
0.0
  0
LINE
  5
23C
330
1E
100
AcDbEntity
  8
0
100
AcDbLine
 10
35.0
 20
91.62799999999998
 30
0.0
 11
35.0
 21
83.816
 31
0.0
  0
LINE
  5
23D
330
1E
100
AcDbEntity
  8
0
100
AcDbLine
 10
35.0
 20
91.62799999999998
 30
0.0
 11
35.0
 21
99.44
 31
0.0
  0
LINE
  5
23E
330
1E
100
AcDbEntity
  8
0
100
AcDbLine
 10
35.0
 20
83.816
 30
0.0
 11
35.0
 21
75.5
 31
0.0
  0
LINE
  5
23F
330
1E
100
AcDbEntity
  8
0
100
AcDbLine
 10
35.0
 20
83.816
 30
0.0
 11
35.0
 21
91.62799999999998
 31
0.0
  0
LINE
  5
240
330
1E
100
AcDbEntity
  8
0
100
AcDbLine
 10
35.0
 20
67.18399999999999
 30
0.0
 11
35.0
 21
59.372
 31
0.0
  0
LINE
  5
241
330
1E
100
AcDbEntity
  8
0
100
AcDbLine
 10
35.0
 20
67.18399999999999
 30
0.0
 11
35.0
 21
75.5
 31
0.0
  0
LINE
  5
242
330
1E
100
AcDbEntity
  8
0
100
AcDbLine
 10
39.0
 20
102.822
 30
0.0
 11
39.0
 21
147.0
 31
0.0
  0
LINE
  5
243
330
1E
100
AcDbEntity
  8
0
100
AcDbLine
 10
39.0
 20
101.0
 30
0.0
 11
39.0
 21
151.0
 31
0.0
  0
LINE
  5
244
330
1E
100
AcDbEntity
  8
0
100
AcDbLine
 10
39.0
 20
101.0
 30
0.0
 11
39.0
 21
50.0
 31
0.0
  0
LINE
  5
245
330
1E
100
AcDbEntity
  8
0
100
AcDbLine
 10
35.0
 20
75.5
 30
0.0
 11
35.0
 21
67.18399999999999
 31
0.0
  0
LINE
  5
246
330
1E
100
AcDbEntity
  8
0
100
AcDbLine
 10
35.0
 20
75.5
 30
0.0
 11
35.0
 21
83.816
 31
0.0
  0
LINE
  5
247
330
1E
100
AcDbEntity
  8
0
100
AcDbLine
 10
35.0
 20
113.358
 30
0.0
 11
35.0
 21
110.661
 31
0.0
  0
LINE
  5
248
330
1E
100
AcDbEntity
  8
0
100
AcDbLine
 10
35.0
 20
113.358
 30
0.0
 11
35.0
 21
102.9279999999999
 31
0.0
  0
LINE
  5
249
330
1E
100
AcDbEntity
  8
0
100
AcDbLine
 10
35.0
 20
117.979
 30
0.0
 11
35.0
 21
118.123
 31
0.0
  0
LINE
  5
24A
330
1E
100
AcDbEntity
  8
0
100
AcDbLine
 10
35.0
 20
118.123
 30
0.0
 11
35.0
 21
118.507
 31
0.0
  0
LINE
  5
24B
330
1E
100
AcDbEntity
  8
0
100
AcDbLine
 10
35.0
 20
118.123
 30
0.0
 11
35.0
 21
117.979
 31
0.0
  0
LINE
  5
24C
330
1E
100
AcDbEntity
  8
0
100
AcDbLine
 10
35.0
 20
118.507
 30
0.0
 11
35.0
 21
119.147
 31
0.0
  0
LINE
  5
24D
330
1E
100
AcDbEntity
  8
0
100
AcDbLine
 10
35.0
 20
118.507
 30
0.0
 11
35.0
 21
118.123
 31
0.0
  0
LINE
  5
24E
330
1E
100
AcDbEntity
  8
0
100
AcDbLine
 10
35.0
 20
119.147
 30
0.0
 11
35.0
 21
119.995
 31
0.0
  0
LINE
  5
24F
330
1E
100
AcDbEntity
  8
0
100
AcDbLine
 10
35.0
 20
119.147
 30
0.0
 11
35.0
 21
118.507
 31
0.0
  0
LINE
  5
250
330
1E
100
AcDbEntity
  8
0
100
AcDbLine
 10
35.0
 20
119.995
 30
0.0
 11
35.0
 21
120.9549999999999
 31
0.0
  0
LINE
  5
251
330
1E
100
AcDbEntity
  8
0
100
AcDbLine
 10
35.0
 20
119.995
 30
0.0
 11
35.0
 21
119.147
 31
0.0
  0
LINE
  5
252
330
1E
100
AcDbEntity
  8
0
100
AcDbLine
 10
35.0
 20
120.9549999999999
 30
0.0
 11
35.0
 21
121.9789999999999
 31
0.0
  0
LINE
  5
253
330
1E
100
AcDbEntity
  8
0
100
AcDbLine
 10
35.0
 20
120.9549999999999
 30
0.0
 11
35.0
 21
119.995
 31
0.0
  0
LINE
  5
254
330
1E
100
AcDbEntity
  8
0
100
AcDbLine
 10
35.0
 20
121.9789999999999
 30
0.0
 11
35.0
 21
123.0029999999999
 31
0.0
  0
LINE
  5
255
330
1E
100
AcDbEntity
  8
0
100
AcDbLine
 10
35.0
 20
121.9789999999999
 30
0.0
 11
35.0
 21
120.9549999999999
 31
0.0
  0
LINE
  5
256
330
1E
100
AcDbEntity
  8
0
100
AcDbLine
 10
35.0
 20
123.963
 30
0.0
 11
35.0
 21
123.0029999999999
 31
0.0
  0
LINE
  5
257
330
1E
100
AcDbEntity
  8
0
100
AcDbLine
 10
35.0
 20
123.963
 30
0.0
 11
35.0
 21
124.811
 31
0.0
  0
LINE
  5
258
330
1E
100
AcDbEntity
  8
0
100
AcDbLine
 10
35.0
 20
123.0029999999999
 30
0.0
 11
35.0
 21
121.9789999999999
 31
0.0
  0
LINE
  5
259
330
1E
100
AcDbEntity
  8
0
100
AcDbLine
 10
35.0
 20
123.0029999999999
 30
0.0
 11
35.0
 21
123.963
 31
0.0
  0
LINE
  5
25A
330
1E
100
AcDbEntity
  8
0
100
AcDbLine
 10
35.0
 20
125.9789999999999
 30
0.0
 11
35.0
 21
125.8349999999999
 31
0.0
  0
LINE
  5
25B
330
1E
100
AcDbEntity
  8
0
100
AcDbLine
 10
35.0
 20
125.8349999999999
 30
0.0
 11
35.0
 21
125.451
 31
0.0
  0
LINE
  5
25C
330
1E
100
AcDbEntity
  8
0
100
AcDbLine
 10
35.0
 20
125.8349999999999
 30
0.0
 11
35.0
 21
125.9789999999999
 31
0.0
  0
LINE
  5
25D
330
1E
100
AcDbEntity
  8
0
100
AcDbLine
 10
35.0
 20
125.451
 30
0.0
 11
35.0
 21
124.811
 31
0.0
  0
LINE
  5
25E
330
1E
100
AcDbEntity
  8
0
100
AcDbLine
 10
35.0
 20
125.451
 30
0.0
 11
35.0
 21
125.8349999999999
 31
0.0
  0
LINE
  5
25F
330
1E
100
AcDbEntity
  8
0
100
AcDbLine
 10
35.0
 20
124.811
 30
0.0
 11
35.0
 21
123.963
 31
0.0
  0
LINE
  5
260
330
1E
100
AcDbEntity
  8
0
100
AcDbLine
 10
35.0
 20
124.811
 30
0.0
 11
35.0
 21
125.451
 31
0.0
  0
LINE
  5
261
330
1E
100
AcDbEntity
  8
0
100
AcDbLine
 10
35.0
 20
125.686
 30
0.0
 11
35.0
 21
146.804
 31
0.0
  0
LINE
  5
262
330
1E
100
AcDbEntity
  8
0
100
AcDbLine
 10
35.0
 20
125.686
 30
0.0
 11
35.0
 21
124.3379999999999
 31
0.0
  0
LINE
  5
263
330
1E
100
AcDbEntity
  8
0
100
AcDbLine
 10
35.0
 20
124.3379999999999
 30
0.0
 11
35.0
 21
148.0629999999999
 31
0.0
  0
LINE
  5
264
330
1E
100
AcDbEntity
  8
0
100
AcDbLine
 10
35.0
 20
124.3379999999999
 30
0.0
 11
35.0
 21
125.686
 31
0.0
  0
LINE
  5
265
330
1E
100
AcDbEntity
  8
0
100
AcDbLine
 10
35.0
 20
125.3959999999999
 30
0.0
 11
35.0
 21
119.852
 31
0.0
  0
LINE
  5
266
330
1E
100
AcDbEntity
  8
0
100
AcDbLine
 10
35.0
 20
125.3959999999999
 30
0.0
 11
35.0
 21
130.184
 31
0.0
  0
LINE
  5
267
330
1E
100
AcDbEntity
  8
0
100
AcDbLine
 10
35.0
 20
133.145
 30
0.0
 11
35.0
 21
133.954
 31
0.0
  0
LINE
  5
268
330
1E
100
AcDbEntity
  8
0
100
AcDbLine
 10
35.0
 20
133.145
 30
0.0
 11
35.0
 21
144.3149999999999
 31
0.0
  0
LINE
  5
269
330
1E
100
AcDbEntity
  8
0
100
AcDbLine
 10
35.0
 20
130.184
 30
0.0
 11
35.0
 21
125.3959999999999
 31
0.0
  0
LINE
  5
26A
330
1E
100
AcDbEntity
  8
0
100
AcDbLine
 10
35.0
 20
130.184
 30
0.0
 11
35.0
 21
133.46
 31
0.0
  0
LINE
  5
26B
330
1E
100
AcDbEntity
  8
0
100
AcDbLine
 10
35.0
 20
133.46
 30
0.0
 11
35.0
 21
130.184
 31
0.0
  0
LINE
  5
26C
330
1E
100
AcDbEntity
  8
0
100
AcDbLine
 10
35.0
 20
133.46
 30
0.0
 11
35.0
 21
136.2319999999999
 31
0.0
  0
LINE
  5
26D
330
1E
100
AcDbEntity
  8
0
100
AcDbLine
 10
35.0
 20
119.852
 30
0.0
 11
35.0
 21
113.8039999999999
 31
0.0
  0
LINE
  5
26E
330
1E
100
AcDbEntity
  8
0
100
AcDbLine
 10
35.0
 20
119.852
 30
0.0
 11
35.0
 21
125.3959999999999
 31
0.0
  0
LINE
  5
26F
330
1E
100
AcDbEntity
  8
0
100
AcDbLine
 10
35.0
 20
113.8039999999999
 30
0.0
 11
35.0
 21
106.7479999999999
 31
0.0
  0
LINE
  5
270
330
1E
100
AcDbEntity
  8
0
100
AcDbLine
 10
35.0
 20
113.8039999999999
 30
0.0
 11
35.0
 21
119.852
 31
0.0
  0
LINE
  5
271
330
1E
100
AcDbEntity
  8
0
100
AcDbLine
 10
66.72
 20
70.38
 30
0.0
 11
68.64
 21
65.57999999999999
 31
0.0
  0
LINE
  5
272
330
1E
100
AcDbEntity
  8
0
100
AcDbLine
 10
66.72
 20
80.62000000000001
 30
0.0
 11
68.64
 21
85.41999999999999
 31
0.0
  0
LINE
  5
273
330
1E
100
AcDbEntity
  8
0
100
AcDbLine
 10
66.72
 20
70.3561
 30
0.0
 11
68.64
 21
65.57129999999999
 31
0.0
  0
LINE
  5
274
330
1E
100
AcDbEntity
  8
0
100
AcDbLine
 10
68.64
 20
65.57999999999999
 30
0.0
 11
70.9
 21
62.5855
 31
0.0
  0
LINE
  5
275
330
1E
100
AcDbEntity
  8
0
100
AcDbLine
 10
68.64
 20
65.57129999999999
 30
0.0
 11
70.9
 21
62.56931375
 31
0.0
  0
LINE
  5
276
330
1E
100
AcDbEntity
  8
0
100
AcDbLine
 10
66.72
 20
80.64390000000001
 30
0.0
 11
68.64
 21
85.4287
 31
0.0
  0
LINE
  5
277
330
1E
100
AcDbEntity
  8
0
100
AcDbLine
 10
68.64
 20
85.4287
 30
0.0
 11
71.84000000000001
 21
89.6793
 31
0.0
  0
LINE
  5
278
330
1E
100
AcDbEntity
  8
0
100
AcDbLine
 10
68.64
 20
85.41999999999999
 30
0.0
 11
71.84000000000001
 21
89.65999999999999
 31
0.0
  0
LINE
  5
279
330
1E
100
AcDbEntity
  8
0
100
AcDbLine
 10
66.0
 20
75.5
 30
0.0
 11
66.72
 21
80.64390000000001
 31
0.0
  0
LINE
  5
27A
330
1E
100
AcDbEntity
  8
0
100
AcDbLine
 10
66.0
 20
75.5
 30
0.0
 11
66.72
 21
70.3561
 31
0.0
  0
LINE
  5
27B
330
1E
100
AcDbEntity
  8
0
100
AcDbLine
 10
66.0
 20
75.5
 30
0.0
 11
66.72
 21
80.62000000000001
 31
0.0
  0
LINE
  5
27C
330
1E
100
AcDbEntity
  8
0
100
AcDbLine
 10
66.0
 20
75.5
 30
0.0
 11
66.72
 21
70.38
 31
0.0
  0
LINE
  5
27D
330
1E
100
AcDbEntity
  8
0
100
AcDbLine
 10
35.0
 20
133.954
 30
0.0
 11
35.0
 21
144.6579999999999
 31
0.0
  0
LINE
  5
27E
330
1E
100
AcDbEntity
  8
0
100
AcDbLine
 10
35.0
 20
133.954
 30
0.0
 11
35.0
 21
133.145
 31
0.0
  0
LINE
  5
27F
330
1E
100
AcDbEntity
  8
0
100
AcDbLine
 10
0.0000000000000082
 20
133.8789999999999
 30
0.0
 11
0.0000000000000082
 21
134.4999999999999
 31
0.0
  0
LINE
  5
280
330
1E
100
AcDbEntity
  8
0
100
AcDbLine
 10
0.0000000000000081
 20
132.388
 30
0.0
 11
0.0000000000000082
 21
133.8789999999999
 31
0.0
  0
LINE
  5
281
330
1E
100
AcDbEntity
  8
0
100
AcDbLine
 10
35.0
 20
136.2319999999999
 30
0.0
 11
35.0
 21
133.46
 31
0.0
  0
LINE
  5
282
330
1E
100
AcDbEntity
  8
0
100
AcDbLine
 10
35.0
 20
136.2319999999999
 30
0.0
 11
35.0
 21
137.7439999999999
 31
0.0
  0
LINE
  5
283
330
1E
100
AcDbEntity
  8
0
100
AcDbLine
 10
35.0
 20
136.4999999999999
 30
0.0
 11
35.0
 21
137.7439999999999
 31
0.0
  0
LINE
  5
284
330
1E
100
AcDbEntity
  8
0
100
AcDbLine
 10
35.0
 20
136.4999999999999
 30
0.0
 11
35.0
 21
146.804
 31
0.0
  0
LINE
  5
285
330
1E
100
AcDbEntity
  8
0
100
AcDbLine
 10
35.0
 20
136.4999999999999
 30
0.0
 11
35.0
 21
144.6579999999999
 31
0.0
  0
LINE
  5
286
330
1E
100
AcDbEntity
  8
0
100
AcDbLine
 10
35.0
 20
136.4999999999999
 30
0.0
 11
35.0
 21
144.3149999999999
 31
0.0
  0
LINE
  5
287
330
1E
100
AcDbEntity
  8
0
100
AcDbLine
 10
0.000000000000012
 20
136.4999999999999
 30
0.0
 11
35.0
 21
136.4999999999999
 31
0.0
  0
LINE
  5
288
330
1E
100
AcDbEntity
  8
0
100
AcDbLine
 10
66.72
 20
136.4999999999999
 30
0.0
 11
68.64
 21
136.4999999999999
 31
0.0
  0
LINE
  5
289
330
1E
100
AcDbEntity
  8
0
100
AcDbLine
 10
66.72
 20
136.0929999999999
 30
0.0
 11
68.64
 21
135.4119999999999
 31
0.0
  0
LINE
  5
28A
330
1E
100
AcDbEntity
  8
0
100
AcDbLine
 10
66.0
 20
136.4999999999999
 30
0.0
 11
66.72
 21
136.0929999999999
 31
0.0
  0
LINE
  5
28B
330
1E
100
AcDbEntity
  8
0
100
AcDbLine
 10
66.0
 20
136.4999999999999
 30
0.0
 11
66.72
 21
136.4999999999999
 31
0.0
  0
LINE
  5
28C
330
1E
100
AcDbEntity
  8
0
100
AcDbLine
 10
66.0
 20
136.4999999999999
 30
0.0
 11
66.0
 21
138.5
 31
0.0
  0
LINE
  5
28D
330
1E
100
AcDbEntity
  8
0
100
AcDbLine
 10
39.0
 20
136.4999999999999
 30
0.0
 11
66.0
 21
136.4999999999999
 31
0.0
  0
LINE
  5
28E
330
1E
100
AcDbEntity
  8
0
100
AcDbLine
 10
35.0
 20
137.3899999999999
 30
0.0
 11
35.0
 21
137.534
 31
0.0
  0
LINE
  5
28F
330
1E
100
AcDbEntity
  8
0
100
AcDbLine
 10
35.0
 20
137.534
 30
0.0
 11
35.0
 21
137.918
 31
0.0
  0
LINE
  5
290
330
1E
100
AcDbEntity
  8
0
100
AcDbLine
 10
35.0
 20
137.534
 30
0.0
 11
35.0
 21
137.3899999999999
 31
0.0
  0
LINE
  5
291
330
1E
100
AcDbEntity
  8
0
100
AcDbLine
 10
35.0
 20
137.918
 30
0.0
 11
35.0
 21
138.558
 31
0.0
  0
LINE
  5
292
330
1E
100
AcDbEntity
  8
0
100
AcDbLine
 10
35.0
 20
137.918
 30
0.0
 11
35.0
 21
137.534
 31
0.0
  0
LINE
  5
293
330
1E
100
AcDbEntity
  8
0
100
AcDbLine
 10
35.0
 20
138.558
 30
0.0
 11
35.0
 21
139.406
 31
0.0
  0
LINE
  5
294
330
1E
100
AcDbEntity
  8
0
100
AcDbLine
 10
35.0
 20
138.558
 30
0.0
 11
35.0
 21
137.918
 31
0.0
  0
LINE
  5
295
330
1E
100
AcDbEntity
  8
0
100
AcDbLine
 10
35.0
 20
139.406
 30
0.0
 11
35.0
 21
140.366
 31
0.0
  0
LINE
  5
296
330
1E
100
AcDbEntity
  8
0
100
AcDbLine
 10
35.0
 20
139.406
 30
0.0
 11
35.0
 21
138.558
 31
0.0
  0
LINE
  5
297
330
1E
100
AcDbEntity
  8
0
100
AcDbLine
 10
35.0
 20
140.366
 30
0.0
 11
35.0
 21
141.3899999999999
 31
0.0
  0
LINE
  5
298
330
1E
100
AcDbEntity
  8
0
100
AcDbLine
 10
35.0
 20
140.366
 30
0.0
 11
35.0
 21
139.406
 31
0.0
  0
LINE
  5
299
330
1E
100
AcDbEntity
  8
0
100
AcDbLine
 10
35.0
 20
141.3899999999999
 30
0.0
 11
35.0
 21
142.4139999999999
 31
0.0
  0
LINE
  5
29A
330
1E
100
AcDbEntity
  8
0
100
AcDbLine
 10
35.0
 20
141.3899999999999
 30
0.0
 11
35.0
 21
140.366
 31
0.0
  0
LINE
  5
29B
330
1E
100
AcDbEntity
  8
0
100
AcDbLine
 10
35.0
 20
142.4139999999999
 30
0.0
 11
35.0
 21
141.3899999999999
 31
0.0
  0
LINE
  5
29C
330
1E
100
AcDbEntity
  8
0
100
AcDbLine
 10
35.0
 20
142.4139999999999
 30
0.0
 11
35.0
 21
143.374
 31
0.0
  0
LINE
  5
29D
330
1E
100
AcDbEntity
  8
0
100
AcDbLine
 10
35.0
 20
143.0
 30
0.0
 11
35.0
 21
143.144
 31
0.0
  0
LINE
  5
29E
330
1E
100
AcDbEntity
  8
0
100
AcDbLine
 10
35.0
 20
143.374
 30
0.0
 11
35.0
 21
142.4139999999999
 31
0.0
  0
LINE
  5
29F
330
1E
100
AcDbEntity
  8
0
100
AcDbLine
 10
35.0
 20
143.374
 30
0.0
 11
35.0
 21
144.222
 31
0.0
  0
LINE
  5
2A0
330
1E
100
AcDbEntity
  8
0
100
AcDbLine
 10
35.0
 20
143.144
 30
0.0
 11
35.0
 21
143.5279999999999
 31
0.0
  0
LINE
  5
2A1
330
1E
100
AcDbEntity
  8
0
100
AcDbLine
 10
35.0
 20
143.144
 30
0.0
 11
35.0
 21
143.0
 31
0.0
  0
LINE
  5
2A2
330
1E
100
AcDbEntity
  8
0
100
AcDbLine
 10
35.0
 20
143.5279999999999
 30
0.0
 11
35.0
 21
144.168
 31
0.0
  0
LINE
  5
2A3
330
1E
100
AcDbEntity
  8
0
100
AcDbLine
 10
35.0
 20
143.5279999999999
 30
0.0
 11
35.0
 21
143.144
 31
0.0
  0
LINE
  5
2A4
330
1E
100
AcDbEntity
  8
0
100
AcDbLine
 10
35.0
 20
144.222
 30
0.0
 11
35.0
 21
143.374
 31
0.0
  0
LINE
  5
2A5
330
1E
100
AcDbEntity
  8
0
100
AcDbLine
 10
35.0
 20
144.222
 30
0.0
 11
35.0
 21
144.862
 31
0.0
  0
LINE
  5
2A6
330
1E
100
AcDbEntity
  8
0
100
AcDbLine
 10
35.0
 20
145.3899999999999
 30
0.0
 11
35.0
 21
145.246
 31
0.0
  0
LINE
  5
2A7
330
1E
100
AcDbEntity
  8
0
100
AcDbLine
 10
35.0
 20
145.246
 30
0.0
 11
35.0
 21
144.862
 31
0.0
  0
LINE
  5
2A8
330
1E
100
AcDbEntity
  8
0
100
AcDbLine
 10
35.0
 20
145.246
 30
0.0
 11
35.0
 21
145.3899999999999
 31
0.0
  0
LINE
  5
2A9
330
1E
100
AcDbEntity
  8
0
100
AcDbLine
 10
35.0
 20
144.862
 30
0.0
 11
35.0
 21
144.222
 31
0.0
  0
LINE
  5
2AA
330
1E
100
AcDbEntity
  8
0
100
AcDbLine
 10
35.0
 20
144.862
 30
0.0
 11
35.0
 21
145.246
 31
0.0
  0
LINE
  5
2AB
330
1E
100
AcDbEntity
  8
0
100
AcDbLine
 10
35.0
 20
145.0
 30
0.0
 11
35.0
 21
150.0
 31
0.0
  0
LINE
  5
2AC
330
1E
100
AcDbEntity
  8
0
100
AcDbLine
 10
35.0
 20
144.3149999999999
 30
0.0
 11
35.0
 21
136.4999999999999
 31
0.0
  0
LINE
  5
2AD
330
1E
100
AcDbEntity
  8
0
100
AcDbLine
 10
35.0
 20
144.3149999999999
 30
0.0
 11
35.0
 21
144.6579999999999
 31
0.0
  0
LINE
  5
2AE
330
1E
100
AcDbEntity
  8
0
100
AcDbLine
 10
35.0
 20
144.3149999999999
 30
0.0
 11
35.0
 21
133.145
 31
0.0
  0
LINE
  5
2AF
330
1E
100
AcDbEntity
  8
0
100
AcDbLine
 10
35.0
 20
144.6579999999999
 30
0.0
 11
35.0
 21
144.3149999999999
 31
0.0
  0
LINE
  5
2B0
330
1E
100
AcDbEntity
  8
0
100
AcDbLine
 10
35.0
 20
144.6579999999999
 30
0.0
 11
35.0
 21
136.4999999999999
 31
0.0
  0
LINE
  5
2B1
330
1E
100
AcDbEntity
  8
0
100
AcDbLine
 10
35.0
 20
144.6579999999999
 30
0.0
 11
35.0
 21
133.954
 31
0.0
  0
LINE
  5
2B2
330
1E
100
AcDbEntity
  8
0
100
AcDbLine
 10
35.0
 20
144.168
 30
0.0
 11
35.0
 21
145.0159999999999
 31
0.0
  0
LINE
  5
2B3
330
1E
100
AcDbEntity
  8
0
100
AcDbLine
 10
35.0
 20
144.168
 30
0.0
 11
35.0
 21
143.5279999999999
 31
0.0
  0
LINE
  5
2B4
330
1E
100
AcDbEntity
  8
0
100
AcDbLine
 10
35.0
 20
145.0159999999999
 30
0.0
 11
35.0
 21
145.9759999999999
 31
0.0
  0
LINE
  5
2B5
330
1E
100
AcDbEntity
  8
0
100
AcDbLine
 10
35.0
 20
145.0159999999999
 30
0.0
 11
35.0
 21
144.168
 31
0.0
  0
LINE
  5
2B6
330
1E
100
AcDbEntity
  8
0
100
AcDbLine
 10
35.0
 20
145.9759999999999
 30
0.0
 11
35.0
 21
146.804
 31
0.0
  0
LINE
  5
2B7
330
1E
100
AcDbEntity
  8
0
100
AcDbLine
 10
35.0
 20
145.9759999999999
 30
0.0
 11
35.0
 21
145.0159999999999
 31
0.0
  0
LINE
  5
2B8
330
1E
100
AcDbEntity
  8
0
100
AcDbLine
 10
35.0
 20
145.9759999999999
 30
0.0
 11
35.0
 21
147.0
 31
0.0
  0
LINE
  5
2B9
330
1E
100
AcDbEntity
  8
0
100
AcDbLine
 10
35.0
 20
146.804
 30
0.0
 11
35.0
 21
148.0629999999999
 31
0.0
  0
LINE
  5
2BA
330
1E
100
AcDbEntity
  8
0
100
AcDbLine
 10
35.0
 20
146.804
 30
0.0
 11
35.0
 21
136.4999999999999
 31
0.0
  0
LINE
  5
2BB
330
1E
100
AcDbEntity
  8
0
100
AcDbLine
 10
35.0
 20
146.804
 30
0.0
 11
35.0
 21
125.686
 31
0.0
  0
LINE
  5
2BC
330
1E
100
AcDbEntity
  8
0
100
AcDbLine
 10
35.0
 20
138.5
 30
0.0
 11
35.0
 21
137.7439999999999
 31
0.0
  0
LINE
  5
2BD
330
1E
100
AcDbEntity
  8
0
100
AcDbLine
 10
35.0
 20
147.0
 30
0.0
 11
35.0
 21
148.024
 31
0.0
  0
LINE
  5
2BE
330
1E
100
AcDbEntity
  8
0
100
AcDbLine
 10
35.0
 20
148.984
 30
0.0
 11
35.0
 21
148.024
 31
0.0
  0
LINE
  5
2BF
330
1E
100
AcDbEntity
  8
0
100
AcDbLine
 10
35.0
 20
148.984
 30
0.0
 11
35.0
 21
149.8319999999999
 31
0.0
  0
LINE
  5
2C0
330
1E
100
AcDbEntity
  8
0
100
AcDbLine
 10
35.0
 20
148.024
 30
0.0
 11
35.0
 21
147.0
 31
0.0
  0
LINE
  5
2C1
330
1E
100
AcDbEntity
  8
0
100
AcDbLine
 10
35.0
 20
148.024
 30
0.0
 11
35.0
 21
148.984
 31
0.0
  0
LINE
  5
2C2
330
1E
100
AcDbEntity
  8
0
100
AcDbLine
 10
35.0
 20
150.8559999999999
 30
0.0
 11
35.0
 21
150.472
 31
0.0
  0
LINE
  5
2C3
330
1E
100
AcDbEntity
  8
0
100
AcDbLine
 10
35.0
 20
150.8559999999999
 30
0.0
 11
35.0
 21
151.0
 31
0.0
  0
LINE
  5
2C4
330
1E
100
AcDbEntity
  8
0
100
AcDbLine
 10
35.0
 20
150.472
 30
0.0
 11
35.0
 21
149.8319999999999
 31
0.0
  0
LINE
  5
2C5
330
1E
100
AcDbEntity
  8
0
100
AcDbLine
 10
35.0
 20
150.472
 30
0.0
 11
35.0
 21
150.8559999999999
 31
0.0
  0
LINE
  5
2C6
330
1E
100
AcDbEntity
  8
0
100
AcDbLine
 10
35.0
 20
149.8319999999999
 30
0.0
 11
35.0
 21
148.984
 31
0.0
  0
LINE
  5
2C7
330
1E
100
AcDbEntity
  8
0
100
AcDbLine
 10
35.0
 20
149.8319999999999
 30
0.0
 11
35.0
 21
150.472
 31
0.0
  0
LINE
  5
2C8
330
1E
100
AcDbEntity
  8
0
100
AcDbLine
 10
35.0
 20
150.0
 30
0.0
 11
35.0
 21
151.0
 31
0.0
  0
LINE
  5
2C9
330
1E
100
AcDbEntity
  8
0
100
AcDbLine
 10
35.0
 20
149.0
 30
0.0
 11
35.0
 21
151.0
 31
0.0
  0
LINE
  5
2CA
330
1E
100
AcDbEntity
  8
0
100
AcDbLine
 10
66.72
 20
138.5
 30
0.0
 11
68.64
 21
138.5
 31
0.0
  0
LINE
  5
2CB
330
1E
100
AcDbEntity
  8
0
100
AcDbLine
 10
66.0
 20
138.5
 30
0.0
 11
66.0
 21
136.4999999999999
 31
0.0
  0
LINE
  5
2CC
330
1E
100
AcDbEntity
  8
0
100
AcDbLine
 10
66.0
 20
138.5
 30
0.0
 11
66.72
 21
138.5
 31
0.0
  0
LINE
  5
2CD
330
1E
100
AcDbEntity
  8
0
100
AcDbLine
 10
35.0
 20
151.0
 30
0.0
 11
39.0
 21
151.0
 31
0.0
  0
LINE
  5
2CE
330
1E
100
AcDbEntity
  8
0
100
AcDbLine
 10
35.0
 20
151.0
 30
0.0
 11
35.0
 21
149.0
 31
0.0
  0
LINE
  5
2CF
330
1E
100
AcDbEntity
  8
0
100
AcDbLine
 10
35.0
 20
151.0
 30
0.0
 11
35.0
 21
150.0
 31
0.0
  0
LINE
  5
2D0
330
1E
100
AcDbEntity
  8
0
100
AcDbLine
 10
35.0
 20
151.0
 30
0.0
 11
35.0
 21
150.8559999999999
 31
0.0
  0
LINE
  5
2D1
330
1E
100
AcDbEntity
  8
0
100
AcDbLine
 10
35.0
 20
137.7439999999999
 30
0.0
 11
35.0
 21
138.5
 31
0.0
  0
LINE
  5
2D2
330
1E
100
AcDbEntity
  8
0
100
AcDbLine
 10
35.0
 20
137.7439999999999
 30
0.0
 11
35.0
 21
136.4999999999999
 31
0.0
  0
LINE
  5
2D3
330
1E
100
AcDbEntity
  8
0
100
AcDbLine
 10
35.0
 20
137.7439999999999
 30
0.0
 11
35.0
 21
136.2319999999999
 31
0.0
  0
LINE
  5
2D4
330
1E
100
AcDbEntity
  8
0
100
AcDbLine
 10
0.0000000000000084
 20
136.4999999999999
 30
0.0
 11
35.0
 21
136.4999999999999
 31
0.0
  0
LINE
  5
2D5
330
1E
100
AcDbEntity
  8
0
100
AcDbLine
 10
0.0000000000000083
 20
135.858
 30
0.0
 11
0.0000000000000084
 21
136.4999999999999
 31
0.0
  0
LINE
  5
2D6
330
1E
100
AcDbEntity
  8
0
100
AcDbLine
 10
0.0000000000000082
 20
134.317
 30
0.0
 11
0.0000000000000082
 21
134.4999999999999
 31
0.0
  0
LINE
  5
2D7
330
1E
100
AcDbEntity
  8
0
100
AcDbLine
 10
0.0000000000000082
 20
134.317
 30
0.0
 11
0.0000000000000083
 21
135.858
 31
0.0
  0
LINE
  5
2D8
330
1E
100
AcDbEntity
  8
0
100
AcDbLine
 10
69.61199999999999
 20
71.14799999999999
 30
0.0
 11
70.9
 21
67.92799999999999
 31
0.0
  0
LINE
  5
2D9
330
1E
100
AcDbEntity
  8
0
100
AcDbLine
 10
70.9
 20
75.5
 30
0.0
 11
70.9
 21
77.2021
 31
0.0
  0
LINE
  5
2DA
330
1E
100
AcDbEntity
  8
0
100
AcDbLine
 10
70.9
 20
75.5
 30
0.0
 11
70.9
 21
60.0
 31
0.0
  0
LINE
  5
2DB
330
1E
100
AcDbEntity
  8
0
100
AcDbLine
 10
70.9
 20
68.5
 30
0.0
 11
70.9
 21
60.0
 31
0.0
  0
LINE
  5
2DC
330
1E
100
AcDbEntity
  8
0
100
AcDbLine
 10
70.9
 20
68.5
 30
0.0
 11
70.9
 21
82.5
 31
0.0
  0
LINE
  5
2DD
330
1E
100
AcDbEntity
  8
0
100
AcDbLine
 10
70.9
 20
77.2021
 30
0.0
 11
70.9
 21
78.98489999999999
 31
0.0
  0
LINE
  5
2DE
330
1E
100
AcDbEntity
  8
0
100
AcDbLine
 10
70.9
 20
77.2021
 30
0.0
 11
70.9
 21
75.5
 31
0.0
  0
LINE
  5
2DF
330
1E
100
AcDbEntity
  8
0
100
AcDbLine
 10
69.61199999999999
 20
79.852
 30
0.0
 11
71.244
 21
83.932
 31
0.0
  0
LINE
  5
2E0
330
1E
100
AcDbEntity
  8
0
100
AcDbLine
 10
70.9
 20
82.5
 30
0.0
 11
70.9
 21
82.30259999999999
 31
0.0
  0
LINE
  5
2E2
330
1E
100
AcDbEntity
  8
0
100
AcDbLine
 10
70.9
 20
82.5
 30
0.0
 11
70.9
 21
68.5
 31
0.0
  0
LINE
  5
2E3
330
1E
100
AcDbEntity
  8
0
100
AcDbLine
 10
70.9
 20
82.30259999999999
 30
0.0
 11
70.9
 21
81.5177
 31
0.0
  0
LINE
  5
2E4
330
1E
100
AcDbEntity
  8
0
100
AcDbLine
 10
70.9
 20
82.30259999999999
 30
0.0
 11
70.9
 21
82.5
 31
0.0
  0
LINE
  5
2E5
330
1E
100
AcDbEntity
  8
0
100
AcDbLine
 10
70.9
 20
81.5177
 30
0.0
 11
70.9
 21
80.5
 31
0.0
  0
LINE
  5
2E6
330
1E
100
AcDbEntity
  8
0
100
AcDbLine
 10
70.9
 20
81.5177
 30
0.0
 11
70.9
 21
82.30259999999999
 31
0.0
  0
LINE
  5
2E7
330
1E
100
AcDbEntity
  8
0
100
AcDbLine
 10
70.9
 20
80.5
 30
0.0
 11
70.9
 21
78.98489999999999
 31
0.0
  0
LINE
  5
2E8
330
1E
100
AcDbEntity
  8
0
100
AcDbLine
 10
70.9
 20
80.5
 30
0.0
 11
70.9
 21
81.5177
 31
0.0
  0
LINE
  5
2E9
330
1E
100
AcDbEntity
  8
0
100
AcDbLine
 10
70.9
 20
78.98489999999999
 30
0.0
 11
70.9
 21
80.5
 31
0.0
  0
LINE
  5
2EA
330
1E
100
AcDbEntity
  8
0
100
AcDbLine
 10
70.9
 20
78.98489999999999
 30
0.0
 11
70.9
 21
77.2021
 31
0.0
  0
LINE
  5
2EB
330
1E
100
AcDbEntity
  8
0
100
AcDbLine
 10
73.96399999999999
 20
87.536
 30
0.0
 11
77.568
 21
90.256
 31
0.0
  0
LINE
  5
2EC
330
1E
100
AcDbEntity
  8
0
100
AcDbLine
 10
71.244
 20
83.932
 30
0.0
 11
73.96399999999999
 21
87.536
 31
0.0
  0
LINE
  5
2ED
330
1E
100
AcDbEntity
  8
0
100
AcDbLine
 10
69.0
 20
75.5
 30
0.0
 11
69.61199999999999
 21
79.852
 31
0.0
  0
LINE
  5
2EE
330
1E
100
AcDbEntity
  8
0
100
AcDbLine
 10
69.0
 20
75.5
 30
0.0
 11
69.61199999999999
 21
71.14799999999999
 31
0.0
  0
LINE
  5
2F1
330
1E
100
AcDbEntity
  8
0
100
AcDbLine
 10
71.84000000000001
 20
89.6793
 30
0.0
 11
76.08
 21
92.86109999999998
 31
0.0
  0
LINE
  5
2F2
330
1E
100
AcDbEntity
  8
0
100
AcDbLine
 10
76.08
 20
92.85999999999999
 30
0.0
 11
80.87999999999999
 21
94.77999999999999
 31
0.0
  0
LINE
  5
2F3
330
1E
100
AcDbEntity
  8
0
100
AcDbLine
 10
71.84000000000001
 20
134.61
 30
0.0
 11
76.08
 21
133.7599999999999
 31
0.0
  0
LINE
  5
2F4
330
1E
100
AcDbEntity
  8
0
100
AcDbLine
 10
71.84000000000001
 20
136.4999999999999
 30
0.0
 11
76.08
 21
136.4999999999999
 31
0.0
  0
LINE
  5
2F5
330
1E
100
AcDbEntity
  8
0
100
AcDbLine
 10
68.64
 20
136.4999999999999
 30
0.0
 11
71.84000000000001
 21
136.4999999999999
 31
0.0
  0
LINE
  5
2F6
330
1E
100
AcDbEntity
  8
0
100
AcDbLine
 10
68.64
 20
135.4119999999999
 30
0.0
 11
71.84000000000001
 21
134.61
 31
0.0
  0
LINE
  5
2F7
330
1E
100
AcDbEntity
  8
0
100
AcDbLine
 10
80.87999999999999
 20
94.77999999999999
 30
0.0
 11
86.0
 21
95.5
 31
0.0
  0
LINE
  5
2F8
330
1E
100
AcDbEntity
  8
0
100
AcDbLine
 10
77.568
 20
90.256
 30
0.0
 11
81.64799999999999
 21
91.88799999999998
 31
0.0
  0
LINE
  5
2F9
330
1E
100
AcDbEntity
  8
0
100
AcDbLine
 10
76.08
 20
136.4999999999999
 30
0.0
 11
80.87999999999999
 21
136.4999999999999
 31
0.0
  0
LINE
  5
2FA
330
1E
100
AcDbEntity
  8
0
100
AcDbLine
 10
76.08
 20
133.7599999999999
 30
0.0
 11
80.87999999999999
 21
133.1039999999999
 31
0.0
  0
LINE
  5
2FB
330
1E
100
AcDbEntity
  8
0
100
AcDbLine
 10
76.08
 20
92.86109999999998
 30
0.0
 11
80.87999999999999
 21
94.8042
 31
0.0
  0
LINE
  5
2FC
330
1E
100
AcDbEntity
  8
0
100
AcDbLine
 10
71.84000000000001
 20
89.65999999999999
 30
0.0
 11
76.08
 21
92.85999999999999
 31
0.0
  0
LINE
  5
301
330
1E
100
AcDbEntity
  8
0
100
AcDbLine
 10
86.0
 20
92.5
 30
0.0
 11
90.35200000000001
 21
91.88799999999998
 31
0.0
  0
LINE
  5
302
330
1E
100
AcDbEntity
  8
0
100
AcDbLine
 10
81.64799999999999
 20
91.88799999999998
 30
0.0
 11
86.0
 21
92.5
 31
0.0
  0
LINE
  5
304
330
1E
100
AcDbEntity
  8
0
100
AcDbLine
 10
95.92
 20
92.85999999999999
 30
0.0
 11
100.16
 21
89.65999999999999
 31
0.0
  0
LINE
  5
305
330
1E
100
AcDbEntity
  8
0
100
AcDbLine
 10
90.35200000000001
 20
91.88799999999998
 30
0.0
 11
94.432
 21
90.256
 31
0.0
  0
LINE
  5
306
330
1E
100
AcDbEntity
  8
0
100
AcDbLine
 10
94.432
 20
90.256
 30
0.0
 11
98.03600000000001
 21
87.536
 31
0.0
  0
LINE
  5
308
330
1E
100
AcDbEntity
  8
0
100
AcDbLine
 10
98.03600000000001
 20
87.536
 30
0.0
 11
100.756
 21
83.932
 31
0.0
  0
LINE
  5
309
330
1E
100
AcDbEntity
  8
0
100
AcDbLine
 10
95.92
 20
92.86109999999998
 30
0.0
 11
100.16
 21
89.6793
 31
0.0
  0
LINE
  5
30A
330
1E
100
AcDbEntity
  8
0
100
AcDbLine
 10
91.12
 20
94.77999999999999
 30
0.0
 11
95.92
 21
92.85999999999999
 31
0.0
  0
LINE
  5
30B
330
1E
100
AcDbEntity
  8
0
100
AcDbLine
 10
91.12
 20
94.8042
 30
0.0
 11
95.92
 21
92.86109999999998
 31
0.0
  0
LINE
  5
30C
330
1E
100
AcDbEntity
  8
0
100
AcDbLine
 10
101.0999999999999
 20
62.5855
 30
0.0
 11
103.36
 21
65.57999999999999
 31
0.0
  0
LINE
  5
30D
330
1E
100
AcDbEntity
  8
0
100
AcDbLine
 10
103.36
 20
65.57999999999999
 30
0.0
 11
105.2799999999999
 21
70.38
 31
0.0
  0
LINE
  5
30E
330
1E
100
AcDbEntity
  8
0
100
AcDbLine
 10
101.0999999999999
 20
67.92799999999999
 30
0.0
 11
102.3879999999999
 21
71.14799999999999
 31
0.0
  0
LINE
  5
30F
330
1E
100
AcDbEntity
  8
0
100
AcDbLine
 10
108.0
 20
67.53789999999999
 30
0.0
 11
108.0
 21
75.5
 31
0.0
  0
LINE
  5
310
330
1E
100
AcDbEntity
  8
0
100
AcDbLine
 10
108.0
 20
67.53789999999999
 30
0.0
 11
108.0
 21
59.7684
 31
0.0
  0
LINE
  5
311
330
1E
100
AcDbEntity
  8
0
100
AcDbLine
 10
103.36
 20
65.57129999999999
 30
0.0
 11
105.2799999999999
 21
70.3561
 31
0.0
  0
LINE
  5
312
330
1E
100
AcDbEntity
  8
0
100
AcDbLine
 10
101.0999999999999
 20
75.5
 30
0.0
 11
101.0999999999999
 21
77.2021
 31
0.0
  0
LINE
  5
313
330
1E
100
AcDbEntity
  8
0
100
AcDbLine
 10
101.0999999999999
 20
75.5
 30
0.0
 11
101.0999999999999
 21
60.0
 31
0.0
  0
LINE
  5
314
330
1E
100
AcDbEntity
  8
0
100
AcDbLine
 10
101.0999999999999
 20
77.2021
 30
0.0
 11
101.0999999999999
 21
78.98489999999999
 31
0.0
  0
LINE
  5
315
330
1E
100
AcDbEntity
  8
0
100
AcDbLine
 10
101.0999999999999
 20
77.2021
 30
0.0
 11
101.0999999999999
 21
75.5
 31
0.0
  0
LINE
  5
316
330
1E
100
AcDbEntity
  8
0
100
AcDbLine
 10
101.0999999999999
 20
78.98489999999999
 30
0.0
 11
101.0999999999999
 21
80.5
 31
0.0
  0
LINE
  5
317
330
1E
100
AcDbEntity
  8
0
100
AcDbLine
 10
101.0999999999999
 20
78.98489999999999
 30
0.0
 11
101.0999999999999
 21
77.2021
 31
0.0
  0
LINE
  5
318
330
1E
100
AcDbEntity
  8
0
100
AcDbLine
 10
101.0999999999999
 20
80.5
 30
0.0
 11
101.0999999999999
 21
78.98489999999999
 31
0.0
  0
LINE
  5
319
330
1E
100
AcDbEntity
  8
0
100
AcDbLine
 10
101.0999999999999
 20
80.5
 30
0.0
 11
101.0999999999999
 21
81.5177
 31
0.0
  0
LINE
  5
31A
330
1E
100
AcDbEntity
  8
0
100
AcDbLine
 10
102.3879999999999
 20
79.852
 30
0.0
 11
103.0
 21
75.5
 31
0.0
  0
LINE
  5
31B
330
1E
100
AcDbEntity
  8
0
100
AcDbLine
 10
105.2799999999999
 20
80.62000000000001
 30
0.0
 11
106.0
 21
75.5
 31
0.0
  0
LINE
  5
31C
330
1E
100
AcDbEntity
  8
0
100
AcDbLine
 10
105.2799999999999
 20
70.38
 30
0.0
 11
106.0
 21
75.5
 31
0.0
  0
LINE
  5
31D
330
1E
100
AcDbEntity
  8
0
100
AcDbLine
 10
102.3879999999999
 20
71.14799999999999
 30
0.0
 11
103.0
 21
75.5
 31
0.0
  0
LINE
  5
31E
330
1E
100
AcDbEntity
  8
0
100
AcDbLine
 10
105.2799999999999
 20
70.3561
 30
0.0
 11
106.0
 21
75.5
 31
0.0
  0
LINE
  5
31F
330
1E
100
AcDbEntity
  8
0
100
AcDbLine
 10
105.2799999999999
 20
70.3561
 30
0.0
 11
106.0
 21
75.4999999999999
 31
0.0
  0
LINE
  5
320
330
1E
100
AcDbEntity
  8
0
100
AcDbLine
 10
108.0
 20
75.5
 30
0.0
 11
108.0
 21
83.46210000000001
 31
0.0
  0
LINE
  5
321
330
1E
100
AcDbEntity
  8
0
100
AcDbLine
 10
108.0
 20
75.5
 30
0.0
 11
108.0
 21
67.53789999999999
 31
0.0
  0
LINE
  5
322
330
1E
100
AcDbEntity
  8
0
100
AcDbLine
 10
100.16
 20
89.65999999999999
 30
0.0
 11
103.36
 21
85.41999999999999
 31
0.0
  0
LINE
  5
323
330
1E
100
AcDbEntity
  8
0
100
AcDbLine
 10
101.0999999999999
 20
82.5
 30
0.0
 11
101.0999999999999
 21
82.30259999999999
 31
0.0
  0
LINE
  5
324
330
1E
100
AcDbEntity
  8
0
100
AcDbLine
 10
103.36
 20
85.41999999999999
 30
0.0
 11
105.2799999999999
 21
80.62000000000001
 31
0.0
  0
LINE
  5
325
330
1E
100
AcDbEntity
  8
0
100
AcDbLine
 10
101.0999999999999
 20
82.30259999999999
 30
0.0
 11
101.0999999999999
 21
82.5
 31
0.0
  0
LINE
  5
326
330
1E
100
AcDbEntity
  8
0
100
AcDbLine
 10
101.0999999999999
 20
82.30259999999999
 30
0.0
 11
101.0999999999999
 21
81.5177
 31
0.0
  0
LINE
  5
327
330
1E
100
AcDbEntity
  8
0
100
AcDbLine
 10
101.0999999999999
 20
81.5177
 30
0.0
 11
101.0999999999999
 21
82.30259999999999
 31
0.0
  0
LINE
  5
328
330
1E
100
AcDbEntity
  8
0
100
AcDbLine
 10
101.0999999999999
 20
81.5177
 30
0.0
 11
101.0999999999999
 21
80.5
 31
0.0
  0
LINE
  5
329
330
1E
100
AcDbEntity
  8
0
100
AcDbLine
 10
100.756
 20
83.932
 30
0.0
 11
102.3879999999999
 21
79.852
 31
0.0
  0
LINE
  5
32A
330
1E
100
AcDbEntity
  8
0
100
AcDbLine
 10
100.16
 20
89.6793
 30
0.0
 11
103.36
 21
85.4287
 31
0.0
  0
LINE
  5
32B
330
1E
100
AcDbEntity
  8
0
100
AcDbLine
 10
108.0
 20
91.2316
 30
0.0
 11
108.0
 21
98.8084
 31
0.0
  0
LINE
  5
32C
330
1E
100
AcDbEntity
  8
0
100
AcDbLine
 10
108.0
 20
91.2316
 30
0.0
 11
108.0
 21
83.46210000000001
 31
0.0
  0
LINE
  5
32D
330
1E
100
AcDbEntity
  8
0
100
AcDbLine
 10
108.0
 20
83.46210000000001
 30
0.0
 11
108.0
 21
91.2316
 31
0.0
  0
LINE
  5
32E
330
1E
100
AcDbEntity
  8
0
100
AcDbLine
 10
108.0
 20
83.46210000000001
 30
0.0
 11
108.0
 21
75.5
 31
0.0
  0
LINE
  5
32F
330
1E
100
AcDbEntity
  8
0
100
AcDbLine
 10
103.36
 20
85.4287
 30
0.0
 11
105.2799999999999
 21
80.64390000000001
 31
0.0
  0
LINE
  5
330
330
1E
100
AcDbEntity
  8
0
100
AcDbLine
 10
105.2799999999999
 20
80.64390000000001
 30
0.0
 11
106.0
 21
75.5
 31
0.0
  0
LINE
  5
331
330
1E
100
AcDbEntity
  8
0
100
AcDbLine
 10
108.0
 20
98.8084
 30
0.0
 11
108.0
 21
105.872
 31
0.0
  0
LINE
  5
332
330
1E
100
AcDbEntity
  8
0
100
AcDbLine
 10
108.0
 20
98.8084
 30
0.0
 11
108.0
 21
91.2316
 31
0.0
  0
LINE
  5
333
330
1E
100
AcDbEntity
  8
0
100
AcDbLine
 10
80.87999999999999
 20
136.4999999999999
 30
0.0
 11
86.0
 21
136.4999999999999
 31
0.0
  0
LINE
  5
334
330
1E
100
AcDbEntity
  8
0
100
AcDbLine
 10
86.0
 20
132.85
 30
0.0
 11
91.12
 21
133.1039999999999
 31
0.0
  0
LINE
  5
335
330
1E
100
AcDbEntity
  8
0
100
AcDbLine
 10
91.12
 20
133.1039999999999
 30
0.0
 11
95.92
 21
133.7599999999999
 31
0.0
  0
LINE
  5
336
330
1E
100
AcDbEntity
  8
0
100
AcDbLine
 10
95.92
 20
133.7599999999999
 30
0.0
 11
100.16
 21
134.61
 31
0.0
  0
LINE
  5
37A
330
1E
100
AcDbEntity
  8
0
100
AcDbLine
 10
100.16
 20
134.61
 30
0.0
 11
102.119102244389
 21
135.101
 31
0.0
  0
LINE
  5
37B
330
1E
100
AcDbEntity
  8
0
100
AcDbLine
 10
102.119102244389
 20
135.101
 30
0.0
 11
103.36
 21
135.4119999999999
 31
0.0
  0
LINE
  5
37C
330
1E
100
AcDbEntity
  8
0
100
AcDbLine
 10
108.0
 20
122.025
 30
0.0
 11
108.0
 21
123.1449999999999
 31
0.0
  0
LINE
  5
37D
330
1E
100
AcDbEntity
  8
0
100
AcDbLine
 10
108.0
 20
122.025
 30
0.0
 11
108.0
 21
106.0899999999999
 31
0.0
  0
LINE
  5
37E
330
1E
100
AcDbEntity
  8
0
100
AcDbLine
 10
108.0
 20
123.1449999999999
 30
0.0
 11
108.0
 21
124.6289999999999
 31
0.0
  0
LINE
  5
37F
330
1E
100
AcDbEntity
  8
0
100
AcDbLine
 10
108.0
 20
123.1449999999999
 30
0.0
 11
108.0
 21
122.025
 31
0.0
  0
LINE
  5
380
330
1E
100
AcDbEntity
  8
0
100
AcDbLine
 10
108.0
 20
124.6289999999999
 30
0.0
 11
108.0
 21
126.309
 31
0.0
  0
LINE
  5
381
330
1E
100
AcDbEntity
  8
0
100
AcDbLine
 10
108.0
 20
124.6289999999999
 30
0.0
 11
108.0
 21
123.1449999999999
 31
0.0
  0
LINE
  5
382
330
1E
100
AcDbEntity
  8
0
100
AcDbLine
 10
108.0
 20
126.309
 30
0.0
 11
108.0
 21
128.1009999999999
 31
0.0
  0
LINE
  5
383
330
1E
100
AcDbEntity
  8
0
100
AcDbLine
 10
108.0
 20
126.309
 30
0.0
 11
108.0
 21
124.6289999999999
 31
0.0
  0
LINE
  5
384
330
1E
100
AcDbEntity
  8
0
100
AcDbLine
 10
108.0
 20
128.1009999999999
 30
0.0
 11
108.0
 21
129.893
 31
0.0
  0
LINE
  5
385
330
1E
100
AcDbEntity
  8
0
100
AcDbLine
 10
108.0
 20
128.1009999999999
 30
0.0
 11
108.0
 21
126.309
 31
0.0
  0
LINE
  5
386
330
1E
100
AcDbEntity
  8
0
100
AcDbLine
 10
108.0
 20
134.8489999999999
 30
0.0
 11
108.0
 21
134.177
 31
0.0
  0
LINE
  5
387
330
1E
100
AcDbEntity
  8
0
100
AcDbLine
 10
108.0
 20
134.8489999999999
 30
0.0
 11
108.0
 21
135.101
 31
0.0
  0
LINE
  5
388
330
1E
100
AcDbEntity
  8
0
100
AcDbLine
 10
108.0
 20
134.177
 30
0.0
 11
108.0
 21
133.057
 31
0.0
  0
LINE
  5
389
330
1E
100
AcDbEntity
  8
0
100
AcDbLine
 10
108.0
 20
134.177
 30
0.0
 11
108.0
 21
134.8489999999999
 31
0.0
  0
LINE
  5
38A
330
1E
100
AcDbEntity
  8
0
100
AcDbLine
 10
108.0
 20
133.057
 30
0.0
 11
108.0
 21
131.5729999999999
 31
0.0
  0
LINE
  5
38B
330
1E
100
AcDbEntity
  8
0
100
AcDbLine
 10
108.0
 20
133.057
 30
0.0
 11
108.0
 21
134.177
 31
0.0
  0
LINE
  5
38C
330
1E
100
AcDbEntity
  8
0
100
AcDbLine
 10
108.0
 20
131.5729999999999
 30
0.0
 11
108.0
 21
129.893
 31
0.0
  0
LINE
  5
38D
330
1E
100
AcDbEntity
  8
0
100
AcDbLine
 10
108.0
 20
131.5729999999999
 30
0.0
 11
108.0
 21
133.057
 31
0.0
  0
LINE
  5
38E
330
1E
100
AcDbEntity
  8
0
100
AcDbLine
 10
108.0
 20
129.893
 30
0.0
 11
108.0
 21
128.1009999999999
 31
0.0
  0
LINE
  5
38F
330
1E
100
AcDbEntity
  8
0
100
AcDbLine
 10
108.0
 20
129.893
 30
0.0
 11
108.0
 21
131.5729999999999
 31
0.0
  0
LINE
  5
390
330
1E
100
AcDbEntity
  8
0
100
AcDbLine
 10
108.0
 20
135.101
 30
0.0
 11
108.0
 21
135.858
 31
0.0
  0
LINE
  5
391
330
1E
100
AcDbEntity
  8
0
100
AcDbLine
 10
108.0
 20
135.101
 30
0.0
 11
108.0
 21
134.8489999999999
 31
0.0
  0
LINE
  5
392
330
1E
100
AcDbEntity
  8
0
100
AcDbLine
 10
108.0
 20
135.858
 30
0.0
 11
108.0
 21
136.4999999999999
 31
0.0
  0
LINE
  5
393
330
1E
100
AcDbEntity
  8
0
100
AcDbLine
 10
108.0
 20
135.858
 30
0.0
 11
108.0
 21
135.101
 31
0.0
  0
LINE
  5
394
330
1E
100
AcDbEntity
  8
0
100
AcDbLine
 10
103.36
 20
135.4119999999999
 30
0.0
 11
105.2799999999999
 21
136.0929999999999
 31
0.0
  0
LINE
  5
395
330
1E
100
AcDbEntity
  8
0
100
AcDbLine
 10
86.0
 20
136.4999999999999
 30
0.0
 11
91.12
 21
136.4999999999999
 31
0.0
  0
LINE
  5
396
330
1E
100
AcDbEntity
  8
0
100
AcDbLine
 10
91.12
 20
136.4999999999999
 30
0.0
 11
95.92
 21
136.4999999999999
 31
0.0
  0
LINE
  5
397
330
1E
100
AcDbEntity
  8
0
100
AcDbLine
 10
95.92
 20
136.4999999999999
 30
0.0
 11
100.16
 21
136.4999999999999
 31
0.0
  0
LINE
  5
398
330
1E
100
AcDbEntity
  8
0
100
AcDbLine
 10
100.16
 20
136.4999999999999
 30
0.0
 11
103.36
 21
136.4999999999999
 31
0.0
  0
LINE
  5
399
330
1E
100
AcDbEntity
  8
0
100
AcDbLine
 10
103.36
 20
136.4999999999999
 30
0.0
 11
105.2799999999999
 21
136.4999999999999
 31
0.0
  0
LINE
  5
39A
330
1E
100
AcDbEntity
  8
0
100
AcDbLine
 10
108.0
 20
136.4999999999999
 30
0.0
 11
108.0
 21
135.858
 31
0.0
  0
LINE
  5
39B
330
1E
100
AcDbEntity
  8
0
100
AcDbLine
 10
105.2799999999999
 20
136.4999999999999
 30
0.0
 11
106.0
 21
136.4999999999999
 31
0.0
  0
LINE
  5
39C
330
1E
100
AcDbEntity
  8
0
100
AcDbLine
 10
105.2799999999999
 20
136.0929999999999
 30
0.0
 11
106.0
 21
136.4999999999999
 31
0.0
  0
LINE
  5
39D
330
1E
100
AcDbEntity
  8
0
100
AcDbLine
 10
80.87999999999999
 20
133.1039999999999
 30
0.0
 11
86.0
 21
132.85
 31
0.0
  0
LINE
  5
39E
330
1E
100
AcDbEntity
  8
0
100
AcDbLine
 10
108.0
 20
106.0899999999999
 30
0.0
 11
108.0
 21
105.872
 31
0.0
  0
LINE
  5
39F
330
1E
100
AcDbEntity
  8
0
100
AcDbLine
 10
108.0
 20
106.0899999999999
 30
0.0
 11
108.0
 21
122.025
 31
0.0
  0
LINE
  5
3A0
330
1E
100
AcDbEntity
  8
0
100
AcDbLine
 10
108.0
 20
105.872
 30
0.0
 11
108.0
 21
98.8084
 31
0.0
  0
LINE
  5
3A1
330
1E
100
AcDbEntity
  8
0
100
AcDbLine
 10
108.0
 20
105.872
 30
0.0
 11
108.0
 21
106.0899999999999
 31
0.0
  0
LINE
  5
3A2
330
1E
100
AcDbEntity
  8
0
100
AcDbLine
 10
86.0
 20
95.5
 30
0.0
 11
91.12
 21
94.8042
 31
0.0
  0
LINE
  5
3A3
330
1E
100
AcDbEntity
  8
0
100
AcDbLine
 10
86.0
 20
95.5
 30
0.0
 11
91.12
 21
94.77999999999999
 31
0.0
  0
LINE
  5
3A4
330
1E
100
AcDbEntity
  8
0
100
AcDbLine
 10
80.87999999999999
 20
94.8042
 30
0.0
 11
86.0
 21
95.5
 31
0.0
  0
LINE
  5
3A5
330
1E
100
AcDbEntity
  8
0
100
AcDbLine
 10
86.0
 20
138.5
 30
0.0
 11
91.12
 21
138.5
 31
0.0
  0
LINE
  5
3A6
330
1E
100
AcDbEntity
  8
0
100
AcDbLine
 10
91.12
 20
138.5
 30
0.0
 11
95.92
 21
138.5
 31
0.0
  0
LINE
  5
3A7
330
1E
100
AcDbEntity
  8
0
100
AcDbLine
 10
95.92
 20
138.5
 30
0.0
 11
100.16
 21
138.5
 31
0.0
  0
LINE
  5
3A8
330
1E
100
AcDbEntity
  8
0
100
AcDbLine
 10
100.16
 20
138.5
 30
0.0
 11
103.36
 21
138.5
 31
0.0
  0
LINE
  5
3A9
330
1E
100
AcDbEntity
  8
0
100
AcDbLine
 10
103.36
 20
138.5
 30
0.0
 11
105.2799999999999
 21
138.5
 31
0.0
  0
LINE
  5
3AA
330
1E
100
AcDbEntity
  8
0
100
AcDbLine
 10
106.0
 20
138.5
 30
0.0
 11
106.0
 21
136.4999999999999
 31
0.0
  0
LINE
  5
3AB
330
1E
100
AcDbEntity
  8
0
100
AcDbLine
 10
105.2799999999999
 20
138.5
 30
0.0
 11
106.0
 21
138.5
 31
0.0
  0
LINE
  5
3AC
330
1E
100
AcDbEntity
  8
0
100
AcDbLine
 10
80.87999999999999
 20
138.5
 30
0.0
 11
86.0
 21
138.5
 31
0.0
  0
LINE
  5
3AD
330
1E
100
AcDbEntity
  8
0
100
AcDbLine
 10
76.08
 20
138.5
 30
0.0
 11
80.87999999999999
 21
138.5
 31
0.0
  0
LINE
  5
3AE
330
1E
100
AcDbEntity
  8
0
100
AcDbLine
 10
71.84000000000001
 20
138.5
 30
0.0
 11
76.08
 21
138.5
 31
0.0
  0
LINE
  5
3AF
330
1E
100
AcDbEntity
  8
0
100
AcDbLine
 10
68.64
 20
138.5
 30
0.0
 11
71.84000000000001
 21
138.5
 31
0.0
  0
LINE
  5
3B0
330
1E
100
AcDbEntity
  8
0
100
AcDbLine
 10
106.0
 20
136.4999999999999
 30
0.0
 11
108.0
 21
136.4999999999999
 31
0.0
  0
LINE
  5
3B1
330
1E
100
AcDbEntity
  8
0
100
AcDbLine
 10
106.0
 20
136.4999999999999
 30
0.0
 11
106.0
 21
138.5
 31
0.0
  0
LINE
  5
3B2
330
1E
100
AcDbEntity
  8
0
100
AcDbLine
 10
101.0999999999999
 20
62.56931375
 30
0.0
 11
103.36
 21
65.57129999999999
 31
0.0
  0
LINE
  5
3B3
330
1E
100
AcDbEntity
  8
0
100
AcDbLine
 10
0.0000000000000041
 20
67.53789999999999
 30
0.0
 11
0.0000000000000042
 21
67.7989
 31
0.0
  0
LINE
  5
3B4
330
1E
100
AcDbEntity
  8
0
100
AcDbLine
 10
0.0000000000000041
 20
67.53789999999999
 30
0.0
 11
0.0000000000000046
 21
75.5
 31
0.0
  0
LINE
  5
3B9
330
1E
100
AcDbEntity
  8
0
100
AcDbLine
 10
67.0
 20
40.0
 30
0.0
 11
105.0
 21
40.0
 31
0.0
  0
ENDSEC
  0
SECTION
  2
OBJECTS
  0
DICTIONARY
  5
C
330
0
100
AcDbDictionary
  3
ACAD_GROUP
350
D
  3
ACAD_LAYOUT
350
19
  3
ACAD_MLINESTYLE
350
16
  3
ACAD_PLOTSETTINGS
350
18
  3
ACAD_PLOTSTYLENAME
350
E
  3
ACDBHEADERROUNDTRIPXREC
350
3BE
  3
ACDBVARIABLEDICTIONARY
350
3BB
  0
DICTIONARY
  5
3E0
330
1E
100
AcDbDictionary
280
     1
  3
ACAD_LAYOUTSELFREF
360
3E1
  0
DICTIONARY
  5
3DE
330
1A
100
AcDbDictionary
280
     1
  3
ACAD_LAYOUTSELFREF
360
3DF
  0
DICTIONARY
  5
D
102
{ACAD_REACTORS
330
C
102
}
330
C
100
AcDbDictionary
  0
DICTIONARY
  5
19
102
{ACAD_REACTORS
330
C
102
}
330
C
100
AcDbDictionary
  0
DICTIONARY
  5
16
102
{ACAD_REACTORS
330
C
102
}
330
C
100
AcDbDictionary
  3
STANDARD
350
17
  0
DICTIONARY
  5
18
102
{ACAD_REACTORS
330
C
102
}
330
C
100
AcDbDictionary
  0
ACDBDICTIONARYWDFLT
  5
E
102
{ACAD_REACTORS
330
C
102
}
330
C
100
AcDbDictionary
281
     1
  3
Normal
350
F
100
AcDbDictionaryWithDefault
340
F
  0
DICTIONARY
  5
3BE
102
{ACAD_REACTORS
330
C
102
}
330
C
100
AcDbDictionary
  3
CEPSNTYPE
350
3C8
  3
FINGERPRINTGUID
350
3C9
  3
HYPERLINKBASE
350
3C1
  3
INSUNITS
350
3C7
  3
LAYOUTDICT
350
3C3
  3
LWETCUNION
350
3C6
  3
PLOTSETDICT
350
3C4
  3
PLOTSTYLNAMDICT
350
3C5
  3
PSVPSCALE
350
3CB
  3
PUCSBASE
350
3CE
  3
PUCSORGBACK
350
3D4
  3
PUCSORGBOTTOM
350
3D0
  3
PUCSORGFRONT
350
3D3
  3
PUCSORGLEFT
350
3D1
  3
PUCSORGRIGHT
350
3D2
  3
PUCSORGTOP
350
3CF
  3
PUCSORTHOREF
350
3CC
  3
PUCSORTHOVIEW
350
3CD
  3
STYLESHEET
350
3C2
  3
TSTACKALIGN
350
3BF
  3
TSTACKSIZE
350
3C0
  3
UCSBASE
350
3D7
  3
UCSORGBACK
350
3DD
  3
UCSORGBOTTOM
350
3D9
  3
UCSORGFRONT
350
3DC
  3
UCSORGLEFT
350
3DA
  3
UCSORGRIGHT
350
3DB
  3
UCSORGTOP
350
3D8
  3
UCSORTHOREF
350
3D5
  3
UCSORTHOVIEW
350
3D6
  3
VERSIONGUID
350
3CA
  0
DICTIONARY
  5
3BB
102
{ACAD_REACTORS
330
C
102
}
330
C
100
AcDbDictionary
  3
DIMASSOC
350
3BC
  0
XRECORD
  5
3E1
102
{ACAD_REACTORS
330
3E0
102
}
330
3E0
100
AcDbXrecord
340
1E
  0
XRECORD
  5
3DF
102
{ACAD_REACTORS
330
3DE
102
}
330
3DE
100
AcDbXrecord
340
1A
  0
MLINESTYLE
  5
17
102
{ACAD_REACTORS
330
16
102
}
330
16
100
AcDbMlineStyle
  2
STANDARD
 70
     0
  3

 62
   256
 51
90.0
 52
90.0
 71
     2
 49
0.5
 62
   256
  6
BYLAYER
 49
-0.5
 62
   256
  6
BYLAYER
  0
ACDBPLACEHOLDER
  5
F
102
{ACAD_REACTORS
330
E
102
}
330
E
100
AcDbPlaceHolder
280
     0
  0
XRECORD
  5
3C8
102
{ACAD_REACTORS
330
3BE
102
}
330
3BE
100
AcDbXrecord
 90
        0
  0
XRECORD
  5
3C9
102
{ACAD_REACTORS
330
3BE
102
}
330
3BE
100
AcDbXrecord
  1
{10411075-C699-4651-883D-F9D618C7F7BD}
  0
XRECORD
  5
3C1
102
{ACAD_REACTORS
330
3BE
102
}
330
3BE
100
AcDbXrecord
  1

  0
XRECORD
  5
3C7
102
{ACAD_REACTORS
330
3BE
102
}
330
3BE
100
AcDbXrecord
 90
        0
  0
XRECORD
  5
3C3
102
{ACAD_REACTORS
330
3BE
102
}
330
3BE
100
AcDbXrecord
340
19
  0
XRECORD
  5
3C6
102
{ACAD_REACTORS
330
3BE
102
}
330
3BE
100
AcDbXrecord
 90
    10781
  0
XRECORD
  5
3C4
102
{ACAD_REACTORS
330
3BE
102
}
330
3BE
100
AcDbXrecord
340
18
  0
XRECORD
  5
3C5
102
{ACAD_REACTORS
330
3BE
102
}
330
3BE
100
AcDbXrecord
340
E
  0
XRECORD
  5
3CB
102
{ACAD_REACTORS
330
3BE
102
}
330
3BE
100
AcDbXrecord
 40
0.0
  0
XRECORD
  5
3CE
102
{ACAD_REACTORS
330
3BE
102
}
330
3BE
100
AcDbXrecord
340
0
  0
XRECORD
  5
3D4
102
{ACAD_REACTORS
330
3BE
102
}
330
3BE
100
AcDbXrecord
 10
0.0
 20
0.0
 30
0.0
  0
XRECORD
  5
3D0
102
{ACAD_REACTORS
330
3BE
102
}
330
3BE
100
AcDbXrecord
 10
0.0
 20
0.0
 30
0.0
  0
XRECORD
  5
3D3
102
{ACAD_REACTORS
330
3BE
102
}
330
3BE
100
AcDbXrecord
 10
0.0
 20
0.0
 30
0.0
  0
XRECORD
  5
3D1
102
{ACAD_REACTORS
330
3BE
102
}
330
3BE
100
AcDbXrecord
 10
0.0
 20
0.0
 30
0.0
  0
XRECORD
  5
3D2
102
{ACAD_REACTORS
330
3BE
102
}
330
3BE
100
AcDbXrecord
 10
0.0
 20
0.0
 30
0.0
  0
XRECORD
  5
3CF
102
{ACAD_REACTORS
330
3BE
102
}
330
3BE
100
AcDbXrecord
 10
0.0
 20
0.0
 30
0.0
  0
XRECORD
  5
3CC
102
{ACAD_REACTORS
330
3BE
102
}
330
3BE
100
AcDbXrecord
340
0
  0
XRECORD
  5
3CD
102
{ACAD_REACTORS
330
3BE
102
}
330
3BE
100
AcDbXrecord
 70
     0
  0
XRECORD
  5
3C2
102
{ACAD_REACTORS
330
3BE
102
}
330
3BE
100
AcDbXrecord
  1

  0
XRECORD
  5
3BF
102
{ACAD_REACTORS
330
3BE
102
}
330
3BE
100
AcDbXrecord
 90
        1
  0
XRECORD
  5
3C0
102
{ACAD_REACTORS
330
3BE
102
}
330
3BE
100
AcDbXrecord
 90
       70
  0
XRECORD
  5
3D7
102
{ACAD_REACTORS
330
3BE
102
}
330
3BE
100
AcDbXrecord
340
0
  0
XRECORD
  5
3DD
102
{ACAD_REACTORS
330
3BE
102
}
330
3BE
100
AcDbXrecord
 10
0.0
 20
0.0
 30
0.0
  0
XRECORD
  5
3D9
102
{ACAD_REACTORS
330
3BE
102
}
330
3BE
100
AcDbXrecord
 10
0.0
 20
0.0
 30
0.0
  0
XRECORD
  5
3DC
102
{ACAD_REACTORS
330
3BE
102
}
330
3BE
100
AcDbXrecord
 10
0.0
 20
0.0
 30
0.0
  0
XRECORD
  5
3DA
102
{ACAD_REACTORS
330
3BE
102
}
330
3BE
100
AcDbXrecord
 10
0.0
 20
0.0
 30
0.0
  0
XRECORD
  5
3DB
102
{ACAD_REACTORS
330
3BE
102
}
330
3BE
100
AcDbXrecord
 10
0.0
 20
0.0
 30
0.0
  0
XRECORD
  5
3D8
102
{ACAD_REACTORS
330
3BE
102
}
330
3BE
100
AcDbXrecord
 10
0.0
 20
0.0
 30
0.0
  0
XRECORD
  5
3D5
102
{ACAD_REACTORS
330
3BE
102
}
330
3BE
100
AcDbXrecord
340
0
  0
XRECORD
  5
3D6
102
{ACAD_REACTORS
330
3BE
102
}
330
3BE
100
AcDbXrecord
 70
     1
  0
XRECORD
  5
3CA
102
{ACAD_REACTORS
330
3BE
102
}
330
3BE
100
AcDbXrecord
  1
{FDFD3515-AF9A-4C70-9E9F-EF88B0F21BFE}
  0
DICTIONARYVAR
  5
3BC
102
{ACAD_REACTORS
330
3BB
102
}
330
3BB
100
DictionaryVariables
280
     0
  1
1
  0
ENDSEC
  0
EOF
