  0
SECTION
  2
HEADER
  9
$ACADVER
  1
AC1014
  9
$ACADMAINTVER
 70
     9
  9
$DWGCODEPAGE
  3
ANSI_1252
  9
$INSBASE
 10
0.0
 20
0.0
 30
0.0
  9
$EXTMIN
 10
0.0
 20
0.180000000000004
 30
0.0
  9
$EXTMAX
 10
117.0
 20
137.8199999999999
 30
0.0
  9
$LIMMIN
 10
0.0
 20
0.0
  9
$LIMMAX
 10
12.0
 20
9.0
  9
$ORTHOMODE
 70
     0
  9
$REGENMODE
 70
     1
  9
$FILLMODE
 70
     1
  9
$QTEXTMODE
 70
     0
  9
$MIRRTEXT
 70
     1
  9
$DRAGMODE
 70
     2
  9
$LTSCALE
 40
1.0
  9
$OSMODE
 70
    37
  9
$ATTMODE
 70
     1
  9
$TEXTSIZE
 40
0.2
  9
$TRACEWID
 40
0.05
  9
$TEXTSTYLE
  7
STANDARD
  9
$CLAYER
  8
0
  9
$CELTYPE
  6
CONTINUOUS
  9
$CECOLOR
 62
   256
  9
$CELTSCALE
 40
1.0
  9
$DELOBJ
 70
     1
  9
$DISPSILH
 70
     0
  9
$DIMSCALE
 40
1.0
  9
$DIMASZ
 40
0.18
  9
$DIMEXO
 40
0.0625
  9
$DIMDLI
 40
0.38
  9
$DIMRND
 40
0.0
  9
$DIMDLE
 40
0.0
  9
$DIMEXE
 40
0.18
  9
$DIMTP
 40
0.0
  9
$DIMTM
 40
0.0
  9
$DIMTXT
 40
0.18
  9
$DIMCEN
 40
0.09
  9
$DIMTSZ
 40
0.0
  9
$DIMTOL
 70
     0
  9
$DIMLIM
 70
     0
  9
$DIMTIH
 70
     1
  9
$DIMTOH
 70
     1
  9
$DIMSE1
 70
     0
  9
$DIMSE2
 70
     0
  9
$DIMTAD
 70
     0
  9
$DIMZIN
 70
     0
  9
$DIMBLK
  1

  9
$DIMASO
 70
     1
  9
$DIMSHO
 70
     1
  9
$DIMPOST
  1

  9
$DIMAPOST
  1

  9
$DIMALT
 70
     0
  9
$DIMALTD
 70
     2
  9
$DIMALTF
 40
25.4
  9
$DIMLFAC
 40
1.0
  9
$DIMTOFL
 70
     0
  9
$DIMTVP
 40
0.0
  9
$DIMTIX
 70
     0
  9
$DIMSOXD
 70
     0
  9
$DIMSAH
 70
     0
  9
$DIMBLK1
  1

  9
$DIMBLK2
  1

  9
$DIMSTYLE
  2
STANDARD
  9
$DIMCLRD
 70
     0
  9
$DIMCLRE
 70
     0
  9
$DIMCLRT
 70
     0
  9
$DIMTFAC
 40
1.0
  9
$DIMGAP
 40
0.09
  9
$DIMJUST
 70
     0
  9
$DIMSD1
 70
     0
  9
$DIMSD2
 70
     0
  9
$DIMTOLJ
 70
     1
  9
$DIMTZIN
 70
     0
  9
$DIMALTZ
 70
     0
  9
$DIMALTTZ
 70
     0
  9
$DIMFIT
 70
     3
  9
$DIMUPT
 70
     0
  9
$DIMUNIT
 70
     2
  9
$DIMDEC
 70
     4
  9
$DIMTDEC
 70
     4
  9
$DIMALTU
 70
     2
  9
$DIMALTTD
 70
     2
  9
$DIMTXSTY
  7
STANDARD
  9
$DIMAUNIT
 70
     0
  9
$LUNITS
 70
     2
  9
$LUPREC
 70
     4
  9
$SKETCHINC
 40
0.1
  9
$FILLETRAD
 40
0.0
  9
$AUNITS
 70
     0
  9
$AUPREC
 70
     0
  9
$MENU
  1
.
  9
$ELEVATION
 40
0.0
  9
$PELEVATION
 40
0.0
  9
$THICKNESS
 40
0.0
  9
$LIMCHECK
 70
     0
  9
$BLIPMODE
 70
     0
  9
$CHAMFERA
 40
0.0
  9
$CHAMFERB
 40
0.0
  9
$CHAMFERC
 40
0.0
  9
$CHAMFERD
 40
0.0
  9
$SKPOLY
 70
     0
  9
$TDCREATE
 40
2455239.868924328
  9
$TDUPDATE
 40
2455239.870978541
  9
$TDINDWG
 40
0.0020543981
  9
$TDUSRTIMER
 40
0.0020543981
  9
$USRTIMER
 70
     1
  9
$ANGBASE
 50
0.0
  9
$ANGDIR
 70
     0
  9
$PDMODE
 70
     0
  9
$PDSIZE
 40
0.0
  9
$PLINEWID
 40
0.0
  9
$COORDS
 70
     1
  9
$SPLFRAME
 70
     0
  9
$SPLINETYPE
 70
     6
  9
$SPLINESEGS
 70
     8
  9
$ATTDIA
 70
     0
  9
$ATTREQ
 70
     1
  9
$HANDLING
 70
 22529
  9
$HANDSEED
  5
2E4
  9
$SURFTAB1
 70
     6
  9
$SURFTAB2
 70
     6
  9
$SURFTYPE
 70
     6
  9
$SURFU
 70
     6
  9
$SURFV
 70
     6
  9
$UCSNAME
  2

  9
$UCSORG
 10
0.0
 20
0.0
 30
0.0
  9
$UCSXDIR
 10
1.0
 20
0.0
 30
0.0
  9
$UCSYDIR
 10
0.0
 20
1.0
 30
0.0
  9
$PUCSNAME
  2

  9
$PUCSORG
 10
0.0
 20
0.0
 30
0.0
  9
$PUCSXDIR
 10
1.0
 20
0.0
 30
0.0
  9
$PUCSYDIR
 10
0.0
 20
1.0
 30
0.0
  9
$USERI1
 70
     0
  9
$USERI2
 70
     0
  9
$USERI3
 70
     0
  9
$USERI4
 70
     0
  9
$USERI5
 70
     0
  9
$USERR1
 40
0.0
  9
$USERR2
 40
0.0
  9
$USERR3
 40
0.0
  9
$USERR4
 40
0.0
  9
$USERR5
 40
0.0
  9
$WORLDVIEW
 70
     1
  9
$SHADEDGE
 70
     3
  9
$SHADEDIF
 70
    70
  9
$TILEMODE
 70
     1
  9
$MAXACTVP
 70
    64
  9
$PINSBASE
 10
0.0
 20
0.0
 30
0.0
  9
$PLIMCHECK
 70
     0
  9
$PEXTMIN
 10
1.000000000000000E+20
 20
1.000000000000000E+20
 30
1.000000000000000E+20
  9
$PEXTMAX
 10
-1.000000000000000E+20
 20
-1.000000000000000E+20
 30
-1.000000000000000E+20
  9
$PLIMMIN
 10
0.0
 20
0.0
  9
$PLIMMAX
 10
12.0
 20
9.0
  9
$UNITMODE
 70
     0
  9
$VISRETAIN
 70
     1
  9
$PLINEGEN
 70
     0
  9
$PSLTSCALE
 70
     1
  9
$TREEDEPTH
 70
  3020
  9
$PICKSTYLE
 70
     1
  9
$CMLSTYLE
  2
STANDARD
  9
$CMLJUST
 70
     0
  9
$CMLSCALE
 40
1.0
  9
$PROXYGRAPHICS
 70
     1
  9
$MEASUREMENT
 70
     0
  0
ENDSEC
  0
SECTION
  2
CLASSES
  0
CLASS
  1
ACDBDICTIONARYWDFLT
  2
AcDbDictionaryWithDefault
  3
AutoCAD 2000
 90
        0
280
     0
281
     0
  0
CLASS
  1
ACDBPLACEHOLDER
  2
AcDbPlaceHolder
  3
AutoCAD 2000
 90
        0
280
     0
281
     0
  0
CLASS
  1
LAYOUT
  2
AcDbLayout
  3
AutoCAD 2000
 90
        0
280
     0
281
     0
  0
CLASS
  1
DICTIONARYVAR
  2
AcDbDictionaryVar
  3
AutoCAD 2000
 90
        0
280
     0
281
     0
  0
CLASS
  1
LONG_TRANSACTION
  2
AcDbLongTransaction
  3
AutoCAD 2000
 90
        0
280
     0
281
     0
  0
CLASS
  1
LWPOLYLINE
  2
AcDbPolyline
  3
AutoCAD 2000
 90
        0
280
     0
281
     1
  0
CLASS
  1
HATCH
  2
AcDbHatch
  3
AutoCAD 2000
 90
        0
280
     0
281
     1
  0
CLASS
  1
XRECORD
  2
AcDbXrecord
  3
AutoCAD 2000
 90
        0
280
     0
281
     0
  0
ENDSEC
  0
SECTION
  2
TABLES
  0
TABLE
  2
VPORT
  5
8
330
0
100
AcDbSymbolTable
 70
     3
  0
VPORT
  5
2BF
330
8
100
AcDbSymbolTableRecord
100
AcDbViewportTableRecord
  2
*ACTIVE
 70
     0
 10
0.0
 20
0.0
 11
1.0
 21
1.0
 12
58.5
 22
69.0
 13
0.0
 23
0.0
 14
1.0
 24
1.0
 15
0.0
 25
0.0
 16
0.0
 26
0.0
 36
1.0
 17
0.0
 27
0.0
 37
0.0
 40
138.543544857768
 41
2.041621029572836
 42
50.0
 43
0.0
 44
0.0
 50
0.0
 51
0.0
 71
     0
 72
   100
 73
     1
 74
     3
 75
     0
 76
     0
 77
     0
 78
     0
  0
ENDTAB
  0
TABLE
  2
LTYPE
  5
5
330
0
100
AcDbSymbolTable
 70
     1
  0
LTYPE
  5
13
330
5
100
AcDbSymbolTableRecord
100
AcDbLinetypeTableRecord
  2
BYBLOCK
 70
     0
  3

 72
    65
 73
     0
 40
0.0
  0
LTYPE
  5
14
330
5
100
AcDbSymbolTableRecord
100
AcDbLinetypeTableRecord
  2
BYLAYER
 70
     0
  3

 72
    65
 73
     0
 40
0.0
  0
LTYPE
  5
15
330
5
100
AcDbSymbolTableRecord
100
AcDbLinetypeTableRecord
  2
CONTINUOUS
 70
     0
  3
Solid line
 72
    65
 73
     0
 40
0.0
  0
ENDTAB
  0
TABLE
  2
LAYER
  5
2
330
0
100
AcDbSymbolTable
 70
     1
  0
LAYER
  5
10
330
2
100
AcDbSymbolTableRecord
100
AcDbLayerTableRecord
  2
0
 70
     0
 62
     7
  6
CONTINUOUS
  0
ENDTAB
  0
TABLE
  2
STYLE
  5
3
330
0
100
AcDbSymbolTable
 70
     1
  0
STYLE
  5
11
330
3
100
AcDbSymbolTableRecord
100
AcDbTextStyleTableRecord
  2
STANDARD
 70
     0
 40
0.0
 41
1.0
 50
0.0
 71
     0
 42
0.2
  3
txt
  4

  0
ENDTAB
  0
TABLE
  2
VIEW
  5
6
330
0
100
AcDbSymbolTable
 70
     0
  0
ENDTAB
  0
TABLE
  2
UCS
  5
7
330
0
100
AcDbSymbolTable
 70
     0
  0
ENDTAB
  0
TABLE
  2
APPID
  5
9
330
0
100
AcDbSymbolTable
 70
     1
  0
APPID
  5
12
330
9
100
AcDbSymbolTableRecord
100
AcDbRegAppTableRecord
  2
ACAD
 70
     0
  0
ENDTAB
  0
TABLE
  2
DIMSTYLE
  5
A
330
0
100
AcDbSymbolTable
 70
     1
  0
DIMSTYLE
105
214
330
A
100
AcDbSymbolTableRecord
100
AcDbDimStyleTableRecord
  2
STANDARD
 70
     0
  3

  4

  5

  6

  7

 40
1.0
 41
0.18
 42
0.0625
 43
0.38
 44
0.18
 45
0.0
 46
0.0
 47
0.0
 48
0.0
140
0.18
141
0.09
142
0.0
143
25.4
144
1.0
145
0.0
146
1.0
147
0.09
 71
     0
 72
     0
 73
     1
 74
     1
 75
     0
 76
     0
 77
     0
 78
     0
170
     0
171
     2
172
     0
173
     0
174
     0
175
     0
176
     0
177
     0
178
     0
270
     2
271
     4
272
     4
273
     2
274
     2
340
11
275
     0
280
     0
281
     0
282
     0
283
     1
284
     0
285
     0
286
     0
287
     3
288
     0
  0
ENDTAB
  0
TABLE
  2
BLOCK_RECORD
  5
1
330
0
100
AcDbSymbolTable
 70
     0
  0
BLOCK_RECORD
  5
1E
102
{ACAD_XDICTIONARY
360
2E2
102
}
330
1
100
AcDbSymbolTableRecord
100
AcDbBlockTableRecord
  2
*MODEL_SPACE
  0
BLOCK_RECORD
  5
1A
102
{ACAD_XDICTIONARY
360
2E0
102
}
330
1
100
AcDbSymbolTableRecord
100
AcDbBlockTableRecord
  2
*PAPER_SPACE
  0
ENDTAB
  0
ENDSEC
  0
SECTION
  2
BLOCKS
  0
BLOCK
  5
1F
330
1E
100
AcDbEntity
  8
0
100
AcDbBlockBegin
  2
*MODEL_SPACE
 70
     0
 10
0.0
 20
0.0
 30
0.0
  3
*MODEL_SPACE
  1

  0
ENDBLK
  5
20
330
1E
100
AcDbEntity
  8
0
100
AcDbBlockEnd
  0
BLOCK
  5
1B
330
1A
100
AcDbEntity
 67
     1
  8
0
100
AcDbBlockBegin
  2
*PAPER_SPACE
 70
     0
 10
0.0
 20
0.0
 30
0.0
  3
*PAPER_SPACE
  1

  0
ENDBLK
  5
1C
330
1A
100
AcDbEntity
 67
     1
  8
0
100
AcDbBlockEnd
  0
ENDSEC
  0
SECTION
  2
ENTITIES
  0
LINE
  5
22
330
1E
100
AcDbEntity
  8
0
100
AcDbLine
 10
17.11009999999999
 20
26.9059
 30
0.0
 11
21.709
 21
21.88899999999999
 31
0.0
  0
LINE
  5
25
330
1E
100
AcDbEntity
  8
0
100
AcDbLine
 10
21.709
 20
21.88899999999999
 30
0.0
 11
26.7259
 21
17.29009999999999
 31
0.0
  0
LINE
  5
28
330
1E
100
AcDbEntity
  8
0
100
AcDbLine
 10
17.316
 20
17.496
 30
0.0
 11
22.932
 21
12.34799999999999
 31
0.0
  0
LINE
  5
29
330
1E
100
AcDbEntity
  8
0
100
AcDbLine
 10
22.932
 20
12.34799999999999
 30
0.0
 11
29.484
 21
7.902
 31
0.0
  0
LINE
  5
2A
330
1E
100
AcDbEntity
  8
0
100
AcDbLine
 10
12.168
 20
23.11199999999999
 30
0.0
 11
17.316
 21
17.496
 31
0.0
  0
LINE
  5
2B
330
1E
100
AcDbEntity
  8
0
100
AcDbLine
 10
13.1383
 20
32.759
 30
0.0
 11
17.11009999999999
 21
26.9059
 31
0.0
  0
LINE
  5
2C
330
1E
100
AcDbEntity
  8
0
100
AcDbLine
 10
10.4208
 20
38.8212
 30
0.0
 11
13.1383
 21
32.759
 31
0.0
  0
LINE
  5
31
330
1E
100
AcDbEntity
  8
0
100
AcDbLine
 10
7.722
 20
29.664
 30
0.0
 11
12.168
 21
23.11199999999999
 31
0.0
  0
LINE
  5
32
330
1E
100
AcDbEntity
  8
0
100
AcDbLine
 10
4.679999999999999
 20
36.45
 30
0.0
 11
7.722
 21
29.664
 31
0.0
  0
LINE
  5
33
330
1E
100
AcDbEntity
  8
0
100
AcDbLine
 10
8.121360000000001
 20
45.3014
 30
0.0
 11
10.4208
 21
38.8212
 31
0.0
  0
LINE
  5
36
330
1E
100
AcDbEntity
  8
0
100
AcDbLine
 10
2.105999999999999
 20
43.70399999999999
 30
0.0
 11
4.679999999999999
 21
36.45
 31
0.0
  0
LINE
  5
37
330
1E
100
AcDbEntity
  8
0
100
AcDbLine
 10
0.7020000000000001
 20
50.958
 30
0.0
 11
2.105999999999999
 21
43.70399999999999
 31
0.0
  0
LINE
  5
38
330
1E
100
AcDbEntity
  8
0
100
AcDbLine
 10
6.867119999999999
 20
51.7817
 30
0.0
 11
8.121360000000001
 21
45.3014
 31
0.0
  0
LINE
  5
3B
330
1E
100
AcDbEntity
  8
0
100
AcDbLine
 10
0.7020000000000001
 20
50.958
 30
0.0
 11
2.105999999999999
 21
43.70399999999999
 31
0.0
  0
LINE
  5
3C
330
1E
100
AcDbEntity
  8
0
100
AcDbLine
 10
26.7259
 20
17.29009999999999
 30
0.0
 11
32.579
 21
13.3183
 31
0.0
  0
LINE
  5
3F
330
1E
100
AcDbEntity
  8
0
100
AcDbLine
 10
32.579
 20
13.3183
 30
0.0
 11
38.64119999999999
 21
10.60079999999999
 31
0.0
  0
LINE
  5
42
330
1E
100
AcDbEntity
  8
0
100
AcDbLine
 10
29.484
 20
7.902
 30
0.0
 11
36.27
 21
4.86
 31
0.0
  0
LINE
  5
43
330
1E
100
AcDbEntity
  8
0
100
AcDbLine
 10
36.27
 20
4.86
 30
0.0
 11
43.52399999999999
 21
2.286
 31
0.0
  0
LINE
  5
44
330
1E
100
AcDbEntity
  8
0
100
AcDbLine
 10
35.13599999999999
 20
35.413
 30
0.0
 11
42.13199999999999
 21
30.15699999999999
 31
0.0
  0
LINE
  5
45
330
1E
100
AcDbEntity
  8
0
100
AcDbLine
 10
26.688
 20
50.2629
 30
0.0
 11
29.85599999999999
 21
42.3781
 31
0.0
  0
LINE
  5
46
330
1E
100
AcDbEntity
  8
0
100
AcDbLine
 10
29.85599999999999
 20
42.3781
 30
0.0
 11
35.13599999999999
 21
35.413
 31
0.0
  0
LINE
  5
47
330
1E
100
AcDbEntity
  8
0
100
AcDbLine
 10
30.28999999999999
 20
42.625
 30
0.0
 11
35.49
 21
35.766
 31
0.0
  0
LINE
  5
48
330
1E
100
AcDbEntity
  8
0
100
AcDbLine
 10
27.17
 20
50.3903
 30
0.0
 11
30.28999999999999
 21
42.625
 31
0.0
  0
LINE
  5
49
330
1E
100
AcDbEntity
  8
0
100
AcDbLine
 10
35.49
 20
35.766
 30
0.0
 11
42.38
 21
30.589
 31
0.0
  0
LINE
  5
4A
330
1E
100
AcDbEntity
  8
0
100
AcDbLine
 10
26.0
 20
58.67329999999999
 30
0.0
 11
27.17
 21
66.9564
 31
0.0
  0
LINE
  5
4B
330
1E
100
AcDbEntity
  8
0
100
AcDbLine
 10
26.0
 20
58.67329999999999
 30
0.0
 11
27.17
 21
50.3903
 31
0.0
  0
LINE
  5
4C
330
1E
100
AcDbEntity
  8
0
100
AcDbLine
 10
6.24
 20
58.68
 30
0.0
 11
6.867119999999999
 21
51.7817
 31
0.0
  0
LINE
  5
4D
330
1E
100
AcDbEntity
  8
0
100
AcDbLine
 10
6.24
 20
58.68
 30
0.0
 11
6.867119999999999
 21
65.5783
 31
0.0
  0
LINE
  5
52
330
1E
100
AcDbEntity
  8
0
100
AcDbLine
 10
0.0
 20
58.68
 30
0.0
 11
0.7020000000000001
 21
50.958
 31
0.0
  0
LINE
  5
53
330
1E
100
AcDbEntity
  8
0
100
AcDbLine
 10
0.0
 20
58.68
 30
0.0
 11
0.7020000000000001
 21
66.402
 31
0.0
  0
LINE
  5
54
330
1E
100
AcDbEntity
  8
0
100
AcDbLine
 10
25.5
 20
58.67329999999999
 30
0.0
 11
26.688
 21
67.0838
 31
0.0
  0
LINE
  5
55
330
1E
100
AcDbEntity
  8
0
100
AcDbLine
 10
25.5
 20
58.67329999999999
 30
0.0
 11
26.688
 21
50.2629
 31
0.0
  0
LINE
  5
56
330
1E
100
AcDbEntity
  8
0
100
AcDbLine
 10
38.64119999999999
 20
10.60079999999999
 30
0.0
 11
45.1214
 21
8.30136
 31
0.0
  0
LINE
  5
5A
330
1E
100
AcDbEntity
  8
0
100
AcDbLine
 10
38.256
 20
53.32119999999999
 30
0.0
 11
40.27199999999999
 21
48.3036
 31
0.0
  0
LINE
  5
5B
330
1E
100
AcDbEntity
  8
0
100
AcDbLine
 10
40.18399999999999
 20
53.8309
 30
0.0
 11
42.008
 21
49.29120000000001
 31
0.0
  0
LINE
  5
5C
330
1E
100
AcDbEntity
  8
0
100
AcDbLine
 10
39.5
 20
58.67329999999999
 30
0.0
 11
40.18399999999999
 21
63.5157
 31
0.0
  0
LINE
  5
5D
330
1E
100
AcDbEntity
  8
0
100
AcDbLine
 10
39.5
 20
58.67329999999999
 30
0.0
 11
40.18399999999999
 21
53.8309
 31
0.0
  0
LINE
  5
60
330
1E
100
AcDbEntity
  8
0
100
AcDbLine
 10
40.27199999999999
 20
48.3036
 30
0.0
 11
43.63199999999999
 21
43.8714
 31
0.0
  0
LINE
  5
61
330
1E
100
AcDbEntity
  8
0
100
AcDbLine
 10
40.18399999999999
 20
63.5157
 30
0.0
 11
42.008
 21
68.0555
 31
0.0
  0
LINE
  5
63
330
1E
100
AcDbEntity
  8
0
100
AcDbLine
 10
37.5
 20
58.67329999999999
 30
0.0
 11
38.256
 21
64.02540000000001
 31
0.0
  0
LINE
  5
64
330
1E
100
AcDbEntity
  8
0
100
AcDbLine
 10
37.5
 20
58.67329999999999
 30
0.0
 11
38.256
 21
53.32119999999999
 31
0.0
  0
LINE
  5
66
330
1E
100
AcDbEntity
  8
0
100
AcDbLine
 10
6.867119999999999
 20
65.5783
 30
0.0
 11
8.121360000000001
 21
72.0586
 31
0.0
  0
LINE
  5
68
330
1E
100
AcDbEntity
  8
0
100
AcDbLine
 10
0.7020000000000001
 20
66.402
 30
0.0
 11
2.105999999999999
 21
73.656
 31
0.0
  0
LINE
  5
69
330
1E
100
AcDbEntity
  8
0
100
AcDbLine
 10
0.7020000000000001
 20
66.402
 30
0.0
 11
2.105999999999999
 21
73.656
 31
0.0
  0
LINE
  5
6C
330
1E
100
AcDbEntity
  8
0
100
AcDbLine
 10
8.121360000000001
 20
72.0586
 30
0.0
 11
10.4208
 21
78.5388
 31
0.0
  0
LINE
  5
6D
330
1E
100
AcDbEntity
  8
0
100
AcDbLine
 10
26.688
 20
67.0838
 30
0.0
 11
29.85599999999999
 21
74.96859999999999
 31
0.0
  0
LINE
  5
6E
330
1E
100
AcDbEntity
  8
0
100
AcDbLine
 10
27.17
 20
66.9564
 30
0.0
 11
30.28999999999999
 21
74.7217
 31
0.0
  0
LINE
  5
6F
330
1E
100
AcDbEntity
  8
0
100
AcDbLine
 10
38.256
 20
64.02540000000001
 30
0.0
 11
40.27199999999999
 21
69.043
 31
0.0
  0
LINE
  5
70
330
1E
100
AcDbEntity
  8
0
100
AcDbLine
 10
42.008
 20
49.29120000000001
 30
0.0
 11
45.048
 21
45.2811
 31
0.0
  0
LINE
  5
72
330
1E
100
AcDbEntity
  8
0
100
AcDbLine
 10
42.13199999999999
 20
30.15699999999999
 30
0.0
 11
50.052
 21
27.003
 31
0.0
  0
LINE
  5
73
330
1E
100
AcDbEntity
  8
0
100
AcDbLine
 10
43.52399999999999
 20
2.286
 30
0.0
 11
50.77799999999999
 21
0.8820000000000039
 31
0.0
  0
LINE
  5
74
330
1E
100
AcDbEntity
  8
0
100
AcDbLine
 10
43.52399999999999
 20
2.286
 30
0.0
 11
50.77799999999999
 21
0.8820000000000039
 31
0.0
  0
LINE
  5
75
330
1E
100
AcDbEntity
  8
0
100
AcDbLine
 10
43.52399999999999
 20
2.286
 30
0.0
 11
50.77799999999999
 21
0.8820000000000039
 31
0.0
  0
LINE
  5
76
330
1E
100
AcDbEntity
  8
0
100
AcDbLine
 10
42.38
 20
30.589
 30
0.0
 11
50.18
 21
27.483
 31
0.0
  0
LINE
  5
77
330
1E
100
AcDbEntity
  8
0
100
AcDbLine
 10
43.63199999999999
 20
43.8714
 30
0.0
 11
48.08399999999999
 21
40.52629999999999
 31
0.0
  0
LINE
  5
79
330
1E
100
AcDbEntity
  8
0
100
AcDbLine
 10
42.008
 20
68.0555
 30
0.0
 11
45.048
 21
72.0655
 31
0.0
  0
LINE
  5
7B
330
1E
100
AcDbEntity
  8
0
100
AcDbLine
 10
40.27199999999999
 20
69.043
 30
0.0
 11
43.63199999999999
 21
73.4753
 31
0.0
  0
LINE
  5
7C
330
1E
100
AcDbEntity
  8
0
100
AcDbLine
 10
2.105999999999999
 20
73.656
 30
0.0
 11
4.679999999999999
 21
80.90999999999999
 31
0.0
  0
LINE
  5
81
330
1E
100
AcDbEntity
  8
0
100
AcDbLine
 10
13.1383
 20
84.601
 30
0.0
 11
17.11009999999999
 21
90.4541
 31
0.0
  0
LINE
  5
82
330
1E
100
AcDbEntity
  8
0
100
AcDbLine
 10
10.4208
 20
78.5388
 30
0.0
 11
13.1383
 21
84.601
 31
0.0
  0
LINE
  5
83
330
1E
100
AcDbEntity
  8
0
100
AcDbLine
 10
4.679999999999999
 20
80.90999999999999
 30
0.0
 11
7.722
 21
87.696
 31
0.0
  0
LINE
  5
84
330
1E
100
AcDbEntity
  8
0
100
AcDbLine
 10
29.85599999999999
 20
74.96859999999999
 30
0.0
 11
35.13599999999999
 21
81.9335
 31
0.0
  0
LINE
  5
85
330
1E
100
AcDbEntity
  8
0
100
AcDbLine
 10
35.13599999999999
 20
81.9335
 30
0.0
 11
42.13199999999999
 21
87.18999999999999
 31
0.0
  0
LINE
  5
86
330
1E
100
AcDbEntity
  8
0
100
AcDbLine
 10
35.49
 20
81.5811
 30
0.0
 11
42.38
 21
86.758
 31
0.0
  0
LINE
  5
87
330
1E
100
AcDbEntity
  8
0
100
AcDbLine
 10
30.28999999999999
 20
74.7217
 30
0.0
 11
35.49
 21
81.5811
 31
0.0
  0
LINE
  5
8A
330
1E
100
AcDbEntity
  8
0
100
AcDbLine
 10
17.11009999999999
 20
90.4541
 30
0.0
 11
21.709
 21
95.471
 31
0.0
  0
LINE
  5
8D
330
1E
100
AcDbEntity
  8
0
100
AcDbLine
 10
21.709
 20
95.471
 30
0.0
 11
26.7259
 21
100.0699
 31
0.0
  0
LINE
  5
8E
330
1E
100
AcDbEntity
  8
0
100
AcDbLine
 10
17.316
 20
99.86399999999999
 30
0.0
 11
22.932
 21
105.0119999999999
 31
0.0
  0
LINE
  5
93
330
1E
100
AcDbEntity
  8
0
100
AcDbLine
 10
26.7259
 20
100.0699
 30
0.0
 11
32.579
 21
104.042
 31
0.0
  0
LINE
  5
96
330
1E
100
AcDbEntity
  8
0
100
AcDbLine
 10
38.64119999999999
 20
106.759
 30
0.0
 11
45.1214
 21
109.0589999999999
 31
0.0
  0
LINE
  5
97
330
1E
100
AcDbEntity
  8
0
100
AcDbLine
 10
32.579
 20
104.042
 30
0.0
 11
38.64119999999999
 21
106.759
 31
0.0
  0
LINE
  5
98
330
1E
100
AcDbEntity
  8
0
100
AcDbLine
 10
36.27
 20
112.5
 30
0.0
 11
43.52399999999999
 21
115.074
 31
0.0
  0
LINE
  5
99
330
1E
100
AcDbEntity
  8
0
100
AcDbLine
 10
29.484
 20
109.458
 30
0.0
 11
36.27
 21
112.5
 31
0.0
  0
LINE
  5
9A
330
1E
100
AcDbEntity
  8
0
100
AcDbLine
 10
22.932
 20
105.0119999999999
 30
0.0
 11
29.484
 21
109.458
 31
0.0
  0
LINE
  5
9B
330
1E
100
AcDbEntity
  8
0
100
AcDbLine
 10
12.168
 20
94.24799999999999
 30
0.0
 11
17.316
 21
99.86399999999999
 31
0.0
  0
LINE
  5
9C
330
1E
100
AcDbEntity
  8
0
100
AcDbLine
 10
7.722
 20
87.696
 30
0.0
 11
12.168
 21
94.24799999999999
 31
0.0
  0
LINE
  5
9D
330
1E
100
AcDbEntity
  8
0
100
AcDbLine
 10
42.13199999999999
 20
87.18999999999999
 30
0.0
 11
50.052
 21
90.3439
 31
0.0
  0
LINE
  5
9E
330
1E
100
AcDbEntity
  8
0
100
AcDbLine
 10
43.52399999999999
 20
115.074
 30
0.0
 11
50.77799999999999
 21
116.4779999999999
 31
0.0
  0
LINE
  5
9F
330
1E
100
AcDbEntity
  8
0
100
AcDbLine
 10
42.38
 20
86.758
 30
0.0
 11
50.18
 21
89.86409999999999
 31
0.0
  0
LINE
  5
A0
330
1E
100
AcDbEntity
  8
0
100
AcDbLine
 10
43.63199999999999
 20
73.4753
 30
0.0
 11
48.08399999999999
 21
76.82030000000001
 31
0.0
  0
LINE
  5
A1
330
1E
100
AcDbEntity
  8
0
100
AcDbLine
 10
45.1214
 20
8.30136
 30
0.0
 11
51.6017
 21
7.047119999999999
 31
0.0
  0
LINE
  5
A4
330
1E
100
AcDbEntity
  8
0
100
AcDbLine
 10
50.77799999999999
 20
0.8820000000000039
 30
0.0
 11
58.5
 21
0.180000000000004
 31
0.0
  0
LINE
  5
A5
330
1E
100
AcDbEntity
  8
0
100
AcDbLine
 10
50.77799999999999
 20
0.8820000000000039
 30
0.0
 11
58.5
 21
0.180000000000004
 31
0.0
  0
LINE
  5
AB
330
1E
100
AcDbEntity
  8
0
100
AcDbLine
 10
51.6017
 20
7.047119999999999
 30
0.0
 11
58.5
 21
6.420000000000009
 31
0.0
  0
LINE
  5
AE
330
1E
100
AcDbEntity
  8
0
100
AcDbLine
 10
50.77799999999999
 20
0.8820000000000039
 30
0.0
 11
58.5
 21
0.180000000000004
 31
0.0
  0
LINE
  5
AF
330
1E
100
AcDbEntity
  8
0
100
AcDbLine
 10
50.77799999999999
 20
0.8820000000000039
 30
0.0
 11
58.5
 21
0.180000000000004
 31
0.0
  0
LINE
  5
B0
330
1E
100
AcDbEntity
  8
0
100
AcDbLine
 10
50.18
 20
27.483
 30
0.0
 11
58.5
 21
26.318
 31
0.0
  0
LINE
  5
B1
330
1E
100
AcDbEntity
  8
0
100
AcDbLine
 10
50.052
 20
27.003
 30
0.0
 11
58.5
 21
25.82
 31
0.0
  0
LINE
  5
B3
330
1E
100
AcDbEntity
  8
0
100
AcDbLine
 10
45.048
 20
45.2811
 30
0.0
 11
49.076
 21
42.2546
 31
0.0
  0
LINE
  5
B4
330
1E
100
AcDbEntity
  8
0
100
AcDbLine
 10
53.636
 20
40.4387
 30
0.0
 11
58.5
 21
39.7578
 31
0.0
  0
LINE
  5
B6
330
1E
100
AcDbEntity
  8
0
100
AcDbLine
 10
53.124
 20
38.5193
 30
0.0
 11
58.5
 21
37.76699999999999
 31
0.0
  0
LINE
  5
B7
330
1E
100
AcDbEntity
  8
0
100
AcDbLine
 10
49.076
 20
42.2546
 30
0.0
 11
53.636
 21
40.4387
 31
0.0
  0
LINE
  5
B9
330
1E
100
AcDbEntity
  8
0
100
AcDbLine
 10
48.08399999999999
 20
40.52629999999999
 30
0.0
 11
53.124
 21
38.5193
 31
0.0
  0
LINE
  5
116
330
1E
100
AcDbEntity
  8
0
100
AcDbLine
 10
45.1214
 20
109.0589999999999
 30
0.0
 11
51.6017
 21
110.3129999999999
 31
0.0
  0
LINE
  5
122
330
1E
100
AcDbEntity
  8
0
100
AcDbLine
 10
49.076
 20
75.09199999999999
 30
0.0
 11
53.636
 21
76.90789999999999
 31
0.0
  0
LINE
  5
127
330
1E
100
AcDbEntity
  8
0
100
AcDbLine
 10
53.636
 20
76.90789999999999
 30
0.0
 11
58.5
 21
77.5889
 31
0.0
  0
LINE
  5
129
330
1E
100
AcDbEntity
  8
0
100
AcDbLine
 10
50.052
 20
90.3439
 30
0.0
 11
54.0
 21
90.89665738636361
 31
0.0
  0
LINE
  5
12A
330
1E
100
AcDbEntity
  8
0
100
AcDbLine
 10
53.09499999999999
 20
79.1337
 30
0.0
 11
53.6305
 21
79.9305
 31
0.0
  0
LINE
  5
12C
330
1E
100
AcDbEntity
  8
0
100
AcDbLine
 10
53.6305
 20
79.9305
 30
0.0
 11
53.89289999999999
 21
81.1406
 31
0.0
  0
LINE
  5
12D
330
1E
100
AcDbEntity
  8
0
100
AcDbLine
 10
54.0
 20
83.91799999999999
 30
0.0
 11
54.0
 21
85.67950000000001
 31
0.0
  0
LINE
  5
12F
330
1E
100
AcDbEntity
  8
0
100
AcDbLine
 10
53.89289999999999
 20
81.1406
 30
0.0
 11
54.0
 21
82.7658
 31
0.0
  0
LINE
  5
130
330
1E
100
AcDbEntity
  8
0
100
AcDbLine
 10
54.0
 20
82.7658
 30
0.0
 11
54.0
 21
85.62299999999998
 31
0.0
  0
LINE
  5
131
330
1E
100
AcDbEntity
  8
0
100
AcDbLine
 10
54.0
 20
85.67950000000001
 30
0.0
 11
54.0
 21
83.91799999999999
 31
0.0
  0
LINE
  5
132
330
1E
100
AcDbEntity
  8
0
100
AcDbLine
 10
54.0
 20
85.67950000000001
 30
0.0
 11
54.0
 21
87.6482
 31
0.0
  0
LINE
  5
133
330
1E
100
AcDbEntity
  8
0
100
AcDbLine
 10
54.0
 20
87.6482
 30
0.0
 11
54.0
 21
85.67950000000001
 31
0.0
  0
LINE
  5
134
330
1E
100
AcDbEntity
  8
0
100
AcDbLine
 10
54.0
 20
87.6482
 30
0.0
 11
54.0
 21
91.72369999999999
 31
0.0
  0
LINE
  5
135
330
1E
100
AcDbEntity
  8
0
100
AcDbLine
 10
54.0
 20
85.62299999999998
 30
0.0
 11
54.0
 21
87.7137
 31
0.0
  0
LINE
  5
136
330
1E
100
AcDbEntity
  8
0
100
AcDbLine
 10
54.0
 20
85.62299999999998
 30
0.0
 11
54.0
 21
82.7658
 31
0.0
  0
LINE
  5
137
330
1E
100
AcDbEntity
  8
0
100
AcDbLine
 10
54.0
 20
87.7137
 30
0.0
 11
54.0
 21
91.7059
 31
0.0
  0
LINE
  5
138
330
1E
100
AcDbEntity
  8
0
100
AcDbLine
 10
54.0
 20
87.7137
 30
0.0
 11
54.0
 21
85.62299999999998
 31
0.0
  0
LINE
  5
139
330
1E
100
AcDbEntity
  8
0
100
AcDbLine
 10
54.0
 20
98.06910000000002
 30
0.0
 11
54.0
 21
94.53990000000001
 31
0.0
  0
LINE
  5
13A
330
1E
100
AcDbEntity
  8
0
100
AcDbLine
 10
54.0
 20
98.06910000000002
 30
0.0
 11
54.0
 21
103.4689999999999
 31
0.0
  0
LINE
  5
13B
330
1E
100
AcDbEntity
  8
0
100
AcDbLine
 10
54.0
 20
91.72369999999999
 30
0.0
 11
54.0
 21
87.6482
 31
0.0
  0
LINE
  5
13C
330
1E
100
AcDbEntity
  8
0
100
AcDbLine
 10
54.0
 20
91.72369999999999
 30
0.0
 11
54.0
 21
94.53990000000001
 31
0.0
  0
LINE
  5
13D
330
1E
100
AcDbEntity
  8
0
100
AcDbLine
 10
54.0
 20
94.53990000000001
 30
0.0
 11
54.0
 21
91.72369999999999
 31
0.0
  0
LINE
  5
13E
330
1E
100
AcDbEntity
  8
0
100
AcDbLine
 10
54.0
 20
94.53990000000001
 30
0.0
 11
54.0
 21
98.06910000000002
 31
0.0
  0
LINE
  5
13F
330
1E
100
AcDbEntity
  8
0
100
AcDbLine
 10
54.0
 20
91.7059
 30
0.0
 11
54.0
 21
94.61289999999999
 31
0.0
  0
LINE
  5
140
330
1E
100
AcDbEntity
  8
0
100
AcDbLine
 10
54.0
 20
91.7059
 30
0.0
 11
54.0
 21
87.7137
 31
0.0
  0
LINE
  5
141
330
1E
100
AcDbEntity
  8
0
100
AcDbLine
 10
54.0
 20
94.61289999999999
 30
0.0
 11
54.0
 21
98.09730000000001
 31
0.0
  0
LINE
  5
142
330
1E
100
AcDbEntity
  8
0
100
AcDbLine
 10
54.0
 20
94.61289999999999
 30
0.0
 11
54.0
 21
91.7059
 31
0.0
  0
LINE
  5
143
330
1E
100
AcDbEntity
  8
0
100
AcDbLine
 10
54.0
 20
103.4689999999999
 30
0.0
 11
54.0
 21
98.06910000000002
 31
0.0
  0
LINE
  5
144
330
1E
100
AcDbEntity
  8
0
100
AcDbLine
 10
54.0
 20
103.4689999999999
 30
0.0
 11
54.0
 21
108.426
 31
0.0
  0
LINE
  5
145
330
1E
100
AcDbEntity
  8
0
100
AcDbLine
 10
54.0
 20
98.09730000000001
 30
0.0
 11
54.0
 21
103.414
 31
0.0
  0
LINE
  5
146
330
1E
100
AcDbEntity
  8
0
100
AcDbLine
 10
54.0
 20
98.09730000000001
 30
0.0
 11
54.0
 21
94.61289999999999
 31
0.0
  0
LINE
  5
147
330
1E
100
AcDbEntity
  8
0
100
AcDbLine
 10
54.0
 20
103.414
 30
0.0
 11
54.0
 21
108.292
 31
0.0
  0
LINE
  5
148
330
1E
100
AcDbEntity
  8
0
100
AcDbLine
 10
54.0
 20
103.414
 30
0.0
 11
54.0
 21
98.09730000000001
 31
0.0
  0
LINE
  5
14B
330
1E
100
AcDbEntity
  8
0
100
AcDbLine
 10
51.6017
 20
110.3129999999999
 30
0.0
 11
54.0
 21
110.530986185002
 31
0.0
  0
LINE
  5
14C
330
1E
100
AcDbEntity
  8
0
100
AcDbLine
 10
54.0
 20
108.426
 30
0.0
 11
54.0
 21
103.4689999999999
 31
0.0
  0
LINE
  5
14D
330
1E
100
AcDbEntity
  8
0
100
AcDbLine
 10
54.0
 20
108.426
 30
0.0
 11
54.0
 21
113.4859999999999
 31
0.0
  0
LINE
  5
14E
330
1E
100
AcDbEntity
  8
0
100
AcDbLine
 10
50.77799999999999
 20
116.4779999999999
 30
0.0
 11
54.0
 21
116.770909090909
 31
0.0
  0
LINE
  5
14F
330
1E
100
AcDbEntity
  8
0
100
AcDbLine
 10
54.0
 20
113.4859999999999
 30
0.0
 11
54.0
 21
108.426
 31
0.0
  0
LINE
  5
150
330
1E
100
AcDbEntity
  8
0
100
AcDbLine
 10
54.0
 20
113.4859999999999
 30
0.0
 11
54.0
 21
118.4609999999999
 31
0.0
  0
LINE
  5
151
330
1E
100
AcDbEntity
  8
0
100
AcDbLine
 10
54.0
 20
118.4609999999999
 30
0.0
 11
54.0
 21
113.4859999999999
 31
0.0
  0
LINE
  5
152
330
1E
100
AcDbEntity
  8
0
100
AcDbLine
 10
54.0
 20
118.4609999999999
 30
0.0
 11
54.0
 21
124.882
 31
0.0
  0
LINE
  5
153
330
1E
100
AcDbEntity
  8
0
100
AcDbLine
 10
54.0
 20
108.292
 30
0.0
 11
54.0
 21
113.5279999999999
 31
0.0
  0
LINE
  5
154
330
1E
100
AcDbEntity
  8
0
100
AcDbLine
 10
54.0
 20
108.292
 30
0.0
 11
54.0
 21
103.414
 31
0.0
  0
LINE
  5
155
330
1E
100
AcDbEntity
  8
0
100
AcDbLine
 10
54.0
 20
113.5279999999999
 30
0.0
 11
54.0
 21
118.476
 31
0.0
  0
LINE
  5
156
330
1E
100
AcDbEntity
  8
0
100
AcDbLine
 10
54.0
 20
113.5279999999999
 30
0.0
 11
54.0
 21
108.292
 31
0.0
  0
LINE
  5
157
330
1E
100
AcDbEntity
  8
0
100
AcDbLine
 10
54.0
 20
124.882
 30
0.0
 11
54.0
 21
118.4609999999999
 31
0.0
  0
LINE
  5
158
330
1E
100
AcDbEntity
  8
0
100
AcDbLine
 10
54.0
 20
124.882
 30
0.0
 11
54.0
 21
130.6649999999999
 31
0.0
  0
LINE
  5
159
330
1E
100
AcDbEntity
  8
0
100
AcDbLine
 10
54.0
 20
118.476
 30
0.0
 11
54.0
 21
124.9179999999999
 31
0.0
  0
LINE
  5
15A
330
1E
100
AcDbEntity
  8
0
100
AcDbLine
 10
54.0
 20
118.476
 30
0.0
 11
54.0
 21
113.5279999999999
 31
0.0
  0
LINE
  5
15B
330
1E
100
AcDbEntity
  8
0
100
AcDbLine
 10
54.0
 20
124.9179999999999
 30
0.0
 11
54.0
 21
130.632
 31
0.0
  0
LINE
  5
15C
330
1E
100
AcDbEntity
  8
0
100
AcDbLine
 10
54.0
 20
124.9179999999999
 30
0.0
 11
54.0
 21
118.476
 31
0.0
  0
LINE
  5
15D
330
1E
100
AcDbEntity
  8
0
100
AcDbLine
 10
54.0
 20
130.6649999999999
 30
0.0
 11
54.0
 21
124.882
 31
0.0
  0
LINE
  5
15E
330
1E
100
AcDbEntity
  8
0
100
AcDbLine
 10
54.0
 20
130.6649999999999
 30
0.0
 11
54.0
 21
134.792
 31
0.0
  0
LINE
  5
15F
330
1E
100
AcDbEntity
  8
0
100
AcDbLine
 10
54.0
 20
134.792
 30
0.0
 11
54.0
 21
130.6649999999999
 31
0.0
  0
LINE
  5
160
330
1E
100
AcDbEntity
  8
0
100
AcDbLine
 10
54.0
 20
134.792
 30
0.0
 11
54.0
 21
136.2779999999999
 31
0.0
  0
LINE
  5
161
330
1E
100
AcDbEntity
  8
0
100
AcDbLine
 10
54.0
 20
130.632
 30
0.0
 11
54.0
 21
134.833
 31
0.0
  0
LINE
  5
162
330
1E
100
AcDbEntity
  8
0
100
AcDbLine
 10
54.0
 20
130.632
 30
0.0
 11
54.0
 21
124.9179999999999
 31
0.0
  0
LINE
  5
163
330
1E
100
AcDbEntity
  8
0
100
AcDbLine
 10
54.0
 20
134.833
 30
0.0
 11
54.0
 21
136.2779999999999
 31
0.0
  0
LINE
  5
164
330
1E
100
AcDbEntity
  8
0
100
AcDbLine
 10
54.0
 20
134.833
 30
0.0
 11
54.0
 21
130.632
 31
0.0
  0
LINE
  5
165
330
1E
100
AcDbEntity
  8
0
100
AcDbLine
 10
54.0
 20
136.2779999999999
 30
0.0
 11
54.0
 21
136.6949999999999
 31
0.0
  0
LINE
  5
166
330
1E
100
AcDbEntity
  8
0
100
AcDbLine
 10
54.0
 20
136.2779999999999
 30
0.0
 11
54.0
 21
134.792
 31
0.0
  0
LINE
  5
167
330
1E
100
AcDbEntity
  8
0
100
AcDbLine
 10
54.0
 20
136.2779999999999
 30
0.0
 11
54.0
 21
134.833
 31
0.0
  0
LINE
  5
168
330
1E
100
AcDbEntity
  8
0
100
AcDbLine
 10
54.0
 20
136.6949999999999
 30
0.0
 11
54.0
 21
137.0079999999999
 31
0.0
  0
LINE
  5
169
330
1E
100
AcDbEntity
  8
0
100
AcDbLine
 10
54.0
 20
136.6949999999999
 30
0.0
 11
54.0
 21
136.2779999999999
 31
0.0
  0
LINE
  5
16A
330
1E
100
AcDbEntity
  8
0
100
AcDbLine
 10
54.0
 20
137.0079999999999
 30
0.0
 11
54.0
 21
137.322
 31
0.0
  0
LINE
  5
16B
330
1E
100
AcDbEntity
  8
0
100
AcDbLine
 10
54.0
 20
137.0079999999999
 30
0.0
 11
54.0
 21
136.6949999999999
 31
0.0
  0
LINE
  5
20B
330
1E
100
AcDbEntity
  8
0
100
AcDbLine
 10
54.0
 20
137.322
 30
0.0
 11
54.5
 21
137.8199999999999
 31
0.0
  0
LINE
  5
20C
330
1E
100
AcDbEntity
  8
0
100
AcDbLine
 10
54.0
 20
137.322
 30
0.0
 11
54.0
 21
137.0079999999999
 31
0.0
  0
LINE
  5
20F
330
1E
100
AcDbEntity
  8
0
100
AcDbLine
 10
50.18
 20
89.86409999999999
 30
0.0
 11
54.0
 21
90.39889999999999
 31
0.0
  0
LINE
  5
211
330
1E
100
AcDbEntity
  8
0
100
AcDbLine
 10
48.08399999999999
 20
76.82030000000001
 30
0.0
 11
53.09499999999999
 21
79.1337
 31
0.0
  0
LINE
  5
212
330
1E
100
AcDbEntity
  8
0
100
AcDbLine
 10
45.048
 20
72.0655
 30
0.0
 11
49.076
 21
75.09199999999999
 31
0.0
  0
LINE
  5
218
330
1E
100
AcDbEntity
  8
0
100
AcDbLine
 10
74.99199999999999
 20
68.0555
 30
0.0
 11
71.95199999999999
 21
72.0655
 31
0.0
  0
LINE
  5
219
330
1E
100
AcDbEntity
  8
0
100
AcDbLine
 10
78.744
 20
64.02540000000001
 30
0.0
 11
76.72800000000001
 21
69.043
 31
0.0
  0
LINE
  5
21A
330
1E
100
AcDbEntity
  8
0
100
AcDbLine
 10
89.83
 20
66.9564
 30
0.0
 11
86.71000000000001
 21
74.7217
 31
0.0
  0
LINE
  5
21B
330
1E
100
AcDbEntity
  8
0
100
AcDbLine
 10
90.312
 20
67.0838
 30
0.0
 11
87.14400000000001
 21
74.96859999999999
 31
0.0
  0
LINE
  5
21C
330
1E
100
AcDbEntity
  8
0
100
AcDbLine
 10
116.298
 20
66.402
 30
0.0
 11
114.894
 21
73.656
 31
0.0
  0
LINE
  5
21D
330
1E
100
AcDbEntity
  8
0
100
AcDbLine
 10
116.298
 20
66.402
 30
0.0
 11
114.894
 21
73.656
 31
0.0
  0
LINE
  5
21E
330
1E
100
AcDbEntity
  8
0
100
AcDbLine
 10
110.13288
 20
65.5783
 30
0.0
 11
108.87864
 21
72.0586
 31
0.0
  0
LINE
  5
21F
330
1E
100
AcDbEntity
  8
0
100
AcDbLine
 10
95.29099999999999
 20
21.88899999999999
 30
0.0
 11
90.27410000000001
 21
17.29009999999999
 31
0.0
  0
LINE
  5
220
330
1E
100
AcDbEntity
  8
0
100
AcDbLine
 10
99.684
 20
17.496
 30
0.0
 11
94.068
 21
12.34799999999999
 31
0.0
  0
LINE
  5
221
330
1E
100
AcDbEntity
  8
0
100
AcDbLine
 10
99.88990000000001
 20
26.9059
 30
0.0
 11
95.29099999999999
 21
21.88899999999999
 31
0.0
  0
LINE
  5
222
330
1E
100
AcDbEntity
  8
0
100
AcDbLine
 10
109.278
 20
29.664
 30
0.0
 11
104.8319999999999
 21
23.11199999999999
 31
0.0
  0
LINE
  5
223
330
1E
100
AcDbEntity
  8
0
100
AcDbLine
 10
104.8319999999999
 20
23.11199999999999
 30
0.0
 11
99.684
 21
17.496
 31
0.0
  0
LINE
  5
224
330
1E
100
AcDbEntity
  8
0
100
AcDbLine
 10
114.894
 20
43.70399999999999
 30
0.0
 11
112.3199999999999
 21
36.45
 31
0.0
  0
LINE
  5
225
330
1E
100
AcDbEntity
  8
0
100
AcDbLine
 10
116.298
 20
50.958
 30
0.0
 11
114.894
 21
43.70399999999999
 31
0.0
  0
LINE
  5
226
330
1E
100
AcDbEntity
  8
0
100
AcDbLine
 10
116.298
 20
50.958
 30
0.0
 11
114.894
 21
43.70399999999999
 31
0.0
  0
LINE
  5
227
330
1E
100
AcDbEntity
  8
0
100
AcDbLine
 10
117.0
 20
58.68
 30
0.0
 11
116.298
 21
50.958
 31
0.0
  0
LINE
  5
228
330
1E
100
AcDbEntity
  8
0
100
AcDbLine
 10
117.0
 20
58.68
 30
0.0
 11
116.298
 21
66.402
 31
0.0
  0
LINE
  5
229
330
1E
100
AcDbEntity
  8
0
100
AcDbLine
 10
110.13288
 20
51.7817
 30
0.0
 11
108.87864
 21
45.3014
 31
0.0
  0
LINE
  5
22A
330
1E
100
AcDbEntity
  8
0
100
AcDbLine
 10
106.5792
 20
38.8212
 30
0.0
 11
103.8616999999999
 21
32.759
 31
0.0
  0
LINE
  5
22B
330
1E
100
AcDbEntity
  8
0
100
AcDbLine
 10
112.3199999999999
 20
36.45
 30
0.0
 11
109.278
 21
29.664
 31
0.0
  0
LINE
  5
22C
330
1E
100
AcDbEntity
  8
0
100
AcDbLine
 10
108.87864
 20
45.3014
 30
0.0
 11
106.5792
 21
38.8212
 31
0.0
  0
LINE
  5
22D
330
1E
100
AcDbEntity
  8
0
100
AcDbLine
 10
103.8616999999999
 20
32.759
 30
0.0
 11
99.88990000000001
 21
26.9059
 31
0.0
  0
LINE
  5
22E
330
1E
100
AcDbEntity
  8
0
100
AcDbLine
 10
110.76
 20
58.68
 30
0.0
 11
110.13288
 21
51.7817
 31
0.0
  0
LINE
  5
22F
330
1E
100
AcDbEntity
  8
0
100
AcDbLine
 10
110.76
 20
58.68
 30
0.0
 11
110.13288
 21
65.5783
 31
0.0
  0
LINE
  5
230
330
1E
100
AcDbEntity
  8
0
100
AcDbLine
 10
66.948
 20
27.003
 30
0.0
 11
58.5
 21
25.82
 31
0.0
  0
LINE
  5
231
330
1E
100
AcDbEntity
  8
0
100
AcDbLine
 10
78.3588
 20
10.60079999999999
 30
0.0
 11
71.8786
 21
8.30136
 31
0.0
  0
LINE
  5
232
330
1E
100
AcDbEntity
  8
0
100
AcDbLine
 10
80.72999999999998
 20
4.86
 30
0.0
 11
73.47599999999999
 21
2.286
 31
0.0
  0
LINE
  5
233
330
1E
100
AcDbEntity
  8
0
100
AcDbLine
 10
90.27410000000001
 20
17.29009999999999
 30
0.0
 11
84.42099999999999
 21
13.3183
 31
0.0
  0
LINE
  5
234
330
1E
100
AcDbEntity
  8
0
100
AcDbLine
 10
87.51599999999999
 20
7.902
 30
0.0
 11
80.72999999999998
 21
4.86
 31
0.0
  0
LINE
  5
235
330
1E
100
AcDbEntity
  8
0
100
AcDbLine
 10
94.068
 20
12.34799999999999
 30
0.0
 11
87.51599999999999
 21
7.902
 31
0.0
  0
LINE
  5
236
330
1E
100
AcDbEntity
  8
0
100
AcDbLine
 10
84.42099999999999
 20
13.3183
 30
0.0
 11
78.3588
 21
10.60079999999999
 31
0.0
  0
LINE
  5
237
330
1E
100
AcDbEntity
  8
0
100
AcDbLine
 10
73.47599999999999
 20
2.286
 30
0.0
 11
66.22200000000001
 21
0.8820000000000039
 31
0.0
  0
LINE
  5
238
330
1E
100
AcDbEntity
  8
0
100
AcDbLine
 10
73.47599999999999
 20
2.286
 30
0.0
 11
66.22200000000001
 21
0.8820000000000039
 31
0.0
  0
LINE
  5
239
330
1E
100
AcDbEntity
  8
0
100
AcDbLine
 10
73.47599999999999
 20
2.286
 30
0.0
 11
66.22200000000001
 21
0.8820000000000039
 31
0.0
  0
LINE
  5
23A
330
1E
100
AcDbEntity
  8
0
100
AcDbLine
 10
66.22200000000001
 20
0.8820000000000039
 30
0.0
 11
58.5
 21
0.180000000000004
 31
0.0
  0
LINE
  5
23B
330
1E
100
AcDbEntity
  8
0
100
AcDbLine
 10
66.22200000000001
 20
0.8820000000000039
 30
0.0
 11
58.5
 21
0.180000000000004
 31
0.0
  0
LINE
  5
23C
330
1E
100
AcDbEntity
  8
0
100
AcDbLine
 10
66.22200000000001
 20
0.8820000000000039
 30
0.0
 11
58.5
 21
0.180000000000004
 31
0.0
  0
LINE
  5
23D
330
1E
100
AcDbEntity
  8
0
100
AcDbLine
 10
66.22200000000001
 20
0.8820000000000039
 30
0.0
 11
58.5
 21
0.180000000000004
 31
0.0
  0
LINE
  5
23E
330
1E
100
AcDbEntity
  8
0
100
AcDbLine
 10
71.8786
 20
8.30136
 30
0.0
 11
65.39830000000001
 21
7.047119999999999
 31
0.0
  0
LINE
  5
23F
330
1E
100
AcDbEntity
  8
0
100
AcDbLine
 10
65.39830000000001
 20
7.047119999999999
 30
0.0
 11
58.5
 21
6.420000000000009
 31
0.0
  0
LINE
  5
240
330
1E
100
AcDbEntity
  8
0
100
AcDbLine
 10
76.816
 20
63.5157
 30
0.0
 11
74.99199999999999
 21
68.0555
 31
0.0
  0
LINE
  5
241
330
1E
100
AcDbEntity
  8
0
100
AcDbLine
 10
76.816
 20
53.8309
 30
0.0
 11
74.99199999999999
 21
49.29120000000001
 31
0.0
  0
LINE
  5
242
330
1E
100
AcDbEntity
  8
0
100
AcDbLine
 10
78.744
 20
53.32119999999999
 30
0.0
 11
76.72800000000001
 21
48.3036
 31
0.0
  0
LINE
  5
243
330
1E
100
AcDbEntity
  8
0
100
AcDbLine
 10
81.50999999999999
 20
35.766
 30
0.0
 11
74.62
 21
30.589
 31
0.0
  0
LINE
  5
244
330
1E
100
AcDbEntity
  8
0
100
AcDbLine
 10
81.864
 20
35.413
 30
0.0
 11
74.86799999999999
 21
30.15699999999999
 31
0.0
  0
LINE
  5
245
330
1E
100
AcDbEntity
  8
0
100
AcDbLine
 10
89.83
 20
50.3903
 30
0.0
 11
86.71000000000001
 21
42.625
 31
0.0
  0
LINE
  5
246
330
1E
100
AcDbEntity
  8
0
100
AcDbLine
 10
90.312
 20
50.2629
 30
0.0
 11
87.14400000000001
 21
42.3781
 31
0.0
  0
LINE
  5
247
330
1E
100
AcDbEntity
  8
0
100
AcDbLine
 10
86.71000000000001
 20
42.625
 30
0.0
 11
81.50999999999999
 21
35.766
 31
0.0
  0
LINE
  5
248
330
1E
100
AcDbEntity
  8
0
100
AcDbLine
 10
87.14400000000001
 20
42.3781
 30
0.0
 11
81.864
 21
35.413
 31
0.0
  0
LINE
  5
249
330
1E
100
AcDbEntity
  8
0
100
AcDbLine
 10
91.5
 20
58.67329999999999
 30
0.0
 11
90.312
 21
50.2629
 31
0.0
  0
LINE
  5
24A
330
1E
100
AcDbEntity
  8
0
100
AcDbLine
 10
91.0
 20
58.67329999999999
 30
0.0
 11
89.83
 21
50.3903
 31
0.0
  0
LINE
  5
24B
330
1E
100
AcDbEntity
  8
0
100
AcDbLine
 10
91.5
 20
58.67329999999999
 30
0.0
 11
90.312
 21
67.0838
 31
0.0
  0
LINE
  5
24C
330
1E
100
AcDbEntity
  8
0
100
AcDbLine
 10
91.0
 20
58.67329999999999
 30
0.0
 11
89.83
 21
66.9564
 31
0.0
  0
LINE
  5
24D
330
1E
100
AcDbEntity
  8
0
100
AcDbLine
 10
79.5
 20
58.67329999999999
 30
0.0
 11
78.744
 21
53.32119999999999
 31
0.0
  0
LINE
  5
24E
330
1E
100
AcDbEntity
  8
0
100
AcDbLine
 10
77.5
 20
58.67329999999999
 30
0.0
 11
76.816
 21
53.8309
 31
0.0
  0
LINE
  5
24F
330
1E
100
AcDbEntity
  8
0
100
AcDbLine
 10
79.5
 20
58.67329999999999
 30
0.0
 11
78.744
 21
64.02540000000001
 31
0.0
  0
LINE
  5
250
330
1E
100
AcDbEntity
  8
0
100
AcDbLine
 10
77.5
 20
58.67329999999999
 30
0.0
 11
76.816
 21
63.5157
 31
0.0
  0
LINE
  5
251
330
1E
100
AcDbEntity
  8
0
100
AcDbLine
 10
74.99199999999999
 20
49.29120000000001
 30
0.0
 11
71.95199999999999
 21
45.2811
 31
0.0
  0
LINE
  5
252
330
1E
100
AcDbEntity
  8
0
100
AcDbLine
 10
76.72800000000001
 20
48.3036
 30
0.0
 11
73.368
 21
43.8714
 31
0.0
  0
LINE
  5
253
330
1E
100
AcDbEntity
  8
0
100
AcDbLine
 10
68.916
 20
40.52629999999999
 30
0.0
 11
63.876
 21
38.5193
 31
0.0
  0
LINE
  5
254
330
1E
100
AcDbEntity
  8
0
100
AcDbLine
 10
67.924
 20
42.2546
 30
0.0
 11
63.364
 21
40.4387
 31
0.0
  0
LINE
  5
255
330
1E
100
AcDbEntity
  8
0
100
AcDbLine
 10
74.62
 20
30.589
 30
0.0
 11
66.81999999999999
 21
27.483
 31
0.0
  0
LINE
  5
256
330
1E
100
AcDbEntity
  8
0
100
AcDbLine
 10
74.86799999999999
 20
30.15699999999999
 30
0.0
 11
66.948
 21
27.003
 31
0.0
  0
LINE
  5
257
330
1E
100
AcDbEntity
  8
0
100
AcDbLine
 10
73.368
 20
43.8714
 30
0.0
 11
68.916
 21
40.52629999999999
 31
0.0
  0
LINE
  5
258
330
1E
100
AcDbEntity
  8
0
100
AcDbLine
 10
71.95199999999999
 20
45.2811
 30
0.0
 11
67.924
 21
42.2546
 31
0.0
  0
LINE
  5
259
330
1E
100
AcDbEntity
  8
0
100
AcDbLine
 10
66.81999999999999
 20
27.483
 30
0.0
 11
58.5
 21
26.318
 31
0.0
  0
LINE
  5
25A
330
1E
100
AcDbEntity
  8
0
100
AcDbLine
 10
63.876
 20
38.5193
 30
0.0
 11
58.5
 21
37.76699999999999
 31
0.0
  0
LINE
  5
25B
330
1E
100
AcDbEntity
  8
0
100
AcDbLine
 10
63.364
 20
40.4387
 30
0.0
 11
58.5
 21
39.7578
 31
0.0
  0
LINE
  5
25C
330
1E
100
AcDbEntity
  8
0
100
AcDbLine
 10
99.684
 20
99.86399999999999
 30
0.0
 11
94.068
 21
105.0119999999999
 31
0.0
  0
LINE
  5
25D
330
1E
100
AcDbEntity
  8
0
100
AcDbLine
 10
95.29099999999999
 20
95.471
 30
0.0
 11
90.27410000000001
 21
100.0699
 31
0.0
  0
LINE
  5
25E
330
1E
100
AcDbEntity
  8
0
100
AcDbLine
 10
114.894
 20
73.656
 30
0.0
 11
112.3199999999999
 21
80.90999999999999
 31
0.0
  0
LINE
  5
25F
330
1E
100
AcDbEntity
  8
0
100
AcDbLine
 10
109.278
 20
87.696
 30
0.0
 11
104.8319999999999
 21
94.24799999999999
 31
0.0
  0
LINE
  5
260
330
1E
100
AcDbEntity
  8
0
100
AcDbLine
 10
103.8616999999999
 20
84.601
 30
0.0
 11
99.88990000000001
 21
90.4541
 31
0.0
  0
LINE
  5
261
330
1E
100
AcDbEntity
  8
0
100
AcDbLine
 10
106.5792
 20
78.5388
 30
0.0
 11
103.8616999999999
 21
84.601
 31
0.0
  0
LINE
  5
262
330
1E
100
AcDbEntity
  8
0
100
AcDbLine
 10
108.87864
 20
72.0586
 30
0.0
 11
106.5792
 21
78.5388
 31
0.0
  0
LINE
  5
263
330
1E
100
AcDbEntity
  8
0
100
AcDbLine
 10
112.3199999999999
 20
80.90999999999999
 30
0.0
 11
109.278
 21
87.696
 31
0.0
  0
LINE
  5
264
330
1E
100
AcDbEntity
  8
0
100
AcDbLine
 10
104.8319999999999
 20
94.24799999999999
 30
0.0
 11
99.684
 21
99.86399999999999
 31
0.0
  0
LINE
  5
265
330
1E
100
AcDbEntity
  8
0
100
AcDbLine
 10
99.88990000000001
 20
90.4541
 30
0.0
 11
95.29099999999999
 21
95.471
 31
0.0
  0
LINE
  5
266
330
1E
100
AcDbEntity
  8
0
100
AcDbLine
 10
63.0
 20
113.5279999999999
 30
0.0
 11
63.0
 21
108.292
 31
0.0
  0
LINE
  5
267
330
1E
100
AcDbEntity
  8
0
100
AcDbLine
 10
63.0
 20
108.292
 30
0.0
 11
63.0
 21
113.5279999999999
 31
0.0
  0
LINE
  5
268
330
1E
100
AcDbEntity
  8
0
100
AcDbLine
 10
63.0
 20
113.4859999999999
 30
0.0
 11
63.0
 21
108.426
 31
0.0
  0
LINE
  5
269
330
1E
100
AcDbEntity
  8
0
100
AcDbLine
 10
63.0
 20
108.426
 30
0.0
 11
63.0
 21
113.4859999999999
 31
0.0
  0
LINE
  5
26A
330
1E
100
AcDbEntity
  8
0
100
AcDbLine
 10
87.51599999999999
 20
109.458
 30
0.0
 11
80.72999999999998
 21
112.5
 31
0.0
  0
LINE
  5
26B
330
1E
100
AcDbEntity
  8
0
100
AcDbLine
 10
78.3588
 20
106.759
 30
0.0
 11
71.8786
 21
109.0589999999999
 31
0.0
  0
LINE
  5
26C
330
1E
100
AcDbEntity
  8
0
100
AcDbLine
 10
81.50999999999999
 20
81.5811
 30
0.0
 11
74.62
 21
86.758
 31
0.0
  0
LINE
  5
26D
330
1E
100
AcDbEntity
  8
0
100
AcDbLine
 10
81.864
 20
81.9335
 30
0.0
 11
74.86799999999999
 21
87.18999999999999
 31
0.0
  0
LINE
  5
26E
330
1E
100
AcDbEntity
  8
0
100
AcDbLine
 10
86.71000000000001
 20
74.7217
 30
0.0
 11
81.50999999999999
 21
81.5811
 31
0.0
  0
LINE
  5
26F
330
1E
100
AcDbEntity
  8
0
100
AcDbLine
 10
87.14400000000001
 20
74.96859999999999
 30
0.0
 11
81.864
 21
81.9335
 31
0.0
  0
LINE
  5
270
330
1E
100
AcDbEntity
  8
0
100
AcDbLine
 10
90.27410000000001
 20
100.0699
 30
0.0
 11
84.42099999999999
 21
104.042
 31
0.0
  0
LINE
  5
271
330
1E
100
AcDbEntity
  8
0
100
AcDbLine
 10
94.068
 20
105.0119999999999
 30
0.0
 11
87.51599999999999
 21
109.458
 31
0.0
  0
LINE
  5
272
330
1E
100
AcDbEntity
  8
0
100
AcDbLine
 10
84.42099999999999
 20
104.042
 30
0.0
 11
78.3588
 21
106.759
 31
0.0
  0
LINE
  5
273
330
1E
100
AcDbEntity
  8
0
100
AcDbLine
 10
63.0
 20
91.7059
 30
0.0
 11
63.0
 21
87.7137
 31
0.0
  0
LINE
  5
274
330
1E
100
AcDbEntity
  8
0
100
AcDbLine
 10
63.0
 20
91.72369999999999
 30
0.0
 11
63.0
 21
87.6482
 31
0.0
  0
LINE
  5
275
330
1E
100
AcDbEntity
  8
0
100
AcDbLine
 10
63.0
 20
87.7137
 30
0.0
 11
63.0
 21
91.7059
 31
0.0
  0
LINE
  5
276
330
1E
100
AcDbEntity
  8
0
100
AcDbLine
 10
63.0
 20
87.6482
 30
0.0
 11
63.0
 21
91.72369999999999
 31
0.0
  0
LINE
  5
277
330
1E
100
AcDbEntity
  8
0
100
AcDbLine
 10
66.948
 20
90.3439
 30
0.0
 11
63.0
 21
90.89665738636361
 31
0.0
  0
LINE
  5
278
330
1E
100
AcDbEntity
  8
0
100
AcDbLine
 10
68.916
 20
76.82030000000001
 30
0.0
 11
63.905
 21
79.1337
 31
0.0
  0
LINE
  5
279
330
1E
100
AcDbEntity
  8
0
100
AcDbLine
 10
67.924
 20
75.09199999999999
 30
0.0
 11
63.364
 21
76.90789999999999
 31
0.0
  0
LINE
  5
27A
330
1E
100
AcDbEntity
  8
0
100
AcDbLine
 10
74.62
 20
86.758
 30
0.0
 11
66.81999999999999
 21
89.86409999999999
 31
0.0
  0
LINE
  5
27B
330
1E
100
AcDbEntity
  8
0
100
AcDbLine
 10
74.86799999999999
 20
87.18999999999999
 30
0.0
 11
66.948
 21
90.3439
 31
0.0
  0
LINE
  5
27C
330
1E
100
AcDbEntity
  8
0
100
AcDbLine
 10
73.368
 20
73.4753
 30
0.0
 11
68.916
 21
76.82030000000001
 31
0.0
  0
LINE
  5
27D
330
1E
100
AcDbEntity
  8
0
100
AcDbLine
 10
76.72800000000001
 20
69.043
 30
0.0
 11
73.368
 21
73.4753
 31
0.0
  0
LINE
  5
27E
330
1E
100
AcDbEntity
  8
0
100
AcDbLine
 10
71.95199999999999
 20
72.0655
 30
0.0
 11
67.924
 21
75.09199999999999
 31
0.0
  0
LINE
  5
27F
330
1E
100
AcDbEntity
  8
0
100
AcDbLine
 10
63.905
 20
79.1337
 30
0.0
 11
63.3695
 21
79.9305
 31
0.0
  0
LINE
  5
280
330
1E
100
AcDbEntity
  8
0
100
AcDbLine
 10
63.364
 20
76.90789999999999
 30
0.0
 11
58.5
 21
77.5889
 31
0.0
  0
LINE
  5
281
330
1E
100
AcDbEntity
  8
0
100
AcDbLine
 10
66.81999999999999
 20
89.86409999999999
 30
0.0
 11
63.0
 21
90.39889999999999
 31
0.0
  0
LINE
  5
282
330
1E
100
AcDbEntity
  8
0
100
AcDbLine
 10
63.1071
 20
81.1406
 30
0.0
 11
63.0
 21
82.7658
 31
0.0
  0
LINE
  5
283
330
1E
100
AcDbEntity
  8
0
100
AcDbLine
 10
63.3695
 20
79.9305
 30
0.0
 11
63.1071
 21
81.1406
 31
0.0
  0
LINE
  5
284
330
1E
100
AcDbEntity
  8
0
100
AcDbLine
 10
63.0
 20
85.62299999999998
 30
0.0
 11
63.0
 21
82.7658
 31
0.0
  0
LINE
  5
285
330
1E
100
AcDbEntity
  8
0
100
AcDbLine
 10
63.0
 20
85.67950000000001
 30
0.0
 11
63.0
 21
83.91799999999999
 31
0.0
  0
LINE
  5
286
330
1E
100
AcDbEntity
  8
0
100
AcDbLine
 10
63.0
 20
82.7658
 30
0.0
 11
63.0
 21
85.62299999999998
 31
0.0
  0
LINE
  5
287
330
1E
100
AcDbEntity
  8
0
100
AcDbLine
 10
63.0
 20
83.91799999999999
 30
0.0
 11
63.0
 21
85.67950000000001
 31
0.0
  0
LINE
  5
288
330
1E
100
AcDbEntity
  8
0
100
AcDbLine
 10
63.0
 20
87.7137
 30
0.0
 11
63.0
 21
85.62299999999998
 31
0.0
  0
LINE
  5
289
330
1E
100
AcDbEntity
  8
0
100
AcDbLine
 10
63.0
 20
85.62299999999998
 30
0.0
 11
63.0
 21
87.7137
 31
0.0
  0
LINE
  5
28A
330
1E
100
AcDbEntity
  8
0
100
AcDbLine
 10
63.0
 20
87.6482
 30
0.0
 11
63.0
 21
85.67950000000001
 31
0.0
  0
LINE
  5
28B
330
1E
100
AcDbEntity
  8
0
100
AcDbLine
 10
63.0
 20
85.67950000000001
 30
0.0
 11
63.0
 21
87.6482
 31
0.0
  0
LINE
  5
28C
330
1E
100
AcDbEntity
  8
0
100
AcDbLine
 10
71.8786
 20
109.0589999999999
 30
0.0
 11
65.39830000000001
 21
110.3129999999999
 31
0.0
  0
LINE
  5
28D
330
1E
100
AcDbEntity
  8
0
100
AcDbLine
 10
63.0
 20
103.414
 30
0.0
 11
63.0
 21
98.09730000000001
 31
0.0
  0
LINE
  5
28E
330
1E
100
AcDbEntity
  8
0
100
AcDbLine
 10
63.0
 20
98.09730000000001
 30
0.0
 11
63.0
 21
103.414
 31
0.0
  0
LINE
  5
28F
330
1E
100
AcDbEntity
  8
0
100
AcDbLine
 10
63.0
 20
103.4689999999999
 30
0.0
 11
63.0
 21
98.06910000000002
 31
0.0
  0
LINE
  5
290
330
1E
100
AcDbEntity
  8
0
100
AcDbLine
 10
63.0
 20
98.06910000000002
 30
0.0
 11
63.0
 21
103.4689999999999
 31
0.0
  0
LINE
  5
291
330
1E
100
AcDbEntity
  8
0
100
AcDbLine
 10
63.0
 20
98.09730000000001
 30
0.0
 11
63.0
 21
94.61289999999999
 31
0.0
  0
LINE
  5
292
330
1E
100
AcDbEntity
  8
0
100
AcDbLine
 10
63.0
 20
94.61289999999999
 30
0.0
 11
63.0
 21
98.09730000000001
 31
0.0
  0
LINE
  5
293
330
1E
100
AcDbEntity
  8
0
100
AcDbLine
 10
63.0
 20
94.53990000000001
 30
0.0
 11
63.0
 21
98.06910000000002
 31
0.0
  0
LINE
  5
294
330
1E
100
AcDbEntity
  8
0
100
AcDbLine
 10
63.0
 20
98.06910000000002
 30
0.0
 11
63.0
 21
94.53990000000001
 31
0.0
  0
LINE
  5
295
330
1E
100
AcDbEntity
  8
0
100
AcDbLine
 10
63.0
 20
94.61289999999999
 30
0.0
 11
63.0
 21
91.7059
 31
0.0
  0
LINE
  5
296
330
1E
100
AcDbEntity
  8
0
100
AcDbLine
 10
63.0
 20
91.7059
 30
0.0
 11
63.0
 21
94.61289999999999
 31
0.0
  0
LINE
  5
297
330
1E
100
AcDbEntity
  8
0
100
AcDbLine
 10
63.0
 20
94.53990000000001
 30
0.0
 11
63.0
 21
91.72369999999999
 31
0.0
  0
LINE
  5
298
330
1E
100
AcDbEntity
  8
0
100
AcDbLine
 10
63.0
 20
91.72369999999999
 30
0.0
 11
63.0
 21
94.53990000000001
 31
0.0
  0
LINE
  5
299
330
1E
100
AcDbEntity
  8
0
100
AcDbLine
 10
65.39830000000001
 20
110.3129999999999
 30
0.0
 11
63.0
 21
110.530986185002
 31
0.0
  0
LINE
  5
29A
330
1E
100
AcDbEntity
  8
0
100
AcDbLine
 10
63.0
 20
108.292
 30
0.0
 11
63.0
 21
103.414
 31
0.0
  0
LINE
  5
29B
330
1E
100
AcDbEntity
  8
0
100
AcDbLine
 10
63.0
 20
108.426
 30
0.0
 11
63.0
 21
103.4689999999999
 31
0.0
  0
LINE
  5
29C
330
1E
100
AcDbEntity
  8
0
100
AcDbLine
 10
63.0
 20
103.414
 30
0.0
 11
63.0
 21
108.292
 31
0.0
  0
LINE
  5
29D
330
1E
100
AcDbEntity
  8
0
100
AcDbLine
 10
63.0
 20
103.4689999999999
 30
0.0
 11
63.0
 21
108.426
 31
0.0
  0
LINE
  5
29E
330
1E
100
AcDbEntity
  8
0
100
AcDbLine
 10
80.72999999999998
 20
112.5
 30
0.0
 11
73.47599999999999
 21
115.074
 31
0.0
  0
LINE
  5
29F
330
1E
100
AcDbEntity
  8
0
100
AcDbLine
 10
63.0
 20
134.833
 30
0.0
 11
63.0
 21
130.632
 31
0.0
  0
LINE
  5
2A0
330
1E
100
AcDbEntity
  8
0
100
AcDbLine
 10
63.0
 20
130.632
 30
0.0
 11
63.0
 21
134.833
 31
0.0
  0
LINE
  5
2A1
330
1E
100
AcDbEntity
  8
0
100
AcDbLine
 10
63.0
 20
134.792
 30
0.0
 11
63.0
 21
130.6649999999999
 31
0.0
  0
LINE
  5
2A2
330
1E
100
AcDbEntity
  8
0
100
AcDbLine
 10
63.0
 20
130.6649999999999
 30
0.0
 11
63.0
 21
134.792
 31
0.0
  0
LINE
  5
2A3
330
1E
100
AcDbEntity
  8
0
100
AcDbLine
 10
73.47599999999999
 20
115.074
 30
0.0
 11
66.22200000000001
 21
116.4779999999999
 31
0.0
  0
LINE
  5
2A4
330
1E
100
AcDbEntity
  8
0
100
AcDbLine
 10
63.0
 20
124.9179999999999
 30
0.0
 11
63.0
 21
118.476
 31
0.0
  0
LINE
  5
2A5
330
1E
100
AcDbEntity
  8
0
100
AcDbLine
 10
63.0
 20
118.476
 30
0.0
 11
63.0
 21
124.9179999999999
 31
0.0
  0
LINE
  5
2A6
330
1E
100
AcDbEntity
  8
0
100
AcDbLine
 10
63.0
 20
124.882
 30
0.0
 11
63.0
 21
118.4609999999999
 31
0.0
  0
LINE
  5
2A7
330
1E
100
AcDbEntity
  8
0
100
AcDbLine
 10
63.0
 20
118.4609999999999
 30
0.0
 11
63.0
 21
124.882
 31
0.0
  0
LINE
  5
2A8
330
1E
100
AcDbEntity
  8
0
100
AcDbLine
 10
66.22200000000001
 20
116.4779999999999
 30
0.0
 11
63.0
 21
116.770909090909
 31
0.0
  0
LINE
  5
2A9
330
1E
100
AcDbEntity
  8
0
100
AcDbLine
 10
63.0
 20
118.476
 30
0.0
 11
63.0
 21
113.5279999999999
 31
0.0
  0
LINE
  5
2AA
330
1E
100
AcDbEntity
  8
0
100
AcDbLine
 10
63.0
 20
113.5279999999999
 30
0.0
 11
63.0
 21
118.476
 31
0.0
  0
LINE
  5
2AB
330
1E
100
AcDbEntity
  8
0
100
AcDbLine
 10
63.0
 20
118.4609999999999
 30
0.0
 11
63.0
 21
113.4859999999999
 31
0.0
  0
LINE
  5
2AC
330
1E
100
AcDbEntity
  8
0
100
AcDbLine
 10
63.0
 20
113.4859999999999
 30
0.0
 11
63.0
 21
118.4609999999999
 31
0.0
  0
LINE
  5
2AD
330
1E
100
AcDbEntity
  8
0
100
AcDbLine
 10
63.0
 20
130.632
 30
0.0
 11
63.0
 21
124.9179999999999
 31
0.0
  0
LINE
  5
2AE
330
1E
100
AcDbEntity
  8
0
100
AcDbLine
 10
63.0
 20
130.6649999999999
 30
0.0
 11
63.0
 21
124.882
 31
0.0
  0
LINE
  5
2AF
330
1E
100
AcDbEntity
  8
0
100
AcDbLine
 10
63.0
 20
124.9179999999999
 30
0.0
 11
63.0
 21
130.632
 31
0.0
  0
LINE
  5
2B0
330
1E
100
AcDbEntity
  8
0
100
AcDbLine
 10
63.0
 20
124.882
 30
0.0
 11
63.0
 21
130.6649999999999
 31
0.0
  0
LINE
  5
2B1
330
1E
100
AcDbEntity
  8
0
100
AcDbLine
 10
63.0
 20
136.2779999999999
 30
0.0
 11
63.0
 21
134.833
 31
0.0
  0
LINE
  5
2B2
330
1E
100
AcDbEntity
  8
0
100
AcDbLine
 10
63.0
 20
136.2779999999999
 30
0.0
 11
63.0
 21
134.792
 31
0.0
  0
LINE
  5
2B3
330
1E
100
AcDbEntity
  8
0
100
AcDbLine
 10
63.0
 20
134.833
 30
0.0
 11
63.0
 21
136.2779999999999
 31
0.0
  0
LINE
  5
2B4
330
1E
100
AcDbEntity
  8
0
100
AcDbLine
 10
63.0
 20
134.792
 30
0.0
 11
63.0
 21
136.2779999999999
 31
0.0
  0
LINE
  5
2B5
330
1E
100
AcDbEntity
  8
0
100
AcDbLine
 10
63.0
 20
137.322
 30
0.0
 11
63.0
 21
137.0079999999999
 31
0.0
  0
LINE
  5
2B6
330
1E
100
AcDbEntity
  8
0
100
AcDbLine
 10
63.0
 20
137.322
 30
0.0
 11
62.5
 21
137.8199999999999
 31
0.0
  0
LINE
  5
2B7
330
1E
100
AcDbEntity
  8
0
100
AcDbLine
 10
63.0
 20
137.0079999999999
 30
0.0
 11
63.0
 21
136.6949999999999
 31
0.0
  0
LINE
  5
2B8
330
1E
100
AcDbEntity
  8
0
100
AcDbLine
 10
63.0
 20
137.0079999999999
 30
0.0
 11
63.0
 21
137.322
 31
0.0
  0
LINE
  5
2B9
330
1E
100
AcDbEntity
  8
0
100
AcDbLine
 10
63.0
 20
136.6949999999999
 30
0.0
 11
63.0
 21
136.2779999999999
 31
0.0
  0
LINE
  5
2BA
330
1E
100
AcDbEntity
  8
0
100
AcDbLine
 10
63.0
 20
136.6949999999999
 30
0.0
 11
63.0
 21
137.0079999999999
 31
0.0
  0
LINE
  5
2BB
330
1E
100
AcDbEntity
  8
0
100
AcDbLine
 10
63.0
 20
136.2779999999999
 30
0.0
 11
63.0
 21
136.6949999999999
 31
0.0
  0
ENDSEC
  0
SECTION
  2
OBJECTS
  0
DICTIONARY
  5
C
330
0
100
AcDbDictionary
  3
ACAD_GROUP
350
D
  3
ACAD_LAYOUT
350
19
  3
ACAD_MLINESTYLE
350
16
  3
ACAD_PLOTSETTINGS
350
18
  3
ACAD_PLOTSTYLENAME
350
E
  3
ACDBHEADERROUNDTRIPXREC
350
2C0
  3
ACDBVARIABLEDICTIONARY
350
2BD
  0
DICTIONARY
  5
2E2
330
1E
100
AcDbDictionary
280
     1
  3
ACAD_LAYOUTSELFREF
360
2E3
  0
DICTIONARY
  5
2E0
330
1A
100
AcDbDictionary
280
     1
  3
ACAD_LAYOUTSELFREF
360
2E1
  0
DICTIONARY
  5
D
102
{ACAD_REACTORS
330
C
102
}
330
C
100
AcDbDictionary
  0
DICTIONARY
  5
19
102
{ACAD_REACTORS
330
C
102
}
330
C
100
AcDbDictionary
  0
DICTIONARY
  5
16
102
{ACAD_REACTORS
330
C
102
}
330
C
100
AcDbDictionary
  3
STANDARD
350
17
  0
DICTIONARY
  5
18
102
{ACAD_REACTORS
330
C
102
}
330
C
100
AcDbDictionary
  0
ACDBDICTIONARYWDFLT
  5
E
102
{ACAD_REACTORS
330
C
102
}
330
C
100
AcDbDictionary
281
     1
  3
Normal
350
F
100
AcDbDictionaryWithDefault
340
F
  0
DICTIONARY
  5
2C0
102
{ACAD_REACTORS
330
C
102
}
330
C
100
AcDbDictionary
  3
CEPSNTYPE
350
2CA
  3
FINGERPRINTGUID
350
2CB
  3
HYPERLINKBASE
350
2C3
  3
INSUNITS
350
2C9
  3
LAYOUTDICT
350
2C5
  3
LWETCUNION
350
2C8
  3
PLOTSETDICT
350
2C6
  3
PLOTSTYLNAMDICT
350
2C7
  3
PSVPSCALE
350
2CD
  3
PUCSBASE
350
2D0
  3
PUCSORGBACK
350
2D6
  3
PUCSORGBOTTOM
350
2D2
  3
PUCSORGFRONT
350
2D5
  3
PUCSORGLEFT
350
2D3
  3
PUCSORGRIGHT
350
2D4
  3
PUCSORGTOP
350
2D1
  3
PUCSORTHOREF
350
2CE
  3
PUCSORTHOVIEW
350
2CF
  3
STYLESHEET
350
2C4
  3
TSTACKALIGN
350
2C1
  3
TSTACKSIZE
350
2C2
  3
UCSBASE
350
2D9
  3
UCSORGBACK
350
2DF
  3
UCSORGBOTTOM
350
2DB
  3
UCSORGFRONT
350
2DE
  3
UCSORGLEFT
350
2DC
  3
UCSORGRIGHT
350
2DD
  3
UCSORGTOP
350
2DA
  3
UCSORTHOREF
350
2D7
  3
UCSORTHOVIEW
350
2D8
  3
VERSIONGUID
350
2CC
  0
DICTIONARY
  5
2BD
102
{ACAD_REACTORS
330
C
102
}
330
C
100
AcDbDictionary
  3
DIMASSOC
350
2BE
  0
XRECORD
  5
2E3
102
{ACAD_REACTORS
330
2E2
102
}
330
2E2
100
AcDbXrecord
340
1E
  0
XRECORD
  5
2E1
102
{ACAD_REACTORS
330
2E0
102
}
330
2E0
100
AcDbXrecord
340
1A
  0
MLINESTYLE
  5
17
102
{ACAD_REACTORS
330
16
102
}
330
16
100
AcDbMlineStyle
  2
STANDARD
 70
     0
  3

 62
   256
 51
90.0
 52
90.0
 71
     2
 49
0.5
 62
   256
  6
BYLAYER
 49
-0.5
 62
   256
  6
BYLAYER
  0
ACDBPLACEHOLDER
  5
F
102
{ACAD_REACTORS
330
E
102
}
330
E
100
AcDbPlaceHolder
280
     0
  0
XRECORD
  5
2CA
102
{ACAD_REACTORS
330
2C0
102
}
330
2C0
100
AcDbXrecord
 90
        0
  0
XRECORD
  5
2CB
102
{ACAD_REACTORS
330
2C0
102
}
330
2C0
100
AcDbXrecord
  1
{D532DEC8-DE7A-4D6F-9DCE-DD5B256AC1BB}
  0
XRECORD
  5
2C3
102
{ACAD_REACTORS
330
2C0
102
}
330
2C0
100
AcDbXrecord
  1

  0
XRECORD
  5
2C9
102
{ACAD_REACTORS
330
2C0
102
}
330
2C0
100
AcDbXrecord
 90
        0
  0
XRECORD
  5
2C5
102
{ACAD_REACTORS
330
2C0
102
}
330
2C0
100
AcDbXrecord
340
19
  0
XRECORD
  5
2C8
102
{ACAD_REACTORS
330
2C0
102
}
330
2C0
100
AcDbXrecord
 90
    10781
  0
XRECORD
  5
2C6
102
{ACAD_REACTORS
330
2C0
102
}
330
2C0
100
AcDbXrecord
340
18
  0
XRECORD
  5
2C7
102
{ACAD_REACTORS
330
2C0
102
}
330
2C0
100
AcDbXrecord
340
E
  0
XRECORD
  5
2CD
102
{ACAD_REACTORS
330
2C0
102
}
330
2C0
100
AcDbXrecord
 40
0.0
  0
XRECORD
  5
2D0
102
{ACAD_REACTORS
330
2C0
102
}
330
2C0
100
AcDbXrecord
340
0
  0
XRECORD
  5
2D6
102
{ACAD_REACTORS
330
2C0
102
}
330
2C0
100
AcDbXrecord
 10
0.0
 20
0.0
 30
0.0
  0
XRECORD
  5
2D2
102
{ACAD_REACTORS
330
2C0
102
}
330
2C0
100
AcDbXrecord
 10
0.0
 20
0.0
 30
0.0
  0
XRECORD
  5
2D5
102
{ACAD_REACTORS
330
2C0
102
}
330
2C0
100
AcDbXrecord
 10
0.0
 20
0.0
 30
0.0
  0
XRECORD
  5
2D3
102
{ACAD_REACTORS
330
2C0
102
}
330
2C0
100
AcDbXrecord
 10
0.0
 20
0.0
 30
0.0
  0
XRECORD
  5
2D4
102
{ACAD_REACTORS
330
2C0
102
}
330
2C0
100
AcDbXrecord
 10
0.0
 20
0.0
 30
0.0
  0
XRECORD
  5
2D1
102
{ACAD_REACTORS
330
2C0
102
}
330
2C0
100
AcDbXrecord
 10
0.0
 20
0.0
 30
0.0
  0
XRECORD
  5
2CE
102
{ACAD_REACTORS
330
2C0
102
}
330
2C0
100
AcDbXrecord
340
0
  0
XRECORD
  5
2CF
102
{ACAD_REACTORS
330
2C0
102
}
330
2C0
100
AcDbXrecord
 70
     0
  0
XRECORD
  5
2C4
102
{ACAD_REACTORS
330
2C0
102
}
330
2C0
100
AcDbXrecord
  1

  0
XRECORD
  5
2C1
102
{ACAD_REACTORS
330
2C0
102
}
330
2C0
100
AcDbXrecord
 90
        1
  0
XRECORD
  5
2C2
102
{ACAD_REACTORS
330
2C0
102
}
330
2C0
100
AcDbXrecord
 90
       70
  0
XRECORD
  5
2D9
102
{ACAD_REACTORS
330
2C0
102
}
330
2C0
100
AcDbXrecord
340
0
  0
XRECORD
  5
2DF
102
{ACAD_REACTORS
330
2C0
102
}
330
2C0
100
AcDbXrecord
 10
0.0
 20
0.0
 30
0.0
  0
XRECORD
  5
2DB
102
{ACAD_REACTORS
330
2C0
102
}
330
2C0
100
AcDbXrecord
 10
0.0
 20
0.0
 30
0.0
  0
XRECORD
  5
2DE
102
{ACAD_REACTORS
330
2C0
102
}
330
2C0
100
AcDbXrecord
 10
0.0
 20
0.0
 30
0.0
  0
XRECORD
  5
2DC
102
{ACAD_REACTORS
330
2C0
102
}
330
2C0
100
AcDbXrecord
 10
0.0
 20
0.0
 30
0.0
  0
XRECORD
  5
2DD
102
{ACAD_REACTORS
330
2C0
102
}
330
2C0
100
AcDbXrecord
 10
0.0
 20
0.0
 30
0.0
  0
XRECORD
  5
2DA
102
{ACAD_REACTORS
330
2C0
102
}
330
2C0
100
AcDbXrecord
 10
0.0
 20
0.0
 30
0.0
  0
XRECORD
  5
2D7
102
{ACAD_REACTORS
330
2C0
102
}
330
2C0
100
AcDbXrecord
340
0
  0
XRECORD
  5
2D8
102
{ACAD_REACTORS
330
2C0
102
}
330
2C0
100
AcDbXrecord
 70
     1
  0
XRECORD
  5
2CC
102
{ACAD_REACTORS
330
2C0
102
}
330
2C0
100
AcDbXrecord
  1
{A1B48F29-8E36-4C7C-9784-5311A256CF9E}
  0
DICTIONARYVAR
  5
2BE
102
{ACAD_REACTORS
330
2BD
102
}
330
2BD
100
DictionaryVariables
280
     0
  1
1
  0
ENDSEC
  0
EOF
